ISO-10303-21;
HEADER;
/* Generated by software containing ST-Developer
 * from STEP Tools, Inc. (www.steptools.com) 
 */

FILE_DESCRIPTION(
/* description */ (''),
/* implementation_level */ '2;1');

FILE_NAME(
/* name */ 'Bot Die 3.5 sink basket swaging tin.step',
/* time_stamp */ '2024-06-08T04:49:23-07:00',
/* author */ (''),
/* organization */ (''),
/* preprocessor_version */ 'ST-DEVELOPER v20',
/* originating_system */ 'Autodesk Translation Framework v13.14.0.145',

/* authorisation */ '');

FILE_SCHEMA (('AUTOMOTIVE_DESIGN { 1 0 10303 214 3 1 1 }'));
ENDSEC;

DATA;
#10=MECHANICAL_DESIGN_GEOMETRIC_PRESENTATION_REPRESENTATION('',(#13),#433);
#11=SHAPE_REPRESENTATION_RELATIONSHIP('SRR','None',#443,#12);
#12=ADVANCED_BREP_SHAPE_REPRESENTATION('',(#14),#432);
#13=STYLED_ITEM('',(#453),#14);
#14=MANIFOLD_SOLID_BREP('Body1',#238);
#15=TOROIDAL_SURFACE('',#278,2.51270995731307,0.179999002431534);
#16=TOROIDAL_SURFACE('',#281,2.16992915130497,0.1799983424674);
#17=FACE_BOUND('',#51,.T.);
#18=FACE_BOUND('',#52,.T.);
#19=FACE_BOUND('',#53,.T.);
#20=FACE_BOUND('',#54,.T.);
#21=FACE_BOUND('',#55,.T.);
#22=FACE_BOUND('',#58,.T.);
#23=FACE_BOUND('',#59,.T.);
#24=FACE_BOUND('',#60,.T.);
#25=FACE_BOUND('',#61,.T.);
#26=FACE_BOUND('',#62,.T.);
#27=FACE_BOUND('',#68,.T.);
#28=FACE_BOUND('',#72,.T.);
#29=PLANE('',#259);
#30=PLANE('',#266);
#31=PLANE('',#276);
#32=PLANE('',#284);
#33=CONICAL_SURFACE('',#255,3.15000000006184,0.785398163397622);
#34=FACE_OUTER_BOUND('',#48,.T.);
#35=FACE_OUTER_BOUND('',#49,.T.);
#36=FACE_OUTER_BOUND('',#50,.T.);
#37=FACE_OUTER_BOUND('',#56,.T.);
#38=FACE_OUTER_BOUND('',#57,.T.);
#39=FACE_OUTER_BOUND('',#63,.T.);
#40=FACE_OUTER_BOUND('',#64,.T.);
#41=FACE_OUTER_BOUND('',#65,.T.);
#42=FACE_OUTER_BOUND('',#66,.T.);
#43=FACE_OUTER_BOUND('',#67,.T.);
#44=FACE_OUTER_BOUND('',#69,.T.);
#45=FACE_OUTER_BOUND('',#70,.T.);
#46=FACE_OUTER_BOUND('',#71,.T.);
#47=FACE_OUTER_BOUND('',#73,.T.);
#48=EDGE_LOOP('',(#159,#160,#161,#162));
#49=EDGE_LOOP('',(#163,#164,#165,#166,#167));
#50=EDGE_LOOP('',(#168));
#51=EDGE_LOOP('',(#169));
#52=EDGE_LOOP('',(#170));
#53=EDGE_LOOP('',(#171));
#54=EDGE_LOOP('',(#172));
#55=EDGE_LOOP('',(#173));
#56=EDGE_LOOP('',(#174,#175,#176,#177,#178));
#57=EDGE_LOOP('',(#179));
#58=EDGE_LOOP('',(#180));
#59=EDGE_LOOP('',(#181));
#60=EDGE_LOOP('',(#182));
#61=EDGE_LOOP('',(#183));
#62=EDGE_LOOP('',(#184));
#63=EDGE_LOOP('',(#185,#186,#187,#188));
#64=EDGE_LOOP('',(#189,#190,#191,#192));
#65=EDGE_LOOP('',(#193,#194,#195,#196));
#66=EDGE_LOOP('',(#197,#198,#199,#200));
#67=EDGE_LOOP('',(#201));
#68=EDGE_LOOP('',(#202));
#69=EDGE_LOOP('',(#203,#204,#205,#206));
#70=EDGE_LOOP('',(#207,#208,#209,#210));
#71=EDGE_LOOP('',(#211));
#72=EDGE_LOOP('',(#212));
#73=EDGE_LOOP('',(#213,#214,#215,#216));
#74=LINE('',#372,#82);
#75=LINE('',#380,#83);
#76=LINE('',#394,#84);
#77=LINE('',#407,#85);
#78=LINE('',#409,#86);
#79=LINE('',#411,#87);
#80=LINE('',#413,#88);
#81=LINE('',#429,#89);
#82=VECTOR('',#293,0.375);
#83=VECTOR('',#302,3.15000000006184);
#84=VECTOR('',#319,3.20000000006185);
#85=VECTOR('',#334,0.32);
#86=VECTOR('',#337,0.32);
#87=VECTOR('',#340,0.32);
#88=VECTOR('',#343,0.32);
#89=VECTOR('',#366,1.7);
#90=CIRCLE('',#253,0.375);
#91=CIRCLE('',#254,0.375);
#92=CIRCLE('',#256,3.20000000006185);
#93=CIRCLE('',#257,3.20000000006185);
#94=CIRCLE('',#258,3.10000000006182);
#95=CIRCLE('',#260,0.32);
#96=CIRCLE('',#261,0.32);
#97=CIRCLE('',#262,0.32);
#98=CIRCLE('',#263,0.32);
#99=CIRCLE('',#265,3.20000000006189);
#100=CIRCLE('',#267,1.7);
#101=CIRCLE('',#268,0.32);
#102=CIRCLE('',#269,0.32);
#103=CIRCLE('',#270,0.32);
#104=CIRCLE('',#271,0.32);
#105=CIRCLE('',#277,2.51271011237985);
#106=CIRCLE('',#279,0.179999002431534);
#107=CIRCLE('',#280,2.34131924010756);
#108=CIRCLE('',#282,2.1699289962391);
#109=CIRCLE('',#283,0.1799983424674);
#110=CIRCLE('',#285,1.7);
#111=VERTEX_POINT('',#369);
#112=VERTEX_POINT('',#371);
#113=VERTEX_POINT('',#375);
#114=VERTEX_POINT('',#376);
#115=VERTEX_POINT('',#379);
#116=VERTEX_POINT('',#383);
#117=VERTEX_POINT('',#385);
#118=VERTEX_POINT('',#387);
#119=VERTEX_POINT('',#389);
#120=VERTEX_POINT('',#392);
#121=VERTEX_POINT('',#396);
#122=VERTEX_POINT('',#398);
#123=VERTEX_POINT('',#400);
#124=VERTEX_POINT('',#402);
#125=VERTEX_POINT('',#404);
#126=VERTEX_POINT('',#415);
#127=VERTEX_POINT('',#418);
#128=VERTEX_POINT('',#422);
#129=VERTEX_POINT('',#426);
#130=EDGE_CURVE('',#111,#111,#90,.T.);
#131=EDGE_CURVE('',#111,#112,#74,.T.);
#132=EDGE_CURVE('',#112,#112,#91,.T.);
#133=EDGE_CURVE('',#113,#114,#92,.T.);
#134=EDGE_CURVE('',#114,#113,#93,.T.);
#135=EDGE_CURVE('',#113,#115,#75,.T.);
#136=EDGE_CURVE('',#115,#115,#94,.T.);
#137=EDGE_CURVE('',#116,#116,#95,.T.);
#138=EDGE_CURVE('',#117,#117,#96,.T.);
#139=EDGE_CURVE('',#118,#118,#97,.T.);
#140=EDGE_CURVE('',#119,#119,#98,.T.);
#141=EDGE_CURVE('',#120,#120,#99,.T.);
#142=EDGE_CURVE('',#120,#114,#76,.T.);
#143=EDGE_CURVE('',#121,#121,#100,.T.);
#144=EDGE_CURVE('',#122,#122,#101,.T.);
#145=EDGE_CURVE('',#123,#123,#102,.T.);
#146=EDGE_CURVE('',#124,#124,#103,.T.);
#147=EDGE_CURVE('',#125,#125,#104,.T.);
#148=EDGE_CURVE('',#119,#122,#77,.T.);
#149=EDGE_CURVE('',#118,#123,#78,.T.);
#150=EDGE_CURVE('',#117,#124,#79,.T.);
#151=EDGE_CURVE('',#116,#125,#80,.T.);
#152=EDGE_CURVE('',#126,#126,#105,.T.);
#153=EDGE_CURVE('',#126,#127,#106,.T.);
#154=EDGE_CURVE('',#127,#127,#107,.T.);
#155=EDGE_CURVE('',#128,#128,#108,.T.);
#156=EDGE_CURVE('',#128,#127,#109,.T.);
#157=EDGE_CURVE('',#129,#129,#110,.T.);
#158=EDGE_CURVE('',#121,#129,#81,.T.);
#159=ORIENTED_EDGE('',*,*,#130,.F.);
#160=ORIENTED_EDGE('',*,*,#131,.T.);
#161=ORIENTED_EDGE('',*,*,#132,.F.);
#162=ORIENTED_EDGE('',*,*,#131,.F.);
#163=ORIENTED_EDGE('',*,*,#133,.T.);
#164=ORIENTED_EDGE('',*,*,#134,.T.);
#165=ORIENTED_EDGE('',*,*,#135,.T.);
#166=ORIENTED_EDGE('',*,*,#136,.T.);
#167=ORIENTED_EDGE('',*,*,#135,.F.);
#168=ORIENTED_EDGE('',*,*,#136,.F.);
#169=ORIENTED_EDGE('',*,*,#130,.T.);
#170=ORIENTED_EDGE('',*,*,#137,.T.);
#171=ORIENTED_EDGE('',*,*,#138,.T.);
#172=ORIENTED_EDGE('',*,*,#139,.T.);
#173=ORIENTED_EDGE('',*,*,#140,.T.);
#174=ORIENTED_EDGE('',*,*,#141,.F.);
#175=ORIENTED_EDGE('',*,*,#142,.T.);
#176=ORIENTED_EDGE('',*,*,#133,.F.);
#177=ORIENTED_EDGE('',*,*,#134,.F.);
#178=ORIENTED_EDGE('',*,*,#142,.F.);
#179=ORIENTED_EDGE('',*,*,#143,.F.);
#180=ORIENTED_EDGE('',*,*,#132,.T.);
#181=ORIENTED_EDGE('',*,*,#144,.F.);
#182=ORIENTED_EDGE('',*,*,#145,.F.);
#183=ORIENTED_EDGE('',*,*,#146,.F.);
#184=ORIENTED_EDGE('',*,*,#147,.F.);
#185=ORIENTED_EDGE('',*,*,#140,.F.);
#186=ORIENTED_EDGE('',*,*,#148,.T.);
#187=ORIENTED_EDGE('',*,*,#144,.T.);
#188=ORIENTED_EDGE('',*,*,#148,.F.);
#189=ORIENTED_EDGE('',*,*,#139,.F.);
#190=ORIENTED_EDGE('',*,*,#149,.T.);
#191=ORIENTED_EDGE('',*,*,#145,.T.);
#192=ORIENTED_EDGE('',*,*,#149,.F.);
#193=ORIENTED_EDGE('',*,*,#138,.F.);
#194=ORIENTED_EDGE('',*,*,#150,.T.);
#195=ORIENTED_EDGE('',*,*,#146,.T.);
#196=ORIENTED_EDGE('',*,*,#150,.F.);
#197=ORIENTED_EDGE('',*,*,#137,.F.);
#198=ORIENTED_EDGE('',*,*,#151,.T.);
#199=ORIENTED_EDGE('',*,*,#147,.T.);
#200=ORIENTED_EDGE('',*,*,#151,.F.);
#201=ORIENTED_EDGE('',*,*,#141,.T.);
#202=ORIENTED_EDGE('',*,*,#152,.F.);
#203=ORIENTED_EDGE('',*,*,#152,.T.);
#204=ORIENTED_EDGE('',*,*,#153,.T.);
#205=ORIENTED_EDGE('',*,*,#154,.F.);
#206=ORIENTED_EDGE('',*,*,#153,.F.);
#207=ORIENTED_EDGE('',*,*,#155,.F.);
#208=ORIENTED_EDGE('',*,*,#156,.T.);
#209=ORIENTED_EDGE('',*,*,#154,.T.);
#210=ORIENTED_EDGE('',*,*,#156,.F.);
#211=ORIENTED_EDGE('',*,*,#155,.T.);
#212=ORIENTED_EDGE('',*,*,#157,.F.);
#213=ORIENTED_EDGE('',*,*,#143,.T.);
#214=ORIENTED_EDGE('',*,*,#158,.T.);
#215=ORIENTED_EDGE('',*,*,#157,.T.);
#216=ORIENTED_EDGE('',*,*,#158,.F.);
#217=CYLINDRICAL_SURFACE('',#252,0.375);
#218=CYLINDRICAL_SURFACE('',#264,3.20000000006185);
#219=CYLINDRICAL_SURFACE('',#272,0.32);
#220=CYLINDRICAL_SURFACE('',#273,0.32);
#221=CYLINDRICAL_SURFACE('',#274,0.32);
#222=CYLINDRICAL_SURFACE('',#275,0.32);
#223=CYLINDRICAL_SURFACE('',#286,1.7);
#224=ADVANCED_FACE('',(#34),#217,.F.);
#225=ADVANCED_FACE('',(#35),#33,.T.);
#226=ADVANCED_FACE('',(#36,#17,#18,#19,#20,#21),#29,.T.);
#227=ADVANCED_FACE('',(#37),#218,.T.);
#228=ADVANCED_FACE('',(#38,#22,#23,#24,#25,#26),#30,.T.);
#229=ADVANCED_FACE('',(#39),#219,.F.);
#230=ADVANCED_FACE('',(#40),#220,.F.);
#231=ADVANCED_FACE('',(#41),#221,.F.);
#232=ADVANCED_FACE('',(#42),#222,.F.);
#233=ADVANCED_FACE('',(#43,#27),#31,.T.);
#234=ADVANCED_FACE('',(#44),#15,.F.);
#235=ADVANCED_FACE('',(#45),#16,.T.);
#236=ADVANCED_FACE('',(#46,#28),#32,.T.);
#237=ADVANCED_FACE('',(#47),#223,.T.);
#238=CLOSED_SHELL('',(#224,#225,#226,#227,#228,#229,#230,#231,#232,#233,
#234,#235,#236,#237));
#239=DERIVED_UNIT_ELEMENT(#241,1.);
#240=DERIVED_UNIT_ELEMENT(#437,-3.);
#241=(
MASS_UNIT()
NAMED_UNIT(*)
SI_UNIT(.KILO.,.GRAM.)
);
#242=DERIVED_UNIT((#239,#240));
#243=MEASURE_REPRESENTATION_ITEM('density measure',
POSITIVE_RATIO_MEASURE(7850.),#242);
#244=PROPERTY_DEFINITION_REPRESENTATION(#249,#246);
#245=PROPERTY_DEFINITION_REPRESENTATION(#250,#247);
#246=REPRESENTATION('material name',(#248),#432);
#247=REPRESENTATION('density',(#243),#432);
#248=DESCRIPTIVE_REPRESENTATION_ITEM('Steel','Steel');
#249=PROPERTY_DEFINITION('material property','material name',#445);
#250=PROPERTY_DEFINITION('material property','density of part',#445);
#251=AXIS2_PLACEMENT_3D('',#367,#287,#288);
#252=AXIS2_PLACEMENT_3D('',#368,#289,#290);
#253=AXIS2_PLACEMENT_3D('',#370,#291,#292);
#254=AXIS2_PLACEMENT_3D('',#373,#294,#295);
#255=AXIS2_PLACEMENT_3D('',#374,#296,#297);
#256=AXIS2_PLACEMENT_3D('',#377,#298,#299);
#257=AXIS2_PLACEMENT_3D('',#378,#300,#301);
#258=AXIS2_PLACEMENT_3D('',#381,#303,#304);
#259=AXIS2_PLACEMENT_3D('',#382,#305,#306);
#260=AXIS2_PLACEMENT_3D('',#384,#307,#308);
#261=AXIS2_PLACEMENT_3D('',#386,#309,#310);
#262=AXIS2_PLACEMENT_3D('',#388,#311,#312);
#263=AXIS2_PLACEMENT_3D('',#390,#313,#314);
#264=AXIS2_PLACEMENT_3D('',#391,#315,#316);
#265=AXIS2_PLACEMENT_3D('',#393,#317,#318);
#266=AXIS2_PLACEMENT_3D('',#395,#320,#321);
#267=AXIS2_PLACEMENT_3D('',#397,#322,#323);
#268=AXIS2_PLACEMENT_3D('',#399,#324,#325);
#269=AXIS2_PLACEMENT_3D('',#401,#326,#327);
#270=AXIS2_PLACEMENT_3D('',#403,#328,#329);
#271=AXIS2_PLACEMENT_3D('',#405,#330,#331);
#272=AXIS2_PLACEMENT_3D('',#406,#332,#333);
#273=AXIS2_PLACEMENT_3D('',#408,#335,#336);
#274=AXIS2_PLACEMENT_3D('',#410,#338,#339);
#275=AXIS2_PLACEMENT_3D('',#412,#341,#342);
#276=AXIS2_PLACEMENT_3D('',#414,#344,#345);
#277=AXIS2_PLACEMENT_3D('',#416,#346,#347);
#278=AXIS2_PLACEMENT_3D('',#417,#348,#349);
#279=AXIS2_PLACEMENT_3D('',#419,#350,#351);
#280=AXIS2_PLACEMENT_3D('',#420,#352,#353);
#281=AXIS2_PLACEMENT_3D('',#421,#354,#355);
#282=AXIS2_PLACEMENT_3D('',#423,#356,#357);
#283=AXIS2_PLACEMENT_3D('',#424,#358,#359);
#284=AXIS2_PLACEMENT_3D('',#425,#360,#361);
#285=AXIS2_PLACEMENT_3D('',#427,#362,#363);
#286=AXIS2_PLACEMENT_3D('',#428,#364,#365);
#287=DIRECTION('axis',(0.,0.,1.));
#288=DIRECTION('refdir',(1.,0.,0.));
#289=DIRECTION('center_axis',(0.,0.,-1.));
#290=DIRECTION('ref_axis',(-1.,0.,0.));
#291=DIRECTION('center_axis',(0.,3.06161867241384E-16,-1.));
#292=DIRECTION('ref_axis',(-1.,0.,0.));
#293=DIRECTION('',(0.,0.,-1.));
#294=DIRECTION('center_axis',(0.,-3.06161867241384E-16,1.));
#295=DIRECTION('ref_axis',(-1.,0.,0.));
#296=DIRECTION('center_axis',(0.,3.06161867241384E-16,-1.));
#297=DIRECTION('ref_axis',(0.,-1.,-3.04749454199962E-16));
#298=DIRECTION('center_axis',(0.,-3.06161867241384E-16,1.));
#299=DIRECTION('ref_axis',(0.,-1.,-3.03381179066083E-16));
#300=DIRECTION('center_axis',(0.,-3.06161867241384E-16,1.));
#301=DIRECTION('ref_axis',(0.,-1.,-3.03381179066083E-16));
#302=DIRECTION('',(-8.65956056235644E-17,-0.707106781186671,0.707106781186424));
#303=DIRECTION('center_axis',(0.,3.06161867241384E-16,-1.));
#304=DIRECTION('ref_axis',(0.,-1.,-3.06161867241384E-16));
#305=DIRECTION('center_axis',(0.,-3.06161867241384E-16,1.));
#306=DIRECTION('ref_axis',(1.,0.,0.));
#307=DIRECTION('center_axis',(0.,3.06161867241384E-16,-1.));
#308=DIRECTION('ref_axis',(-1.,0.,0.));
#309=DIRECTION('center_axis',(0.,3.06161867241384E-16,-1.));
#310=DIRECTION('ref_axis',(-1.,0.,0.));
#311=DIRECTION('center_axis',(0.,3.06161867241384E-16,-1.));
#312=DIRECTION('ref_axis',(-1.,0.,0.));
#313=DIRECTION('center_axis',(0.,3.06161867241384E-16,-1.));
#314=DIRECTION('ref_axis',(-1.,0.,0.));
#315=DIRECTION('center_axis',(0.,3.06161867241384E-16,-1.));
#316=DIRECTION('ref_axis',(0.,1.,3.03381179066083E-16));
#317=DIRECTION('center_axis',(0.,3.06161867241384E-16,-1.));
#318=DIRECTION('ref_axis',(1.,0.,0.));
#319=DIRECTION('',(0.,-3.06161867241384E-16,1.));
#320=DIRECTION('center_axis',(0.,3.06161867241384E-16,-1.));
#321=DIRECTION('ref_axis',(-1.,0.,0.));
#322=DIRECTION('center_axis',(0.,-3.06161867241384E-16,1.));
#323=DIRECTION('ref_axis',(0.,1.,3.03381179066083E-16));
#324=DIRECTION('center_axis',(0.,3.06161867241384E-16,-1.));
#325=DIRECTION('ref_axis',(-1.,0.,0.));
#326=DIRECTION('center_axis',(0.,3.06161867241384E-16,-1.));
#327=DIRECTION('ref_axis',(-1.,0.,0.));
#328=DIRECTION('center_axis',(0.,3.06161867241384E-16,-1.));
#329=DIRECTION('ref_axis',(-1.,0.,0.));
#330=DIRECTION('center_axis',(0.,3.06161867241384E-16,-1.));
#331=DIRECTION('ref_axis',(-1.,0.,0.));
#332=DIRECTION('center_axis',(0.,2.44929359834071E-16,-1.));
#333=DIRECTION('ref_axis',(-1.,0.,0.));
#334=DIRECTION('',(0.,2.44929359834071E-16,-1.));
#335=DIRECTION('center_axis',(0.,2.66928511439824E-16,-1.));
#336=DIRECTION('ref_axis',(-1.,0.,0.));
#337=DIRECTION('',(0.,2.66928511439824E-16,-1.));
#338=DIRECTION('center_axis',(0.,2.66928511439824E-16,-1.));
#339=DIRECTION('ref_axis',(-1.,0.,0.));
#340=DIRECTION('',(0.,2.66928511439824E-16,-1.));
#341=DIRECTION('center_axis',(0.,2.44929359834071E-16,-1.));
#342=DIRECTION('ref_axis',(-1.,0.,0.));
#343=DIRECTION('',(0.,2.44929359834071E-16,-1.));
#344=DIRECTION('center_axis',(0.,3.06161867241384E-16,-1.));
#345=DIRECTION('ref_axis',(-1.,0.,0.));
#346=DIRECTION('center_axis',(0.,3.06161867241384E-16,-1.));
#347=DIRECTION('ref_axis',(1.,0.,0.));
#348=DIRECTION('center_axis',(0.,3.06161867241384E-16,-1.));
#349=DIRECTION('ref_axis',(-1.,0.,0.));
#350=DIRECTION('center_axis',(-1.22464679914735E-16,-1.,-3.06161867241384E-16));
#351=DIRECTION('ref_axis',(1.,-1.22464679914735E-16,0.));
#352=DIRECTION('center_axis',(0.,3.06161867241384E-16,-1.));
#353=DIRECTION('ref_axis',(1.,0.,0.));
#354=DIRECTION('center_axis',(0.,3.06161867241384E-16,-1.));
#355=DIRECTION('ref_axis',(-1.,0.,0.));
#356=DIRECTION('center_axis',(0.,3.06161867241384E-16,-1.));
#357=DIRECTION('ref_axis',(1.,0.,0.));
#358=DIRECTION('center_axis',(-1.22464679914735E-16,-1.,-3.06161867241384E-16));
#359=DIRECTION('ref_axis',(1.,-1.22464679914735E-16,0.));
#360=DIRECTION('center_axis',(0.,3.06161867241384E-16,-1.));
#361=DIRECTION('ref_axis',(-1.,0.,0.));
#362=DIRECTION('center_axis',(0.,3.06161867241384E-16,-1.));
#363=DIRECTION('ref_axis',(1.,0.,0.));
#364=DIRECTION('center_axis',(0.,3.06161867241384E-16,-1.));
#365=DIRECTION('ref_axis',(0.,1.,3.03381179066083E-16));
#366=DIRECTION('',(0.,-3.06161867241384E-16,1.));
#367=CARTESIAN_POINT('',(0.,0.,0.));
#368=CARTESIAN_POINT('Origin',(0.,-8.86292145271595E-23,0.485000361873982));
#369=CARTESIAN_POINT('',(0.375,4.59241663388112E-17,0.485000361873982));
#370=CARTESIAN_POINT('Origin',(0.,-8.86292145271595E-23,0.485000361873983));
#371=CARTESIAN_POINT('',(0.375,4.59241663388112E-17,0.03));
#372=CARTESIAN_POINT('',(0.375,-4.59243435972403E-17,0.485000361873982));
#373=CARTESIAN_POINT('Origin',(0.,-8.86292145271595E-23,0.03));
#374=CARTESIAN_POINT('Origin',(0.,-1.33180523042016E-16,0.435000361873982));
#375=CARTESIAN_POINT('',(-3.91886975734728E-16,3.20000000006185,0.385000361873983));
#376=CARTESIAN_POINT('',(-3.91886975734728E-16,-3.20000000006185,0.385000361873981));
#377=CARTESIAN_POINT('Origin',(0.,-1.17872429679947E-16,0.385000361873982));
#378=CARTESIAN_POINT('Origin',(0.,-1.17872429679947E-16,0.385000361873982));
#379=CARTESIAN_POINT('',(3.7964050774325E-16,3.10000000006182,0.485000361873983));
#380=CARTESIAN_POINT('',(3.85763741738989E-16,3.15000000006184,0.435000361873983));
#381=CARTESIAN_POINT('Origin',(0.,-1.48488616404085E-16,0.485000361873982));
#382=CARTESIAN_POINT('Origin',(0.,3.20000000006182,0.485000361873983));
#383=CARTESIAN_POINT('',(1.66623351746774,-3.26963637786738E-16,0.485000361873982));
#384=CARTESIAN_POINT('Origin',(1.34623351746774,-3.66152335359453E-16,0.485000361873982));
#385=CARTESIAN_POINT('',(0.32,1.34623351746774,0.485000361873982));
#386=CARTESIAN_POINT('Origin',(0.,1.34623351746774,0.485000361873982));
#387=CARTESIAN_POINT('',(0.32,-1.34623351746774,0.485000361873981));
#388=CARTESIAN_POINT('Origin',(-1.65683697599113E-16,-1.34623351746774,
0.485000361873981));
#389=CARTESIAN_POINT('',(-1.02623351746774,3.23969606181095E-18,0.485000361873982));
#390=CARTESIAN_POINT('Origin',(-1.34623351746774,-3.59490015109044E-17,
0.485000361873982));
#391=CARTESIAN_POINT('Origin',(0.,-1.31649713705809E-16,0.430000361873982));
#392=CARTESIAN_POINT('',(-3.91886975734728E-16,-3.20000000006185,0.375000361873981));
#393=CARTESIAN_POINT('Origin',(0.,-1.14810811007533E-16,0.375000361873982));
#394=CARTESIAN_POINT('',(-3.91886975734728E-16,-3.20000000006185,0.430000361873981));
#395=CARTESIAN_POINT('Origin',(0.,-9.18485601724153E-18,0.03));
#396=CARTESIAN_POINT('',(-2.0818995585505E-16,-1.7,0.0299999999999995));
#397=CARTESIAN_POINT('Origin',(0.,-9.18485601724152E-18,0.03));
#398=CARTESIAN_POINT('',(-1.02623351746774,1.12845668197656E-16,0.03));
#399=CARTESIAN_POINT('Origin',(-1.34623351746774,7.54939458471604E-17,0.03));
#400=CARTESIAN_POINT('',(0.32,-1.34623351746774,0.0299999999999996));
#401=CARTESIAN_POINT('Origin',(-1.65683697599113E-16,-1.34623351746774,
0.0299999999999997));
#402=CARTESIAN_POINT('',(0.32,1.34623351746774,0.0300000000000003));
#403=CARTESIAN_POINT('Origin',(0.,1.34623351746774,0.0300000000000004));
#404=CARTESIAN_POINT('',(1.66623351746774,-2.17357665650893E-16,0.03));
#405=CARTESIAN_POINT('Origin',(1.34623351746774,-2.54709388001389E-16,0.03));
#406=CARTESIAN_POINT('Origin',(-1.34623351746774,-3.59490015109044E-17,
0.485000361873982));
#407=CARTESIAN_POINT('',(-1.02623351746774,-7.51376990836197E-17,0.485000361873982));
#408=CARTESIAN_POINT('Origin',(-1.65683697599113E-16,-1.34623351746774,
0.485000361873981));
#409=CARTESIAN_POINT('',(0.32,-1.34623351746774,0.485000361873981));
#410=CARTESIAN_POINT('Origin',(0.,1.34623351746774,0.485000361873982));
#411=CARTESIAN_POINT('',(0.32,1.34623351746774,0.485000361873982));
#412=CARTESIAN_POINT('Origin',(1.34623351746774,-3.66152335359453E-16,0.485000361873982));
#413=CARTESIAN_POINT('',(1.66623351746774,-4.05341032932169E-16,0.485000361873982));
#414=CARTESIAN_POINT('Origin',(0.,2.51271011237985,0.375000361873983));
#415=CARTESIAN_POINT('',(2.51271011237985,-4.2252905063865E-16,0.375000361873982));
#416=CARTESIAN_POINT('Origin',(0.,-1.14810811007533E-16,0.375000361873982));
#417=CARTESIAN_POINT('Origin',(0.,-5.97019803215285E-17,0.195001359442514));
#418=CARTESIAN_POINT('',(2.34131924010756,-3.6326941283387E-16,0.250000113356834));
#419=CARTESIAN_POINT('Origin',(2.51270995731307,-3.67420200962442E-16,0.195001359442514));
#420=CARTESIAN_POINT('Origin',(0.,-7.65405015158862E-17,0.250000113356834));
#421=CARTESIAN_POINT('Origin',(0.,-9.33789609719809E-17,0.304998665618795));
#422=CARTESIAN_POINT('',(2.1699289962391,-3.04009992336222E-16,0.125000323256862));
#423=CARTESIAN_POINT('Origin',(0.,-3.82703323740974E-17,0.125000323256862));
#424=CARTESIAN_POINT('Origin',(2.16992915130497,-3.59118639924197E-16,0.304998665618795));
#425=CARTESIAN_POINT('Origin',(0.,1.7,0.125));
#426=CARTESIAN_POINT('',(-2.0818995585505E-16,-1.7,0.124999999999999));
#427=CARTESIAN_POINT('Origin',(0.,-3.82702334051729E-17,0.124999999999999));
#428=CARTESIAN_POINT('Origin',(0.,-1.91351167025864E-17,0.0624999999999995));
#429=CARTESIAN_POINT('',(-2.0818995585505E-16,-1.7,0.062499999999999));
#430=UNCERTAINTY_MEASURE_WITH_UNIT(LENGTH_MEASURE(0.000393700787401575),
#435,'DISTANCE_ACCURACY_VALUE',
'Maximum model space distance between geometric entities at asserted c
onnectivities');
#431=UNCERTAINTY_MEASURE_WITH_UNIT(LENGTH_MEASURE(0.000393700787401575),
#435,'DISTANCE_ACCURACY_VALUE',
'Maximum model space distance between geometric entities at asserted c
onnectivities');
#432=(
GEOMETRIC_REPRESENTATION_CONTEXT(3)
GLOBAL_UNCERTAINTY_ASSIGNED_CONTEXT((#430))
GLOBAL_UNIT_ASSIGNED_CONTEXT((#435,#439,#440))
REPRESENTATION_CONTEXT('','3D')
);
#433=(
GEOMETRIC_REPRESENTATION_CONTEXT(3)
GLOBAL_UNCERTAINTY_ASSIGNED_CONTEXT((#431))
GLOBAL_UNIT_ASSIGNED_CONTEXT((#435,#439,#440))
REPRESENTATION_CONTEXT('','3D')
);
#434=DIMENSIONAL_EXPONENTS(1.,0.,0.,0.,0.,0.,0.);
#435=(
CONVERSION_BASED_UNIT('inch',#438)
LENGTH_UNIT()
NAMED_UNIT(#434)
);
#436=(
LENGTH_UNIT()
NAMED_UNIT(*)
SI_UNIT(.MILLI.,.METRE.)
);
#437=(
LENGTH_UNIT()
NAMED_UNIT(*)
SI_UNIT($,.METRE.)
);
#438=LENGTH_MEASURE_WITH_UNIT(LENGTH_MEASURE(25.4),#436);
#439=(
NAMED_UNIT(*)
PLANE_ANGLE_UNIT()
SI_UNIT($,.RADIAN.)
);
#440=(
NAMED_UNIT(*)
SI_UNIT($,.STERADIAN.)
SOLID_ANGLE_UNIT()
);
#441=SHAPE_DEFINITION_REPRESENTATION(#442,#443);
#442=PRODUCT_DEFINITION_SHAPE('',$,#445);
#443=SHAPE_REPRESENTATION('',(#251),#432);
#444=PRODUCT_DEFINITION_CONTEXT('part definition',#449,'design');
#445=PRODUCT_DEFINITION('(Unsaved)','(Unsaved)',#446,#444);
#446=PRODUCT_DEFINITION_FORMATION('',$,#451);
#447=PRODUCT_RELATED_PRODUCT_CATEGORY('(Unsaved)','(Unsaved)',(#451));
#448=APPLICATION_PROTOCOL_DEFINITION('international standard',
'automotive_design',2009,#449);
#449=APPLICATION_CONTEXT(
'Core Data for Automotive Mechanical Design Process');
#450=PRODUCT_CONTEXT('part definition',#449,'mechanical');
#451=PRODUCT('(Unsaved)','(Unsaved)',$,(#450));
#452=PRESENTATION_STYLE_ASSIGNMENT((#454));
#453=PRESENTATION_STYLE_ASSIGNMENT((#455));
#454=SURFACE_STYLE_USAGE(.BOTH.,#456);
#455=SURFACE_STYLE_USAGE(.BOTH.,#457);
#456=SURFACE_SIDE_STYLE('',(#458));
#457=SURFACE_SIDE_STYLE('',(#459));
#458=SURFACE_STYLE_FILL_AREA(#460);
#459=SURFACE_STYLE_FILL_AREA(#461);
#460=FILL_AREA_STYLE('Steel - Satin',(#462));
#461=FILL_AREA_STYLE('ABS (White)',(#463));
#462=FILL_AREA_STYLE_COLOUR('Steel - Satin',#464);
#463=FILL_AREA_STYLE_COLOUR('ABS (White)',#465);
#464=COLOUR_RGB('Steel - Satin',0.627450980392157,0.627450980392157,0.627450980392157);
#465=COLOUR_RGB('ABS (White)',0.137254901960784,0.780392156862745,0.96078431372549);
ENDSEC;
END-ISO-10303-21;
