0
SECTION
2
HEADER
9
$INSUNITS
70
1
9
$ACADVER
1
AC1014
9
$HANDSEED
5
FFFF
0
ENDSEC
0
SECTION
2
TABLES
0
TABLE
2
VPORT
5
8
100
AcDbSymbolTable
0
ENDTAB
0
TABLE
2
LTYPE
5
5
100
AcDbSymbolTable
0
LTYPE
5
14
100
AcDbSymbolTableRecord
100
AcDbLinetypeTableRecord
2
BYBLOCK
70
0
0
LTYPE
5
15
100
AcDbSymbolTableRecord
100
AcDbLinetypeTableRecord
2
BYLAYER
70
0
0
ENDTAB
0
TABLE
2
LAYER
5
2
100
AcDbSymbolTable
70
2
0
LAYER
5
50
100
AcDbSymbolTableRecord
100
AcDbLayerTableRecord
2
0
70
0
6
CONTINUOUS
0
ENDTAB
0
TABLE
2
STYLE
5
3
100
AcDbSymbolTable
70
1
0
STYLE
5
11
100
AcDbSymbolTableRecord
100
AcDbTextStyleTableRecord
2
STANDARD
70
0
0
ENDTAB
0
TABLE
2
VIEW
5
6
100
AcDbSymbolTable
70
0
0
ENDTAB
0
TABLE
2
UCS
5
7
100
AcDbSymbolTable
70
0
0
ENDTAB
0
TABLE
2
APPID
5
9
100
AcDbSymbolTable
70
2
0
APPID
5
12
100
AcDbSymbolTableRecord
100
AcDbRegAppTableRecord
2
ACAD
70
0
0
ENDTAB
0
TABLE
2
DIMSTYLE
5
A
100
AcDbSymbolTable
70
1
0
ENDTAB
0
TABLE
2
BLOCK_RECORD
5
1
100
AcDbSymbolTable
70
1
0
BLOCK_RECORD
5
1F
100
AcDbSymbolTableRecord
100
AcDbBlockTableRecord
2
*MODEL_SPACE
0
BLOCK_RECORD
5
1B
100
AcDbSymbolTableRecord
100
AcDbBlockTableRecord
2
*PAPER_SPACE
0
ENDTAB
0
ENDSEC
0
SECTION
2
BLOCKS
0
BLOCK
5
20
100
AcDbEntity
100
AcDbBlockBegin
2
*MODEL_SPACE
0
ENDBLK
5
21
100
AcDbEntity
100
AcDbBlockEnd
0
BLOCK
5
1C
100
AcDbEntity
100
AcDbBlockBegin
2
*PAPER_SPACE
0
ENDBLK
5
1D
100
AcDbEntity
100
AcDbBlockEnd
0
ENDSEC
0
SECTION
2
ENTITIES
0
LINE
5
100
100
AcDbEntity
8
0
100
AcDbLine
10
-3.4899999578226737
20
0.7499999909361047
30
0
11
3.3199999598771566
21
0.7499999909361047
31
0
0
LINE
5
101
100
AcDbEntity
8
0
100
AcDbLine
10
-0.29599263377000573
20
-1.5075084881162419
30
0
11
2.8199999659197537
21
-1.5075084881162419
31
0
0
CIRCLE
5
102
100
AcDbEntity
8
0
100
AcDbCircle
10
-2.6215794704995075
20
0.00024814854398174882
30
0
40
0.39250000000000002
210
0
220
0
230
1
0
CIRCLE
5
103
100
AcDbEntity
8
0
100
AcDbCircle
10
-2.6215794704995075
20
0.00024814854398174882
30
0
40
1.4986630448160352
210
0
220
0
230
1
0
CIRCLE
5
104
100
AcDbEntity
8
0
100
AcDbCircle
10
-2.3592542451647289
20
-1.4752776553816316
30
0
40
0.24999999999999986
210
0
220
0
230
1
0
LINE
5
105
100
AcDbEntity
8
0
100
AcDbLine
10
-3.324153045256498
20
0.00024814854398174882
30
0
11
4.6000001468057707
21
0
31
0
0
CIRCLE
5
106
100
AcDbEntity
8
0
100
AcDbCircle
10
3.3224699770178918
20
4.0006451647499534e-05
30
0
40
0.3924999999999999
210
0
220
0
230
1
0
LINE
5
107
100
AcDbEntity
8
0
100
AcDbLine
10
4.0717784352288913
20
1.6541508657183969e-05
30
0
11
2.2767784361090322
21
7.2752768766973783e-05
31
0
0
LINE
5
108
100
AcDbEntity
8
0
100
AcDbLine
10
2.2767784361090322
20
1.0914724536727314
30
0
11
2.2767784361090322
21
-1.7000000542543063
31
0
0
LINE
5
109
100
AcDbEntity
8
0
100
AcDbLine
10
3.3224699770178918
20
4.0006451647499534e-05
30
0
11
2.2767784361090322
21
7.2752768766973783e-05
31
0
0
LINE
5
110
100
AcDbEntity
8
0
100
AcDbLine
10
-2.6215794704995075
20
0.00024814854398174882
30
0
11
-1.5755794726557175
21
0.00021539256738984533
31
0
0
LINE
5
111
100
AcDbEntity
8
0
100
AcDbLine
10
-1.5755794726557175
20
0.99127734477426299
30
0
11
-1.5755794726557175
21
-2.2642260093880293
31
0
0
SPLINE
5
112
100
AcDbEntity
8
0
100
AcDbSpline
70
4
71
5
72
26
73
20
74
0
42
0.000000001
43
0.0000000001
44
0.0000000001
40
0
40
0
40
0
40
0
40
0
40
0
40
0.066666666666666666
40
0.13333333333333333
40
0.20000000000000001
40
0.26666666666666666
40
0.33333333333333331
40
0.39999999999999997
40
0.46666666666666662
40
0.53333333333333333
40
0.59999999999999998
40
0.66666666666666663
40
0.73333333333333328
40
0.79999999999999993
40
0.86666666666666659
40
0.93333333333333324
40
1
40
1
40
1
40
1
40
1
40
1
41
1
41
1
41
1
41
1
41
1
41
1
41
1
41
1
41
1
41
1
41
1
41
1
41
1
41
1
41
1
41
1
41
1
41
1
41
1
41
1
10
-3.8291505275432645
20
0.31797156982102492
30
0
10
-3.825665267033989
20
0.33023866305539773
30
0
10
-3.8186608150707646
20
0.35435503197793078
30
0
10
-3.8080523456600059
20
0.38927613516631282
30
0
10
-3.7937026457707157
20
0.43331246278826779
30
0
10
-3.7754061339809026
20
0.48402940757712798
30
0
10
-3.756712709141687
20
0.53025056953347716
30
0
10
-3.7375596730842893
20
0.57179542026197738
30
0
10
-3.7178535874694618
20
0.60852062356215775
30
0
10
-3.6974669669073195
20
0.64037033634131113
30
0
10
-3.6762311899043416
20
0.66747123708255862
30
0
10
-3.653949850307002
20
0.69010857954076676
30
0
10
-3.6304266036111876
20
0.70863605857463829
30
0
10
-3.6054896871625175
20
0.72342364689360072
30
0
10
-3.5790269219134903
20
0.7348037803256029
30
0
10
-3.5510091992015869
20
0.7430360834636035
30
0
10
-3.5273612206417879
20
0.74724953528213267
30
0
10
-3.5089437232761318
20
0.74912190945425716
30
0
10
-3.4963646665334394
20
0.74980199237035194
30
0
10
-3.4899999578226737
20
0.7499999909361047
30
0
0
LINE
5
113
100
AcDbEntity
8
0
100
AcDbLine
10
-0.776037245887092
20
-2.0099999757087605
30
0
11
-0.4968004159223528
21
-1.6032170015426401
31
0
0
SPLINE
5
114
100
AcDbEntity
8
0
100
AcDbSpline
70
4
71
5
72
21
73
15
74
0
42
0.000000001
43
0.0000000001
44
0.0000000001
40
0
40
0
40
0
40
0
40
0
40
0
40
0.10000000000000001
40
0.20000000000000001
40
0.30000000000000004
40
0.40000000000000002
40
0.5
40
0.59999999999999998
40
0.69999999999999996
40
0.79999999999999993
40
0.89999999999999991
40
1
40
1
40
1
40
1
40
1
40
1
41
1
41
1
41
1
41
1
41
1
41
1
41
1
41
1
41
1
41
1
41
1
41
1
41
1
41
1
41
1
10
-0.4968004159223528
20
-1.6032170015426401
30
0
10
-0.49378558266234557
20
-1.5993612061466149
30
0
10
-0.48766830036848363
20
-1.5918195076799655
30
0
10
-0.47822953679874408
20
-1.5810166230093126
30
0
10
-0.46511012784884737
20
-1.5676489932227451
30
0
10
-0.44775991741659155
20
-1.5527834045324536
30
0
10
-0.42937435306716798
20
-1.5399254301885097
30
0
10
-0.40986984972189322
20
-1.5292371467524004
30
0
10
-0.38920243828000933
20
-1.5208038129899879
30
0
10
-0.36742012749691416
20
-1.5145323369984045
30
0
10
-0.34460786935642657
20
-1.5102579917033574
30
0
10
-0.32560212087476514
20
-1.5083043330167585
30
0
10
-0.31094967877044027
20
-1.5076110887767178
30
0
10
-0.30100732607772662
20
-1.5074864349356247
30
0
10
-0.29599263377000573
20
-1.5075084881162419
30
0
0
LINE
5
115
100
AcDbEntity
8
0
100
AcDbLine
10
4.0699999508132612
20
0.019999999758296125
30
0
11
4.069990340116334
21
-0.28689938199224996
31
0
0
SPLINE
5
116
100
AcDbEntity
8
0
100
AcDbSpline
70
4
71
5
72
26
73
20
74
0
42
0.000000001
43
0.0000000001
44
0.0000000001
40
0
40
0
40
0
40
0
40
0
40
0
40
0.066666666666666666
40
0.13333333333333333
40
0.20000000000000001
40
0.26666666666666666
40
0.33333333333333331
40
0.39999999999999997
40
0.46666666666666662
40
0.53333333333333333
40
0.59999999999999998
40
0.66666666666666663
40
0.73333333333333328
40
0.79999999999999993
40
0.86666666666666659
40
0.93333333333333324
40
1
40
1
40
1
40
1
40
1
40
1
41
1
41
1
41
1
41
1
41
1
41
1
41
1
41
1
41
1
41
1
41
1
41
1
41
1
41
1
41
1
41
1
41
1
41
1
41
1
41
1
10
3.3199999598771566
20
0.7499999909361047
30
0
10
3.3349561201874165
20
0.75073881703624967
30
0
10
3.364800631230501
20
0.75135851438990975
30
0
10
3.4093639777557616
20
0.74971419716428001
30
0
10
3.4683719057593065
20
0.74233661476449841
30
0
10
3.5413549090756207
20
0.72429529363952061
30
0
10
3.6133079135902451
20
0.69729946312412572
30
0
10
3.6837474541586661
20
0.66139845916186979
30
0
10
3.7518784147686874
20
0.6170095876350592
30
0
10
3.8165316327001175
20
0.5650894147844322
30
0
10
3.8763327221555781
20
0.50689848869647192
30
0
10
3.9298536638582116
20
0.44382675691207935
30
0
10
3.9757904004343687
20
0.3772201864336584
30
0
10
4.0131361355754134
20
0.30823385182844981
30
0
10
4.0414316625912612
20
0.23766181525966815
30
0
10
4.0606103256027453
20
0.16598670292846876
30
0
10
4.0687624289547335
20
0.10796787957534693
30
0
10
4.0709118815546432
20
0.064114782383605018
30
0
10
4.0705954872426204
20
0.034729851014568998
30
0
10
4.0699999508132612
20
0.019999999758296125
30
0
0
SPLINE
5
117
100
AcDbEntity
8
0
100
AcDbSpline
70
4
71
5
72
26
73
20
74
0
42
0.000000001
43
0.0000000001
44
0.0000000001
40
0
40
0
40
0
40
0
40
0
40
0
40
0.066666666666666666
40
0.13333333333333333
40
0.20000000000000001
40
0.26666666666666666
40
0.33333333333333331
40
0.39999999999999997
40
0.46666666666666662
40
0.53333333333333333
40
0.59999999999999998
40
0.66666666666666663
40
0.73333333333333328
40
0.79999999999999993
40
0.86666666666666659
40
0.93333333333333324
40
1
40
1
40
1
40
1
40
1
40
1
41
1
41
1
41
1
41
1
41
1
41
1
41
1
41
1
41
1
41
1
41
1
41
1
41
1
41
1
41
1
41
1
41
1
41
1
41
1
41
1
10
2.8199999659197537
20
-1.5075084881162419
30
0
10
2.8447517228624086
20
-1.506661961534808
30
0
10
2.8940343998984281
20
-1.5039548575287416
30
0
10
2.967295928940854
20
-1.4968520449745502
30
0
10
3.0636431618047832
20
-1.4812531237954092
30
0
10
3.1816986674220842
20
-1.4512723372243657
30
0
10
3.2970101196759312
20
-1.4104744949934553
30
0
10
3.4089287110581132
20
-1.3585623918851104
30
0
10
3.5164302568330474
20
-1.2954326975244144
30
0
10
3.6180844188452155
20
-1.2212940527767306
30
0
10
3.7122679340060767
20
-1.1365258100027735
30
0
10
3.797363150073672
20
-1.041612004436212
30
0
10
3.8719640295612141
20
-0.93708315345867588
30
0
10
3.93516339545535
20
-0.82350096788648697
30
0
10
3.9866943366437413
20
-0.70143456152590655
30
0
10
4.0266331596445815
20
-0.57138306921107529
30
0
10
4.0495106210498939
20
-0.46126214738640958
30
0
10
4.061677404159977
20
-0.37535943379705794
30
0
10
4.0675863997852932
20
-0.31662962373797932
30
0
10
4.069990340116334
20
-0.28689938199224996
30
0
0
LWPOLYLINE
5
118
100
AcDbEntity
8
0
100
AcDbPolyline
90
4
70
1
43
0.0
10
-3.8513074161446115
20
-0.21638190290023668
42
0.29141408051812839
10
-2.9452153021352792
20
-1.205744906150235
42
-0.99999999999999989
10
-3.0748082427526042
20
-1.6886586352387292
42
-0.29141408051812834
10
-4.3437252675275273
20
-0.30312669893684574
42
-0.9999999925494194
0
ARC
5
119
100
AcDbEntity
8
0
100
AcDbCircle
10
-3.0100117724439417
20
-1.4472017706944817
30
0
40
0.25000000000000022
210
0
220
0
230
1
100
AcDbArc
50
-105.02176071039742
51
74.978239289602612
0
ARC
5
120
100
AcDbEntity
8
0
100
AcDbCircle
10
-2.6215794704994906
20
0.00024814854399029949
30
0
40
1.4986630448160534
210
0
220
0
230
1
100
AcDbArc
50
189.99077410202582
51
254.97823928960264
0
ARC
5
121
100
AcDbEntity
8
0
100
AcDbCircle
10
-4.0975163415129199
20
-0.25975430275294065
30
0
40
0.24999999999999997
210
0
220
-0
230
1
100
AcDbArc
50
9.9907741020258136
51
189.9907741020258
0
SPLINE
5
122
100
AcDbEntity
8
0
100
AcDbSpline
70
4
71
5
72
26
73
20
74
0
42
0.000000001
43
0.0000000001
44
0.0000000001
40
0
40
0
40
0
40
0
40
0
40
0
40
0.066666666666666666
40
0.13333333333333333
40
0.20000000000000001
40
0.26666666666666666
40
0.33333333333333331
40
0.39999999999999997
40
0.46666666666666662
40
0.53333333333333333
40
0.59999999999999998
40
0.66666666666666663
40
0.73333333333333328
40
0.79999999999999993
40
0.86666666666666659
40
0.93333333333333324
40
1
40
1
40
1
40
1
40
1
40
1
41
1
41
1
41
1
41
1
41
1
41
1
41
1
41
1
41
1
41
1
41
1
41
1
41
1
41
1
41
1
41
1
41
1
41
1
41
1
41
1
10
-4.2749561153528406
20
0.2397824297008983
30
0
10
-4.277886310273888
20
0.24492569654133975
30
0
10
-4.2841361578262092
20
0.25477503101442989
30
0
10
-4.294679357190474
20
0.26823742739548356
30
0
10
-4.3110903286412574
20
0.28354507809447926
30
0
10
-4.3355404284620587
20
0.29815380146422876
30
0
10
-4.3637785589175158
20
0.30807323700051753
30
0
10
-4.3953744887512265
20
0.3131350305339044
30
0
10
-4.4294135432061923
20
0.31323096918415289
30
0
10
-4.4645215071388957
20
0.3083284063121981
30
0
10
-4.4991157552697585
20
0.29843493525669068
30
0
10
-4.5315918731839977
20
0.28359562905282293
30
0
10
-4.5605169986384029
20
0.26389149170860599
30
0
10
-4.5848716728455399
20
0.23946568755230055
30
0
10
-4.6041506653555384
20
0.21052430371437778
30
0
10
-4.6181603480380318
20
0.17727649251860431
30
0
10
-4.6251566249712921
20
0.14737654064828243
30
0
10
-4.6280705732714349
20
0.12314844720301819
30
0
10
-4.6289837915151217
20
0.10620081519493255
30
0
10
-4.6291830410303723
20
0.097528104536292307
30
0
0
ARC
5
123
100
AcDbEntity
8
0
100
AcDbCircle
10
-4.0704056491098557
20
0.3835151913099954
30
0
40
0.25000011605700717
210
0
220
0
230
1
100
AcDbArc
50
210.98989782273947
51
344.80087234477639
0
LINE
5
124
100
AcDbEntity
8
0
100
AcDbLine
10
-1.5755794726557175
20
-2.0093736674272882
30
0
11
-2.6913489278971086
21
-2.0084996477362256
31
0
0
ARC
5
125
100
AcDbEntity
8
0
100
AcDbCircle
10
-2.6215794704995075
20
0.00024814854398174882
30
0
40
2.0099590757640171
210
0
220
0
230
1
100
AcDbArc
50
177.22585931491423
51
271.89948041472172
0
LINE
5
126
100
AcDbEntity
8
0
100
AcDbLine
10
-0.776037245887092
20
-2.0099999757087605
30
0
11
-1.8213236833291337
21
-2.009181167732943
31
0
0
LINE
5
127
100
AcDbEntity
8
0
100
AcDbLine
10
4.069995145464798
20
-0.13344969111697691
30
0
11
2.2767784361090322
21
-0.13344969111697691
31
0
0
LINE
5
128
100
AcDbEntity
8
0
100
AcDbLine
10
4.0699937096880561
20
-0.17929849870147202
30
0
11
-1.5755794726557175
21
-0.17929849870147202
31
0
0
LINE
5
129
100
AcDbEntity
8
0
100
AcDbLine
10
-2.2290794719975864
20
0.00021385580554386798
30
0
11
-1.5755794726557175
21
0.00021539256738984533
31
0
0
LINE
5
130
100
AcDbEntity
8
0
100
AcDbLine
10
2.9299699772103462
20
5.2297771755071996e-05
30
0
11
2.2767784361090322
21
7.2752768766973783e-05
31
0
0
LINE
5
131
100
AcDbEntity
8
0
100
AcDbLine
10
-5.0576737787256016
20
-2.0066460259997996
30
0
11
-5.0576737787256016
21
0.71999999129866055
31
0
0
LINE
5
132
100
AcDbEntity
8
0
100
AcDbLine
10
-4.6291830410303723
20
1.4693734617194738
30
0
11
4.0699999508132612
21
1.469101042756717
31
0
0
ENDSEC
0
SECTION
2
OBJECTS
0
DICTIONARY
5
C
100
AcDbDictionary
3
ACAD_GROUP
350
D
3
ACAD_MLINESTYLE
350
17
0
DICTIONARY
5
D
100
AcDbDictionary
0
DICTIONARY
5
1A
330
C
100
AcDbDictionary
0
DICTIONARY
5
17
100
AcDbDictionary
0
ENDSEC
0
EOF
