0
SECTION
2
HEADER
9
$INSUNITS
70
1
9
$ACADVER
1
AC1014
9
$HANDSEED
5
FFFF
0
ENDSEC
0
SECTION
2
TABLES
0
TABLE
2
VPORT
5
8
100
AcDbSymbolTable
0
ENDTAB
0
TABLE
2
LTYPE
5
5
100
AcDbSymbolTable
0
LTYPE
5
14
100
AcDbSymbolTableRecord
100
AcDbLinetypeTableRecord
2
BYBLOCK
70
0
0
LTYPE
5
15
100
AcDbSymbolTableRecord
100
AcDbLinetypeTableRecord
2
BYLAYER
70
0
0
ENDTAB
0
TABLE
2
LAYER
5
2
100
AcDbSymbolTable
70
2
0
LAYER
5
50
100
AcDbSymbolTableRecord
100
AcDbLayerTableRecord
2
0
70
0
6
CONTINUOUS
0
ENDTAB
0
TABLE
2
STYLE
5
3
100
AcDbSymbolTable
70
1
0
STYLE
5
11
100
AcDbSymbolTableRecord
100
AcDbTextStyleTableRecord
2
STANDARD
70
0
0
ENDTAB
0
TABLE
2
VIEW
5
6
100
AcDbSymbolTable
70
0
0
ENDTAB
0
TABLE
2
UCS
5
7
100
AcDbSymbolTable
70
0
0
ENDTAB
0
TABLE
2
APPID
5
9
100
AcDbSymbolTable
70
2
0
APPID
5
12
100
AcDbSymbolTableRecord
100
AcDbRegAppTableRecord
2
ACAD
70
0
0
ENDTAB
0
TABLE
2
DIMSTYLE
5
A
100
AcDbSymbolTable
70
1
0
ENDTAB
0
TABLE
2
BLOCK_RECORD
5
1
100
AcDbSymbolTable
70
1
0
BLOCK_RECORD
5
1F
100
AcDbSymbolTableRecord
100
AcDbBlockTableRecord
2
*MODEL_SPACE
0
BLOCK_RECORD
5
1B
100
AcDbSymbolTableRecord
100
AcDbBlockTableRecord
2
*PAPER_SPACE
0
ENDTAB
0
ENDSEC
0
SECTION
2
BLOCKS
0
BLOCK
5
20
100
AcDbEntity
100
AcDbBlockBegin
2
*MODEL_SPACE
0
ENDBLK
5
21
100
AcDbEntity
100
AcDbBlockEnd
0
BLOCK
5
1C
100
AcDbEntity
100
AcDbBlockBegin
2
*PAPER_SPACE
0
ENDBLK
5
1D
100
AcDbEntity
100
AcDbBlockEnd
0
ENDSEC
0
SECTION
2
ENTITIES
0
LWPOLYLINE
5
100
100
AcDbEntity
8
0
100
AcDbPolyline
90
8
70
1
43
0.0
10
-1.2500000478714477
20
3.0000000957428936
42
0.41421356237309481
10
-1.5000000478714475
20
2.7500000957428945
10
-1.5000000478714468
20
-20.749999904257105
42
0.41421356237309837
10
-1.2500000478714448
20
-20.999999904257105
10
34.249999952128547
20
-20.999999904257105
42
0.41421356237309503
10
34.49999995212854
20
-20.749999904257105
10
34.499999952128547
20
2.7500000957428945
42
0.41421356237310281
10
34.249999952128555
20
3.0000000957428918
0
CIRCLE
5
101
100
AcDbEntity
8
0
100
AcDbCircle
10
-0.50000004787144692
20
-19.999999904257105
30
0
40
0.10499999999999997
210
0
220
0
230
1
0
CIRCLE
5
102
100
AcDbEntity
8
0
100
AcDbCircle
10
33.499999952128547
20
-19.999999904257105
30
0
40
0.10500000000000005
210
0
220
0
230
1
0
CIRCLE
5
103
100
AcDbEntity
8
0
100
AcDbCircle
10
-0.50000004787144448
20
2.0000000957428936
30
0
40
0.10499999999999997
210
0
220
0
230
1
0
CIRCLE
5
104
100
AcDbEntity
8
0
100
AcDbCircle
10
33.499999952128547
20
2.0000000957428941
30
0
40
0.10500000000000005
210
0
220
0
230
1
0
SPLINE
5
105
100
AcDbEntity
8
0
100
AcDbSpline
70
4
71
3
72
8
73
4
74
0
42
0.000000001
43
0.0000000001
44
0.0000000001
40
-1
40
-1
40
-1
40
-1
40
0
40
0
40
0
40
0
41
1
41
1
41
1
41
1
10
31.76581929475374
20
-14.407829311870602
30
0
10
31.839450307941828
20
-14.330996950283033
30
0
10
31.922685366328363
20
-14.43664144746594
30
0
10
31.999517727915929
20
-14.695950667823988
30
0
0
SPLINE
5
106
100
AcDbEntity
8
0
100
AcDbSpline
70
4
71
3
72
8
73
4
74
0
42
0.000000001
43
0.0000000001
44
0.0000000001
40
-1
40
-1
40
-1
40
-1
40
0
40
0
40
0
40
0
41
1
41
1
41
1
41
1
10
31.999517727915929
20
-14.695950667823988
30
0
10
32.02192716671231
20
-14.772783029411562
30
0
10
32.050739302307647
20
-14.83360864900172
30
0
10
32.06354469590557
20
-14.83360864900172
30
0
0
SPLINE
5
107
100
AcDbEntity
8
0
100
AcDbSpline
70
4
71
3
72
8
73
4
74
0
42
0.000000001
43
0.0000000001
44
0.0000000001
40
-1
40
-1
40
-1
40
-1
40
0
40
0
40
0
40
0
41
1
41
1
41
1
41
1
10
32.06354469590557
20
-14.83360864900172
30
0
10
32.076350089503507
20
-14.83360864900172
30
0
10
32.121168967096246
20
-14.737568197017255
30
0
10
32.16278649628952
20
-14.615916957836939
30
0
0
SPLINE
5
108
100
AcDbEntity
8
0
100
AcDbSpline
70
4
71
3
72
8
73
4
74
0
42
0.000000001
43
0.0000000001
44
0.0000000001
40
-1
40
-1
40
-1
40
-1
40
0
40
0
40
0
40
0
41
1
41
1
41
1
41
1
10
32.16278649628952
20
-14.615916957836939
30
0
10
32.223612115879675
20
-14.449446841063869
30
0
10
32.25242425147502
20
-14.401426615071637
30
0
10
32.303645825866731
20
-14.401426615071637
30
0
0
SPLINE
5
109
100
AcDbEntity
8
0
100
AcDbSpline
70
4
71
3
72
8
73
4
74
0
42
0.000000001
43
0.0000000001
44
0.0000000001
40
-1
40
-1
40
-1
40
-1
40
0
40
0
40
0
40
0
41
1
41
1
41
1
41
1
10
32.303645825866731
20
-14.401426615071637
30
0
10
32.361270097057407
20
-14.401426615071637
30
0
10
32.367672793856372
20
-14.427037402267494
30
0
10
32.377276839054815
20
-14.7119574098214
30
0
0
SPLINE
5
110
100
AcDbEntity
8
0
100
AcDbSpline
70
4
71
3
72
8
73
4
74
0
42
0.000000001
43
0.0000000001
44
0.0000000001
40
-1
40
-1
40
-1
40
-1
40
0
40
0
40
0
40
0
41
1
41
1
41
1
41
1
10
32.377276839054815
20
-14.7119574098214
30
0
10
32.383679535853787
20
-14.974467978578932
30
0
10
32.377276839054815
20
-15.025689552970645
30
0
10
32.338860658261034
20
-15.025689552970645
30
0
0
SPLINE
5
111
100
AcDbEntity
8
0
100
AcDbSpline
70
4
71
3
72
8
73
4
74
0
42
0.000000001
43
0.0000000001
44
0.0000000001
40
-1
40
-1
40
-1
40
-1
40
0
40
0
40
0
40
0
41
1
41
1
41
1
41
1
10
32.338860658261034
20
-15.025689552970645
30
0
10
32.300444477467252
20
-15.025689552970645
30
0
10
32.287639083869315
20
-14.974467978578932
30
0
10
32.281236387070358
20
-14.807997861805864
30
0
0
LINE
5
112
100
AcDbEntity
8
0
100
AcDbLine
10
32.281236387070358
20
-14.807997861805864
30
0
11
32.271632341871907
21
-14.593507519040562
31
0
0
LINE
5
113
100
AcDbEntity
8
0
100
AcDbLine
10
32.271632341871907
20
-14.593507519040562
30
0
11
32.191598631884858
21
-14.807997861805864
31
0
0
SPLINE
5
114
100
AcDbEntity
8
0
100
AcDbSpline
70
4
71
3
72
8
73
4
74
0
42
0.000000001
43
0.0000000001
44
0.0000000001
40
-1
40
-1
40
-1
40
-1
40
0
40
0
40
0
40
0
41
1
41
1
41
1
41
1
10
32.191598631884858
20
-14.807997861805864
30
0
10
32.08595413470195
20
-15.092917869359768
30
0
10
32.034732560310232
20
-15.092917869359768
30
0
10
31.932289411526806
20
-14.811199210205345
30
0
0
LINE
5
115
100
AcDbEntity
8
0
100
AcDbLine
10
31.932289411526806
20
-14.811199210205345
30
0
11
31.85545704993924
21
-14.593507519040562
31
0
0
LINE
5
116
100
AcDbEntity
8
0
100
AcDbLine
10
31.85545704993924
20
-14.593507519040562
30
0
11
31.845853004740796
21
-14.807997861805864
31
0
0
SPLINE
5
117
100
AcDbEntity
8
0
100
AcDbSpline
70
4
71
3
72
8
73
4
74
0
42
0.000000001
43
0.0000000001
44
0.0000000001
40
-1
40
-1
40
-1
40
-1
40
0
40
0
40
0
40
0
41
1
41
1
41
1
41
1
10
31.845853004740796
20
-14.807997861805864
30
0
10
31.839450307941828
20
-14.974467978578932
30
0
10
31.826644914343891
20
-15.025689552970645
30
0
10
31.791430081949599
20
-15.025689552970645
30
0
0
SPLINE
5
118
100
AcDbEntity
8
0
100
AcDbSpline
70
4
71
3
72
8
73
4
74
0
42
0.000000001
43
0.0000000001
44
0.0000000001
40
-1
40
-1
40
-1
40
-1
40
0
40
0
40
0
40
0
41
1
41
1
41
1
41
1
10
31.791430081949599
20
-15.025689552970645
30
0
10
31.753013901155814
20
-15.025689552970645
30
0
10
31.74340985595736
20
-14.968065281779968
30
0
10
31.74340985595736
20
-14.72796415181881
30
0
0
SPLINE
5
119
100
AcDbEntity
8
0
100
AcDbSpline
70
4
71
3
72
8
73
4
74
0
42
0.000000001
43
0.0000000001
44
0.0000000001
40
-1
40
-1
40
-1
40
-1
40
0
40
0
40
0
40
0
41
1
41
1
41
1
41
1
10
31.74340985595736
20
-14.72796415181881
30
0
10
31.74340985595736
20
-14.561494035045742
30
0
10
31.753013901155814
20
-14.417433357069049
30
0
10
31.76581929475374
20
-14.407829311870602
30
0
0
SPLINE
5
120
100
AcDbEntity
8
0
100
AcDbSpline
70
4
71
3
72
8
73
4
74
0
42
0.000000001
43
0.0000000001
44
0.0000000001
40
-1
40
-1
40
-1
40
-1
40
0
40
0
40
0
40
0
41
1
41
1
41
1
41
1
10
31.15756309885214
20
-14.404627963471121
30
0
10
31.170368492450063
20
-14.391822569873192
30
0
10
31.282415686431936
20
-14.388621221473711
30
0
10
31.407268274011741
20
-14.391822569873192
30
0
0
SPLINE
5
121
100
AcDbEntity
8
0
100
AcDbSpline
70
4
71
3
72
8
73
4
74
0
42
0.000000001
43
0.0000000001
44
0.0000000001
40
-1
40
-1
40
-1
40
-1
40
0
40
0
40
0
40
0
41
1
41
1
41
1
41
1
10
31.407268274011741
20
-14.391822569873192
30
0
10
31.58014108758378
20
-14.398225266672155
30
0
10
31.631362661975487
20
-14.411030660270084
30
0
10
31.631362661975487
20
-14.449446841063869
30
0
0
SPLINE
5
122
100
AcDbEntity
8
0
100
AcDbSpline
70
4
71
3
72
8
73
4
74
0
42
0.000000001
43
0.0000000001
44
0.0000000001
40
-1
40
-1
40
-1
40
-1
40
0
40
0
40
0
40
0
41
1
41
1
41
1
41
1
10
31.631362661975487
20
-14.449446841063869
30
0
10
31.631362661975487
20
-14.481460325058691
30
0
10
31.592946481181702
20
-14.500668415455582
30
0
10
31.528919513192061
20
-14.507071112254547
30
0
0
LINE
5
123
100
AcDbEntity
8
0
100
AcDbLine
10
31.528919513192061
20
-14.507071112254547
30
0
11
31.423275016009157
21
-14.516675157452994
31
0
0
LINE
5
124
100
AcDbEntity
8
0
100
AcDbLine
10
31.423275016009157
20
-14.516675157452994
30
0
11
31.423275016009157
21
-14.772783029411562
31
0
0
SPLINE
5
125
100
AcDbEntity
8
0
100
AcDbSpline
70
4
71
3
72
8
73
4
74
0
42
0.000000001
43
0.0000000001
44
0.0000000001
40
-1
40
-1
40
-1
40
-1
40
0
40
0
40
0
40
0
41
1
41
1
41
1
41
1
10
31.423275016009157
20
-14.772783029411562
30
0
10
31.423275016009157
20
-14.977669326978413
30
0
10
31.41367097081071
20
-15.025689552970645
30
0
10
31.375254790016914
20
-15.025689552970645
30
0
0
SPLINE
5
126
100
AcDbEntity
8
0
100
AcDbSpline
70
4
71
3
72
8
73
4
74
0
42
0.000000001
43
0.0000000001
44
0.0000000001
40
-1
40
-1
40
-1
40
-1
40
0
40
0
40
0
40
0
41
1
41
1
41
1
41
1
10
31.375254790016914
20
-15.025689552970645
30
0
10
31.336838609223143
20
-15.025689552970645
30
0
10
31.327234564024685
20
-14.974467978578932
30
0
10
31.327234564024685
20
-14.769581681012077
30
0
0
LINE
5
127
100
AcDbEntity
8
0
100
AcDbLine
10
31.327234564024685
20
-14.769581681012077
30
0
11
31.327234564024693
21
-14.51347380905351
31
0
0
LINE
5
128
100
AcDbEntity
8
0
100
AcDbLine
10
31.327234564024693
20
-14.51347380905351
30
0
11
31.231194112040228
21
-14.513473809053512
31
0
0
SPLINE
5
129
100
AcDbEntity
8
0
100
AcDbSpline
70
4
71
3
72
8
73
4
74
0
42
0.000000001
43
0.0000000001
44
0.0000000001
40
-1
40
-1
40
-1
40
-1
40
0
40
0
40
0
40
0
41
1
41
1
41
1
41
1
10
31.231194112040228
20
-14.51347380905351
30
0
10
31.141556356854725
20
-14.51347380905351
30
0
10
31.103140176060943
20
-14.459050886262315
30
0
10
31.15756309885214
20
-14.404627963471121
30
0
0
SPLINE
5
130
100
AcDbEntity
8
0
100
AcDbSpline
70
4
71
3
72
8
73
4
74
0
42
0.000000001
43
0.0000000001
44
0.0000000001
40
-1
40
-1
40
-1
40
-1
40
0
40
0
40
0
40
0
41
1
41
1
41
1
41
1
10
27.856972898986104
20
-8.9943491683463836
30
0
10
27.901791776578854
20
-8.9495302907536338
30
0
10
28.071463241751403
20
-8.9431275939546691
30
0
10
29.262364846358743
20
-8.9431275939546691
30
0
0
SPLINE
5
131
100
AcDbEntity
8
0
100
AcDbSpline
70
4
71
3
72
8
73
4
74
0
42
0.000000001
43
0.0000000001
44
0.0000000001
40
-1
40
-1
40
-1
40
-1
40
0
40
0
40
0
40
0
41
1
41
1
41
1
41
1
10
29.262364846358743
20
-8.9431275939546691
30
0
10
30.571716341746921
20
-8.9431275939546691
30
0
10
30.622937916138628
20
-8.9463289423541532
30
0
10
30.654951400133456
20
-9.003953213544829
30
0
0
SPLINE
5
132
100
AcDbEntity
8
0
100
AcDbSpline
70
4
71
3
72
8
73
4
74
0
42
0.000000001
43
0.0000000001
44
0.0000000001
40
-1
40
-1
40
-1
40
-1
40
0
40
0
40
0
40
0
41
1
41
1
41
1
41
1
10
30.654951400133456
20
-9.003953213544829
30
0
10
30.702971626125684
20
-9.0935909687303269
30
0
10
30.696568929326716
20
-9.945149642992563
30
0
10
30.648548703334487
20
-9.9931698689847934
30
0
0
SPLINE
5
133
100
AcDbEntity
8
0
100
AcDbSpline
70
4
71
3
72
8
73
4
74
0
42
0.000000001
43
0.0000000001
44
0.0000000001
40
-1
40
-1
40
-1
40
-1
40
0
40
0
40
0
40
0
41
1
41
1
41
1
41
1
10
30.648548703334487
20
-9.9931698689847934
30
0
10
30.61973656773915
20
-10.021982004580135
30
0
10
30.395642179775407
20
-10.031586049778582
30
0
10
29.835406209866036
20
-10.031586049778582
30
0
0
SPLINE
5
134
100
AcDbEntity
8
0
100
AcDbSpline
70
4
71
3
72
8
73
4
74
0
42
0.000000001
43
0.0000000001
44
0.0000000001
40
-1
40
-1
40
-1
40
-1
40
0
40
0
40
0
40
0
41
1
41
1
41
1
41
1
10
29.835406209866036
20
-10.031586049778582
30
0
10
29.067082593990335
20
-10.031586049778582
30
0
10
29.057478548791892
20
-10.031586049778582
30
0
10
29.009458322799659
20
-10.102015714567186
30
0
0
SPLINE
5
135
100
AcDbEntity
8
0
100
AcDbSpline
70
4
71
3
72
8
73
4
74
0
42
0.000000001
43
0.0000000001
44
0.0000000001
40
-1
40
-1
40
-1
40
-1
40
0
40
0
40
0
40
0
41
1
41
1
41
1
41
1
10
29.009458322799659
20
-10.102015714567186
30
0
10
28.967840793606388
20
-10.159639985757865
30
0
10
28.958236748407941
20
-10.274888528139222
30
0
10
28.958236748407941
20
-10.710271910468784
30
0
0
SPLINE
5
136
100
AcDbEntity
8
0
100
AcDbSpline
70
4
71
3
72
8
73
4
74
0
42
0.000000001
43
0.0000000001
44
0.0000000001
40
-1
40
-1
40
-1
40
-1
40
0
40
0
40
0
40
0
41
1
41
1
41
1
41
1
10
28.958236748407941
20
-10.710271910468784
30
0
10
28.958236748407941
20
-11.001594614821654
30
0
10
28.971042142005878
20
-11.280111925576598
30
0
10
28.990250232402758
20
-11.324930803169346
30
0
0
LINE
5
137
100
AcDbEntity
8
0
100
AcDbLine
10
28.990250232402758
20
-11.324930803169346
30
0
11
29.022263716397585
21
-11.408165861555879
31
0
0
LINE
5
138
100
AcDbEntity
8
0
100
AcDbLine
10
29.022263716397585
20
-11.408165861555879
30
0
11
29.51207002151834
21
-11.408165861555879
31
0
0
SPLINE
5
139
100
AcDbEntity
8
0
100
AcDbSpline
70
4
71
3
72
8
73
4
74
0
42
0.000000001
43
0.0000000001
44
0.0000000001
40
-1
40
-1
40
-1
40
-1
40
0
40
0
40
0
40
0
41
1
41
1
41
1
41
1
10
29.512070021518344
20
-11.408165861555879
30
0
10
30.17795048861062
20
-11.408165861555879
30
0
10
30.142735656216313
20
-11.376152377561061
30
0
10
30.142735656216313
20
-11.968401831465247
30
0
0
SPLINE
5
140
100
AcDbEntity
8
0
100
AcDbSpline
70
4
71
3
72
8
73
4
74
0
42
0.000000001
43
0.0000000001
44
0.0000000001
40
-1
40
-1
40
-1
40
-1
40
0
40
0
40
0
40
0
41
1
41
1
41
1
41
1
10
30.142735656216313
20
-11.968401831465247
30
0
10
30.142735656216313
20
-12.34295959420465
30
0
10
30.13313161101787
20
-12.435798697789634
30
0
10
30.091514081824606
20
-12.4774162269829
30
0
0
SPLINE
5
141
100
AcDbEntity
8
0
100
AcDbSpline
70
4
71
3
72
8
73
4
74
0
42
0.000000001
43
0.0000000001
44
0.0000000001
40
-1
40
-1
40
-1
40
-1
40
0
40
0
40
0
40
0
41
1
41
1
41
1
41
1
10
30.091514081824606
20
-12.4774162269829
30
0
10
30.049896552631335
20
-12.519033756176167
30
0
10
29.953856100646878
20
-12.528637801374613
30
0
10
29.556888899111097
20
-12.528637801374613
30
0
0
SPLINE
5
142
100
AcDbEntity
8
0
100
AcDbSpline
70
4
71
3
72
8
73
4
74
0
42
0.000000001
43
0.0000000001
44
0.0000000001
40
-1
40
-1
40
-1
40
-1
40
0
40
0
40
0
40
0
41
1
41
1
41
1
41
1
10
29.556888899111097
20
-12.528637801374613
30
0
10
29.287975633554602
20
-12.528637801374613
30
0
10
29.047874503593444
20
-12.544644543372023
30
0
10
29.022263716397585
20
-12.560651285369435
30
0
0
SPLINE
5
143
100
AcDbEntity
8
0
100
AcDbSpline
70
4
71
3
72
8
73
4
74
0
42
0.000000001
43
0.0000000001
44
0.0000000001
40
-1
40
-1
40
-1
40
-1
40
0
40
0
40
0
40
0
41
1
41
1
41
1
41
1
10
29.022263716397585
20
-12.560651285369435
30
0
10
28.9838475356038
20
-12.586262072565292
30
0
10
28.974243490405357
20
-12.695107918147681
30
0
10
28.974243490405357
20
-13.216927707263263
30
0
0
SPLINE
5
144
100
AcDbEntity
8
0
100
AcDbSpline
70
4
71
3
72
8
73
4
74
0
42
0.000000001
43
0.0000000001
44
0.0000000001
40
-1
40
-1
40
-1
40
-1
40
0
40
0
40
0
40
0
41
1
41
1
41
1
41
1
10
28.974243490405357
20
-13.216927707263263
30
0
10
28.974243490405357
20
-13.738747496378844
30
0
10
28.9838475356038
20
-13.847593341961234
30
0
10
29.022263716397585
20
-13.873204129157092
30
0
0
SPLINE
5
145
100
AcDbEntity
8
0
100
AcDbSpline
70
4
71
3
72
8
73
4
74
0
42
0.000000001
43
0.0000000001
44
0.0000000001
40
-1
40
-1
40
-1
40
-1
40
0
40
0
40
0
40
0
41
1
41
1
41
1
41
1
10
29.022263716397585
20
-13.873204129157092
30
0
10
29.047874503593444
20
-13.889210871154502
30
0
10
29.40322417593595
20
-13.905217613151914
30
0
10
29.819399467868624
20
-13.905217613151914
30
0
0
SPLINE
5
146
100
AcDbEntity
8
0
100
AcDbSpline
70
4
71
3
72
8
73
4
74
0
42
0.000000001
43
0.0000000001
44
0.0000000001
40
-1
40
-1
40
-1
40
-1
40
0
40
0
40
0
40
0
41
1
41
1
41
1
41
1
10
29.819399467868624
20
-13.905217613151914
30
0
10
30.472474541362974
20
-13.905217613151914
30
0
10
30.578119038545879
20
-13.911620309950878
30
0
10
30.629340612937597
20
-13.959640535943109
30
0
0
SPLINE
5
147
100
AcDbEntity
8
0
100
AcDbSpline
70
4
71
3
72
8
73
4
74
0
42
0.000000001
43
0.0000000001
44
0.0000000001
40
-1
40
-1
40
-1
40
-1
40
0
40
0
40
0
40
0
41
1
41
1
41
1
41
1
10
30.629340612937597
20
-13.959640535943109
30
0
10
30.680562187329304
20
-14.004459413535857
30
0
10
30.686964884128273
20
-14.065285033126017
30
0
10
30.686964884128273
20
-14.468654931460762
30
0
0
SPLINE
5
148
100
AcDbEntity
8
0
100
AcDbSpline
70
4
71
3
72
8
73
4
74
0
42
0.000000001
43
0.0000000001
44
0.0000000001
40
-1
40
-1
40
-1
40
-1
40
0
40
0
40
0
40
0
41
1
41
1
41
1
41
1
10
30.686964884128273
20
-14.468654931460762
30
0
10
30.686964884128273
20
-14.904038313790325
30
0
10
30.683763535728794
20
-14.929649100986184
30
0
10
30.616535219339671
20
-14.974467978578932
30
0
0
SPLINE
5
149
100
AcDbEntity
8
0
100
AcDbSpline
70
4
71
3
72
8
73
4
74
0
42
0.000000001
43
0.0000000001
44
0.0000000001
40
-1
40
-1
40
-1
40
-1
40
0
40
0
40
0
40
0
41
1
41
1
41
1
41
1
10
30.616535219339671
20
-14.974467978578932
30
0
10
30.555709599749509
20
-15.01928685617168
30
0
10
30.370031392579548
20
-15.025689552970645
30
0
10
29.246358104361327
20
-15.025689552970645
30
0
0
SPLINE
5
150
100
AcDbEntity
8
0
100
AcDbSpline
70
4
71
3
72
8
73
4
74
0
42
0.000000001
43
0.0000000001
44
0.0000000001
40
-1
40
-1
40
-1
40
-1
40
0
40
0
40
0
40
0
41
1
41
1
41
1
41
1
10
29.246358104361327
20
-15.025689552970645
30
0
10
28.122684816143121
20
-15.025689552970645
30
0
10
27.937006608973149
20
-15.01928685617168
30
0
10
27.876180989382995
20
-14.974467978578932
30
0
0
LINE
5
151
100
AcDbEntity
8
0
100
AcDbLine
10
27.876180989382995
20
-14.974467978578934
30
0
11
27.805751324594386
21
-14.9264477525867
31
0
0
LINE
5
152
100
AcDbEntity
8
0
100
AcDbLine
10
27.805751324594386
20
-14.9264477525867
30
0
11
27.805751324594386
21
-11.984408573462655
31
0
0
SPLINE
5
153
100
AcDbEntity
8
0
100
AcDbSpline
70
4
71
3
72
8
73
4
74
0
42
0.000000001
43
0.0000000001
44
0.0000000001
40
-1
40
-1
40
-1
40
-1
40
0
40
0
40
0
40
0
41
1
41
1
41
1
41
1
10
27.805751324594386
20
-11.984408573462657
30
0
10
27.805751324594386
20
-9.3529001890883752
30
0
10
27.812154021393354
20
-9.0391680459391335
30
0
10
27.856972898986104
20
-8.9943491683463836
30
0
0
SPLINE
5
154
100
AcDbEntity
8
0
100
AcDbSpline
70
4
71
3
72
8
73
4
74
0
42
0.000000001
43
0.0000000001
44
0.0000000001
40
-1
40
-1
40
-1
40
-1
40
0
40
0
40
0
40
0
41
1
41
1
41
1
41
1
10
24.092187181195161
20
-9.0071545619443114
30
0
10
24.14981145238584
20
-8.9495302907536338
30
0
10
24.197831678378073
20
-8.9431275939546691
30
0
10
24.620409667109705
20
-8.9431275939546691
30
0
0
SPLINE
5
155
100
AcDbEntity
8
0
100
AcDbSpline
70
4
71
3
72
8
73
4
74
0
42
0.000000001
43
0.0000000001
44
0.0000000001
40
-1
40
-1
40
-1
40
-1
40
0
40
0
40
0
40
0
41
1
41
1
41
1
41
1
10
24.620409667109705
20
-8.9431275939546691
30
0
10
25.042987655841344
20
-8.9431275939546691
30
0
10
25.091007881833576
20
-8.9495302907536338
30
0
10
25.148632153024252
20
-9.0071545619443114
30
0
0
SPLINE
5
156
100
AcDbEntity
8
0
100
AcDbSpline
70
4
71
3
72
8
73
4
74
0
42
0.000000001
43
0.0000000001
44
0.0000000001
40
-1
40
-1
40
-1
40
-1
40
0
40
0
40
0
40
0
41
1
41
1
41
1
41
1
10
25.148632153024252
20
-9.0071545619443114
30
0
10
25.212659121013893
20
-9.0711815299339538
30
0
10
25.212659121013893
20
-9.1127990591272194
30
0
10
25.212659121013893
20
-11.395360467957953
30
0
0
LINE
5
157
100
AcDbEntity
8
0
100
AcDbLine
10
25.212659121013893
20
-11.395360467957952
30
0
11
25.212659121013893
21
-13.71953940598195
31
0
0
LINE
5
158
100
AcDbEntity
8
0
100
AcDbLine
10
25.212659121013893
20
-13.71953940598195
30
0
11
25.305498224598878
21
-13.812378509566933
31
0
0
SPLINE
5
159
100
AcDbEntity
8
0
100
AcDbSpline
70
4
71
3
72
8
73
4
74
0
42
0.000000001
43
0.0000000001
44
0.0000000001
40
-1
40
-1
40
-1
40
-1
40
0
40
0
40
0
40
0
41
1
41
1
41
1
41
1
10
25.305498224598878
20
-13.812378509566933
30
0
10
25.391934631384892
20
-13.898814916352947
30
0
10
25.417545418580751
20
-13.905217613151914
30
0
10
25.638438458145014
20
-13.905217613151914
30
0
0
SPLINE
5
160
100
AcDbEntity
8
0
100
AcDbSpline
70
4
71
3
72
8
73
4
74
0
42
0.000000001
43
0.0000000001
44
0.0000000001
40
-1
40
-1
40
-1
40
-1
40
0
40
0
40
0
40
0
41
1
41
1
41
1
41
1
10
25.638438458145014
20
-13.905217613151914
30
0
10
25.849727452510834
20
-13.905217613151914
30
0
10
25.884942284905129
20
-13.895613567953466
30
0
10
25.955371949693738
20
-13.825183903164859
30
0
0
SPLINE
5
161
100
AcDbEntity
8
0
100
AcDbSpline
70
4
71
3
72
8
73
4
74
0
42
0.000000001
43
0.0000000001
44
0.0000000001
40
-1
40
-1
40
-1
40
-1
40
0
40
0
40
0
40
0
41
1
41
1
41
1
41
1
10
25.955371949693738
20
-13.825183903164859
30
0
10
26.000190827286492
20
-13.780365025572111
30
0
10
26.045009704879241
20
-13.700331315585061
30
0
10
26.057815098477164
20
-13.645908392793864
30
0
0
SPLINE
5
162
100
AcDbEntity
8
0
100
AcDbSpline
70
4
71
3
72
8
73
4
74
0
42
0.000000001
43
0.0000000001
44
0.0000000001
40
-1
40
-1
40
-1
40
-1
40
0
40
0
40
0
40
0
41
1
41
1
41
1
41
1
10
26.057815098477164
20
-13.645908392793864
30
0
10
26.067419143675611
20
-13.588284121603186
30
0
10
26.077023188874058
20
-12.52543645297513
30
0
10
26.077023188874058
20
-11.276910577177114
30
0
0
SPLINE
5
163
100
AcDbEntity
8
0
100
AcDbSpline
70
4
71
3
72
8
73
4
74
0
42
0.000000001
43
0.0000000001
44
0.0000000001
40
-1
40
-1
40
-1
40
-1
40
0
40
0
40
0
40
0
41
1
41
1
41
1
41
1
10
26.077023188874058
20
-11.276910577177114
30
0
10
26.077023188874058
20
-9.0679801815344714
30
0
10
26.077023188874058
20
-9.0071545619443114
30
0
10
26.13784880846422
20
-8.9751410779494911
30
0
0
SPLINE
5
164
100
AcDbEntity
8
0
100
AcDbSpline
70
4
71
3
72
8
73
4
74
0
42
0.000000001
43
0.0000000001
44
0.0000000001
40
-1
40
-1
40
-1
40
-1
40
0
40
0
40
0
40
0
41
1
41
1
41
1
41
1
10
26.13784880846422
20
-8.9751410779494911
30
0
10
26.173063640858519
20
-8.9591343359520792
30
0
10
26.400359377221747
20
-8.9431275939546691
30
0
10
26.646863203981873
20
-8.9431275939546691
30
0
0
SPLINE
5
165
100
AcDbEntity
8
0
100
AcDbSpline
70
4
71
3
72
8
73
4
74
0
42
0.000000001
43
0.0000000001
44
0.0000000001
40
-1
40
-1
40
-1
40
-1
40
0
40
0
40
0
40
0
41
1
41
1
41
1
41
1
10
26.646863203981873
20
-8.9431275939546691
30
0
10
27.024622315120762
20
-8.9431275939546691
30
0
10
27.104656025107808
20
-8.9527316391531144
30
0
10
27.162280296298491
20
-8.9975505167458643
30
0
0
LINE
5
166
100
AcDbEntity
8
0
100
AcDbLine
10
27.162280296298491
20
-8.9975505167458643
30
0
11
27.232709961087092
21
-9.0551747879365436
31
0
0
LINE
5
167
100
AcDbEntity
8
0
100
AcDbLine
10
27.232709961087092
20
-9.0551747879365436
30
0
11
27.213501870690205
21
-14.305386163087174
31
0
0
LINE
5
168
100
AcDbEntity
8
0
100
AcDbLine
10
27.213501870690205
20
-14.305386163087174
30
0
11
27.123864115504709
21
-14.487863021857653
31
0
0
SPLINE
5
169
100
AcDbEntity
8
0
100
AcDbSpline
70
4
71
3
72
8
73
4
74
0
42
0.000000001
43
0.0000000001
44
0.0000000001
40
-1
40
-1
40
-1
40
-1
40
0
40
0
40
0
40
0
41
1
41
1
41
1
41
1
10
27.123864115504709
20
-14.487863021857653
30
0
10
27.021420966721273
20
-14.692749319424507
30
0
10
26.86775624354614
20
-14.843212694200165
30
0
10
26.65646724918032
20
-14.94245449458411
30
0
0
SPLINE
5
170
100
AcDbEntity
8
0
100
AcDbSpline
70
4
71
3
72
8
73
4
74
0
42
0.000000001
43
0.0000000001
44
0.0000000001
40
-1
40
-1
40
-1
40
-1
40
0
40
0
40
0
40
0
41
1
41
1
41
1
41
1
10
26.65646724918032
20
-14.94245449458411
30
0
10
26.518809268002588
20
-15.006481462573753
30
0
10
26.45798364841243
20
-15.009682810973235
30
0
10
25.628834412946564
20
-15.009682810973235
30
0
0
SPLINE
5
171
100
AcDbEntity
8
0
100
AcDbSpline
70
4
71
3
72
8
73
4
74
0
42
0.000000001
43
0.0000000001
44
0.0000000001
40
-1
40
-1
40
-1
40
-1
40
0
40
0
40
0
40
0
41
1
41
1
41
1
41
1
10
25.628834412946564
20
-15.009682810973235
30
0
10
24.796483829081222
20
-15.009682810973235
30
0
10
24.742060906290028
20
-15.006481462573753
30
0
10
24.601201576712818
20
-14.94245449458411
30
0
0
SPLINE
5
172
100
AcDbEntity
8
0
100
AcDbSpline
70
4
71
3
72
8
73
4
74
0
42
0.000000001
43
0.0000000001
44
0.0000000001
40
-1
40
-1
40
-1
40
-1
40
0
40
0
40
0
40
0
41
1
41
1
41
1
41
1
10
24.601201576712818
20
-14.94245449458411
30
0
10
24.409120672743892
20
-14.852816739398614
30
0
10
24.220241117174446
20
-14.663937183829168
30
0
10
24.120999316790503
20
-14.462252234661797
30
0
0
LINE
5
173
100
AcDbEntity
8
0
100
AcDbLine
10
24.120999316790503
20
-14.462252234661797
30
0
11
24.044166955202932
21
-14.305386163087176
31
0
0
LINE
5
174
100
AcDbEntity
8
0
100
AcDbLine
10
24.044166955202932
20
-14.305386163087176
30
0
11
24.034562910004485
21
-11.689884520710306
31
0
0
SPLINE
5
175
100
AcDbEntity
8
0
100
AcDbSpline
70
4
71
3
72
8
73
4
74
0
42
0.000000001
43
0.0000000001
44
0.0000000001
40
-1
40
-1
40
-1
40
-1
40
0
40
0
40
0
40
0
41
1
41
1
41
1
41
1
10
24.034562910004485
20
-11.689884520710306
30
0
10
24.024958864806038
20
-9.0967923171298075
30
0
10
24.028160213205521
20
-9.0711815299339538
30
0
10
24.092187181195161
20
-9.0071545619443114
30
0
0
SPLINE
5
176
100
AcDbEntity
8
0
100
AcDbSpline
70
4
71
3
72
8
73
4
74
0
42
0.000000001
43
0.0000000001
44
0.0000000001
40
-1
40
-1
40
-1
40
-1
40
0
40
0
40
0
40
0
41
1
41
1
41
1
41
1
10
11.911056521165799
20
-0.61001771010278283
30
0
10
12.640963956247715
20
-0.51077590971883724
30
0
10
13.505328024107882
20
-0.76688378167740456
30
0
10
13.979127587231231
20
-1.2278779512028271
30
0
0
SPLINE
5
177
100
AcDbEntity
8
0
100
AcDbSpline
70
4
71
3
72
8
73
4
74
0
42
0.000000001
43
0.0000000001
44
0.0000000001
40
-1
40
-1
40
-1
40
-1
40
0
40
0
40
0
40
0
41
1
41
1
41
1
41
1
10
13.979127587231231
20
-1.2278779512028271
30
0
10
14.209624671993943
20
-1.4487709907670907
30
0
10
14.248040852787726
20
-1.5320060491536258
30
0
10
14.283255685182031
20
-1.8681476310992455
30
0
0
SPLINE
5
178
100
AcDbEntity
8
0
100
AcDbSpline
70
4
71
3
72
8
73
4
74
0
42
0.000000001
43
0.0000000001
44
0.0000000001
40
-1
40
-1
40
-1
40
-1
40
0
40
0
40
0
40
0
41
1
41
1
41
1
41
1
10
14.283255685182031
20
-1.8681476310992455
30
0
10
14.318470517576333
20
-2.1978865162458998
30
0
10
14.17440983959964
20
-2.6620820341708029
30
0
10
13.879885786847286
20
-3.1742977780879373
30
0
0
SPLINE
5
179
100
AcDbEntity
8
0
100
AcDbSpline
70
4
71
3
72
8
73
4
74
0
42
0.000000001
43
0.0000000001
44
0.0000000001
40
-1
40
-1
40
-1
40
-1
40
0
40
0
40
0
40
0
41
1
41
1
41
1
41
1
10
13.879885786847286
20
-3.1742977780879373
30
0
10
13.806254773659202
20
-3.2991503656677406
30
0
10
13.723019715272663
20
-3.4047948628506504
30
0
10
13.687804882878361
20
-3.4143989080490944
30
0
0
SPLINE
5
180
100
AcDbEntity
8
0
100
AcDbSpline
70
4
71
3
72
8
73
4
74
0
42
0.000000001
43
0.0000000001
44
0.0000000001
40
-1
40
-1
40
-1
40
-1
40
0
40
0
40
0
40
0
41
1
41
1
41
1
41
1
10
13.687804882878361
20
-3.4143989080490944
30
0
10
13.524536114504777
20
-3.4560164372423618
30
0
10
13.069944641778319
20
-3.2671368816729189
30
0
10
13.009119022188157
20
-3.1294789004951893
30
0
0
SPLINE
5
181
100
AcDbEntity
8
0
100
AcDbSpline
70
4
71
3
72
8
73
4
74
0
42
0.000000001
43
0.0000000001
44
0.0000000001
40
-1
40
-1
40
-1
40
-1
40
0
40
0
40
0
40
0
41
1
41
1
41
1
41
1
10
13.009119022188157
20
-3.1294789004951893
30
0
10
12.977105538193335
20
-3.0590492357065835
30
0
10
12.986709583391782
20
-2.9790155257195314
30
0
10
13.076347338577284
20
-2.6428739437739117
30
0
0
SPLINE
5
182
100
AcDbEntity
8
0
100
AcDbSpline
70
4
71
3
72
8
73
4
74
0
42
0.000000001
43
0.0000000001
44
0.0000000001
40
-1
40
-1
40
-1
40
-1
40
0
40
0
40
0
40
0
41
1
41
1
41
1
41
1
10
13.076347338577284
20
-2.6428739437739117
30
0
10
13.265226894146725
20
-1.9161678570914769
30
0
10
13.239616106950868
20
-1.6472545915349801
30
0
10
12.970702841394374
20
-1.496791216759322
30
0
0
SPLINE
5
183
100
AcDbEntity
8
0
100
AcDbSpline
70
4
71
3
72
8
73
4
74
0
42
0.000000001
43
0.0000000001
44
0.0000000001
40
-1
40
-1
40
-1
40
-1
40
0
40
0
40
0
40
0
41
1
41
1
41
1
41
1
10
12.970702841394374
20
-1.496791216759322
30
0
10
12.688984182239949
20
-1.3399251451847003
30
0
10
12.330433161497954
20
-1.3335224483857346
30
0
10
12.013499669949228
20
-1.4839858231613945
30
0
0
SPLINE
5
184
100
AcDbEntity
8
0
100
AcDbSpline
70
4
71
3
72
8
73
4
74
0
42
0.000000001
43
0.0000000001
44
0.0000000001
40
-1
40
-1
40
-1
40
-1
40
0
40
0
40
0
40
0
41
1
41
1
41
1
41
1
10
12.013499669949228
20
-1.4839858231613945
30
0
10
11.245176054073525
20
-1.8457381923028693
30
0
10
10.492859180195232
20
-3.2511301396755092
30
0
10
10.252758050234075
20
-4.7813746746279495
30
0
0
SPLINE
5
185
100
AcDbEntity
8
0
100
AcDbSpline
70
4
71
3
72
8
73
4
74
0
42
0.000000001
43
0.0000000001
44
0.0000000001
40
-1
40
-1
40
-1
40
-1
40
0
40
0
40
0
40
0
41
1
41
1
41
1
41
1
10
10.252758050234075
20
-4.7813746746279495
30
0
10
10.073482539863079
20
-5.9114506596451282
30
0
10
10.21434186944029
20
-6.5229082039462059
30
0
10
10.79378592974655
20
-7.1119563094509131
30
0
0
SPLINE
5
186
100
AcDbEntity
8
0
100
AcDbSpline
70
4
71
3
72
8
73
4
74
0
42
0.000000001
43
0.0000000001
44
0.0000000001
40
-1
40
-1
40
-1
40
-1
40
0
40
0
40
0
40
0
41
1
41
1
41
1
41
1
10
10.79378592974655
20
-7.1119563094509131
30
0
10
11.117122118094242
20
-7.4352924977986046
30
0
10
11.29959897686472
20
-7.5185275561851386
30
0
10
11.706170223598946
20
-7.5185275561851386
30
0
0
SPLINE
5
187
100
AcDbEntity
8
0
100
AcDbSpline
70
4
71
3
72
8
73
4
74
0
42
0.000000001
43
0.0000000001
44
0.0000000001
40
-1
40
-1
40
-1
40
-1
40
0
40
0
40
0
40
0
41
1
41
1
41
1
41
1
10
11.706170223598946
20
-7.5185275561851386
30
0
10
11.994291579552334
20
-7.5185275561851386
30
0
10
12.023103715147672
20
-7.5121248593861738
30
0
10
12.260003496709349
20
-7.3936749686053371
30
0
0
SPLINE
5
188
100
AcDbEntity
8
0
100
AcDbSpline
70
4
71
3
72
8
73
4
74
0
42
0.000000001
43
0.0000000001
44
0.0000000001
40
-1
40
-1
40
-1
40
-1
40
0
40
0
40
0
40
0
41
1
41
1
41
1
41
1
10
12.260003496709349
20
-7.3936749686053371
30
0
10
12.532118110665326
20
-7.2592183358270885
30
0
10
12.833044860216642
20
-6.9935064186700746
30
0
10
13.015521718987118
20
-6.7181904563146153
30
0
0
SPLINE
5
189
100
AcDbEntity
8
0
100
AcDbSpline
70
4
71
3
72
8
73
4
74
0
42
0.000000001
43
0.0000000001
44
0.0000000001
40
-1
40
-1
40
-1
40
-1
40
0
40
0
40
0
40
0
41
1
41
1
41
1
41
1
10
13.015521718987118
20
-6.7181904563146153
30
0
10
13.297240378141543
20
-6.2924111191834973
30
0
10
13.45410644971617
20
-6.2539949383897122
30
0
10
13.751831850868005
20
-6.5389149459436169
30
0
0
SPLINE
5
190
100
AcDbEntity
8
0
100
AcDbSpline
70
4
71
3
72
8
73
4
74
0
42
0.000000001
43
0.0000000001
44
0.0000000001
40
-1
40
-1
40
-1
40
-1
40
0
40
0
40
0
40
0
41
1
41
1
41
1
41
1
10
13.751831850868005
20
-6.5389149459436169
30
0
10
13.873483090048321
20
-6.6541634883249738
30
0
10
13.886288483646251
20
-6.679774275520832
30
0
10
13.86708039324936
20
-6.7726133791058105
30
0
0
SPLINE
5
191
100
AcDbEntity
8
0
100
AcDbSpline
70
4
71
3
72
8
73
4
74
0
42
0.000000001
43
0.0000000001
44
0.0000000001
40
-1
40
-1
40
-1
40
-1
40
0
40
0
40
0
40
0
41
1
41
1
41
1
41
1
10
13.86708039324936
20
-6.7726133791058105
30
0
10
13.831865560855054
20
-6.9582915862757719
30
0
10
13.594965779293382
20
-7.4000776654043001
30
0
10
13.402884875324453
20
-7.6401787953654576
30
0
0
SPLINE
5
192
100
AcDbEntity
8
0
100
AcDbSpline
70
4
71
3
72
8
73
4
74
0
42
0.000000001
43
0.0000000001
44
0.0000000001
40
-1
40
-1
40
-1
40
-1
40
0
40
0
40
0
40
0
41
1
41
1
41
1
41
1
10
13.402884875324453
20
-7.6401787953654576
30
0
10
12.852252950613535
20
-8.3220660044551433
30
0
10
12.170365741523849
20
-8.5525630892178537
30
0
10
11.25478009927197
20
-8.3668848820478932
30
0
0
SPLINE
5
193
100
AcDbEntity
8
0
100
AcDbSpline
70
4
71
3
72
8
73
4
74
0
42
0.000000001
43
0.0000000001
44
0.0000000001
40
-1
40
-1
40
-1
40
-1
40
0
40
0
40
0
40
0
41
1
41
1
41
1
41
1
10
11.25478009927197
20
-8.3668848820478932
30
0
10
10.140710856252202
20
-8.1395891456846634
30
0
10
9.3371724079821963
20
-7.3904736202058547
30
0
10
9.0714604908251832
20
-6.3340286483767647
30
0
0
SPLINE
5
194
100
AcDbEntity
8
0
100
AcDbSpline
70
4
71
3
72
8
73
4
74
0
42
0.000000001
43
0.0000000001
44
0.0000000001
40
-1
40
-1
40
-1
40
-1
40
0
40
0
40
0
40
0
41
1
41
1
41
1
41
1
10
9.0714604908251832
20
-6.3340286483767647
30
0
10
8.9754200388407206
20
-5.9530681888383938
30
0
10
8.9690173420417576
20
-5.1559324373673538
30
0
10
9.0586550972272555
20
-4.6693274806460767
30
0
0
SPLINE
5
195
100
AcDbEntity
8
0
100
AcDbSpline
70
4
71
3
72
8
73
4
74
0
42
0.000000001
43
0.0000000001
44
0.0000000001
40
-1
40
-1
40
-1
40
-1
40
0
40
0
40
0
40
0
41
1
41
1
41
1
41
1
10
9.0586550972272555
20
-4.6693274806460767
30
0
10
9.1931117300055032
20
-3.9330173487651949
30
0
10
9.4684276923609616
20
-3.1550896876910457
30
0
10
9.8685962422962241
20
-2.3803633750163806
30
0
0
SPLINE
5
196
100
AcDbEntity
8
0
100
AcDbSpline
70
4
71
3
72
8
73
4
74
0
42
0.000000001
43
0.0000000001
44
0.0000000001
40
-1
40
-1
40
-1
40
-1
40
0
40
0
40
0
40
0
41
1
41
1
41
1
41
1
10
9.8685962422962241
20
-2.3803633750163806
30
0
10
10.220744566239254
20
-1.698476165926694
30
0
10
10.444838954203002
20
-1.3879453711769316
30
0
10
10.784181884548103
20
-1.1062267120225071
30
0
0
SPLINE
5
197
100
AcDbEntity
8
0
100
AcDbSpline
70
4
71
3
72
8
73
4
74
0
42
0.000000001
43
0.0000000001
44
0.0000000001
40
-1
40
-1
40
-1
40
-1
40
0
40
0
40
0
40
0
41
1
41
1
41
1
41
1
10
10.784181884548103
20
-1.1062267120225071
30
0
10
11.081907285699938
20
-0.86292423366186743
30
0
10
11.533297410026913
20
-0.66123928449449521
30
0
10
11.911056521165799
20
-0.61001771010278283
30
0
0
SPLINE
5
198
100
AcDbEntity
8
0
100
AcDbSpline
70
4
71
3
72
8
73
4
74
0
42
0.000000001
43
0.0000000001
44
0.0000000001
40
-1
40
-1
40
-1
40
-1
40
0
40
0
40
0
40
0
41
1
41
1
41
1
41
1
10
20.692355180945178
20
-8.9879464715474189
30
0
10
20.762784845733783
20
-8.9623356843515634
30
0
10
20.958067098102195
20
-8.9463289423541532
30
0
10
21.172557440867493
20
-8.9431275939546691
30
0
0
SPLINE
5
199
100
AcDbEntity
8
0
100
AcDbSpline
70
4
71
3
72
8
73
4
74
0
42
0.000000001
43
0.0000000001
44
0.0000000001
40
-1
40
-1
40
-1
40
-1
40
0
40
0
40
0
40
0
41
1
41
1
41
1
41
1
10
21.172557440867493
20
-8.9431275939546691
30
0
10
21.492692280815703
20
-8.9431275939546691
30
0
10
21.531108461609488
20
-8.9495302907536338
30
0
10
21.531108461609488
20
-8.9975505167458643
30
0
0
SPLINE
5
200
100
AcDbEntity
8
0
100
AcDbSpline
70
4
71
3
72
8
73
4
74
0
42
0.000000001
43
0.0000000001
44
0.0000000001
40
-1
40
-1
40
-1
40
-1
40
0
40
0
40
0
40
0
41
1
41
1
41
1
41
1
10
21.531108461609488
20
-8.9975505167458643
30
0
10
21.527907113210006
20
-9.1288058011246296
30
0
10
21.37104104163538
20
-10.01557930778117
30
0
10
21.34863160283901
20
-10.021982004580135
30
0
0
SPLINE
5
201
100
AcDbEntity
8
0
100
AcDbSpline
70
4
71
3
72
8
73
4
74
0
42
0.000000001
43
0.0000000001
44
0.0000000001
40
-1
40
-1
40
-1
40
-1
40
0
40
0
40
0
40
0
41
1
41
1
41
1
41
1
10
21.34863160283901
20
-10.021982004580135
30
0
10
21.249389802455063
20
-10.057196836974438
30
0
10
21.108530472877852
20
-10.172445379355793
30
0
10
21.079718337282515
20
-10.2428750441444
30
0
0
SPLINE
5
202
100
AcDbEntity
8
0
100
AcDbSpline
70
4
71
3
72
8
73
4
74
0
42
0.000000001
43
0.0000000001
44
0.0000000001
40
-1
40
-1
40
-1
40
-1
40
0
40
0
40
0
40
0
41
1
41
1
41
1
41
1
10
21.079718337282515
20
-10.2428750441444
30
0
10
21.06051024688562
20
-10.297297966935593
30
0
10
21.050906201687173
20
-10.94717169203046
30
0
10
21.057308898486138
20
-12.022824754256442
30
0
0
LINE
5
203
100
AcDbEntity
8
0
100
AcDbLine
10
21.057308898486138
20
-12.022824754256442
30
0
11
21.066912943684581
21
-13.71953940598195
31
0
0
LINE
5
204
100
AcDbEntity
8
0
100
AcDbLine
10
21.066912943684581
20
-13.71953940598195
30
0
11
21.172557440867489
21
-13.812378509566933
31
0
0
SPLINE
5
205
100
AcDbEntity
8
0
100
AcDbSpline
70
4
71
3
72
8
73
4
74
0
42
0.000000001
43
0.0000000001
44
0.0000000001
40
-1
40
-1
40
-1
40
-1
40
0
40
0
40
0
40
0
41
1
41
1
41
1
41
1
10
21.172557440867493
20
-13.812378509566933
30
0
10
21.268597892851957
20
-13.898814916352947
30
0
10
21.294208680047813
20
-13.905217613151914
30
0
10
21.531108461609488
20
-13.905217613151914
30
0
0
SPLINE
5
206
100
AcDbEntity
8
0
100
AcDbSpline
70
4
71
3
72
8
73
4
74
0
42
0.000000001
43
0.0000000001
44
0.0000000001
40
-1
40
-1
40
-1
40
-1
40
0
40
0
40
0
40
0
41
1
41
1
41
1
41
1
10
21.531108461609488
20
-13.905217613151914
30
0
10
21.768008243171163
20
-13.905217613151914
30
0
10
21.793619030367019
20
-13.898814916352947
30
0
10
21.88965948235148
20
-13.812378509566933
30
0
0
LINE
5
207
100
AcDbEntity
8
0
100
AcDbLine
10
21.889659482351483
20
-13.812378509566933
30
0
11
21.995303979534391
21
-13.719539405981953
31
0
0
LINE
5
208
100
AcDbEntity
8
0
100
AcDbLine
10
21.995303979534391
20
-13.719539405981953
30
0
11
22.027317463529211
21
-11.696287217509269
31
0
0
LINE
5
209
100
AcDbEntity
8
0
100
AcDbLine
10
22.027317463529211
20
-11.696287217509269
30
0
11
22.123357915513672
21
-11.616253507522217
31
0
0
SPLINE
5
210
100
AcDbEntity
8
0
100
AcDbSpline
70
4
71
3
72
8
73
4
74
0
42
0.000000001
43
0.0000000001
44
0.0000000001
40
-1
40
-1
40
-1
40
-1
40
0
40
0
40
0
40
0
41
1
41
1
41
1
41
1
10
22.123357915513672
20
-11.616253507522217
30
0
10
22.177780838304869
20
-11.571434629929469
30
0
10
22.312237471083122
20
-11.491400919942416
30
0
10
22.427486013464474
20
-11.436977997151219
30
0
0
SPLINE
5
211
100
AcDbEntity
8
0
100
AcDbSpline
70
4
71
3
72
8
73
4
74
0
42
0.000000001
43
0.0000000001
44
0.0000000001
40
-1
40
-1
40
-1
40
-1
40
0
40
0
40
0
40
0
41
1
41
1
41
1
41
1
10
22.427486013464474
20
-11.436977997151219
30
0
10
22.542734555845829
20
-11.382555074360024
30
0
10
22.67078849182511
20
-11.318528106370383
30
0
10
22.71560736941786
20
-11.296118667574007
30
0
0
SPLINE
5
212
100
AcDbEntity
8
0
100
AcDbSpline
70
4
71
3
72
8
73
4
74
0
42
0.000000001
43
0.0000000001
44
0.0000000001
40
-1
40
-1
40
-1
40
-1
40
0
40
0
40
0
40
0
41
1
41
1
41
1
41
1
10
22.71560736941786
20
-11.296118667574007
30
0
10
22.869272092593004
20
-11.216084957586956
30
0
10
22.930097712183162
20
-11.043212144014923
30
0
10
23.022936815768144
20
-10.447761341711253
30
0
0
SPLINE
5
213
100
AcDbEntity
8
0
100
AcDbSpline
70
4
71
3
72
8
73
4
74
0
42
0.000000001
43
0.0000000001
44
0.0000000001
40
-1
40
-1
40
-1
40
-1
40
0
40
0
40
0
40
0
41
1
41
1
41
1
41
1
10
23.022936815768144
20
-10.447761341711253
30
0
10
23.06775569336089
20
-10.140431895360971
30
0
10
23.118977267752605
20
-9.8747199782039594
30
0
10
23.134984009750013
20
-9.8555118878070651
30
0
0
SPLINE
5
214
100
AcDbEntity
8
0
100
AcDbSpline
70
4
71
3
72
8
73
4
74
0
42
0.000000001
43
0.0000000001
44
0.0000000001
40
-1
40
-1
40
-1
40
-1
40
0
40
0
40
0
40
0
41
1
41
1
41
1
41
1
10
23.134984009750013
20
-9.8555118878070651
30
0
10
23.150990751747425
20
-9.839505145809655
30
0
10
23.163796145345351
20
-10.681459774873444
30
0
10
23.163796145345351
20
-11.865958682681821
30
0
0
LINE
5
215
100
AcDbEntity
8
0
100
AcDbLine
10
23.163796145345351
20
-11.865958682681821
30
0
11
23.163796145345351
21
-13.905217613151914
31
0
0
LINE
5
216
100
AcDbEntity
8
0
100
AcDbLine
10
23.163796145345351
20
-13.905217613151914
30
0
11
23.570367392079582
21
-13.905217613151914
31
0
0
LINE
5
217
100
AcDbEntity
8
0
100
AcDbLine
10
23.570367392079582
20
-13.905217613151914
30
0
11
23.586374134076994
21
-14.196540317504786
31
0
0
SPLINE
5
218
100
AcDbEntity
8
0
100
AcDbSpline
70
4
71
3
72
8
73
4
74
0
42
0.000000001
43
0.0000000001
44
0.0000000001
40
-1
40
-1
40
-1
40
-1
40
0
40
0
40
0
40
0
41
1
41
1
41
1
41
1
10
23.586374134076991
20
-14.196540317504782
30
0
10
23.602380876074402
20
-14.45264818946335
30
0
10
23.618387618071814
20
-14.516675157452994
30
0
10
23.727233463654205
20
-14.72796415181881
30
0
0
SPLINE
5
219
100
AcDbEntity
8
0
100
AcDbSpline
70
4
71
3
72
8
73
4
74
0
42
0.000000001
43
0.0000000001
44
0.0000000001
40
-1
40
-1
40
-1
40
-1
40
0
40
0
40
0
40
0
41
1
41
1
41
1
41
1
10
23.727233463654205
20
-14.72796415181881
30
0
10
23.826475264038148
20
-14.9264477525867
30
0
10
23.839280657636078
20
-14.971266630179452
30
0
10
23.800864476842293
20
-14.996877417375307
30
0
0
SPLINE
5
220
100
AcDbEntity
8
0
100
AcDbSpline
70
4
71
3
72
8
73
4
74
0
42
0.000000001
43
0.0000000001
44
0.0000000001
40
-1
40
-1
40
-1
40
-1
40
0
40
0
40
0
40
0
41
1
41
1
41
1
41
1
10
23.800864476842293
20
-14.996877417375307
30
0
10
23.73363616045317
20
-15.038494946568571
30
0
10
21.07331564048355
20
-15.03209224976961
30
0
10
20.842818555720836
20
-14.990474720576342
30
0
0
SPLINE
5
221
100
AcDbEntity
8
0
100
AcDbSpline
70
4
71
3
72
8
73
4
74
0
42
0.000000001
43
0.0000000001
44
0.0000000001
40
-1
40
-1
40
-1
40
-1
40
0
40
0
40
0
40
0
41
1
41
1
41
1
41
1
10
20.842818555720836
20
-14.990474720576342
30
0
10
20.737174058537931
20
-14.971266630179452
30
0
10
20.596314728960717
20
-14.9264477525867
30
0
10
20.525885064172112
20
-14.891232920192397
30
0
0
SPLINE
5
222
100
AcDbEntity
8
0
100
AcDbSpline
70
4
71
3
72
8
73
4
74
0
42
0.000000001
43
0.0000000001
44
0.0000000001
40
-1
40
-1
40
-1
40
-1
40
0
40
0
40
0
40
0
41
1
41
1
41
1
41
1
10
20.525885064172112
20
-14.891232920192397
30
0
10
20.333804160203186
20
-14.791991119808452
30
0
10
20.100105727040994
20
-14.555091338246779
30
0
10
20.004065275056533
20
-14.356607737478889
30
0
0
LINE
5
223
100
AcDbEntity
8
0
100
AcDbLine
10
20.004065275056533
20
-14.356607737478893
30
0
11
19.91442751987103
21
-14.177332227107891
31
0
0
LINE
5
224
100
AcDbEntity
8
0
100
AcDbLine
10
19.91442751987103
20
-14.177332227107891
30
0
11
19.91442751987103
21
-9.7594714358226025
31
0
0
LINE
5
225
100
AcDbEntity
8
0
100
AcDbLine
10
19.91442751987103
20
-9.7594714358226025
30
0
11
19.988058533059121
21
-9.612209409446427
31
0
0
SPLINE
5
226
100
AcDbEntity
8
0
100
AcDbSpline
70
4
71
3
72
8
73
4
74
0
42
0.000000001
43
0.0000000001
44
0.0000000001
40
-1
40
-1
40
-1
40
-1
40
0
40
0
40
0
40
0
41
1
41
1
41
1
41
1
10
19.988058533059121
20
-9.612209409446427
30
0
10
20.135320559435293
20
-9.3176853566940743
30
0
10
20.378623037795933
20
-9.0999936655292917
30
0
10
20.692355180945178
20
-8.9879464715474189
30
0
0
SPLINE
5
227
100
AcDbEntity
8
0
100
AcDbSpline
70
4
71
3
72
8
73
4
74
0
42
0.000000001
43
0.0000000001
44
0.0000000001
40
-1
40
-1
40
-1
40
-1
40
0
40
0
40
0
40
0
41
1
41
1
41
1
41
1
10
16.812320920772883
20
-8.9943491683463836
30
0
10
16.857139798365633
20
-8.9495302907536338
30
0
10
17.033213960337147
20
-8.9431275939546691
30
0
10
18.284941184534645
20
-8.9431275939546691
30
0
0
LINE
5
228
100
AcDbEntity
8
0
100
AcDbLine
10
18.284941184534649
20
-8.9431275939546691
30
0
11
19.706339873904696
21
-8.9431275939546691
31
0
0
LINE
5
229
100
AcDbEntity
8
0
100
AcDbLine
10
19.706339873904696
20
-8.9431275939546691
30
0
11
19.706339873904692
21
-9.0103559103437938
31
0
0
SPLINE
5
230
100
AcDbEntity
8
0
100
AcDbSpline
70
4
71
3
72
8
73
4
74
0
42
0.000000001
43
0.0000000001
44
0.0000000001
40
-1
40
-1
40
-1
40
-1
40
0
40
0
40
0
40
0
41
1
41
1
41
1
41
1
10
19.706339873904696
20
-9.0103559103437938
30
0
10
19.706339873904696
20
-9.0455707427380965
30
0
10
19.677527738309358
20
-9.1160004075267018
30
0
10
19.645514254314534
20
-9.164020633518934
30
0
0
SPLINE
5
231
100
AcDbEntity
8
0
100
AcDbSpline
70
4
71
3
72
8
73
4
74
0
42
0.000000001
43
0.0000000001
44
0.0000000001
40
-1
40
-1
40
-1
40
-1
40
0
40
0
40
0
40
0
41
1
41
1
41
1
41
1
10
19.645514254314534
20
-9.164020633518934
30
0
10
19.53986975713163
20
-9.3112826598951095
30
0
10
19.443829305147165
20
-9.5865986222505715
30
0
10
19.424621214750271
20
-9.8074916618148347
30
0
0
LINE
5
232
100
AcDbEntity
8
0
100
AcDbLine
10
19.424621214750275
20
-9.8074916618148347
30
0
11
19.402211775953894
21
-10.01557930778117
31
0
0
LINE
5
233
100
AcDbEntity
8
0
100
AcDbLine
10
19.402211775953894
20
-10.01557930778117
30
0
11
18.717123218464728
21
-10.025183352979615
31
0
0
SPLINE
5
234
100
AcDbEntity
8
0
100
AcDbSpline
70
4
71
3
72
8
73
4
74
0
42
0.000000001
43
0.0000000001
44
0.0000000001
40
-1
40
-1
40
-1
40
-1
40
0
40
0
40
0
40
0
41
1
41
1
41
1
41
1
10
18.717123218464728
20
-10.025183352979615
30
0
10
18.134477809758984
20
-10.031586049778582
30
0
10
18.019229267377632
20
-10.041190094977026
30
0
10
17.971209041385404
20
-10.086008972569777
30
0
0
SPLINE
5
235
100
AcDbEntity
8
0
100
AcDbSpline
70
4
71
3
72
8
73
4
74
0
42
0.000000001
43
0.0000000001
44
0.0000000001
40
-1
40
-1
40
-1
40
-1
40
0
40
0
40
0
40
0
41
1
41
1
41
1
41
1
10
17.971209041385404
20
-10.086008972569777
30
0
10
17.919987466993689
20
-10.130827850162527
30
0
10
17.913584770194724
20
-10.19805616655165
30
0
10
17.913584770194724
20
-10.710271910468784
30
0
0
SPLINE
5
236
100
AcDbEntity
8
0
100
AcDbSpline
70
4
71
3
72
8
73
4
74
0
42
0.000000001
43
0.0000000001
44
0.0000000001
40
-1
40
-1
40
-1
40
-1
40
0
40
0
40
0
40
0
41
1
41
1
41
1
41
1
10
17.913584770194724
20
-10.710271910468784
30
0
10
17.913584770194724
20
-11.046413492414404
30
0
10
17.92639016379265
20
-11.308924061171936
30
0
10
17.945598254189544
20
-11.347340241965721
30
0
0
SPLINE
5
237
100
AcDbEntity
8
0
100
AcDbSpline
70
4
71
3
72
8
73
4
74
0
42
0.000000001
43
0.0000000001
44
0.0000000001
40
-1
40
-1
40
-1
40
-1
40
0
40
0
40
0
40
0
41
1
41
1
41
1
41
1
10
17.945598254189544
20
-11.347340241965721
30
0
10
17.977611738184365
20
-11.401763164756916
30
0
10
18.019229267377632
20
-11.408165861555879
30
0
10
18.467418043305127
20
-11.408165861555879
30
0
0
SPLINE
5
238
100
AcDbEntity
8
0
100
AcDbSpline
70
4
71
3
72
8
73
4
74
0
42
0.000000001
43
0.0000000001
44
0.0000000001
40
-1
40
-1
40
-1
40
-1
40
0
40
0
40
0
40
0
41
1
41
1
41
1
41
1
10
18.467418043305127
20
-11.408165861555879
30
0
10
19.133298510397399
20
-11.408165861555879
30
0
10
19.098083678003096
20
-11.376152377561061
30
0
10
19.098083678003096
20
-11.968401831465247
30
0
0
SPLINE
5
239
100
AcDbEntity
8
0
100
AcDbSpline
70
4
71
3
72
8
73
4
74
0
42
0.000000001
43
0.0000000001
44
0.0000000001
40
-1
40
-1
40
-1
40
-1
40
0
40
0
40
0
40
0
41
1
41
1
41
1
41
1
10
19.098083678003096
20
-11.968401831465247
30
0
10
19.098083678003096
20
-12.34295959420465
30
0
10
19.088479632804653
20
-12.435798697789634
30
0
10
19.046862103611382
20
-12.4774162269829
30
0
0
SPLINE
5
240
100
AcDbEntity
8
0
100
AcDbSpline
70
4
71
3
72
8
73
4
74
0
42
0.000000001
43
0.0000000001
44
0.0000000001
40
-1
40
-1
40
-1
40
-1
40
0
40
0
40
0
40
0
41
1
41
1
41
1
41
1
10
19.046862103611382
20
-12.4774162269829
30
0
10
19.005244574418118
20
-12.519033756176167
30
0
10
18.909204122433653
20
-12.528637801374613
30
0
10
18.512236920897877
20
-12.528637801374613
30
0
0
SPLINE
5
241
100
AcDbEntity
8
0
100
AcDbSpline
70
4
71
3
72
8
73
4
74
0
42
0.000000001
43
0.0000000001
44
0.0000000001
40
-1
40
-1
40
-1
40
-1
40
0
40
0
40
0
40
0
41
1
41
1
41
1
41
1
10
18.512236920897877
20
-12.528637801374613
30
0
10
18.243323655341378
20
-12.528637801374613
30
0
10
18.00322252538022
20
-12.544644543372023
30
0
10
17.977611738184365
20
-12.560651285369435
30
0
0
SPLINE
5
242
100
AcDbEntity
8
0
100
AcDbSpline
70
4
71
3
72
8
73
4
74
0
42
0.000000001
43
0.0000000001
44
0.0000000001
40
-1
40
-1
40
-1
40
-1
40
0
40
0
40
0
40
0
41
1
41
1
41
1
41
1
10
17.977611738184365
20
-12.560651285369435
30
0
10
17.939195557390583
20
-12.586262072565292
30
0
10
17.929591512192133
20
-12.695107918147681
30
0
10
17.929591512192133
20
-13.213726358863783
30
0
0
SPLINE
5
243
100
AcDbEntity
8
0
100
AcDbSpline
70
4
71
3
72
8
73
4
74
0
42
0.000000001
43
0.0000000001
44
0.0000000001
40
-1
40
-1
40
-1
40
-1
40
0
40
0
40
0
40
0
41
1
41
1
41
1
41
1
10
17.929591512192133
20
-13.213726358863783
30
0
10
17.929591512192133
20
-13.556270637608364
30
0
10
17.942396905790062
20
-13.847593341961234
30
0
10
17.955202299387992
20
-13.863600083958646
30
0
0
SPLINE
5
244
100
AcDbEntity
8
0
100
AcDbSpline
70
4
71
3
72
8
73
4
74
0
42
0.000000001
43
0.0000000001
44
0.0000000001
40
-1
40
-1
40
-1
40
-1
40
0
40
0
40
0
40
0
41
1
41
1
41
1
41
1
10
17.955202299387992
20
-13.863600083958646
30
0
10
17.971209041385404
20
-13.876405477556576
30
0
10
18.300947926532057
20
-13.895613567953466
30
0
10
18.691512431268873
20
-13.905217613151914
30
0
0
LINE
5
245
100
AcDbEntity
8
0
100
AcDbLine
10
18.691512431268873
20
-13.905217613151914
30
0
11
19.402211775953894
21
-13.921224355149324
31
0
0
LINE
5
246
100
AcDbEntity
8
0
100
AcDbLine
10
19.402211775953894
20
-13.921224355149324
30
0
11
19.424621214750275
21
-14.129312001115663
31
0
0
SPLINE
5
247
100
AcDbEntity
8
0
100
AcDbSpline
70
4
71
3
72
8
73
4
74
0
42
0.000000001
43
0.0000000001
44
0.0000000001
40
-1
40
-1
40
-1
40
-1
40
0
40
0
40
0
40
0
41
1
41
1
41
1
41
1
10
19.424621214750271
20
-14.129312001115659
30
0
10
19.447030653546644
20
-14.363010434277852
30
0
10
19.511057621536285
20
-14.561494035045742
30
0
10
19.62630616391764
20
-14.75677628741415
30
0
0
SPLINE
5
248
100
AcDbEntity
8
0
100
AcDbSpline
70
4
71
3
72
8
73
4
74
0
42
0.000000001
43
0.0000000001
44
0.0000000001
40
-1
40
-1
40
-1
40
-1
40
0
40
0
40
0
40
0
41
1
41
1
41
1
41
1
10
19.62630616391764
20
-14.75677628741415
30
0
10
19.719145267502622
20
-14.913642358988774
30
0
10
19.725547964301587
20
-14.977669326978413
30
0
10
19.655118299512978
20
-15.006481462573753
30
0
0
SPLINE
5
249
100
AcDbEntity
8
0
100
AcDbSpline
70
4
71
3
72
8
73
4
74
0
42
0.000000001
43
0.0000000001
44
0.0000000001
40
-1
40
-1
40
-1
40
-1
40
0
40
0
40
0
40
0
41
1
41
1
41
1
41
1
10
19.655118299512978
20
-15.006481462573753
30
0
10
19.62630616391764
20
-15.0160855077722
30
0
10
18.995640529219671
20
-15.025689552970645
30
0
10
18.252927700539825
20
-15.025689552970645
30
0
0
SPLINE
5
250
100
AcDbEntity
8
0
100
AcDbSpline
70
4
71
3
72
8
73
4
74
0
42
0.000000001
43
0.0000000001
44
0.0000000001
40
-1
40
-1
40
-1
40
-1
40
0
40
0
40
0
40
0
41
1
41
1
41
1
41
1
10
18.252927700539825
20
-15.025689552970645
30
0
10
17.084435534728861
20
-15.025689552970645
30
0
10
16.892354630759936
20
-15.01928685617168
30
0
10
16.831529011169778
20
-14.974467978578932
30
0
0
LINE
5
251
100
AcDbEntity
8
0
100
AcDbLine
10
16.831529011169778
20
-14.974467978578934
30
0
11
16.761099346381169
21
-14.9264477525867
31
0
0
LINE
5
252
100
AcDbEntity
8
0
100
AcDbLine
10
16.761099346381169
20
-14.9264477525867
30
0
11
16.761099346381165
21
-11.984408573462655
31
0
0
SPLINE
5
253
100
AcDbEntity
8
0
100
AcDbSpline
70
4
71
3
72
8
73
4
74
0
42
0.000000001
43
0.0000000001
44
0.0000000001
40
-1
40
-1
40
-1
40
-1
40
0
40
0
40
0
40
0
41
1
41
1
41
1
41
1
10
16.761099346381169
20
-11.984408573462657
30
0
10
16.761099346381169
20
-9.3529001890883752
30
0
10
16.767502043180134
20
-9.0391680459391335
30
0
10
16.812320920772883
20
-8.9943491683463836
30
0
0
SPLINE
5
254
100
AcDbEntity
8
0
100
AcDbSpline
70
4
71
3
72
8
73
4
74
0
42
0.000000001
43
0.0000000001
44
0.0000000001
40
-1
40
-1
40
-1
40
-1
40
0
40
0
40
0
40
0
41
1
41
1
41
1
41
1
10
13.021924415786087
20
-8.9815437747484541
30
0
10
13.053937899780909
20
-8.9495302907536338
30
0
10
13.345260604133777
20
-8.9431275939546691
30
0
10
14.296061078779958
20
-8.9495302907536338
30
0
0
SPLINE
5
255
100
AcDbEntity
8
0
100
AcDbSpline
70
4
71
3
72
8
73
4
74
0
42
0.000000001
43
0.0000000001
44
0.0000000001
40
-1
40
-1
40
-1
40
-1
40
0
40
0
40
0
40
0
41
1
41
1
41
1
41
1
10
14.296061078779958
20
-8.9495302907536338
30
0
10
15.515774818982635
20
-8.9591343359520792
30
0
10
15.528580212580563
20
-8.9591343359520792
30
0
10
15.672640890557258
20
-9.0327653491401669
30
0
0
SPLINE
5
256
100
AcDbEntity
8
0
100
AcDbSpline
70
4
71
3
72
8
73
4
74
0
42
0.000000001
43
0.0000000001
44
0.0000000001
40
-1
40
-1
40
-1
40
-1
40
0
40
0
40
0
40
0
41
1
41
1
41
1
41
1
10
15.672640890557258
20
-9.0327653491401669
30
0
10
15.864721794526183
20
-9.1352084979235961
30
0
10
15.967164943309612
20
-9.2344502983075412
30
0
10
16.060004046894591
20
-9.4169271570780193
30
0
0
SPLINE
5
257
100
AcDbEntity
8
0
100
AcDbSpline
70
4
71
3
72
8
73
4
74
0
42
0.000000001
43
0.0000000001
44
0.0000000001
40
-1
40
-1
40
-1
40
-1
40
0
40
0
40
0
40
0
41
1
41
1
41
1
41
1
10
16.060004046894591
20
-9.4169271570780193
30
0
10
16.133635060082682
20
-9.5641891834541948
30
0
10
16.136836408482161
20
-9.5930013190495327
30
0
10
16.146440453680608
20
-10.409345160917468
30
0
0
SPLINE
5
258
100
AcDbEntity
8
0
100
AcDbSpline
70
4
71
3
72
8
73
4
74
0
42
0.000000001
43
0.0000000001
44
0.0000000001
40
-1
40
-1
40
-1
40
-1
40
0
40
0
40
0
40
0
41
1
41
1
41
1
41
1
10
16.146440453680608
20
-10.409345160917468
30
0
10
16.156044498879055
20
-11.395360467957953
30
0
10
16.140037756881643
20
-11.491400919942416
30
0
10
15.91914471731738
20
-11.741106095102017
30
0
0
LINE
5
259
100
AcDbEntity
8
0
100
AcDbLine
10
15.919144717317383
20
-11.741106095102019
30
0
11
15.78148673613965
21
-11.901173515076122
31
0
0
LINE
5
260
100
AcDbEntity
8
0
100
AcDbLine
10
15.78148673613965
20
-11.901173515076122
30
0
11
15.887131233322561
21
-11.994012618661104
31
0
0
SPLINE
5
261
100
AcDbEntity
8
0
100
AcDbSpline
70
4
71
3
72
8
73
4
74
0
42
0.000000001
43
0.0000000001
44
0.0000000001
40
-1
40
-1
40
-1
40
-1
40
0
40
0
40
0
40
0
41
1
41
1
41
1
41
1
10
15.88713123332256
20
-11.994012618661104
30
0
10
15.947956852912718
20
-12.048435541452299
30
0
10
16.02799056289977
20
-12.150878690235725
30
0
10
16.066406743693555
20
-12.221308355024332
30
0
0
SPLINE
5
262
100
AcDbEntity
8
0
100
AcDbSpline
70
4
71
3
72
8
73
4
74
0
42
0.000000001
43
0.0000000001
44
0.0000000001
40
-1
40
-1
40
-1
40
-1
40
0
40
0
40
0
40
0
41
1
41
1
41
1
41
1
10
16.066406743693555
20
-12.221308355024332
30
0
10
16.133635060082682
20
-12.346160942604135
30
0
10
16.136836408482161
20
-12.394181168596365
30
0
10
16.146440453680608
20
-13.328974901245138
30
0
0
LINE
5
263
100
AcDbEntity
8
0
100
AcDbLine
10
16.146440453680608
20
-13.328974901245138
30
0
11
16.156044498879055
21
-14.308587511486657
31
0
0
LINE
5
264
100
AcDbEntity
8
0
100
AcDbLine
10
16.156044498879055
20
-14.308587511486657
30
0
11
16.050400001696143
21
-14.51347380905351
31
0
0
SPLINE
5
265
100
AcDbEntity
8
0
100
AcDbSpline
70
4
71
3
72
8
73
4
74
0
42
0.000000001
43
0.0000000001
44
0.0000000001
40
-1
40
-1
40
-1
40
-1
40
0
40
0
40
0
40
0
41
1
41
1
41
1
41
1
10
16.050400001696143
20
-14.51347380905351
30
0
10
15.976768988508056
20
-14.654333138630722
30
0
10
15.899936626920486
20
-14.750373590615185
30
0
10
15.79749347813706
20
-14.824004603803274
30
0
0
SPLINE
5
266
100
AcDbEntity
8
0
100
AcDbSpline
70
4
71
3
72
8
73
4
74
0
42
0.000000001
43
0.0000000001
44
0.0000000001
40
-1
40
-1
40
-1
40
-1
40
0
40
0
40
0
40
0
41
1
41
1
41
1
41
1
10
15.79749347813706
20
-14.824004603803274
30
0
10
15.538184257779012
20
-15.009682810973235
30
0
10
15.403727625000764
20
-15.025689552970645
30
0
10
14.19041658159705
20
-15.025689552970645
30
0
0
SPLINE
5
267
100
AcDbEntity
8
0
100
AcDbSpline
70
4
71
3
72
8
73
4
74
0
42
0.000000001
43
0.0000000001
44
0.0000000001
40
-1
40
-1
40
-1
40
-1
40
0
40
0
40
0
40
0
41
1
41
1
41
1
41
1
10
14.19041658159705
20
-15.025689552970645
30
0
10
13.505328024107882
20
-15.025689552970645
30
0
10
13.085951383775729
20
-15.012884159372717
30
0
10
13.044333854582462
20
-14.993676068975823
30
0
0
SPLINE
5
268
100
AcDbEntity
8
0
100
AcDbSpline
70
4
71
3
72
8
73
4
74
0
42
0.000000001
43
0.0000000001
44
0.0000000001
40
-1
40
-1
40
-1
40
-1
40
-0.29438809728666304
40
-0.29438809728666304
40
-0.29438809728666304
40
-0.29438809728666304
41
1
41
1
41
1
41
1
10
13.044333854582462
20
-14.993676068975823
30
0
10
13.001414573409733
20
-14.971086973621754
30
0
10
12.988779647888379
20
-14.930964830258995
30
0
10
12.985060076204791
20
-13.889210871155184
30
0
0
LINE
5
269
100
AcDbEntity
8
0
100
AcDbLine
10
12.985060076204787
20
-13.889210871155184
30
0
11
14.459329847153542
21
-13.889210871154505
31
0
0
SPLINE
5
270
100
AcDbEntity
8
0
100
AcDbSpline
70
4
71
3
72
8
73
4
74
0
42
0.000000001
43
0.0000000001
44
0.0000000001
40
-1
40
-1
40
-1
40
-1
40
0
40
0
40
0
40
0
41
1
41
1
41
1
41
1
10
14.459329847153546
20
-13.889210871154502
30
0
10
14.725041764310559
20
-13.889210871154502
30
0
10
14.779464687101754
20
-13.879606825956056
30
0
10
14.840290306691914
20
-13.825183903164859
30
0
0
SPLINE
5
271
100
AcDbEntity
8
0
100
AcDbSpline
70
4
71
3
72
8
73
4
74
0
42
0.000000001
43
0.0000000001
44
0.0000000001
40
-1
40
-1
40
-1
40
-1
40
0
40
0
40
0
40
0
41
1
41
1
41
1
41
1
10
14.840290306691914
20
-13.825183903164859
30
0
10
14.968344242671197
20
-13.709935360783504
30
0
10
15.000357726666019
20
-13.581881424804221
30
0
10
15.000357726666019
20
-13.162504784472068
30
0
0
SPLINE
5
272
100
AcDbEntity
8
0
100
AcDbSpline
70
4
71
3
72
8
73
4
74
0
42
0.000000001
43
0.0000000001
44
0.0000000001
40
-1
40
-1
40
-1
40
-1
40
0
40
0
40
0
40
0
41
1
41
1
41
1
41
1
10
15.000357726666019
20
-13.162504784472068
30
0
10
15.000357726666019
20
-12.704711963346128
30
0
10
14.958740197472752
20
-12.579859375766327
30
0
10
14.776263338702272
20
-12.490221620580828
30
0
0
SPLINE
5
273
100
AcDbEntity
8
0
100
AcDbSpline
70
4
71
3
72
8
73
4
74
0
42
0.000000001
43
0.0000000001
44
0.0000000001
40
-1
40
-1
40
-1
40
-1
40
0
40
0
40
0
40
0
41
1
41
1
41
1
41
1
10
14.776263338702272
20
-12.490221620580828
30
0
10
14.635404009125061
20
-12.41659060739274
30
0
10
14.225631413991353
20
-12.410187910593775
30
0
10
14.171208491200156
20
-12.4774162269829
30
0
0
SPLINE
5
274
100
AcDbEntity
8
0
100
AcDbSpline
70
4
71
3
72
8
73
4
74
0
42
0.000000001
43
0.0000000001
44
0.0000000001
40
-1
40
-1
40
-1
40
-1
40
0
40
0
40
0
40
0
41
1
41
1
41
1
41
1
10
14.171208491200156
20
-12.4774162269829
30
0
10
14.145597704004301
20
-12.506228362578238
30
0
10
14.135993658805853
20
-12.727121402142503
30
0
10
14.142396355604818
20
-13.204122313665335
30
0
0
LINE
5
275
100
AcDbEntity
8
0
100
AcDbLine
10
14.142396355604818
20
-13.204122313665335
30
0
11
14.146743391433173
21
-13.514210869421301
31
0
0
LINE
5
276
100
AcDbEntity
8
0
100
AcDbLine
10
14.146743391433173
20
-13.514210869421301
30
0
11
12.984138081013024
21
-13.514210868334001
31
0
0
SPLINE
5
277
100
AcDbEntity
8
0
100
AcDbSpline
70
4
71
3
72
8
73
4
74
0
42
0.000000001
43
0.0000000001
44
0.0000000001
40
-0.21796291935592801
40
-0.21796291935592801
40
-0.21796291935592801
40
-0.21796291935592801
40
0
40
0
40
0
40
0
41
1
41
1
41
1
41
1
10
12.984138081013025
20
-13.514210868333997
30
0
10
12.9835082349923
20
-13.121824592796191
30
0
10
12.9835082349923
20
-12.623693415686697
30
0
10
12.9835082349923
20
-11.990811270261622
30
0
0
SPLINE
5
278
100
AcDbEntity
8
0
100
AcDbSpline
70
4
71
3
72
8
73
4
74
0
42
0.000000001
43
0.0000000001
44
0.0000000001
40
-1
40
-1
40
-1
40
-1
40
-0.90398284529762152
40
-0.90398284529762152
40
-0.90398284529762152
40
-0.90398284529762152
41
1
41
1
41
1
41
1
10
12.9835082349923
20
-11.990811270261622
30
0
10
12.9835082349923
20
-11.76765022161336
30
0
10
12.983596777508547
20
-11.559866056619875
30
0
10
12.98378236414152
20
-11.36653776856248
30
0
0
LINE
5
279
100
AcDbEntity
8
0
100
AcDbLine
10
12.98378236414152
20
-11.366537768562482
30
0
11
14.563913285807301
21
-11.366537768556146
31
0
0
ARC
5
280
100
AcDbEntity
8
0
100
AcDbCircle
10
14.563913285807303
20
-10.941229824133284
30
0
40
0.42530794442286135
210
0
220
0
230
1
100
AcDbArc
50
269.99999999999972
51
319.62412645906988
0
SPLINE
5
281
100
AcDbEntity
8
0
100
AcDbSpline
70
4
71
3
72
8
73
4
74
0
42
0.000000001
43
0.0000000001
44
0.0000000001
40
-0.52379005044279359
40
-0.52379005044279359
40
-0.52379005044279359
40
-0.52379005044279359
40
0
40
0
40
0
40
0
41
1
41
1
41
1
41
1
10
14.887917621891713
20
-11.216743957686685
30
0
10
14.978944675313718
20
-11.112554104112887
30
0
10
15.004016036504956
20
-10.933288272618872
30
0
10
14.993955029867054
20
-10.639842245680178
30
0
0
SPLINE
5
282
100
AcDbEntity
8
0
100
AcDbSpline
70
4
71
3
72
8
73
4
74
0
42
0.000000001
43
0.0000000001
44
0.0000000001
40
-1
40
-1
40
-1
40
-1
40
0
40
0
40
0
40
0
41
1
41
1
41
1
41
1
10
14.993955029867054
20
-10.639842245680178
30
0
10
14.984350984668609
20
-10.287693921737148
30
0
10
14.955538849073271
20
-10.207660211750095
30
0
10
14.805075474297613
20
-10.102015714567186
30
0
0
SPLINE
5
283
100
AcDbEntity
8
0
100
AcDbSpline
70
4
71
3
72
8
73
4
74
0
42
0.000000001
43
0.0000000001
44
0.0000000001
40
-1
40
-1
40
-1
40
-1
40
0
40
0
40
0
40
0
41
1
41
1
41
1
41
1
10
14.805075474297613
20
-10.102015714567186
30
0
10
14.709035022313149
20
-10.034787398178064
30
0
10
14.232034110790316
20
-10.009176610982205
30
0
10
14.177611187999121
20
-10.066800882172885
30
0
0
SPLINE
5
284
100
AcDbEntity
8
0
100
AcDbSpline
70
4
71
3
72
8
73
4
74
0
42
0.000000001
43
0.0000000001
44
0.0000000001
40
-1
40
-1
40
-1
40
-1
40
-0.3216988287740904
40
-0.3216988287740904
40
-0.3216988287740904
40
-0.3216988287740904
41
1
41
1
41
1
41
1
10
14.177611187999121
20
-10.066800882172885
30
0
10
14.138524577359448
20
-10.105887492812561
30
0
10
14.125950460495913
20
-10.636928154631788
30
0
10
14.138889756542941
20
-10.991537768556142
30
0
0
LINE
5
285
100
AcDbEntity
8
0
100
AcDbLine
10
14.138889756542941
20
-10.991537768556142
30
0
11
12.984298944304252
21
-10.991537768556144
31
0
0
SPLINE
5
286
100
AcDbEntity
8
0
100
AcDbSpline
70
4
71
3
72
8
73
4
74
0
42
0.000000001
43
0.0000000001
44
0.0000000001
40
-0.83862243956433269
40
-0.83862243956433269
40
-0.83862243956433269
40
-0.83862243956433269
40
0
40
0
40
0
40
0
41
1
41
1
41
1
41
1
10
12.984298944304253
20
-10.991537768556144
30
0
10
12.98710822062373
20
-9.4711566312075863
30
0
10
12.997761912344066
20
-9.0057062781904769
30
0
10
13.021924415786087
20
-8.9815437747484541
30
0
0
SPLINE
5
287
100
AcDbEntity
8
0
100
AcDbSpline
70
4
71
3
72
8
73
4
74
0
42
0.000000001
43
0.0000000001
44
0.0000000001
40
-1
40
-1
40
-1
40
-1
40
0
40
0
40
0
40
0
41
1
41
1
41
1
41
1
10
9.244333304397216
20
-8.9815437747484541
30
0
10
9.2731454399925557
20
-8.9527316391531144
30
0
10
9.5836762347423186
20
-8.9431275939546691
30
0
10
10.438436257404037
20
-8.9431275939546691
30
0
0
SPLINE
5
288
100
AcDbEntity
8
0
100
AcDbSpline
70
4
71
3
72
8
73
4
74
0
42
0.000000001
43
0.0000000001
44
0.0000000001
40
-1
40
-1
40
-1
40
-1
40
0
40
0
40
0
40
0
41
1
41
1
41
1
41
1
10
10.438436257404037
20
-8.9431275939546691
30
0
10
11.456465048439343
20
-8.9431275939546691
30
0
10
11.610129771614483
20
-8.9495302907536338
30
0
10
11.747787752792213
20
-8.9975505167458643
30
0
0
SPLINE
5
289
100
AcDbEntity
8
0
100
AcDbSpline
70
4
71
3
72
8
73
4
74
0
42
0.000000001
43
0.0000000001
44
0.0000000001
40
-1
40
-1
40
-1
40
-1
40
0
40
0
40
0
40
0
41
1
41
1
41
1
41
1
10
11.747787752792213
20
-8.9975505167458643
30
0
10
11.962278095557513
20
-9.0743828783334362
30
0
10
12.221587315915563
20
-9.3144840082945919
30
0
10
12.308023722701581
20
-9.5193703058614467
30
0
0
SPLINE
5
290
100
AcDbEntity
8
0
100
AcDbSpline
70
4
71
3
72
8
73
4
74
0
42
0.000000001
43
0.0000000001
44
0.0000000001
40
-1
40
-1
40
-1
40
-1
40
0
40
0
40
0
40
0
41
1
41
1
41
1
41
1
10
12.308023722701581
20
-9.5193703058614467
30
0
10
12.375252039090702
20
-9.6794377258355517
30
0
10
12.378453387490184
20
-9.7082498614308879
30
0
10
12.368849342291739
20
-10.969581130826834
30
0
0
LINE
5
291
100
AcDbEntity
8
0
100
AcDbLine
10
12.368849342291741
20
-10.969581130826835
30
0
11
12.359245297093294
21
-12.256523187418635
31
0
0
LINE
5
292
100
AcDbEntity
8
0
100
AcDbLine
10
12.359245297093294
20
-12.256523187418635
30
0
11
12.269607541907797
21
-12.442201394588601
31
0
0
SPLINE
5
293
100
AcDbEntity
8
0
100
AcDbSpline
70
4
71
3
72
8
73
4
74
0
42
0.000000001
43
0.0000000001
44
0.0000000001
40
-1
40
-1
40
-1
40
-1
40
0
40
0
40
0
40
0
41
1
41
1
41
1
41
1
10
12.269607541907796
20
-12.442201394588597
30
0
10
12.176768438322812
20
-12.627879601758561
30
0
10
11.907855172766318
20
-12.925605002910393
30
0
10
11.799009327183926
20
-12.960819835304697
30
0
0
SPLINE
5
294
100
AcDbEntity
8
0
100
AcDbSpline
70
4
71
3
72
8
73
4
74
0
42
0.000000001
43
0.0000000001
44
0.0000000001
40
-1
40
-1
40
-1
40
-1
40
0
40
0
40
0
40
0
41
1
41
1
41
1
41
1
10
11.799009327183926
20
-12.960819835304697
30
0
10
11.766995843189104
20
-12.970423880503143
30
0
10
11.734982359194284
20
-12.996034667699
30
0
10
11.725378313995838
20
-13.018444106495373
30
0
0
SPLINE
5
295
100
AcDbEntity
8
0
100
AcDbSpline
70
4
71
3
72
8
73
4
74
0
42
0.000000001
43
0.0000000001
44
0.0000000001
40
-1
40
-1
40
-1
40
-1
40
0
40
0
40
0
40
0
41
1
41
1
41
1
41
1
10
11.725378313995838
20
-13.018444106495373
30
0
10
11.718975617196874
20
-13.040853545291748
30
0
10
11.859834946774088
20
-13.460230185623903
30
0
10
12.042311805544566
20
-13.953237839144144
30
0
0
SPLINE
5
296
100
AcDbEntity
8
0
100
AcDbSpline
70
4
71
3
72
8
73
4
74
0
42
0.000000001
43
0.0000000001
44
0.0000000001
40
-1
40
-1
40
-1
40
-1
40
0
40
0
40
0
40
0
41
1
41
1
41
1
41
1
10
12.042311805544566
20
-13.953237839144144
30
0
10
12.224788664315044
20
-14.446245492664385
30
0
10
12.375252039090702
20
-14.881628874993952
30
0
10
12.375252039090702
20
-14.920045055787735
30
0
0
SPLINE
5
297
100
AcDbEntity
8
0
100
AcDbSpline
70
4
71
3
72
8
73
4
74
0
42
0.000000001
43
0.0000000001
44
0.0000000001
40
-1
40
-1
40
-1
40
-1
40
0
40
0
40
0
40
0
41
1
41
1
41
1
41
1
10
12.375252039090702
20
-14.920045055787735
30
0
10
12.375252039090702
20
-15.022488204571161
30
0
10
12.304822374302097
20
-15.03209224976961
30
0
10
11.741385055993248
20
-15.01928685617168
30
0
0
SPLINE
5
298
100
AcDbEntity
8
0
100
AcDbSpline
70
4
71
3
72
8
73
4
74
0
42
0.000000001
43
0.0000000001
44
0.0000000001
40
-1
40
-1
40
-1
40
-1
40
0
40
0
40
0
40
0
41
1
41
1
41
1
41
1
10
11.741385055993248
20
-15.01928685617168
30
0
10
11.306001673663685
20
-15.009682810973235
30
0
10
11.25157875087249
20
-15.003280114174272
30
0
10
11.197155828081293
20
-14.945655842983593
30
0
0
SPLINE
5
299
100
AcDbEntity
8
0
100
AcDbSpline
70
4
71
3
72
8
73
4
74
0
42
0.000000001
43
0.0000000001
44
0.0000000001
40
-1
40
-1
40
-1
40
-1
40
0
40
0
40
0
40
0
41
1
41
1
41
1
41
1
10
11.197155828081293
20
-14.945655842983593
30
0
10
11.16194099568699
20
-14.91044101058929
30
0
10
11.001873575712887
20
-14.510272460654029
30
0
10
10.835403458939817
20
-14.055680987927571
30
0
0
SPLINE
5
300
100
AcDbEntity
8
0
100
AcDbSpline
70
4
71
3
72
8
73
4
74
0
42
0.000000001
43
0.0000000001
44
0.0000000001
40
-1
40
-1
40
-1
40
-1
40
0
40
0
40
0
40
0
41
1
41
1
41
1
41
1
10
10.835403458939817
20
-14.055680987927571
30
0
10
10.67213469056623
20
-13.597888166801631
30
0
10
10.521671315790572
20
-13.204122313665335
30
0
10
10.499261876994197
20
-13.175310178069996
30
0
0
SPLINE
5
301
100
AcDbEntity
8
0
100
AcDbSpline
70
4
71
3
72
8
73
4
74
0
42
0.000000001
43
0.0000000001
44
0.0000000001
40
-1
40
-1
40
-1
40
-1
40
0
40
0
40
0
40
0
41
1
41
1
41
1
41
1
10
10.499261876994197
20
-13.175310178069996
30
0
10
10.480053786597304
20
-13.146498042474658
30
0
10
10.441637605803519
20
-13.133692648876728
30
0
10
10.409624121808699
20
-13.146498042474658
30
0
0
SPLINE
5
302
100
AcDbEntity
8
0
100
AcDbSpline
70
4
71
3
72
8
73
4
74
0
42
0.000000001
43
0.0000000001
44
0.0000000001
40
-1
40
-1
40
-1
40
-1
40
0
40
0
40
0
40
0
41
1
41
1
41
1
41
1
10
10.409624121808699
20
-13.146498042474658
30
0
10
10.364805244215948
20
-13.16570613287155
30
0
10
10.358402547416985
20
-13.258545236456531
30
0
10
10.358402547416985
20
-14.046076942729124
30
0
0
SPLINE
5
303
100
AcDbEntity
8
0
100
AcDbSpline
70
4
71
3
72
8
73
4
74
0
42
0.000000001
43
0.0000000001
44
0.0000000001
40
-1
40
-1
40
-1
40
-1
40
0
40
0
40
0
40
0
41
1
41
1
41
1
41
1
10
10.358402547416985
20
-14.046076942729124
30
0
10
10.358402547416985
20
-15.118528656555625
30
0
10
10.41282547020818
20
-15.025689552970645
30
0
10
9.7725557903117615
20
-15.025689552970645
30
0
0
SPLINE
5
304
100
AcDbEntity
8
0
100
AcDbSpline
70
4
71
3
72
8
73
4
74
0
42
0.000000001
43
0.0000000001
44
0.0000000001
40
-1
40
-1
40
-1
40
-1
40
0
40
0
40
0
40
0
41
1
41
1
41
1
41
1
10
9.7725557903117615
20
-15.025689552970645
30
0
10
9.5292533119511234
20
-15.025689552970645
30
0
10
9.3019575755878936
20
-15.009682810973235
30
0
10
9.2667427431935909
20
-14.993676068975823
30
0
0
SPLINE
5
305
100
AcDbEntity
8
0
100
AcDbSpline
70
4
71
3
72
8
73
4
74
0
42
0.000000001
43
0.0000000001
44
0.0000000001
40
-1
40
-1
40
-1
40
-1
40
0
40
0
40
0
40
0
41
1
41
1
41
1
41
1
10
9.2667427431935909
20
-14.993676068975823
30
0
10
9.205917123603431
20
-14.961662584981003
30
0
10
9.205917123603431
20
-14.894434268591878
30
0
10
9.205917123603431
20
-11.990811270261622
30
0
0
LINE
5
306
100
AcDbEntity
8
0
100
AcDbLine
10
9.205917123603431
20
-11.990811270261625
30
0
11
9.2059171299770952
21
-11.987609921862143
31
0
0
LINE
5
307
100
AcDbEntity
8
0
100
AcDbLine
10
9.2059171299770952
20
-11.987609921862143
30
0
11
10.374278622132783
21
-11.987609921862141
31
0
0
LINE
5
308
100
AcDbEntity
8
0
100
AcDbLine
10
10.374278622132783
20
-11.987609921862141
30
0
11
10.374409289414395
21
-12.000415315460067
31
0
0
LINE
5
309
100
AcDbEntity
8
0
100
AcDbLine
10
10.374409289414395
20
-12.000415315460067
30
0
11
10.598503677378142
21
-12.010019360658514
31
0
0
SPLINE
5
310
100
AcDbEntity
8
0
100
AcDbSpline
70
4
71
3
72
8
73
4
74
0
42
0.000000001
43
0.0000000001
44
0.0000000001
40
-1
40
-1
40
-1
40
-1
40
0
40
0
40
0
40
0
41
1
41
1
41
1
41
1
10
10.598503677378142
20
-12.010019360658514
30
0
10
10.78098053614862
20
-12.016422057457479
30
0
10
10.845007504138263
20
-12.00361666385955
30
0
10
10.94745065292169
20
-11.945992392668872
30
0
0
SPLINE
5
311
100
AcDbEntity
8
0
100
AcDbSpline
70
4
71
3
72
8
73
4
74
0
42
0.000000001
43
0.0000000001
44
0.0000000001
40
-1
40
-1
40
-1
40
-1
40
0
40
0
40
0
40
0
41
1
41
1
41
1
41
1
10
10.94745065292169
20
-11.945992392668872
30
0
10
11.197155828081293
20
-11.801931714692179
30
0
10
11.206759873279738
20
-11.769918230697359
30
0
10
11.216363918478185
20
-11.062420234411814
30
0
0
SPLINE
5
312
100
AcDbEntity
8
0
100
AcDbSpline
70
4
71
3
72
8
73
4
74
0
42
0.000000001
43
0.0000000001
44
0.0000000001
40
-1
40
-1
40
-1
40
-1
40
0
40
0
40
0
40
0
41
1
41
1
41
1
41
1
10
11.216363918478185
20
-11.062420234411814
30
0
10
11.222766615277148
20
-10.457365386909698
30
0
10
11.219565266877668
20
-10.425351902914878
30
0
10
11.152336950488545
20
-10.306902012134042
30
0
0
SPLINE
5
313
100
AcDbEntity
8
0
100
AcDbSpline
70
4
71
3
72
8
73
4
74
0
42
0.000000001
43
0.0000000001
44
0.0000000001
40
-1
40
-1
40
-1
40
-1
40
0
40
0
40
0
40
0
41
1
41
1
41
1
41
1
10
11.152336950488545
20
-10.306902012134042
30
0
10
11.110719421295276
20
-10.236472347345435
30
0
10
11.030685711308223
20
-10.150035940559418
30
0
10
10.973061440117545
20
-10.118022456564598
30
0
0
SPLINE
5
314
100
AcDbEntity
8
0
100
AcDbSpline
70
4
71
3
72
8
73
4
74
0
42
0.000000001
43
0.0000000001
44
0.0000000001
40
-1
40
-1
40
-1
40
-1
40
0
40
0
40
0
40
0
41
1
41
1
41
1
41
1
10
10.973061440117545
20
-10.118022456564598
30
0
10
10.829000762140851
20
-10.034787398178064
30
0
10
10.454442999401447
20
-10.002773914183242
30
0
10
10.39681872821077
20
-10.073203578971848
30
0
0
SPLINE
5
315
100
AcDbEntity
8
0
100
AcDbSpline
70
4
71
3
72
8
73
4
74
0
42
0.000000001
43
0.0000000001
44
0.0000000001
40
-1
40
-1
40
-1
40
-1
40
0
40
0
40
0
40
0
41
1
41
1
41
1
41
1
10
10.39681872821077
20
-10.073203578971848
30
0
10
10.368006592615432
20
-10.10841841136615
30
0
10
10.358402547416985
20
-10.348519541327308
30
0
10
10.364805244215948
20
-11.059218886012333
30
0
0
LINE
5
316
100
AcDbEntity
8
0
100
AcDbLine
10
10.364805244215948
20
-11.059218886012333
30
0
11
10.370352007976956
21
-11.602801734591024
31
0
0
LINE
5
317
100
AcDbEntity
8
0
100
AcDbLine
10
10.370352007976956
20
-11.602801734591024
30
0
11
9.2060207161050016
21
-11.602801734591024
31
0
0
SPLINE
5
318
100
AcDbEntity
8
0
100
AcDbSpline
70
4
71
3
72
8
73
4
74
0
42
0.000000001
43
0.0000000001
44
0.0000000001
40
-0.94062268684066785
40
-0.94062268684066785
40
-0.94062268684066785
40
-0.94062268684066785
40
0
40
0
40
0
40
0
41
1
41
1
41
1
41
1
10
9.2060207161050016
20
-11.602801734591024
30
0
10
9.2071253697002593
20
-9.6390605260097164
30
0
10
9.2172319559999121
20
-9.0086451231457598
30
0
10
9.244333304397216
20
-8.9815437747484541
30
0
0
SPLINE
5
319
100
AcDbEntity
8
0
100
AcDbSpline
70
4
71
3
72
8
73
4
74
0
42
0.000000001
43
0.0000000001
44
0.0000000001
40
-1
40
-1
40
-1
40
-1
40
0
40
0
40
0
40
0
41
1
41
1
41
1
41
1
10
1.5258823132458912
20
-9.003953213544829
30
0
10
1.5578957972407121
20
-8.9431275939546691
30
0
10
1.5899092812355331
20
-8.9399262455551867
30
0
10
2.8128243698376925
20
-8.9495302907536338
30
0
0
SPLINE
5
320
100
AcDbEntity
8
0
100
AcDbSpline
70
4
71
3
72
8
73
4
74
0
42
0.000000001
43
0.0000000001
44
0.0000000001
40
-1
40
-1
40
-1
40
-1
40
0
40
0
40
0
40
0
41
1
41
1
41
1
41
1
10
2.8128243698376925
20
-8.9495302907536338
30
0
10
4.0389408068393333
20
-8.9591343359520792
30
0
10
4.0709542908341554
20
-8.9623356843515634
30
0
10
4.1990082268134392
20
-9.0295640007406863
30
0
0
SPLINE
5
321
100
AcDbEntity
8
0
100
AcDbSpline
70
4
71
3
72
8
73
4
74
0
42
0.000000001
43
0.0000000001
44
0.0000000001
40
-1
40
-1
40
-1
40
-1
40
0
40
0
40
0
40
0
41
1
41
1
41
1
41
1
10
4.1990082268134392
20
-9.0295640007406863
30
0
10
4.3782837371844359
20
-9.125604452725149
30
0
10
4.5287471119600946
20
-9.2824705242997734
30
0
10
4.6087808219471462
20
-9.4553433378718044
30
0
0
SPLINE
5
322
100
AcDbEntity
8
0
100
AcDbSpline
70
4
71
3
72
8
73
4
74
0
42
0.000000001
43
0.0000000001
44
0.0000000001
40
-1
40
-1
40
-1
40
-1
40
0
40
0
40
0
40
0
41
1
41
1
41
1
41
1
10
4.6087808219471462
20
-9.4553433378718044
30
0
10
4.6728077899367886
20
-9.5897999706500521
30
0
10
4.6760091383362701
20
-9.6538269386396927
30
0
10
4.6760091383362701
20
-10.479774825706075
30
0
0
SPLINE
5
323
100
AcDbEntity
8
0
100
AcDbSpline
70
4
71
3
72
8
73
4
74
0
42
0.000000001
43
0.0000000001
44
0.0000000001
40
-1
40
-1
40
-1
40
-1
40
0
40
0
40
0
40
0
41
1
41
1
41
1
41
1
10
4.6760091383362701
20
-10.479774825706075
30
0
10
4.6760091383362701
20
-11.472192829545524
30
0
10
4.6664050931378238
20
-11.529817100736201
30
0
10
4.4231026147771857
20
-11.763515533898394
30
0
0
LINE
5
324
100
AcDbEntity
8
0
100
AcDbLine
10
4.4231026147771857
20
-11.763515533898396
30
0
11
4.3014513755968666
21
-11.881965424679231
31
0
0
LINE
5
325
100
AcDbEntity
8
0
100
AcDbLine
10
4.3014513755968666
20
-11.881965424679231
30
0
11
4.4455120535735597
21
-12.026026102655926
31
0
0
SPLINE
5
326
100
AcDbEntity
8
0
100
AcDbSpline
70
4
71
3
72
8
73
4
74
0
42
0.000000001
43
0.0000000001
44
0.0000000001
40
-1
40
-1
40
-1
40
-1
40
0
40
0
40
0
40
0
41
1
41
1
41
1
41
1
10
4.4455120535735597
20
-12.026026102655926
30
0
10
4.5255457635606122
20
-12.106059812642977
30
0
10
4.6087808219471462
20
-12.224509703423815
30
0
10
4.6311902607435211
20
-12.291738019812939
30
0
0
SPLINE
5
327
100
AcDbEntity
8
0
100
AcDbSpline
70
4
71
3
72
8
73
4
74
0
42
0.000000001
43
0.0000000001
44
0.0000000001
40
-1
40
-1
40
-1
40
-1
40
0
40
0
40
0
40
0
41
1
41
1
41
1
41
1
10
4.6311902607435211
20
-12.291738019812939
30
0
10
4.6568010479393775
20
-12.374973078199472
30
0
10
4.6760091383362701
20
-12.714316008544575
30
0
10
4.682411835135234
20
-13.306565462448761
30
0
0
SPLINE
5
328
100
AcDbEntity
8
0
100
AcDbSpline
70
4
71
3
72
8
73
4
74
0
42
0.000000001
43
0.0000000001
44
0.0000000001
40
-1
40
-1
40
-1
40
-1
40
0
40
0
40
0
40
0
41
1
41
1
41
1
41
1
10
4.682411835135234
20
-13.306565462448761
30
0
10
4.6952172287331635
20
-14.042875594329644
30
0
10
4.6888145319341987
20
-14.222151104700639
30
0
10
4.6471970027409322
20
-14.366211782677333
30
0
0
SPLINE
5
329
100
AcDbEntity
8
0
100
AcDbSpline
70
4
71
3
72
8
73
4
74
0
42
0.000000001
43
0.0000000001
44
0.0000000001
40
-1
40
-1
40
-1
40
-1
40
0
40
0
40
0
40
0
41
1
41
1
41
1
41
1
10
4.6471970027409322
20
-14.366211782677333
30
0
10
4.5799686863518074
20
-14.590306170641078
30
0
10
4.3686796919859896
20
-14.830407300602236
30
0
10
4.1413839556227607
20
-14.932850449385665
30
0
0
SPLINE
5
330
100
AcDbEntity
8
0
100
AcDbSpline
70
4
71
3
72
8
73
4
74
0
42
0.000000001
43
0.0000000001
44
0.0000000001
40
-1
40
-1
40
-1
40
-1
40
0
40
0
40
0
40
0
41
1
41
1
41
1
41
1
10
4.1413839556227607
20
-14.932850449385665
30
0
10
3.9717124904502099
20
-15.009682810973235
30
0
10
3.9685111420507275
20
-15.009682810973235
30
0
10
2.7616027954459792
20
-15.009682810973235
30
0
0
SPLINE
5
331
100
AcDbEntity
8
0
100
AcDbSpline
70
4
71
3
72
8
73
4
74
0
42
0.000000001
43
0.0000000001
44
0.0000000001
40
-1
40
-1
40
-1
40
-1
40
0
40
0
40
0
40
0
41
1
41
1
41
1
41
1
10
2.7616027954459792
20
-15.009682810973235
30
0
10
1.7211645656142989
20
-15.009682810973235
30
0
10
1.5482917520422659
20
-15.003280114174272
30
0
10
1.5226809648464092
20
-14.961662584981003
30
0
0
SPLINE
5
332
100
AcDbEntity
8
0
100
AcDbSpline
70
4
71
3
72
8
73
4
74
0
42
0.000000001
43
0.0000000001
44
0.0000000001
40
-1
40
-1
40
-1
40
-1
40
-0.73187405370712588
40
-0.73187405370712588
40
-0.73187405370712588
40
-0.73187405370712588
41
1
41
1
41
1
41
1
10
1.5226809648464092
20
-14.961662584981003
30
0
10
1.5106638608800689
20
-14.942778564462467
30
0
10
1.5020990040987374
20
-14.511696230053882
30
0
10
1.4968629762299723
20
-13.889210871154559
30
0
0
LINE
5
333
100
AcDbEntity
8
0
100
AcDbLine
10
1.4968629762299723
20
-13.889210871154559
30
0
11
2.691173130657373
21
-13.889210871154502
31
0
0
LINE
5
334
100
AcDbEntity
8
0
100
AcDbLine
10
2.691173130657373
20
-13.889210871154502
30
0
11
2.9536836994149045
21
-13.898814916352947
31
0
0
SPLINE
5
335
100
AcDbEntity
8
0
100
AcDbSpline
70
4
71
3
72
8
73
4
74
0
42
0.000000001
43
0.0000000001
44
0.0000000001
40
-1
40
-1
40
-1
40
-1
40
0
40
0
40
0
40
0
41
1
41
1
41
1
41
1
10
2.9536836994149045
20
-13.898814916352947
30
0
10
3.4434900045356645
20
-13.914821658350359
30
0
10
3.5075169725253064
20
-13.828385251564344
30
0
10
3.5075169725253064
20
-13.168907481271031
30
0
0
SPLINE
5
336
100
AcDbEntity
8
0
100
AcDbSpline
70
4
71
3
72
8
73
4
74
0
42
0.000000001
43
0.0000000001
44
0.0000000001
40
-1
40
-1
40
-1
40
-1
40
0
40
0
40
0
40
0
41
1
41
1
41
1
41
1
10
3.5075169725253064
20
-13.168907481271031
30
0
10
3.5075169725253064
20
-12.656691737353897
30
0
10
3.48190618532945
20
-12.570255330567882
30
0
10
3.3026306749584529
20
-12.483818923781865
30
0
0
SPLINE
5
337
100
AcDbEntity
8
0
100
AcDbSpline
70
4
71
3
72
8
73
4
74
0
42
0.000000001
43
0.0000000001
44
0.0000000001
40
-1
40
-1
40
-1
40
-1
40
0
40
0
40
0
40
0
41
1
41
1
41
1
41
1
10
3.3026306749584529
20
-12.483818923781865
30
0
10
3.1873821325770972
20
-12.429396000990668
30
0
10
2.7872135826418356
20
-12.413389258993258
30
0
10
2.7135825694537474
20
-12.458208136586007
30
0
0
SPLINE
5
338
100
AcDbEntity
8
0
100
AcDbSpline
70
4
71
3
72
8
73
4
74
0
42
0.000000001
43
0.0000000001
44
0.0000000001
40
-1
40
-1
40
-1
40
-1
40
0
40
0
40
0
40
0
41
1
41
1
41
1
41
1
10
2.7135825694537474
20
-12.458208136586007
30
0
10
2.6847704338584091
20
-12.480617575382382
30
0
10
2.6751663886599624
20
-12.647087692155452
30
0
10
2.6815690854589267
20
-13.188115571667925
30
0
0
LINE
5
339
100
AcDbEntity
8
0
100
AcDbLine
10
2.6815690854589267
20
-13.188115571667925
30
0
11
2.6860361441854335
21
-13.514210858702926
31
0
0
LINE
5
340
100
AcDbEntity
8
0
100
AcDbLine
10
2.6860361441854335
20
-13.514210858702926
30
0
11
1.4942325042580318
21
-13.514210857588317
31
0
0
SPLINE
5
341
100
AcDbEntity
8
0
100
AcDbSpline
70
4
71
3
72
8
73
4
74
0
42
0.000000001
43
0.0000000001
44
0.0000000001
40
-0.68080414009338475
40
-0.68080414009338475
40
-0.68080414009338475
40
-0.68080414009338475
40
-0.42684638319830387
40
-0.42684638319830387
40
-0.42684638319830387
40
-0.42684638319830387
41
1
41
1
41
1
41
1
10
1.4942325042580309
20
-13.514210857588147
30
0
10
1.4904699910581427
20
-12.863145317303006
30
0
10
1.4896727119351316
20
-12.078098164633445
30
0
10
1.4917357978269614
20
-11.346680151561021
30
0
0
LINE
5
342
100
AcDbEntity
8
0
100
AcDbLine
10
1.4917357978269616
20
-11.346680151561021
30
0
11
2.691173130657373
21
-11.328132151568829
31
0
0
LINE
5
343
100
AcDbEntity
8
0
100
AcDbLine
10
2.691173130657373
20
-11.328132151568829
30
0
11
2.9408783058169758
21
-11.337736196767276
31
0
0
SPLINE
5
344
100
AcDbEntity
8
0
100
AcDbSpline
70
4
71
3
72
8
73
4
74
0
42
0.000000001
43
0.0000000001
44
0.0000000001
40
-1
40
-1
40
-1
40
-1
40
0
40
0
40
0
40
0
41
1
41
1
41
1
41
1
10
2.9408783058169763
20
-11.337736196767276
30
0
10
3.1201538161879734
20
-11.344138893566239
30
0
10
3.219395616571918
20
-11.331333499968311
30
0
10
3.3026306749584529
20
-11.292917319174524
30
0
0
SPLINE
5
345
100
AcDbEntity
8
0
100
AcDbSpline
70
4
71
3
72
8
73
4
74
0
42
0.000000001
43
0.0000000001
44
0.0000000001
40
-1
40
-1
40
-1
40
-1
40
0
40
0
40
0
40
0
41
1
41
1
41
1
41
1
10
3.3026306749584529
20
-11.292917319174524
30
0
10
3.4755034885304852
20
-11.209682260787991
30
0
10
3.5075169725253064
20
-11.116843157203011
30
0
10
3.5075169725253064
20
-10.678258426473963
30
0
0
SPLINE
5
346
100
AcDbEntity
8
0
100
AcDbSpline
70
4
71
3
72
8
73
4
74
0
42
0.000000001
43
0.0000000001
44
0.0000000001
40
-1
40
-1
40
-1
40
-1
40
0
40
0
40
0
40
0
41
1
41
1
41
1
41
1
10
3.5075169725253064
20
-10.678258426473963
30
0
10
3.5075169725253064
20
-10.249277740943361
30
0
10
3.4723021401310041
20
-10.162841334157347
30
0
10
3.2642144941646674
20
-10.07640492737133
30
0
0
SPLINE
5
347
100
AcDbEntity
8
0
100
AcDbSpline
70
4
71
3
72
8
73
4
74
0
42
0.000000001
43
0.0000000001
44
0.0000000001
40
-1
40
-1
40
-1
40
-1
40
0
40
0
40
0
40
0
41
1
41
1
41
1
41
1
10
3.2642144941646674
20
-10.07640492737133
30
0
10
3.1489659517833122
20
-10.028384701379098
30
0
10
2.7808108858428717
20
-10.01557930778117
30
0
10
2.7135825694537474
20
-10.057196836974438
30
0
0
SPLINE
5
348
100
AcDbEntity
8
0
100
AcDbSpline
70
4
71
3
72
8
73
4
74
0
42
0.000000001
43
0.0000000001
44
0.0000000001
40
-1
40
-1
40
-1
40
-1
40
0
40
0
40
0
40
0
41
1
41
1
41
1
41
1
10
2.7135825694537474
20
-10.057196836974438
30
0
10
2.6847704338584091
20
-10.079606275770812
30
0
10
2.6751663886599624
20
-10.23006965054647
30
0
10
2.6815690854589267
20
-10.707070562069303
30
0
0
LINE
5
349
100
AcDbEntity
8
0
100
AcDbLine
10
2.6815690854589267
20
-10.707070562069303
30
0
11
2.6859680628788261
21
-10.991537768556144
31
0
0
LINE
5
350
100
AcDbEntity
8
0
100
AcDbLine
10
2.6859680628788261
20
-10.991537768556144
30
0
11
1.4929830302931275
21
-10.991537768556144
31
0
0
SPLINE
5
351
100
AcDbEntity
8
0
100
AcDbSpline
70
4
71
3
72
8
73
4
74
0
42
0.000000001
43
0.0000000001
44
0.0000000001
40
-0.38514481986104815
40
-0.38514481986104815
40
-0.38514481986104815
40
-0.38514481986104815
40
0
40
0
40
0
40
0
41
1
41
1
41
1
41
1
10
1.4929830302931275
20
-10.991537768556148
30
0
10
1.4975321961342236
20
-9.9166733729965557
30
0
10
1.5086205547090574
20
-9.036010765113236
30
0
10
1.5258823132458912
20
-9.003953213544829
30
0
0
SPLINE
5
352
100
AcDbEntity
8
0
100
AcDbSpline
70
4
71
3
72
8
73
4
74
0
42
0.000000001
43
0.0000000001
44
0.0000000001
40
-1
40
-1
40
-1
40
-1
40
0
40
0
40
0
40
0
41
1
41
1
41
1
41
1
10
17.673483640233567
20
-1.7849125727127104
30
0
10
17.705497124228387
20
-1.7593017855168533
30
0
10
17.756718698620102
20
-1.7400936951199617
30
0
10
17.788732182614922
20
-1.7400936951199617
30
0
0
SPLINE
5
353
100
AcDbEntity
8
0
100
AcDbSpline
70
4
71
3
72
8
73
4
74
0
42
0.000000001
43
0.0000000001
44
0.0000000001
40
-1
40
-1
40
-1
40
-1
40
0
40
0
40
0
40
0
41
1
41
1
41
1
41
1
10
17.788732182614922
20
-1.7400936951199617
30
0
10
17.897578028197312
20
-1.7400936951199617
30
0
10
18.316954668529469
20
-1.9801948250811188
30
0
10
18.480223436903056
20
-2.1402622450552231
30
0
0
SPLINE
5
354
100
AcDbEntity
8
0
100
AcDbSpline
70
4
71
3
72
8
73
4
74
0
42
0.000000001
43
0.0000000001
44
0.0000000001
40
-1
40
-1
40
-1
40
-1
40
0
40
0
40
0
40
0
41
1
41
1
41
1
41
1
10
18.480223436903056
20
-2.1402622450552231
30
0
10
18.678707037670943
20
-2.3323431490241489
30
0
10
18.678707037670943
20
-2.329141800624666
30
0
10
18.582666585686479
20
-2.8957804673329961
30
0
0
SPLINE
5
355
100
AcDbEntity
8
0
100
AcDbSpline
70
4
71
3
72
8
73
4
74
0
42
0.000000001
43
0.0000000001
44
0.0000000001
40
-1
40
-1
40
-1
40
-1
40
0
40
0
40
0
40
0
41
1
41
1
41
1
41
1
10
18.582666585686479
20
-2.8957804673329961
30
0
10
18.547451753292179
20
-3.1102708100982959
30
0
10
18.52184096609632
20
-3.3151571076651511
30
0
10
18.528243662895285
20
-3.3503719400594525
30
0
0
SPLINE
5
356
100
AcDbEntity
8
0
100
AcDbSpline
70
4
71
3
72
8
73
4
74
0
42
0.000000001
43
0.0000000001
44
0.0000000001
40
-1
40
-1
40
-1
40
-1
40
0
40
0
40
0
40
0
41
1
41
1
41
1
41
1
10
18.528243662895285
20
-3.3503719400594525
30
0
10
18.537847708093729
20
-3.4111975596496138
30
0
10
18.557055798490623
20
-3.4143989080490944
30
0
10
18.94441895482796
20
-3.4079962112501314
30
0
0
SPLINE
5
357
100
AcDbEntity
8
0
100
AcDbSpline
70
4
71
3
72
8
73
4
74
0
42
0.000000001
43
0.0000000001
44
0.0000000001
40
-1
40
-1
40
-1
40
-1
40
0
40
0
40
0
40
0
41
1
41
1
41
1
41
1
10
18.94441895482796
20
-3.4079962112501314
30
0
10
19.447030653546644
20
-3.3983921660516838
30
0
10
19.482245485940947
20
-3.4143989080490944
30
0
10
19.482245485940947
20
-3.6320905992138774
30
0
0
SPLINE
5
358
100
AcDbEntity
8
0
100
AcDbSpline
70
4
71
3
72
8
73
4
74
0
42
0.000000001
43
0.0000000001
44
0.0000000001
40
-1
40
-1
40
-1
40
-1
40
0
40
0
40
0
40
0
41
1
41
1
41
1
41
1
10
19.482245485940947
20
-3.6320905992138774
30
0
10
19.482245485940947
20
-3.8433795935796957
30
0
10
19.427822563149753
20
-4.0546685879455131
30
0
10
19.350990201562183
20
-4.137903646332048
30
0
0
SPLINE
5
359
100
AcDbEntity
8
0
100
AcDbSpline
70
4
71
3
72
8
73
4
74
0
42
0.000000001
43
0.0000000001
44
0.0000000001
40
-1
40
-1
40
-1
40
-1
40
0
40
0
40
0
40
0
41
1
41
1
41
1
41
1
10
19.350990201562183
20
-4.137903646332048
30
0
10
19.293365930371504
20
-4.1987292659222071
30
0
10
19.25174840117824
20
-4.2051319627211727
30
0
10
18.861183896441421
20
-4.2051319627211727
30
0
0
SPLINE
5
360
100
AcDbEntity
8
0
100
AcDbSpline
70
4
71
3
72
8
73
4
74
0
42
0.000000001
43
0.0000000001
44
0.0000000001
40
-1
40
-1
40
-1
40
-1
40
0
40
0
40
0
40
0
41
1
41
1
41
1
41
1
10
18.861183896441421
20
-4.2051319627211727
30
0
10
18.518639617696838
20
-4.2051319627211727
30
0
10
18.425800514111859
20
-4.2147360079196181
30
0
10
18.393787030117036
20
-4.2531521887134041
30
0
0
SPLINE
5
361
100
AcDbEntity
8
0
100
AcDbSpline
70
4
71
3
72
8
73
4
74
0
42
0.000000001
43
0.0000000001
44
0.0000000001
40
-1
40
-1
40
-1
40
-1
40
0
40
0
40
0
40
0
41
1
41
1
41
1
41
1
10
18.393787030117036
20
-4.2531521887134041
30
0
10
18.352169500923768
20
-4.3011724147056363
30
0
10
18.249726352140343
20
-4.8870191718108575
30
0
10
18.038437357774523
20
-6.2571962867891937
30
0
0
LINE
5
362
100
AcDbEntity
8
0
100
AcDbLine
10
18.038437357774523
20
-6.2571962867891937
30
0
11
17.932792860591615
21
-6.9518888894768072
31
0
0
LINE
5
363
100
AcDbEntity
8
0
100
AcDbLine
10
17.932792860591615
20
-6.9518888894768072
30
0
11
18.035236009375048
21
-7.1599765354431417
31
0
0
SPLINE
5
364
100
AcDbEntity
8
0
100
AcDbSpline
70
4
71
3
72
8
73
4
74
0
42
0.000000001
43
0.0000000001
44
0.0000000001
40
-1
40
-1
40
-1
40
-1
40
0
40
0
40
0
40
0
41
1
41
1
41
1
41
1
10
18.035236009375044
20
-7.1599765354431435
30
0
10
18.144081854957435
20
-7.3776682266079261
30
0
10
18.297746578132575
20
-7.5185275561851386
30
0
10
18.477022088503571
20
-7.5537423885794412
30
0
0
SPLINE
5
365
100
AcDbEntity
8
0
100
AcDbSpline
70
4
71
3
72
8
73
4
74
0
42
0.000000001
43
0.0000000001
44
0.0000000001
40
-1
40
-1
40
-1
40
-1
40
0
40
0
40
0
40
0
41
1
41
1
41
1
41
1
10
18.477022088503571
20
-7.5537423885794412
30
0
10
18.787552883253337
20
-7.6145680081696012
30
0
10
19.139701207196364
20
-7.3200439554172485
30
0
10
19.411815821152345
20
-6.7630093339073651
30
0
0
SPLINE
5
366
100
AcDbEntity
8
0
100
AcDbSpline
70
4
71
3
72
8
73
4
74
0
42
0.000000001
43
0.0000000001
44
0.0000000001
40
-1
40
-1
40
-1
40
-1
40
0
40
0
40
0
40
0
41
1
41
1
41
1
41
1
10
19.411815821152345
20
-6.7630093339073651
30
0
10
19.680729086708837
20
-6.2187801059954086
30
0
10
19.866407293878797
20
-5.5785104260989895
30
0
10
20.058488197847723
20
-4.557280286664203
30
0
0
SPLINE
5
367
100
AcDbEntity
8
0
100
AcDbSpline
70
4
71
3
72
8
73
4
74
0
42
0.000000001
43
0.0000000001
44
0.0000000001
40
-1
40
-1
40
-1
40
-1
40
0
40
0
40
0
40
0
41
1
41
1
41
1
41
1
10
20.058488197847723
20
-4.557280286664203
30
0
10
20.173736740229078
20
-3.9266146519662297
30
0
10
20.231361011419757
20
-3.7505404899947141
30
0
10
20.369018992597489
20
-3.6032784636185387
30
0
0
SPLINE
5
368
100
AcDbEntity
8
0
100
AcDbSpline
70
4
71
3
72
8
73
4
74
0
42
0.000000001
43
0.0000000001
44
0.0000000001
40
-1
40
-1
40
-1
40
-1
40
0
40
0
40
0
40
0
41
1
41
1
41
1
41
1
10
20.369018992597489
20
-3.6032784636185387
30
0
10
20.471462141380915
20
-3.4944326180361465
30
0
10
20.481066186579362
20
-3.4912312696366654
30
0
10
20.657140348550879
20
-3.5104393600335571
30
0
0
SPLINE
5
369
100
AcDbEntity
8
0
100
AcDbSpline
70
4
71
3
72
8
73
4
74
0
42
0.000000001
43
0.0000000001
44
0.0000000001
40
-1
40
-1
40
-1
40
-1
40
0
40
0
40
0
40
0
41
1
41
1
41
1
41
1
10
20.657140348550879
20
-3.5104393600335571
30
0
10
20.986879233697529
20
-3.5392514956288976
30
0
10
21.345430254439528
20
-3.7537418383941974
30
0
10
21.387047783632791
20
-3.9426213939636403
30
0
0
SPLINE
5
370
100
AcDbEntity
8
0
100
AcDbSpline
70
4
71
3
72
8
73
4
74
0
42
0.000000001
43
0.0000000001
44
0.0000000001
40
-1
40
-1
40
-1
40
-1
40
0
40
0
40
0
40
0
41
1
41
1
41
1
41
1
10
21.387047783632791
20
-3.9426213939636403
30
0
10
21.396651828831239
20
-3.9970443167548368
30
0
10
21.374242390034865
20
-4.1186955559351555
30
0
10
21.323020815643151
20
-4.2691589307108151
30
0
0
SPLINE
5
371
100
AcDbEntity
8
0
100
AcDbSpline
70
4
71
3
72
8
73
4
74
0
42
0.000000001
43
0.0000000001
44
0.0000000001
40
-1
40
-1
40
-1
40
-1
40
0
40
0
40
0
40
0
41
1
41
1
41
1
41
1
10
21.323020815643151
20
-4.2691589307108151
30
0
10
21.21417497006076
20
-4.5924951190585048
30
0
10
21.166154744068528
20
-4.8005827650248412
30
0
10
21.050906201687173
20
-5.492074019312974
30
0
0
SPLINE
5
372
100
AcDbEntity
8
0
100
AcDbSpline
70
4
71
3
72
8
73
4
74
0
42
0.000000001
43
0.0000000001
44
0.0000000001
40
-1
40
-1
40
-1
40
-1
40
0
40
0
40
0
40
0
41
1
41
1
41
1
41
1
10
21.050906201687173
20
-5.492074019312974
30
0
10
20.922852265707888
20
-6.2411895447917827
30
0
10
20.826811813723427
20
-6.9358821474793979
30
0
10
20.826811813723427
20
-7.0927482190540196
30
0
0
SPLINE
5
373
100
AcDbEntity
8
0
100
AcDbSpline
70
4
71
3
72
8
73
4
74
0
42
0.000000001
43
0.0000000001
44
0.0000000001
40
-1
40
-1
40
-1
40
-1
40
0
40
0
40
0
40
0
41
1
41
1
41
1
41
1
10
20.826811813723427
20
-7.0927482190540196
30
0
10
20.826811813723427
20
-7.4320911493991213
30
0
10
21.153349350470602
20
-7.6625882341618334
30
0
10
21.431866661225545
20
-7.5185275561851386
30
0
0
SPLINE
5
374
100
AcDbEntity
8
0
100
AcDbSpline
70
4
71
3
72
8
73
4
74
0
42
0.000000001
43
0.0000000001
44
0.0000000001
40
-1
40
-1
40
-1
40
-1
40
0
40
0
40
0
40
0
41
1
41
1
41
1
41
1
10
21.431866661225545
20
-7.5185275561851386
30
0
10
21.848041953158216
20
-7.3040372134198375
30
0
10
22.235405109495549
20
-6.3212232547788352
30
0
10
22.504318375052044
20
-4.7973814166253606
30
0
0
SPLINE
5
375
100
AcDbEntity
8
0
100
AcDbSpline
70
4
71
3
72
8
73
4
74
0
42
0.000000001
43
0.0000000001
44
0.0000000001
40
-1
40
-1
40
-1
40
-1
40
0
40
0
40
0
40
0
41
1
41
1
41
1
41
1
10
22.504318375052044
20
-4.7973814166253606
30
0
10
22.625969614232364
20
-4.1026888139377444
30
0
10
22.677191188624079
20
-3.9170106067677843
30
0
10
22.782835685806987
20
-3.7313323995978225
30
0
0
SPLINE
5
376
100
AcDbEntity
8
0
100
AcDbSpline
70
4
71
3
72
8
73
4
74
0
42
0.000000001
43
0.0000000001
44
0.0000000001
40
-1
40
-1
40
-1
40
-1
40
0
40
0
40
0
40
0
41
1
41
1
41
1
41
1
10
22.782835685806987
20
-3.7313323995978225
30
0
10
22.898084228188342
20
-3.5264461020309676
30
0
10
22.968513892976951
20
-3.488029921237183
30
0
10
23.176601538943284
20
-3.5104393600335571
30
0
0
SPLINE
5
377
100
AcDbEntity
8
0
100
AcDbSpline
70
4
71
3
72
8
73
4
74
0
42
0.000000001
43
0.0000000001
44
0.0000000001
40
-1
40
-1
40
-1
40
-1
40
0
40
0
40
0
40
0
41
1
41
1
41
1
41
1
10
23.176601538943284
20
-3.5104393600335571
30
0
10
23.509541772489424
20
-3.5456541924278611
30
0
10
23.868092793231412
20
-3.7729499287910904
30
0
10
23.868092793231412
20
-3.9522254391620866
30
0
0
SPLINE
5
378
100
AcDbEntity
8
0
100
AcDbSpline
70
4
71
3
72
8
73
4
74
0
42
0.000000001
43
0.0000000001
44
0.0000000001
40
-1
40
-1
40
-1
40
-1
40
0
40
0
40
0
40
0
41
1
41
1
41
1
41
1
10
23.868092793231412
20
-3.9522254391620866
30
0
10
23.868092793231412
20
-4.0034470135538012
30
0
10
23.832877960837113
20
-4.1507090399299758
30
0
10
23.788059083244363
20
-4.281964324308742
30
0
0
SPLINE
5
379
100
AcDbEntity
8
0
100
AcDbSpline
70
4
71
3
72
8
73
4
74
0
42
0.000000001
43
0.0000000001
44
0.0000000001
40
-1
40
-1
40
-1
40
-1
40
0
40
0
40
0
40
0
41
1
41
1
41
1
41
1
10
23.788059083244363
20
-4.281964324308742
30
0
10
23.73363616045317
20
-4.442031744282847
30
0
10
23.608783572873367
20
-5.1399256953699437
30
0
10
23.419904017303921
20
-6.3244246031783176
30
0
0
SPLINE
5
380
100
AcDbEntity
8
0
100
AcDbSpline
70
4
71
3
72
8
73
4
74
0
42
0.000000001
43
0.0000000001
44
0.0000000001
40
-1
40
-1
40
-1
40
-1
40
0
40
0
40
0
40
0
41
1
41
1
41
1
41
1
10
23.419904017303921
20
-6.3244246031783176
30
0
10
23.263037945729302
20
-7.3168426070177661
30
0
10
23.118977267752605
20
-8.2132201588727511
30
0
10
23.099769177355714
20
-8.3188646560556609
30
0
0
SPLINE
5
381
100
AcDbEntity
8
0
100
AcDbSpline
70
4
71
3
72
8
73
4
74
0
42
0.000000001
43
0.0000000001
44
0.0000000001
40
-1
40
-1
40
-1
40
-1
40
0
40
0
40
0
40
0
41
1
41
1
41
1
41
1
10
23.099769177355714
20
-8.3188646560556609
30
0
10
23.051748951363482
20
-8.6005833152100841
30
0
10
22.782835685806987
20
-10.284492573337666
30
0
10
22.731614111415272
20
-10.636640897280696
30
0
0
SPLINE
5
382
100
AcDbEntity
8
0
100
AcDbSpline
70
4
71
3
72
8
73
4
74
0
42
0.000000001
43
0.0000000001
44
0.0000000001
40
-1
40
-1
40
-1
40
-1
40
0
40
0
40
0
40
0
41
1
41
1
41
1
41
1
10
22.731614111415272
20
-10.636640897280696
30
0
10
22.706003324219417
20
-10.799909665654283
30
0
10
22.664385795026149
20
-10.969581130826834
30
0
10
22.63877500783029
20
-11.007997311620619
30
0
0
SPLINE
5
383
100
AcDbEntity
8
0
100
AcDbSpline
70
4
71
3
72
8
73
4
74
0
42
0.000000001
43
0.0000000001
44
0.0000000001
40
-1
40
-1
40
-1
40
-1
40
0
40
0
40
0
40
0
41
1
41
1
41
1
41
1
10
22.63877500783029
20
-11.007997311620619
30
0
10
22.609962872234952
20
-11.049614840813884
30
0
10
22.520325117049456
20
-11.104037763605081
30
0
10
22.437090058662921
20
-11.132849899200421
30
0
0
SPLINE
5
384
100
AcDbEntity
8
0
100
AcDbSpline
70
4
71
3
72
8
73
4
74
0
42
0.000000001
43
0.0000000001
44
0.0000000001
40
-1
40
-1
40
-1
40
-1
40
0
40
0
40
0
40
0
41
1
41
1
41
1
41
1
10
22.437090058662921
20
-11.132849899200421
30
0
10
22.289828032286746
20
-11.180870125192651
30
0
10
22.158572747907979
20
-11.264105183579186
30
0
10
21.851243301557695
20
-11.494602268341897
30
0
0
SPLINE
5
385
100
AcDbEntity
8
0
100
AcDbSpline
70
4
71
3
72
8
73
4
74
0
42
0.000000001
43
0.0000000001
44
0.0000000001
40
-1
40
-1
40
-1
40
-1
40
0
40
0
40
0
40
0
41
1
41
1
41
1
41
1
10
21.851243301557695
20
-11.494602268341897
30
0
10
21.703981275181523
20
-11.606649462323769
30
0
10
21.563121945604308
20
-11.629058901120144
30
0
10
21.50229632601415
20
-11.555427887932057
30
0
0
SPLINE
5
386
100
AcDbEntity
8
0
100
AcDbSpline
70
4
71
3
72
8
73
4
74
0
42
0.000000001
43
0.0000000001
44
0.0000000001
40
-1
40
-1
40
-1
40
-1
40
0
40
0
40
0
40
0
41
1
41
1
41
1
41
1
10
21.50229632601415
20
-11.555427887932057
30
0
10
21.47028284201933
20
-11.517011707138272
30
0
10
21.518303068011559
20
-11.155259337996796
30
0
10
21.719988017178935
20
-9.8651159330055123
30
0
0
SPLINE
5
387
100
AcDbEntity
8
0
100
AcDbSpline
70
4
71
3
72
8
73
4
74
0
42
0.000000001
43
0.0000000001
44
0.0000000001
40
-1
40
-1
40
-1
40
-1
40
0
40
0
40
0
40
0
41
1
41
1
41
1
41
1
10
21.719988017178935
20
-9.8651159330055123
30
0
10
21.860847346756145
20
-8.9623356843515634
30
0
10
21.985699934335944
20
-8.1748039780789679
30
0
10
21.995303979534391
20
-8.1171797068882903
30
0
0
SPLINE
5
388
100
AcDbEntity
8
0
100
AcDbSpline
70
4
71
3
72
8
73
4
74
0
42
0.000000001
43
0.0000000001
44
0.0000000001
40
-1
40
-1
40
-1
40
-1
40
0
40
0
40
0
40
0
41
1
41
1
41
1
41
1
10
21.995303979534391
20
-8.1171797068882903
30
0
10
22.004908024732838
20
-8.0627567840970933
30
0
10
22.004908024732838
20
-8.0147365581048629
30
0
10
21.998505327933874
20
-8.0147365581048629
30
0
0
SPLINE
5
389
100
AcDbEntity
8
0
100
AcDbSpline
70
4
71
3
72
8
73
4
74
0
42
0.000000001
43
0.0000000001
44
0.0000000001
40
-1
40
-1
40
-1
40
-1
40
0
40
0
40
0
40
0
41
1
41
1
41
1
41
1
10
21.998505327933874
20
-8.0147365581048629
30
0
10
21.98890128273543
20
-8.0147365581048629
30
0
10
21.91206892114786
20
-8.0659581324965757
30
0
10
21.828833862761321
20
-8.1331864488857004
30
0
0
SPLINE
5
390
100
AcDbEntity
8
0
100
AcDbSpline
70
4
71
3
72
8
73
4
74
0
42
0.000000001
43
0.0000000001
44
0.0000000001
40
-1
40
-1
40
-1
40
-1
40
0
40
0
40
0
40
0
41
1
41
1
41
1
41
1
10
21.828833862761321
20
-8.1331864488857004
30
0
10
21.454276100021918
20
-8.418106456439606
30
0
10
20.99648327889598
20
-8.4853347728287307
30
0
10
20.545093154569003
20
-8.3220660044551433
30
0
0
SPLINE
5
391
100
AcDbEntity
8
0
100
AcDbSpline
70
4
71
3
72
8
73
4
74
0
42
0.000000001
43
0.0000000001
44
0.0000000001
40
-1
40
-1
40
-1
40
-1
40
0
40
0
40
0
40
0
41
1
41
1
41
1
41
1
10
20.545093154569003
20
-8.3220660044551433
30
0
10
20.244166405017687
20
-8.2132201588727511
30
0
10
19.876011339077248
20
-7.8994880157235068
30
0
10
19.741554706298995
20
-7.6337760985664938
30
0
0
LINE
5
392
100
AcDbEntity
8
0
100
AcDbLine
10
19.741554706298999
20
-7.6337760985664938
30
0
11
19.683930435108323
21
-7.5281316013835857
31
0
0
LINE
5
393
100
AcDbEntity
8
0
100
AcDbLine
10
19.683930435108323
20
-7.5281316013835857
30
0
11
19.520661666734732
21
-7.7330178989504406
31
0
0
SPLINE
5
394
100
AcDbEntity
8
0
100
AcDbSpline
70
4
71
3
72
8
73
4
74
0
42
0.000000001
43
0.0000000001
44
0.0000000001
40
-1
40
-1
40
-1
40
-1
40
0
40
0
40
0
40
0
41
1
41
1
41
1
41
1
10
19.520661666734735
20
-7.7330178989504388
30
0
10
19.110889071601026
20
-8.2484349912670556
30
0
10
18.560257146890105
20
-8.4917374696276937
30
0
10
18.012826570578667
20
-8.3988983660427134
30
0
0
SPLINE
5
395
100
AcDbEntity
8
0
100
AcDbSpline
70
4
71
3
72
8
73
4
74
0
42
0.000000001
43
0.0000000001
44
0.0000000001
40
-1
40
-1
40
-1
40
-1
40
0
40
0
40
0
40
0
41
1
41
1
41
1
41
1
10
18.012826570578667
20
-8.3988983660427134
30
0
10
17.57424183984962
20
-8.3252673528546257
30
0
10
17.020408566739217
20
-7.9795217257105593
30
0
10
16.869945191963559
20
-7.6881990213576898
30
0
0
LINE
5
396
100
AcDbEntity
8
0
100
AcDbLine
10
16.869945191963559
20
-7.6881990213576898
30
0
11
16.821924965971331
21
-7.5953599177727078
31
0
0
LINE
5
397
100
AcDbEntity
8
0
100
AcDbLine
10
16.821924965971331
20
-7.5953599177727078
30
0
11
16.690669681592563
21
-7.7586286861462952
31
0
0
SPLINE
5
398
100
AcDbEntity
8
0
100
AcDbSpline
70
4
71
3
72
8
73
4
74
0
42
0.000000001
43
0.0000000001
44
0.0000000001
40
-1
40
-1
40
-1
40
-1
40
0
40
0
40
0
40
0
41
1
41
1
41
1
41
1
10
16.690669681592563
20
-7.7586286861462952
30
0
10
16.524199564819497
20
-7.9699176805121139
30
0
10
16.264890344461445
20
-8.1780053264784502
30
0
10
16.031191911299256
20
-8.2932538688598054
30
0
0
SPLINE
5
399
100
AcDbEntity
8
0
100
AcDbSpline
70
4
71
3
72
8
73
4
74
0
42
0.000000001
43
0.0000000001
44
0.0000000001
40
-1
40
-1
40
-1
40
-1
40
0
40
0
40
0
40
0
41
1
41
1
41
1
41
1
10
16.031191911299256
20
-8.2932538688598054
30
0
10
15.864721794526183
20
-8.3732875788468579
30
0
10
15.816701568533951
20
-8.3828916240453033
30
0
10
15.509372122183674
20
-8.3828916240453033
30
0
0
SPLINE
5
400
100
AcDbEntity
8
0
100
AcDbSpline
70
4
71
3
72
8
73
4
74
0
42
0.000000001
43
0.0000000001
44
0.0000000001
40
-1
40
-1
40
-1
40
-1
40
0
40
0
40
0
40
0
41
1
41
1
41
1
41
1
10
15.509372122183674
20
-8.3828916240453033
30
0
10
15.189237282235464
20
-8.3828916240453033
30
0
10
15.163626495039606
20
-8.3764889272463385
30
0
10
14.952337500673787
20
-8.2708444300634305
30
0
0
SPLINE
5
401
100
AcDbEntity
8
0
100
AcDbSpline
70
4
71
3
72
8
73
4
74
0
42
0.000000001
43
0.0000000001
44
0.0000000001
40
-1
40
-1
40
-1
40
-1
40
0
40
0
40
0
40
0
41
1
41
1
41
1
41
1
10
14.952337500673787
20
-8.2708444300634305
30
0
10
14.651410751122471
20
-8.1203810552877727
30
0
10
14.324873214375298
20
-7.8002462153395626
30
0
10
14.254443549586691
20
-7.5857558725742624
30
0
0
SPLINE
5
402
100
AcDbEntity
8
0
100
AcDbSpline
70
4
71
3
72
8
73
4
74
0
42
0.000000001
43
0.0000000001
44
0.0000000001
40
-1
40
-1
40
-1
40
-1
40
0
40
0
40
0
40
0
41
1
41
1
41
1
41
1
10
14.254443549586691
20
-7.5857558725742624
30
0
10
14.17440983959964
20
-7.3520574394120697
30
0
10
14.187215233197568
20
-6.9358821474793979
30
0
10
14.292859730380478
20
-6.2700016803871224
30
0
0
SPLINE
5
403
100
AcDbEntity
8
0
100
AcDbSpline
70
4
71
3
72
8
73
4
74
0
42
0.000000001
43
0.0000000001
44
0.0000000001
40
-1
40
-1
40
-1
40
-1
40
0
40
0
40
0
40
0
41
1
41
1
41
1
41
1
10
14.292859730380478
20
-6.2700016803871224
30
0
10
14.344081304772191
20
-5.9530681888383938
30
0
10
14.440121756756652
20
-5.3608187349342078
30
0
10
14.504148724746294
20
-4.9574488365994647
30
0
0
SPLINE
5
404
100
AcDbEntity
8
0
100
AcDbSpline
70
4
71
3
72
8
73
4
74
0
42
0.000000001
43
0.0000000001
44
0.0000000001
40
-1
40
-1
40
-1
40
-1
40
0
40
0
40
0
40
0
41
1
41
1
41
1
41
1
10
14.504148724746294
20
-4.9574488365994647
30
0
10
14.702632325514184
20
-3.7185270059998938
30
0
10
14.702632325514184
20
-3.7153256576004128
30
0
10
14.782666035501236
20
-3.6480973412112876
30
0
0
SPLINE
5
405
100
AcDbEntity
8
0
100
AcDbSpline
70
4
71
3
72
8
73
4
74
0
42
0.000000001
43
0.0000000001
44
0.0000000001
40
-1
40
-1
40
-1
40
-1
40
0
40
0
40
0
40
0
41
1
41
1
41
1
41
1
10
14.782666035501236
20
-3.6480973412112876
30
0
10
14.872303790686734
20
-3.5776676764226822
30
0
10
15.032371210660839
20
-3.59047307002061
30
0
10
15.240458856627177
20
-3.6929162188040379
30
0
0
SPLINE
5
406
100
AcDbEntity
8
0
100
AcDbSpline
70
4
71
3
72
8
73
4
74
0
42
0.000000001
43
0.0000000001
44
0.0000000001
40
-1
40
-1
40
-1
40
-1
40
0
40
0
40
0
40
0
41
1
41
1
41
1
41
1
10
15.240458856627177
20
-3.6929162188040379
30
0
10
15.419734366998174
20
-3.7793526255900547
30
0
10
15.695050329353634
20
-4.0418631943475862
30
0
10
15.72066111654949
20
-4.1507090399299758
30
0
0
SPLINE
5
407
100
AcDbEntity
8
0
100
AcDbSpline
70
4
71
3
72
8
73
4
74
0
42
0.000000001
43
0.0000000001
44
0.0000000001
40
-1
40
-1
40
-1
40
-1
40
0
40
0
40
0
40
0
41
1
41
1
41
1
41
1
10
15.72066111654949
20
-4.1507090399299758
30
0
10
15.733466510147419
20
-4.1955279175227265
30
0
10
15.647030103361402
20
-4.8582070362155187
30
0
10
15.531781560980045
20
-5.6233293036917402
30
0
0
SPLINE
5
408
100
AcDbEntity
8
0
100
AcDbSpline
70
4
71
3
72
8
73
4
74
0
42
0.000000001
43
0.0000000001
44
0.0000000001
40
-1
40
-1
40
-1
40
-1
40
0
40
0
40
0
40
0
41
1
41
1
41
1
41
1
10
15.531781560980045
20
-5.6233293036917402
30
0
10
15.330096611812674
20
-6.9678956314742182
30
0
10
15.32369391501371
20
-7.0255199026648958
30
0
10
15.368512792606458
20
-7.1759832774405536
30
0
0
SPLINE
5
409
100
AcDbEntity
8
0
100
AcDbSpline
70
4
71
3
72
8
73
4
74
0
42
0.000000001
43
0.0000000001
44
0.0000000001
40
-1
40
-1
40
-1
40
-1
40
0
40
0
40
0
40
0
41
1
41
1
41
1
41
1
10
15.368512792606458
20
-7.1759832774405536
30
0
10
15.426137063797135
20
-7.3680641814094789
30
0
10
15.61501661936658
20
-7.5537423885794412
30
0
10
15.78148673613965
20
-7.5825545241747809
30
0
0
SPLINE
5
410
100
AcDbEntity
8
0
100
AcDbSpline
70
4
71
3
72
8
73
4
74
0
42
0.000000001
43
0.0000000001
44
0.0000000001
40
-1
40
-1
40
-1
40
-1
40
0
40
0
40
0
40
0
41
1
41
1
41
1
41
1
10
15.78148673613965
20
-7.5825545241747809
30
0
10
16.19446067967284
20
-7.6625882341618334
30
0
10
16.620240016803958
20
-7.0255199026648958
30
0
10
16.905160024357862
20
-5.9050479628461625
30
0
0
SPLINE
5
411
100
AcDbEntity
8
0
100
AcDbSpline
70
4
71
3
72
8
73
4
74
0
42
0.000000001
43
0.0000000001
44
0.0000000001
40
-1
40
-1
40
-1
40
-1
40
0
40
0
40
0
40
0
41
1
41
1
41
1
41
1
10
16.905160024357862
20
-5.9050479628461625
30
0
10
16.985193734344914
20
-5.5817117744984728
30
0
10
17.209288122308664
20
-4.3876088214916518
30
0
10
17.209288122308664
20
-4.2723602791102957
30
0
0
SPLINE
5
412
100
AcDbEntity
8
0
100
AcDbSpline
70
4
71
3
72
8
73
4
74
0
42
0.000000001
43
0.0000000001
44
0.0000000001
40
-1
40
-1
40
-1
40
-1
40
0
40
0
40
0
40
0
41
1
41
1
41
1
41
1
10
17.209288122308664
20
-4.2723602791102957
30
0
10
17.209288122308664
20
-4.2083333111206542
30
0
10
17.193281380311252
20
-4.2051319627211727
30
0
10
16.892354630759936
20
-4.2051319627211727
30
0
0
SPLINE
5
413
100
AcDbEntity
8
0
100
AcDbSpline
70
4
71
3
72
8
73
4
74
0
42
0.000000001
43
0.0000000001
44
0.0000000001
40
-1
40
-1
40
-1
40
-1
40
0
40
0
40
0
40
0
41
1
41
1
41
1
41
1
10
16.892354630759936
20
-4.2051319627211727
30
0
10
16.671461591195673
20
-4.2051319627211727
30
0
10
16.565817094012765
20
-4.1923265691232441
30
0
10
16.546609003615867
20
-4.1635144335279053
30
0
0
SPLINE
5
414
100
AcDbEntity
8
0
100
AcDbSpline
70
4
71
3
72
8
73
4
74
0
42
0.000000001
43
0.0000000001
44
0.0000000001
40
-1
40
-1
40
-1
40
-1
40
0
40
0
40
0
40
0
41
1
41
1
41
1
41
1
10
16.546609003615867
20
-4.1635144335279053
30
0
10
16.48258203562623
20
-4.0610712847444788
30
0
10
16.556213048814318
20
-3.5008353148351126
30
0
10
16.642649455600331
20
-3.446412392043916
30
0
0
SPLINE
5
415
100
AcDbEntity
8
0
100
AcDbSpline
70
4
71
3
72
8
73
4
74
0
42
0.000000001
43
0.0000000001
44
0.0000000001
40
-1
40
-1
40
-1
40
-1
40
0
40
0
40
0
40
0
41
1
41
1
41
1
41
1
10
16.642649455600331
20
-3.446412392043916
30
0
10
16.661857545997226
20
-3.4336069984459878
30
0
10
16.831529011169778
20
-3.4143989080490944
30
0
10
17.017207218339738
20
-3.4047948628506504
30
0
0
LINE
5
416
100
AcDbEntity
8
0
100
AcDbLine
10
17.017207218339738
20
-3.4047948628506495
30
0
11
17.353348800285357
21
-3.3887881208532393
31
0
0
LINE
5
417
100
AcDbEntity
8
0
100
AcDbLine
10
17.353348800285357
20
-3.3887881208532393
30
0
11
17.481402736264641
21
-2.6076591113796077
31
0
0
SPLINE
5
418
100
AcDbEntity
8
0
100
AcDbSpline
70
4
71
3
72
8
73
4
74
0
42
0.000000001
43
0.0000000001
44
0.0000000001
40
-1
40
-1
40
-1
40
-1
40
0
40
0
40
0
40
0
41
1
41
1
41
1
41
1
10
17.481402736264641
20
-2.6076591113796077
30
0
10
17.587047233447549
20
-1.9705907798826723
30
0
10
17.622262065841852
20
-1.8201274051070142
30
0
10
17.673483640233567
20
-1.7849125727127104
30
0
0
SPLINE
5
419
100
AcDbEntity
8
0
100
AcDbSpline
70
4
71
3
72
8
73
4
74
0
42
0.000000001
43
0.0000000001
44
0.0000000001
40
-1
40
-1
40
-1
40
-1
40
0
40
0
40
0
40
0
41
1
41
1
41
1
41
1
10
15.269270992222516
20
-1.5800262751458571
30
0
10
15.355707399008532
20
-1.5480127911510362
30
0
10
15.41653301859869
20
-1.5960330171432677
30
0
10
15.41653301859869
20
-1.7048788627256579
30
0
0
SPLINE
5
420
100
AcDbEntity
8
0
100
AcDbSpline
70
4
71
3
72
8
73
4
74
0
42
0.000000001
43
0.0000000001
44
0.0000000001
40
-1
40
-1
40
-1
40
-1
40
0
40
0
40
0
40
0
41
1
41
1
41
1
41
1
10
15.41653301859869
20
-1.7048788627256579
30
0
10
15.41653301859869
20
-1.8169260567075312
30
0
10
15.518976167382119
20
-1.9513826894857789
30
0
10
15.7366678585469
20
-2.127456851457294
30
0
0
SPLINE
5
421
100
AcDbEntity
8
0
100
AcDbSpline
70
4
71
3
72
8
73
4
74
0
42
0.000000001
43
0.0000000001
44
0.0000000001
40
-1
40
-1
40
-1
40
-1
40
0
40
0
40
0
40
0
41
1
41
1
41
1
41
1
10
15.7366678585469
20
-2.127456851457294
30
0
10
15.951158201312202
20
-2.3035310134288087
30
0
10
15.992775730505466
20
-2.3803633750163806
30
0
10
15.989574382105985
20
-2.6044577629801271
30
0
0
SPLINE
5
422
100
AcDbEntity
8
0
100
AcDbSpline
70
4
71
3
72
8
73
4
74
0
42
0.000000001
43
0.0000000001
44
0.0000000001
40
-1
40
-1
40
-1
40
-1
40
0
40
0
40
0
40
0
41
1
41
1
41
1
41
1
10
15.989574382105985
20
-2.6044577629801271
30
0
10
15.986373033706505
20
-2.9053845125314428
30
0
10
15.928748762515825
20
-3.0590492357065835
30
0
10
15.800694826536541
20
-3.126277552095706
30
0
0
SPLINE
5
423
100
AcDbEntity
8
0
100
AcDbSpline
70
4
71
3
72
8
73
4
74
0
42
0.000000001
43
0.0000000001
44
0.0000000001
40
-1
40
-1
40
-1
40
-1
40
0
40
0
40
0
40
0
41
1
41
1
41
1
41
1
10
15.800694826536541
20
-3.126277552095706
30
0
10
15.579801786972277
20
-3.2415260944770625
30
0
10
15.160425146640122
20
-3.1198748552967426
30
0
10
15.009961771864464
20
-2.8989818157324789
30
0
0
SPLINE
5
424
100
AcDbEntity
8
0
100
AcDbSpline
70
4
71
3
72
8
73
4
74
0
42
0.000000001
43
0.0000000001
44
0.0000000001
40
-1
40
-1
40
-1
40
-1
40
0
40
0
40
0
40
0
41
1
41
1
41
1
41
1
10
15.009961771864464
20
-2.8989818157324789
30
0
10
14.795471429099164
20
-2.575645627384787
30
0
10
14.965142894271716
20
-1.6952748175272114
30
0
10
15.269270992222516
20
-1.5800262751458571
30
0
0
SPLINE
5
425
100
AcDbEntity
8
0
100
AcDbSpline
70
4
71
3
72
8
73
4
74
0
42
0.000000001
43
0.0000000001
44
0.0000000001
40
-1
40
-1
40
-1
40
-1
40
0
40
0
40
0
40
0
41
1
41
1
41
1
41
1
10
6.9169530179737357
20
-10.034787398178064
30
0
10
6.8337179595872009
20
-10.041190094977026
30
0
10
6.6960599784094716
20
-10.098814366167705
30
0
10
6.6384357072187932
20
-10.150035940559418
30
0
0
SPLINE
5
426
100
AcDbEntity
8
0
100
AcDbSpline
70
4
71
3
72
8
73
4
74
0
42
0.000000001
43
0.0000000001
44
0.0000000001
40
-1
40
-1
40
-1
40
-1
40
0
40
0
40
0
40
0
41
1
41
1
41
1
41
1
10
6.6384357072187932
20
-10.150035940559418
30
0
10
6.4943750292420992
20
-10.281291224938183
30
0
10
6.4847709840436529
20
-10.338915496128863
30
0
10
6.4847709840436529
20
-11.184071473592134
30
0
0
LINE
5
427
100
AcDbEntity
8
0
100
AcDbLine
10
6.4847709840436529
20
-11.184071473592136
30
0
11
6.484770984043652
21
-11.602801734591024
31
0
0
LINE
5
428
100
AcDbEntity
8
0
100
AcDbLine
10
6.484770984043652
20
-11.602801734591024
30
0
11
5.3006926661250988
21
-11.602801734591024
31
0
0
SPLINE
5
429
100
AcDbEntity
8
0
100
AcDbSpline
70
4
71
3
72
8
73
4
74
0
42
0.000000001
43
0.0000000001
44
0.0000000001
40
-0.86505417541234075
40
-0.86505417541234075
40
-0.86505417541234075
40
-0.86505417541234075
40
0
40
0
40
0
40
0
41
1
41
1
41
1
41
1
10
5.3006926661250988
20
-11.602801734591013
30
0
10
5.3026413859571839
20
-10.136923133822428
30
0
10
5.3122908848285286
20
-9.8027619910333428
30
0
10
5.3482923022275095
20
-9.6698336806371046
30
0
0
SPLINE
5
430
100
AcDbEntity
8
0
100
AcDbSpline
70
4
71
3
72
8
73
4
74
0
42
0.000000001
43
0.0000000001
44
0.0000000001
40
-1
40
-1
40
-1
40
-1
40
0
40
0
40
0
40
0
41
1
41
1
41
1
41
1
10
5.3482923022275095
20
-9.6698336806371046
30
0
10
5.4315273606140435
20
-9.346497492289414
30
0
10
5.6268096129824521
20
-9.125604452725149
30
0
10
5.9373404077322141
20
-9.003953213544829
30
0
0
SPLINE
5
431
100
AcDbEntity
8
0
100
AcDbSpline
70
4
71
3
72
8
73
4
74
0
42
0.000000001
43
0.0000000001
44
0.0000000001
40
-1
40
-1
40
-1
40
-1
40
0
40
0
40
0
40
0
41
1
41
1
41
1
41
1
10
5.9373404077322141
20
-9.003953213544829
30
0
10
6.0685956921109803
20
-8.9495302907536338
30
0
10
6.1742401892938901
20
-8.9463289423541532
30
0
10
6.9489665019685569
20
-8.9527316391531144
30
0
0
LINE
5
432
100
AcDbEntity
8
0
100
AcDbLine
10
6.9489665019685569
20
-8.9527316391531162
30
0
11
7.8133305698287217
21
-8.9591343359520792
31
0
0
LINE
5
433
100
AcDbEntity
8
0
100
AcDbLine
10
7.8133305698287217
20
-8.9591343359520792
30
0
11
7.983002035001272
21
-9.0519734395370595
31
0
0
SPLINE
5
434
100
AcDbEntity
8
0
100
AcDbSpline
70
4
71
3
72
8
73
4
74
0
42
0.000000001
43
0.0000000001
44
0.0000000001
40
-1
40
-1
40
-1
40
-1
40
0
40
0
40
0
40
0
41
1
41
1
41
1
41
1
10
7.983002035001272
20
-9.0519734395370595
30
0
10
8.1750829389701973
20
-9.1576179367199693
30
0
10
8.3063382233489644
20
-9.2952759178976994
30
0
10
8.4119827205318725
20
-9.49696086706507
30
0
0
LINE
5
435
100
AcDbEntity
8
0
100
AcDbLine
10
8.4119827205318725
20
-9.49696086706507
30
0
11
8.4856137337199584
21
-9.6314174998433195
31
0
0
LINE
5
436
100
AcDbEntity
8
0
100
AcDbLine
10
8.4856137337199584
20
-9.6314174998433195
30
0
11
8.5048218241168527
21
-14.913642358988774
31
0
0
LINE
5
437
100
AcDbEntity
8
0
100
AcDbLine
10
8.5048218241168527
20
-14.913642358988774
30
0
11
8.4343921593282456
21
-14.968065281779968
31
0
0
SPLINE
5
438
100
AcDbEntity
8
0
100
AcDbSpline
70
4
71
3
72
8
73
4
74
0
42
0.000000001
43
0.0000000001
44
0.0000000001
40
-1
40
-1
40
-1
40
-1
40
0
40
0
40
0
40
0
41
1
41
1
41
1
41
1
10
8.4343921593282456
20
-14.968065281779968
30
0
10
8.3383517073437829
20
-15.04809899176702
30
0
10
7.4675849426846561
20
-15.054501688565983
30
0
10
7.3555377487027824
20
-14.974467978578932
30
0
0
SPLINE
5
439
100
AcDbEntity
8
0
100
AcDbSpline
70
4
71
3
72
8
73
4
74
0
42
0.000000001
43
0.0000000001
44
0.0000000001
40
-1
40
-1
40
-1
40
-1
40
0
40
0
40
0
40
0
41
1
41
1
41
1
41
1
10
7.3555377487027824
20
-14.974467978578932
30
0
10
7.2851080839141753
20
-14.9264477525867
30
0
10
7.2851080839141753
20
-14.920045055787735
30
0
10
7.2851080839141753
20
-14.020466155533269
30
0
0
SPLINE
5
440
100
AcDbEntity
8
0
100
AcDbSpline
70
4
71
3
72
8
73
4
74
0
42
0.000000001
43
0.0000000001
44
0.0000000001
40
-1
40
-1
40
-1
40
-1
40
0
40
0
40
0
40
0
41
1
41
1
41
1
41
1
10
7.2851080839141753
20
-14.020466155533269
30
0
10
7.2851080839141753
20
-13.220129055662747
30
0
10
7.2787053871152114
20
-13.108081861680873
30
0
10
7.2338865095224616
20
-13.092075119683461
30
0
0
SPLINE
5
441
100
AcDbEntity
8
0
100
AcDbSpline
70
4
71
3
72
8
73
4
74
0
42
0.000000001
43
0.0000000001
44
0.0000000001
40
-1
40
-1
40
-1
40
-1
40
0
40
0
40
0
40
0
41
1
41
1
41
1
41
1
10
7.2338865095224616
20
-13.092075119683461
30
0
10
7.1378460575379998
20
-13.056860287289158
30
0
10
6.5327912100358834
20
-13.069665680887086
30
0
10
6.4911736808426177
20
-13.111283210080353
30
0
0
SPLINE
5
442
100
AcDbEntity
8
0
100
AcDbSpline
70
4
71
3
72
8
73
4
74
0
42
0.000000001
43
0.0000000001
44
0.0000000001
40
-1
40
-1
40
-1
40
-1
40
0
40
0
40
0
40
0
41
1
41
1
41
1
41
1
10
6.4911736808426177
20
-13.111283210080353
30
0
10
6.462361545247278
20
-13.140095345675693
30
0
10
6.4527575000488318
20
-13.393001869234777
30
0
10
6.4527575000488318
20
-14.055680987927571
30
0
0
SPLINE
5
443
100
AcDbEntity
8
0
100
AcDbSpline
70
4
71
3
72
8
73
4
74
0
42
0.000000001
43
0.0000000001
44
0.0000000001
40
-1
40
-1
40
-1
40
-1
40
0
40
0
40
0
40
0
41
1
41
1
41
1
41
1
10
6.4527575000488318
20
-14.055680987927571
30
0
10
6.4527575000488318
20
-14.916843707388255
30
0
10
6.4495561516493494
20
-14.961662584981003
30
0
10
6.3919318804586727
20
-14.993676068975823
30
0
0
SPLINE
5
444
100
AcDbEntity
8
0
100
AcDbSpline
70
4
71
3
72
8
73
4
74
0
42
0.000000001
43
0.0000000001
44
0.0000000001
40
-1
40
-1
40
-1
40
-1
40
0
40
0
40
0
40
0
41
1
41
1
41
1
41
1
10
6.3919318804586727
20
-14.993676068975823
30
0
10
6.3567170480643682
20
-15.009682810973235
30
0
10
6.1262199633016587
20
-15.025689552970645
30
0
10
5.8797161365415365
20
-15.025689552970645
30
0
0
SPLINE
5
445
100
AcDbEntity
8
0
100
AcDbSpline
70
4
71
3
72
8
73
4
74
0
42
0.000000001
43
0.0000000001
44
0.0000000001
40
-1
40
-1
40
-1
40
-1
40
0
40
0
40
0
40
0
41
1
41
1
41
1
41
1
10
5.8797161365415365
20
-15.025689552970645
30
0
10
5.4699435414078295
20
-15.025689552970645
30
0
10
5.4219233154155981
20
-15.01928685617168
30
0
10
5.3642990442249197
20
-14.961662584981003
30
0
0
SPLINE
5
446
100
AcDbEntity
8
0
100
AcDbSpline
70
4
71
3
72
8
73
4
74
0
42
0.000000001
43
0.0000000001
44
0.0000000001
40
-1
40
-1
40
-1
40
-1
40
0
40
0
40
0
40
0
41
1
41
1
41
1
41
1
10
5.3642990442249197
20
-14.961662584981003
30
0
10
5.3002720762352782
20
-14.897635616991362
30
0
10
5.3002720762352782
20
-14.856018087798095
30
0
10
5.3002720762352782
20
-12.374973078199472
30
0
0
SPLINE
5
447
100
AcDbEntity
8
0
100
AcDbSpline
70
4
71
3
72
8
73
4
74
0
42
0.000000001
43
0.0000000001
44
0.0000000001
40
-1
40
-1
40
-1
40
-1
40
-0.93613819105895546
40
-0.93613819105895546
40
-0.93613819105895546
40
-0.93613819105895546
41
1
41
1
41
1
41
1
10
5.3002720762352782
20
-12.374973078199472
30
0
10
5.3002720762352782
20
-12.239017884804912
30
0
10
5.3002981885498199
20
-12.110021623235708
30
0
10
5.3003579172872941
20
-11.98760992186217
30
0
0
LINE
5
448
100
AcDbEntity
8
0
100
AcDbLine
10
5.3003579172872941
20
-11.98760992186217
30
0
11
6.484770984043652
21
-11.987609921862141
31
0
0
LINE
5
449
100
AcDbEntity
8
0
100
AcDbLine
10
6.484770984043652
20
-11.987609921862141
30
0
11
6.910550321174771
21
-11.978005876663694
31
0
0
LINE
5
450
100
AcDbEntity
8
0
100
AcDbLine
10
6.910550321174771
20
-11.978005876663694
30
0
11
7.3331283099064066
21
-11.968401831465249
31
0
0
LINE
5
451
100
AcDbEntity
8
0
100
AcDbLine
10
7.3331283099064066
20
-11.968401831465249
30
0
11
7.3331283099064084
21
-11.168064731594725
31
0
0
SPLINE
5
452
100
AcDbEntity
8
0
100
AcDbSpline
70
4
71
3
72
8
73
4
74
0
42
0.000000001
43
0.0000000001
44
0.0000000001
40
-1
40
-1
40
-1
40
-1
40
0
40
0
40
0
40
0
41
1
41
1
41
1
41
1
10
7.3331283099064066
20
-11.168064731594725
30
0
10
7.3331283099064066
20
-10.249277740943361
30
0
10
7.3235242647079613
20
-10.201257514951131
30
0
10
7.0834231347468037
20
-10.09241166936874
30
0
0
SPLINE
5
453
100
AcDbEntity
8
0
100
AcDbSpline
70
4
71
3
72
8
73
4
74
0
42
0.000000001
43
0.0000000001
44
0.0000000001
40
-1
40
-1
40
-1
40
-1
40
0
40
0
40
0
40
0
41
1
41
1
41
1
41
1
10
7.0834231347468037
20
-10.09241166936874
30
0
10
7.0097921215587151
20
-10.06039818537392
30
0
10
6.9361611083706283
20
-10.034787398178064
30
0
10
6.9169530179737357
20
-10.034787398178064
30
0
0
ENDSEC
0
SECTION
2
OBJECTS
0
DICTIONARY
5
C
100
AcDbDictionary
3
ACAD_GROUP
350
D
3
ACAD_MLINESTYLE
350
17
0
DICTIONARY
5
D
100
AcDbDictionary
0
DICTIONARY
5
1A
330
C
100
AcDbDictionary
0
DICTIONARY
5
17
100
AcDbDictionary
0
ENDSEC
0
EOF
