0
SECTION
2
HEADER
9
$INSUNITS
70
1
9
$ACADVER
1
AC1014
9
$HANDSEED
5
FFFF
0
ENDSEC
0
SECTION
2
TABLES
0
TABLE
2
VPORT
5
8
100
AcDbSymbolTable
0
ENDTAB
0
TABLE
2
LTYPE
5
5
100
AcDbSymbolTable
0
LTYPE
5
14
100
AcDbSymbolTableRecord
100
AcDbLinetypeTableRecord
2
BYBLOCK
70
0
0
LTYPE
5
15
100
AcDbSymbolTableRecord
100
AcDbLinetypeTableRecord
2
BYLAYER
70
0
0
ENDTAB
0
TABLE
2
LAYER
5
2
100
AcDbSymbolTable
70
2
0
LAYER
5
50
100
AcDbSymbolTableRecord
100
AcDbLayerTableRecord
2
0
70
0
6
CONTINUOUS
0
ENDTAB
0
TABLE
2
STYLE
5
3
100
AcDbSymbolTable
70
1
0
STYLE
5
11
100
AcDbSymbolTableRecord
100
AcDbTextStyleTableRecord
2
STANDARD
70
0
0
ENDTAB
0
TABLE
2
VIEW
5
6
100
AcDbSymbolTable
70
0
0
ENDTAB
0
TABLE
2
UCS
5
7
100
AcDbSymbolTable
70
0
0
ENDTAB
0
TABLE
2
APPID
5
9
100
AcDbSymbolTable
70
2
0
APPID
5
12
100
AcDbSymbolTableRecord
100
AcDbRegAppTableRecord
2
ACAD
70
0
0
ENDTAB
0
TABLE
2
DIMSTYLE
5
A
100
AcDbSymbolTable
70
1
0
ENDTAB
0
TABLE
2
BLOCK_RECORD
5
1
100
AcDbSymbolTable
70
1
0
BLOCK_RECORD
5
1F
100
AcDbSymbolTableRecord
100
AcDbBlockTableRecord
2
*MODEL_SPACE
0
BLOCK_RECORD
5
1B
100
AcDbSymbolTableRecord
100
AcDbBlockTableRecord
2
*PAPER_SPACE
0
ENDTAB
0
ENDSEC
0
SECTION
2
BLOCKS
0
BLOCK
5
20
100
AcDbEntity
100
AcDbBlockBegin
2
*MODEL_SPACE
0
ENDBLK
5
21
100
AcDbEntity
100
AcDbBlockEnd
0
BLOCK
5
1C
100
AcDbEntity
100
AcDbBlockBegin
2
*PAPER_SPACE
0
ENDBLK
5
1D
100
AcDbEntity
100
AcDbBlockEnd
0
ENDSEC
0
SECTION
2
ENTITIES
0
LWPOLYLINE
5
100
100
AcDbEntity
8
0
100
AcDbPolyline
90
6
70
1
43
0.0
10
6.7228910858045019
20
-0.35274867970949547
10
6.464087040623629
20
-0.1652745313427619
10
6.4549290719281087
20
-0.072812148609645369
10
6.9753856654045663
20
-0.36506854340795775
10
6.5124983188982535
20
-0.65405346139256171
10
6.5025638981703393
20
-0.55375171958542113
0
LWPOLYLINE
5
101
100
AcDbEntity
8
0
100
AcDbPolyline
90
8
70
1
43
0.0
10
5.8518346167462916
20
-0.1067079333123402
42
0.41421356237309609
10
5.9818346167462915
20
0.02329206668766147
10
5.9818346167462604
20
3.6632920666876618
42
0.41421356237310608
10
5.8518346167462605
20
3.7932920666876595
10
5.7218346167462615
20
3.7932920666876586
42
0.41421356237309348
10
5.5918346167462616
20
3.6632920666876596
10
5.591834616746298
20
0.023292066687659381
42
0.41421356237307316
10
5.7218346167462917
20
-0.10670793331234103
0
ARC
5
102
100
AcDbEntity
8
0
100
AcDbCircle
10
5.2668346167462996
20
5.093292066687658
30
0
40
0.32499999999999996
210
0
220
0
230
1
100
AcDbArc
50
0
51
180
0
ARC
5
103
100
AcDbEntity
8
0
100
AcDbCircle
10
12.124334653048816
20
-0.91920791775406152
30
0
40
1.8527851249164293
210
0
220
0
230
1
100
AcDbArc
50
195.25511870305843
51
217.87498365109863
0
LINE
5
104
100
AcDbEntity
8
0
100
AcDbLine
10
10.856688483133599
20
-0.33189830118929015
30
0
11
10.726980737911976
21
-0.33189830118929181
31
0
0
ARC
5
105
100
AcDbEntity
8
0
100
AcDbCircle
10
10.726834604299716
20
-0.46189821905452527
30
0
40
0.13000000000000031
210
0
220
-0
230
1
100
AcDbArc
50
89.935593530839768
51
180
0
LWPOLYLINE
5
106
100
AcDbEntity
8
0
100
AcDbPolyline
90
4
70
1
43
0.0
10
6.2496394983196959
20
0.042078321307757016
10
6.3154022267834238
20
0.005150019939658545
10
6.4427189782399017
20
-1.2802889887414042
10
6.2496394983196959
20
-1.2802889887414042
0
ARC
5
107
100
AcDbEntity
8
0
100
AcDbCircle
10
10.986834616746306
20
-2.0567079540565905
30
0
40
0.32500001037214682
210
0
220
0
230
1
100
AcDbArc
50
-180
51
90.000000000000313
0
SPLINE
5
108
100
AcDbEntity
8
0
100
AcDbSpline
70
4
71
2
72
6
73
3
74
0
42
0.000000001
43
0.0000000001
44
0.0000000001
40
0
40
0
40
0
40
7.5079876712145426
40
7.5079876712145426
40
7.5079876712145426
41
1
41
3
41
1
10
6.6318346167463034
20
-1.4067079333123329
30
0
10
7.7368346655564011
20
-0.75670794307434419
30
1.092739197465705e-17
10
10.336834596002008
20
-1.4067079333123027
30
0
0
ARC
5
109
100
AcDbEntity
8
0
100
AcDbCircle
10
0.84683462919287589
20
-0.4618982190545653
30
0
40
0.13000000000000037
210
0
220
0
230
1
100
AcDbArc
50
0
51
89.999999999999801
0
LINE
5
110
100
AcDbEntity
8
0
100
AcDbLine
10
0.84683462919287633
20
-0.33189821905456496
30
0
11
0.71683461674630022
21
-0.3318982190545644
31
0
0
SPLINE
5
111
100
AcDbEntity
8
0
100
AcDbSpline
70
4
71
2
72
6
73
3
74
0
42
0.000000001
43
0.0000000001
44
0.0000000001
40
-17.489668853743026
40
-17.489668853743026
40
-17.489668853743026
40
-17.431234478091682
40
-17.431234478091682
40
-17.431234478091682
41
1
41
1.0066821591809427
41
1.0133196671105664
10
4.9418346167463003
20
5.093292066687658
30
0
10
4.9502480337166928
20
5.0415171930236991
30
0
10
4.9584535157930665
20
4.9906952260288433
30
0
0
SPLINE
5
112
100
AcDbEntity
8
0
100
AcDbSpline
70
4
71
2
72
6
73
3
74
0
42
0.000000001
43
0.0000000001
44
0.0000000001
40
0
40
0
40
0
40
17.431234475893213
40
17.431234475893213
40
17.431234475893213
41
1
41
2.993317840567653
41
1.0133196676100098
10
10.432024898192244
20
-1.1768982190545272
30
0
10
5.7920194824550917
20
-0.10790245766511007
30
0
10
6.6152157170861026
20
4.990695222229772
30
0
0
LINE
5
113
100
AcDbEntity
8
0
100
AcDbLine
10
0.97683462919287645
20
-0.55030643294686843
30
0
11
0.97683462919287634
21
-0.4618982190545653
31
0
0
LINE
5
114
100
AcDbEntity
8
0
100
AcDbLine
10
4.9418346167463003
20
-1.4067079333123396
30
-7.345881024064244e-34
11
4.9418346167462968
21
-2.0567079538589281
31
0
0
ARC
5
115
100
AcDbEntity
8
0
100
AcDbCircle
10
5.8518346167463005
20
-0.88670793331233699
30
0
40
0.12999999999999773
210
0
220
0
230
1
100
AcDbArc
50
0
51
90.00000000000118
0
ARC
5
116
100
AcDbEntity
8
0
100
AcDbCircle
10
-0.55066541955621939
20
-0.91920791775411315
30
0
40
1.8527851249164409
210
0
220
0
230
1
100
AcDbArc
50
322.12501634890174
51
344.74488129694208
0
LINE
5
117
100
AcDbEntity
8
0
100
AcDbLine
10
5.7218346167462988
20
-0.75670793331233932
30
0
11
5.8518346167462978
21
-0.75670793331233932
31
0
0
LINE
5
118
100
AcDbEntity
8
0
100
AcDbLine
10
5.5918346167462527
20
4.5732920666876566
30
0
11
5.5918346167462989
21
5.093292066687658
31
0
0
LINE
5
119
100
AcDbEntity
8
0
100
AcDbLine
10
0.58683461674630033
20
-0.46189821905456452
30
0
11
0.58683461674630033
21
-1.7317079436844853
31
0
0
ARC
5
120
100
AcDbEntity
8
0
100
AcDbCircle
10
0.71683461674630045
20
-0.46189821905456452
30
0
40
0.13000000000000009
210
0
220
0
230
1
100
AcDbArc
50
90.000000000000099
51
180
0
LINE
5
121
100
AcDbEntity
8
0
100
AcDbLine
10
5.9818346167462977
20
-0.88670793331233699
30
0
11
5.9818346167463039
21
-2.0567079541433104
31
0
0
ARC
5
122
100
AcDbEntity
8
0
100
AcDbCircle
10
0.58683461674630033
20
-2.0567079540566326
30
0
40
0.32500001037214682
210
0
220
-0
230
1
100
AcDbArc
50
-270
51
0
0
ARC
5
123
100
AcDbEntity
8
0
100
AcDbCircle
10
0.93783462919287641
20
-0.55030643294686843
30
0
40
0.039000000000000049
210
0
220
0
230
1
100
AcDbArc
50
-55.949958439658374
51
0
0
LINE
5
124
100
AcDbEntity
8
0
100
AcDbLine
10
5.8518346167462552
20
4.4432920666876603
30
0
11
5.7218346167462988
21
4.4432920666876594
31
0
0
LINE
5
125
100
AcDbEntity
8
0
100
AcDbLine
10
10.986834616746304
20
-1.7317079436844436
30
0
11
10.986834616746295
21
-0.46189821905452227
31
0
0
ARC
5
126
100
AcDbEntity
8
0
100
AcDbCircle
10
10.432024902488523
20
-0.85189821905452723
30
0
40
0.32499999999999962
210
0
220
0
230
1
100
AcDbArc
50
-90.000000757411229
51
55.949958439659376
0
ARC
5
127
100
AcDbEntity
8
0
100
AcDbCircle
10
5.7218346167462526
20
4.5732920666876593
30
0
40
0.12999999999999984
210
0
220
0
230
1
100
AcDbArc
50
180
51
270.00000000002035
0
LINE
5
128
100
AcDbEntity
8
0
100
AcDbLine
10
10.596834604299715
20
-0.46189821905452527
30
0
11
10.596834604299719
21
-0.55030643294682968
31
0
0
SPLINE
5
129
100
AcDbEntity
8
0
100
AcDbSpline
70
4
71
2
72
6
73
3
74
0
42
0.000000001
43
0.0000000001
44
0.0000000001
40
17.431234478091682
40
17.431234478091682
40
17.431234478091682
40
17.489668853743026
40
17.489668853743026
40
17.489668853743026
41
1.0133196671105664
41
1.0066821591809427
41
1
10
6.6152157176994857
20
4.9906952260288504
30
0
10
6.6234211997758576
20
5.0415171930237053
30
0
10
6.6318346167462492
20
5.0932920666876651
30
0
0
LINE
5
130
100
AcDbEntity
8
0
100
AcDbLine
10
6.6318346167463122
20
-2.0567079538589206
30
0
11
6.6318346167463034
21
-1.4067079333123329
31
0
0
ARC
5
131
100
AcDbEntity
8
0
100
AcDbCircle
10
5.7218346167462979
20
-0.88670793331233788
30
0
40
0.12999999999999842
210
0
220
-0
230
1
100
AcDbArc
50
89.999999999999616
51
180
0
ARC
5
132
100
AcDbEntity
8
0
100
AcDbCircle
10
1.1416443310040745
20
-0.85189821905456464
30
0
40
0.32499999999999973
210
0
220
0
230
1
100
AcDbArc
50
124.05004156034153
51
270.00000075741275
0
LINE
5
133
100
AcDbEntity
8
0
100
AcDbLine
10
5.5918346167463024
20
-2.0567079541433122
30
0
11
5.5918346167462989
21
-0.88670793331233788
31
0
0
ARC
5
134
100
AcDbEntity
8
0
100
AcDbCircle
10
10.63583460429972
20
-0.55030643294682902
30
0
40
0.038999999999999181
210
0
220
0
230
1
100
AcDbArc
50
180
51
235.94995843965344
0
ARC
5
135
100
AcDbEntity
8
0
100
AcDbCircle
10
10.856834616746292
20
-0.46189821905452333
30
0
40
0.13000000000000053
210
0
220
-0
230
1
100
AcDbArc
50
0
51
90.064406469351255
0
ARC
5
136
100
AcDbEntity
8
0
100
AcDbCircle
10
5.8518346167462552
20
4.5732920666876602
30
0
40
0.12999999999999914
210
0
220
0
230
1
100
AcDbArc
50
-90
51
0
0
ARC
5
137
100
AcDbEntity
8
0
100
AcDbCircle
10
6.3068346167463085
20
-2.0567079333123339
30
0
40
0.32500000000000406
210
0
220
0
230
1
100
AcDbArc
50
180.00000362225481
51
359.99999637774522
0
SPLINE
5
138
100
AcDbEntity
8
0
100
AcDbSpline
70
4
71
2
72
6
73
3
74
0
42
0.000000001
43
0.0000000001
44
0.0000000001
40
-7.5079876712145426
40
-7.5079876712145426
40
-7.5079876712145426
40
0
40
0
40
0
41
1
41
3
41
1
10
1.2368346374905943
20
-1.4067079333123396
30
0
10
3.8368345679361968
20
-0.75670794307436018
30
1.092739197465705e-17
10
4.9418346167463003
20
-1.4067079333123396
30
0
0
ARC
5
139
100
AcDbEntity
8
0
100
AcDbCircle
10
5.2668346167462996
20
-2.0567079333123388
30
0
40
0.32500000000000334
210
0
220
0
230
1
100
AcDbArc
50
180.00000352019893
51
359.9999964798011
0
ARC
5
140
100
AcDbEntity
8
0
100
AcDbCircle
10
6.3068346167462499
20
5.0932920666876615
30
0
40
0.32499999999999646
210
0
220
-0
230
1
100
AcDbArc
50
0
51
180
0
SPLINE
5
141
100
AcDbEntity
8
0
100
AcDbSpline
70
4
71
2
72
6
73
3
74
0
42
0.000000001
43
0.0000000001
44
0.0000000001
40
-17.431234475893213
40
-17.431234475893213
40
-17.431234475893213
40
0
40
0
40
0
41
1.0133196676100098
41
2.993317840567653
41
1
10
4.9584535164064496
20
4.9906952222297658
30
0
10
5.7816497510374996
20
-0.10790245766511011
30
0
10
1.1416443353003587
20
-1.1768982190545645
30
0
0
LINE
5
142
100
AcDbEntity
8
0
100
AcDbLine
10
5.9818346167462533
20
5.0932920666876615
30
0
11
5.9818346167462542
21
4.5732920666876602
31
0
0
ENDSEC
0
SECTION
2
OBJECTS
0
DICTIONARY
5
C
100
AcDbDictionary
3
ACAD_GROUP
350
D
3
ACAD_MLINESTYLE
350
17
0
DICTIONARY
5
D
100
AcDbDictionary
0
DICTIONARY
5
1A
330
C
100
AcDbDictionary
0
DICTIONARY
5
17
100
AcDbDictionary
0
ENDSEC
0
EOF
