0
SECTION
2
HEADER
9
$INSUNITS
70
1
9
$ACADVER
1
AC1014
9
$HANDSEED
5
FFFF
0
ENDSEC
0
SECTION
2
TABLES
0
TABLE
2
VPORT
5
8
100
AcDbSymbolTable
0
ENDTAB
0
TABLE
2
LTYPE
5
5
100
AcDbSymbolTable
0
LTYPE
5
14
100
AcDbSymbolTableRecord
100
AcDbLinetypeTableRecord
2
BYBLOCK
70
0
0
LTYPE
5
15
100
AcDbSymbolTableRecord
100
AcDbLinetypeTableRecord
2
BYLAYER
70
0
0
ENDTAB
0
TABLE
2
LAYER
5
2
100
AcDbSymbolTable
70
2
0
LAYER
5
50
100
AcDbSymbolTableRecord
100
AcDbLayerTableRecord
2
0
70
0
6
CONTINUOUS
0
ENDTAB
0
TABLE
2
STYLE
5
3
100
AcDbSymbolTable
70
1
0
STYLE
5
11
100
AcDbSymbolTableRecord
100
AcDbTextStyleTableRecord
2
STANDARD
70
0
0
ENDTAB
0
TABLE
2
VIEW
5
6
100
AcDbSymbolTable
70
0
0
ENDTAB
0
TABLE
2
UCS
5
7
100
AcDbSymbolTable
70
0
0
ENDTAB
0
TABLE
2
APPID
5
9
100
AcDbSymbolTable
70
2
0
APPID
5
12
100
AcDbSymbolTableRecord
100
AcDbRegAppTableRecord
2
ACAD
70
0
0
ENDTAB
0
TABLE
2
DIMSTYLE
5
A
100
AcDbSymbolTable
70
1
0
ENDTAB
0
TABLE
2
BLOCK_RECORD
5
1
100
AcDbSymbolTable
70
1
0
BLOCK_RECORD
5
1F
100
AcDbSymbolTableRecord
100
AcDbBlockTableRecord
2
*MODEL_SPACE
0
BLOCK_RECORD
5
1B
100
AcDbSymbolTableRecord
100
AcDbBlockTableRecord
2
*PAPER_SPACE
0
ENDTAB
0
ENDSEC
0
SECTION
2
BLOCKS
0
BLOCK
5
20
100
AcDbEntity
100
AcDbBlockBegin
2
*MODEL_SPACE
0
ENDBLK
5
21
100
AcDbEntity
100
AcDbBlockEnd
0
BLOCK
5
1C
100
AcDbEntity
100
AcDbBlockBegin
2
*PAPER_SPACE
0
ENDBLK
5
1D
100
AcDbEntity
100
AcDbBlockEnd
0
ENDSEC
0
SECTION
2
ENTITIES
0
LWPOLYLINE
5
100
100
AcDbEntity
8
0
100
AcDbPolyline
90
4
70
1
43
0.0
10
9.1525217817348441
20
8.8000522528441767
10
6.6439506831872404
20
6.7899997629256594
10
6.6439506831872404
20
6.0907906820538198
10
9.2523422174254577
20
8.6883805496570137
42
0.94749921585900942
0
LWPOLYLINE
5
101
100
AcDbEntity
8
0
100
AcDbPolyline
90
3
70
1
43
0.0
10
6.2253166943153877
20
0.74773029034780047
10
5.6991973447161728
20
3.9306331617051069
10
3.117584214747307
20
2.0946089785272721
42
0.16600287234374647
0
LWPOLYLINE
5
102
100
AcDbEntity
8
0
100
AcDbPolyline
90
3
70
1
43
0.0
10
2.766124140908933
20
2.4460690523607536
42
-0.16932529568496305
10
1.4142707019542995
20
5.6213707752068238
10
4.6998375941490069
20
5.1650420399577417
0
LWPOLYLINE
5
103
100
AcDbEntity
8
0
100
AcDbPolyline
90
4
70
1
43
0.0
10
4.1353795846386232
20
3.1448187887599937
42
-0.94749921587142716
10
4.0355591489479474
20
3.2564904919457995
10
6.6439506831872404
20
5.8540803595491742
10
6.6439506831872404
20
5.154871278677871
0
LWPOLYLINE
5
104
100
AcDbEntity
8
0
100
AcDbPolyline
90
4
70
1
43
0.0
10
9.4715674152294724
20
3.4638644222557717
10
7.4615149253113131
20
5.9724355208019446
10
6.7623058444410846
20
5.9724355208019446
10
9.3598957120439223
20
3.3640439865640843
42
0.94749921587087893
0
LWPOLYLINE
5
105
100
AcDbEntity
8
0
100
AcDbPolyline
90
4
70
1
43
0.0
10
11.905335733900227
20
3.8838713512490575
10
12.680204754108185
20
3.5629100940169347
42
0.087147686806661698
10
13.140004069993587
20
5.7639495817069042
10
12.293989653311732
20
5.6241072585373617
42
-0.07924301041818696
0
LWPOLYLINE
5
106
100
AcDbEntity
8
0
100
AcDbPolyline
90
5
70
1
43
0.0
10
2.5178311690621324
20
9.8479239670970316
10
2.1927038879075917
20
10.305081796996893
10
1.9892645547161849
20
10.508521172161117
42
0.091981072074752743
10
0.67188272795234083
20
8.5369199385936998
10
1.4467517481615895
20
8.2159586813603873
42
-0.086860305448668323
0
LWPOLYLINE
5
107
100
AcDbEntity
8
0
100
AcDbPolyline
90
4
70
1
43
0.0
10
12.680204754109617
20
8.3819609475806871
10
11.905335733909379
20
8.0609996903575727
42
-0.081740128543559068
10
12.297168233927092
20
6.2646756039683611
10
13.140991250595002
20
6.1474779627682512
42
0.088444576339298309
0
LWPOLYLINE
5
108
100
AcDbEntity
8
0
100
AcDbPolyline
90
5
70
1
43
0.0
10
10.976596959382366
20
10.423682316081951
10
11.18003633455595
20
10.627121649262664
42
0.091981072075489653
10
9.2084351009777432
20
11.944503476033979
10
8.8874738437441199
20
11.169634455825642
42
-0.086860305448869676
10
10.519439129481253
20
10.098555034927053
0
LWPOLYLINE
5
109
100
AcDbEntity
8
0
100
AcDbPolyline
90
3
70
1
43
0.0
10
8.588063772224757
20
6.7798290016463261
10
11.87363066441903
20
6.3235002663961613
42
0.16932529568591212
10
10.521777225454507
20
9.4988019892427005
0
LWPOLYLINE
5
110
100
AcDbEntity
8
0
100
AcDbPolyline
90
5
70
1
43
0.0
10
2.1078650318268126
20
10.62712164926673
10
2.3113044069928295
20
10.423682316081951
10
2.7684622368928187
20
10.098555034924285
42
-0.086860305448725264
10
4.4004275226272487
20
11.169634455828705
10
4.0794662653928002
20
11.944503476035752
42
0.091981072074878684
0
LWPOLYLINE
5
111
100
AcDbEntity
8
0
100
AcDbPolyline
90
4
70
1
43
0.0
10
4.2344252564037932
20
12.008689591720037
42
-0.088444576339318515
10
6.4689082412200385
20
12.469476088209911
10
6.3517106000208203
20
11.625653071542406
42
0.081740128544394761
10
4.5553865136352512
20
11.23382057151189
0
LWPOLYLINE
5
112
100
AcDbEntity
8
0
100
AcDbPolyline
90
4
70
1
43
0.0
10
1.3825656324724103
20
3.8838713512486462
42
-0.081740128544283752
10
0.99073313244631345
20
5.6801954376355273
10
0.14691011577873472
20
5.7973930788349186
42
0.088444576339242617
10
0.60769661226523775
20
3.5629100940169405
0
LWPOLYLINE
5
113
100
AcDbEntity
8
0
100
AcDbPolyline
90
4
70
1
43
0.0
10
11.632249040726478
20
6.2055856454948941
10
8.5403317900731217
20
6.6350185971841267
10
7.8098768306371147
20
6.0562987250067604
10
11.621931412877208
20
6.0562987250067604
42
0.93327270193443512
0
LWPOLYLINE
5
114
100
AcDbEntity
8
0
100
AcDbPolyline
90
4
70
1
43
0.0
10
8.7325148527399481
20
11.233820571515109
10
9.0534761099708287
20
12.008689591723078
42
0.087147686806718569
10
6.8524366222760138
20
12.468488907604172
10
6.9922789454520142
20
11.622474490922322
42
-0.079243010419081938
0
LWPOLYLINE
5
115
100
AcDbEntity
8
0
100
AcDbPolyline
90
4
70
1
43
0.0
10
6.9361907663532989
20
0.31921797006101837
10
6.8189931251530043
20
-0.52460504660594431
42
0.088444576339521228
10
9.0534761099743974
20
-0.063818550121686177
10
8.7325148527410619
20
0.71105047008526046
42
-0.081740128544478999
0
LWPOLYLINE
5
116
100
AcDbEntity
8
0
100
AcDbPolyline
90
5
70
1
43
0.0
10
2.5178311690601727
20
2.0969470745040195
42
-0.086860305448654127
10
1.4467517481598802
20
3.7289123602410341
10
0.6718827279523415
20
3.4079511030087559
42
0.091981072074749315
10
1.9892645547161849
20
1.436349869441869
10
2.1927038879075917
20
1.6397892446071756
0
LWPOLYLINE
5
117
100
AcDbEntity
8
0
100
AcDbPolyline
90
4
70
1
43
0.0
10
1.3825656324728219
20
8.0609996903539365
10
0.60769661226521954
20
8.3819609475857
42
0.087147686806364741
10
0.14789729638089391
20
6.1809214598960889
10
0.9939117130630285
20
6.3207637830668482
42
-0.079243010418884083
0
LWPOLYLINE
5
118
100
AcDbEntity
8
0
100
AcDbPolyline
90
5
70
1
43
0.0
10
4.4004275226232705
20
0.7752365857725908
42
-0.086860305448629063
10
2.7684622368907452
20
1.8463160066768667
10
2.3113044069928295
20
1.5211887255210428
10
2.1078650318268126
20
1.3177493923317862
42
0.091981072074764289
10
4.0794662653927984
20
0.00036756556829821088
0
LWPOLYLINE
5
119
100
AcDbEntity
8
0
100
AcDbPolyline
90
4
70
1
43
0.0
10
5.9813676086174228
20
7.8688166279404426
10
6.5600874807949685
20
7.1383616685037206
10
6.5600874807953575
20
10.950416250743096
42
0.93327270194196466
10
6.4108005603079086
20
10.960733878594336
0
LWPOLYLINE
5
120
100
AcDbEntity
8
0
100
AcDbPolyline
90
3
70
1
43
0.0
10
3.1175842147493493
20
9.8502620630701063
10
5.8365572023430374
20
7.9165486098401772
10
6.2928859375930193
20
11.20211550203399
42
0.16932529568532992
0
LWPOLYLINE
5
121
100
AcDbEntity
8
0
100
AcDbPolyline
90
4
70
1
43
0.0
10
4.7475695778625386
20
5.3098524464851025
10
5.4780245372981868
20
5.8885723186622903
10
1.6659699550591691
20
5.8885723186626731
42
0.93327270193923417
10
1.6556523272084662
20
5.7392853981737977
0
LWPOLYLINE
5
122
100
AcDbEntity
8
0
100
AcDbPolyline
90
3
70
1
43
0.0
10
1.4192454527411529
20
6.3910695096707535
10
4.6021483240916554
20
6.9171888592710422
10
2.7661241409080968
20
9.498801989236668
42
0.16600287234330266
0
LWPOLYLINE
5
123
100
AcDbEntity
8
0
100
AcDbPolyline
90
3
70
1
43
0.0
10
7.0625846720543954
20
11.197140751242882
42
-0.16600287234397934
10
10.170317151624833
20
9.8502620630775102
10
7.5887040216558015
20
8.0142378798977081
0
LWPOLYLINE
5
124
100
AcDbEntity
8
0
100
AcDbPolyline
90
5
70
1
43
0.0
10
11.095197478466531
20
10.305081796996893
10
10.77007019731021
20
9.8479239670943954
42
-0.086860305448882541
10
11.841149618213084
20
8.2159586813610286
10
12.616018638420352
20
8.5369199385936998
42
0.091981072075740133
10
11.298636811655468
20
10.508521172161153
0
LWPOLYLINE
5
125
100
AcDbEntity
8
0
100
AcDbPolyline
90
4
70
1
43
0.0
10
5.8263864410631667
20
5.9724355208019446
10
6.525595521934112
20
5.9724355208019446
10
3.9280056543319901
20
8.5808270550398031
42
0.94749921586869257
10
3.8163339511448422
20
8.481006619349527
0
LWPOLYLINE
5
126
100
AcDbEntity
8
0
100
AcDbPolyline
90
12
70
1
43
0.0
10
14.36622622930904
20
6.0610557475658604
42
-0.018047619868551138
10
14.368472418720406
20
6.0553073154601282
42
-0.008286594674032104
10
14.370413895524951
20
6.0494456015291682
42
-0.018380669570594213
10
14.376914536768989
20
6.0256342255581172
42
-0.0035678439452224522
10
14.382367647904982
20
6.0015448843584061
42
0.0079000573779831468
10
14.390648853308058
20
5.9739144014448726
10
14.283319373590716
20
5.988821268129759
10
14.283319373590716
20
6.0778542351861127
10
14.33611943794309
20
6.0778542351861127
42
-0.035825204386613171
10
14.348646789747342
20
6.076695659489757
42
-0.1445244403928265
10
14.359534762439873
20
6.0714240461317646
42
-0.07671049150628767
10
14.363415413344805
20
6.0666223566724362
42
-0.02950702078498799
0
LWPOLYLINE
5
127
100
AcDbEntity
8
0
100
AcDbPolyline
90
3
70
1
43
0.0
10
8.6857530422824656
20
5.0276821823323088
10
10.521777225460951
20
2.4460690523653064
42
0.16600287234416536
10
11.868655913634402
20
5.5538015319329563
0
LWPOLYLINE
5
128
100
AcDbEntity
8
0
100
AcDbPolyline
90
4
70
1
43
0.0
10
6.4354647440919139
20
-0.52361786600801097
42
-0.087147686806487476
10
4.234425256402587
20
-0.063818550119716086
10
4.5553865136327421
20
0.7110504700880631
42
0.079243010419102214
10
6.2956224209215819
20
0.32239655067445055
0
LWPOLYLINE
5
129
100
AcDbEntity
8
0
100
AcDbPolyline
90
5
70
1
43
0.0
10
10.51943912948337
20
1.8463160066747635
42
-0.086860305448915209
10
8.8874738437454397
20
0.77523658577500176
10
9.2084351009731069
20
0.00036756556468255542
42
0.09198107207522975
10
11.180036334547667
20
1.3177493923298176
10
10.976596959382366
20
1.5211887255210428
0
LWPOLYLINE
5
130
100
AcDbEntity
8
0
100
AcDbPolyline
90
4
70
1
43
0.0
10
6.7278138871392592
20
4.8065093751651506
10
6.7278138871396171
20
0.99445479292505856
42
0.93327270194778778
10
6.8771008076273938
20
0.98413716507507165
10
7.3065337593171629
20
4.0760544157291445
0
LWPOLYLINE
5
131
100
AcDbEntity
8
0
100
AcDbPolyline
90
3
70
1
43
0.0
10
10.170317151629993
20
2.0946089785228543
42
-0.16932529568571442
10
6.9950154287768047
20
0.74275553956925544
10
7.4513441640307265
20
4.0283224317642485
0
LWPOLYLINE
5
132
100
AcDbEntity
8
0
100
AcDbPolyline
90
5
70
1
43
0.0
10
12.616018638425363
20
3.4079511030164547
10
11.841149618215931
20
3.7289123602418139
42
-0.086860305448957606
10
10.770070197312348
20
2.0969470745061418
10
11.095197478466531
20
1.6397892446071756
10
11.298636811655433
20
1.4363498694418748
42
0.091981072075386347
0
LWPOLYLINE
5
133
100
AcDbEntity
8
0
100
AcDbPolyline
90
736
70
1
43
0.0
10
-1.7754694303553964
20
6.9048770875550689
42
-0.032902945647090856
10
-1.781970908181304
20
6.8984592436978422
42
-0.021031366379333692
10
-1.7922106108922662
20
6.8903286806378743
42
-0.028801600062200356
10
-1.8115186148209668
20
6.8772038457537743
42
-0.0068627805079809227
10
-1.8272698107724155
20
6.8680656884132425
42
0.022940636020323129
10
-1.8330058258466866
20
6.8621490032921031
42
0.077328206583082593
10
-1.8374022830561592
20
6.8552849701369594
42
0.10083337440243435
10
-1.8395809650374484
20
6.8452762938758305
42
0.0037631433315889009
10
-1.8390083198955316
20
6.8219709766163943
42
0.014033880712324909
10
-1.8374520989258316
20
6.8048304593197022
42
0.017081262540091059
10
-1.8348346104390625
20
6.7878303015531181
42
0.0037715166136430191
10
-1.8315088135829107
20
6.7709446772911361
10
-1.6546102220976897
20
5.9041784215078064
10
-1.521237685426043
20
6.6488865763072296
10
-1.5541837079584815
20
6.7871315134618584
42
0.0054691357931446714
10
-1.5578985265709144
20
6.7987311657950507
42
0.028279841171398916
10
-1.5623801670226445
20
6.8100365001420968
42
0.050827420741782779
10
-1.5710058136560106
20
6.8247847121400991
42
0.046258773987051388
10
-1.5919970459969022
20
6.8482685237916607
42
0.0070592854033405157
10
-1.6100671146854808
20
6.8645970833419208
42
-0.012154968101547758
10
-1.6268247767157873
20
6.8785346202780699
42
-0.070711563434771751
10
-1.6460066158978857
20
6.9009031926097002
42
-0.088307803123271258
10
-1.6544236068952187
20
6.9211452014012202
42
-0.013555365464884053
10
-1.6563152338225053
20
6.9347400088817013
10
-1.6563152338225058
20
7.0187573707963669
42
-0.022629890359093244
10
-1.6551525220534291
20
7.0323173859011305
42
-0.064644677439413309
10
-1.651680609276835
20
7.0453739849200909
42
-0.071322964454676507
10
-1.644815578599069
20
7.0570528579061973
42
-0.067502422979767593
10
-1.6350060862096962
20
7.0664170642169912
42
-0.068669963507045462
10
-1.6230824446715775
20
7.0727808768848748
42
-0.047687031077558874
10
-1.6020984521269266
20
7.0783142741803653
42
-0.022443156902345478
10
-1.5830890927058183
20
7.0792652874030049
10
-0.97437797856319941
20
7.0792653387681455
42
-0.0035940104791654832
10
-0.95457871619101153
20
7.0784653642007385
42
-0.025462039591034061
10
-0.93488435960622851
20
7.0765195026789192
42
-0.050732163042941515
10
-0.91555915060980053
20
7.0715690335683314
42
-0.08099855981744046
10
-0.89832366752844461
20
7.0618421475698012
42
-0.09450942861250386
10
-0.88549214856497893
20
7.0468195606478092
42
-0.062990160188641245
10
-0.87785753386462617
20
7.0283840730309821
42
-0.044882947864107438
10
-0.8743707484108495
20
7.0089026229543094
42
-0.0096121066940708152
10
-0.87301734295032518
20
6.9890815261063102
42
-0.0063785790607001442
10
-0.87341591522274842
20
6.9681654148950436
42
-0.018743892280023444
10
-0.87486347631455474
20
6.947308673460137
42
-0.027843481557143397
10
-0.87827273581161369
20
6.9265070689450514
42
-0.0841711891950358
10
-0.88611053944015838
20
6.9072243121543346
42
-0.08420067812575982
10
-0.89797138922993558
20
6.8936561070571809
42
-0.04155022887243235
10
-0.90898769219850928
20
6.8861529595748152
42
-0.014933512336478336
10
-0.91834303669873563
20
6.8812227659340346
42
-0.0118391139316051
10
-0.93737844623448729
20
6.8724589392571405
42
-0.0023472422815659193
10
-0.96389734370119595
20
6.8611500877902536
42
0.12243674631508818
10
-0.97213605769763756
20
6.8542542171870959
42
0.022917119879306769
10
-0.97591938876759698
20
6.8457124195441281
42
0.0029939951697068421
10
-0.97429559092539519
20
6.8266201111558695
42
0.015142613183739217
10
-0.97198153795769482
20
6.8076076238197381
42
0.018437147424271653
10
-0.96839947264837101
20
6.788806697747015
42
0.0040666348281126379
10
-0.96397235271482917
20
6.770173910270965
10
-0.81715413788384283
20
6.0214028357780922
10
-0.79373483783210586
20
6.0252739346171609
10
-0.63907931928763717
20
6.7967665429927218
42
0.014754472694644832
10
-0.63798131978676265
20
6.8083063532342729
42
0.013543007225641954
10
-0.63753775014259018
20
6.8198905941269281
42
0.022634270774039272
10
-0.63996700060796929
20
6.832807471706329
42
0.12424170823280734
10
-0.64862445543710001
20
6.8501873814590324
42
0.055215678647603156
10
-0.66330393038322732
20
6.8635072152958836
42
0.055690313382171321
10
-0.68601847388802595
20
6.8763710618251102
42
0.010621381356600778
10
-0.71037864089465252
20
6.8861795417798213
42
-0.014764888710004569
10
-0.72537318240489423
20
6.8928591487258615
42
-0.057049088712201337
10
-0.73917427375851497
20
6.9015614587351051
42
-0.054164952452107194
10
-0.75077516014527035
20
6.9131480303592578
42
-0.047104568805213479
10
-0.75982352043290358
20
6.9268493565903135
42
-0.041096488784393842
10
-0.76631360072680921
20
6.9418900075580874
42
-0.03150879069662875
10
-0.77056595934202876
20
6.9577332397417404
42
-0.025930328746064719
10
-0.77296828173713894
20
6.9739156621701159
42
-0.0057557032549620914
10
-0.77443566167705447
20
6.9913400470981717
42
0.057091701561300959
10
-0.77456923800734168
20
7.0050057111622763
42
0.0081122844307657416
10
-0.77589669237465653
20
7.0122055080892034
10
-0.77628198369877499
20
7.026079984903129
42
-0.010799339222425151
10
-0.77493434295437724
20
7.0366260673742866
42
-0.1270769509460361
10
-0.76834151217102353
20
7.053234975786089
42
-0.072301082911285827
10
-0.75837787568645532
20
7.0635058700858186
42
-0.068454302787768553
10
-0.74594294959836394
20
7.0706179662970543
42
-0.042239881185413546
10
-0.73225768544004088
20
7.0748274928721386
42
-0.022977457432318455
10
-0.71036083779796644
20
7.078541936770046
42
-0.012818052009854294
10
-0.68956681660833552
20
7.0792652874029995
10
-0.29530191568874015
20
7.0792653387683204
42
-0.0041072935875321242
10
-0.27548447709288348
20
7.0786356159668289
42
-0.019883053850733318
10
-0.25573499471545064
20
7.0770574276949887
42
-0.030315063367279179
10
-0.23610379416857485
20
7.0734828484725014
42
-0.061358017669533964
10
-0.21755798503739432
20
7.0664324634731068
42
-0.071679638620390146
10
-0.2015291584767202
20
7.0547710199640505
42
-0.075664687773815978
10
-0.18958388092264156
20
7.0389817478720671
42
-0.068835542521654858
10
-0.18310958791341897
20
7.0217384512110925
42
-0.035759452184658203
10
-0.18145901247362647
20
7.0105475902220462
42
-0.0061673522483444926
10
-0.18083806336413874
20
7.000643517094983
42
-0.010949086011785535
10
-0.18169607471540342
20
6.9880898941391703
42
-0.012856689034131679
10
-0.18315042466488785
20
6.975592464849
10
-0.18893125178775691
20
6.9278027955130534
42
-0.032471971574158855
10
-0.19802314966550633
20
6.9100787781592761
42
-0.056989892899988744
10
-0.21323715319207801
20
6.8951579124741142
42
-0.014197207457046184
10
-0.2243933669787547
20
6.8869651380291117
42
-0.03267136598375299
10
-0.24791431749000553
20
6.8728752603471372
42
-0.0085005299035821585
10
-0.27256312659919291
20
6.8607430708840589
42
0.0078273182026099668
10
-0.27981467693191969
20
6.8551494032237272
42
0.068812105684822308
10
-0.28988932274474788
20
6.8445642454680122
42
0.038181693794648149
10
-0.2957327230028452
20
6.8333028523978578
42
0.025611456432180501
10
-0.30200407629528569
20
6.8161811874840215
42
0.0042426003495543811
10
-0.30724944372372265
20
6.7986935659620977
10
-0.47926058892002177
20
6.0772550901839031
10
-0.062857807626339093
20
6.1460846036638257
42
-0.4003333152603496
10
6.4981347390270257
20
12.67990686778273
10
6.608452840002923
20
13.474197067249762
10
6.3146140402947619
20
14.022611924899049
10
6.314614035766982
20
13.136960947094718
42
0.0082776735163443537
10
6.3156037361403241
20
13.126556033904198
42
0.042765127535317186
10
6.3176409091871308
20
13.116342065823668
42
0.050352008281981962
10
6.321549103287972
20
13.106640779492063
42
0.048186461727023462
10
6.3272822457439961
20
13.097887870030981
42
0.07223689405535047
10
6.3391953160271299
20
13.08666476915379
42
0.066033728844049913
10
6.3596804407345076
20
13.075611779294078
42
-0.0048686758413088831
10
6.3783545572296036
20
13.068728997298994
42
-0.01671033575793841
10
6.3947923359492025
20
13.061851195131686
42
-0.016672929613563606
10
6.4107485483501234
20
13.053885210963781
42
-0.025375142723220123
10
6.425968239813427
20
13.044614103878089
42
-0.042137698653534901
10
6.4397992545599694
20
13.033381679096076
42
-0.057562161458089268
10
6.4544133574399707
20
13.015499888495901
42
-0.096478047107808176
10
6.4614656061768683
20
12.997946209038721
42
-0.017098088909879482
10
6.462607911040041
20
12.986654874523563
42
-0.00097149703162650858
10
6.4621252081705967
20
12.960934978615308
42
-0.0047511572895017088
10
6.4613482066474957
20
12.935223403630172
42
-0.01690101325502719
10
6.4594465582122185
20
12.909401392566274
42
-0.073882840706639585
10
6.4515270601282211
20
12.879481206283224
42
-0.13945192416140553
10
6.4427869824870543
20
12.868664080412124
42
-0.035271595746906456
10
6.4372395308589141
20
12.865311760396287
42
-0.053692884038967804
10
6.4252193862489877
20
12.860707879052111
42
-0.024509894958611566
10
6.4125715280080655
20
12.858018890224361
42
-0.028517550948450477
10
6.3869904839449756
20
12.855362906965059
42
-0.0057289588835697566
10
6.3612475105888633
20
12.85446209922584
10
5.9427023190441268
20
12.854462202677816
42
-0.006724957915724133
10
5.930899703527392
20
12.855101448149686
42
-0.056127240149751775
10
5.9115462042685767
20
12.858738231395762
42
-0.099192758493457753
10
5.8932564582811295
20
12.868487146097214
42
-0.10294476166416762
10
5.8825943686047113
20
12.883579336195213
42
-0.045798057070640712
10
5.8789024263918437
20
12.89478192340508
42
-0.015448476367499679
10
5.8765976368804749
20
12.906394616951827
42
-0.018029097795494279
10
5.8735624386855996
20
12.929796900929173
42
-0.0090249542624056926
10
5.8717963542322167
20
12.953340544514859
42
-0.0099737010404459328
10
5.8709262221864975
20
12.976925476607157
42
-0.0028573890240148874
10
5.871325185026385
20
13.007022810660148
42
-0.11084822412475727
10
5.8770491146834765
20
13.033197499016273
42
-0.056806471523472769
10
5.8866351296449668
20
13.047668215700783
42
-0.040778467895082077
10
5.8955649204914193
20
13.056693584121941
42
-0.041988330180646412
10
5.9058570708163591
20
13.064123626150719
42
-0.032039883682821783
10
5.917124960662111
20
13.069951152431148
42
-0.0061719557253757749
10
5.9288278923018227
20
13.074911427516994
42
0.0070507327825451499
10
5.9478258728954261
20
13.082276027375144
42
0.040935023412838008
10
5.9724985845673517
20
13.094677037415046
42
0.042157719939035845
10
5.9835402020970756
20
13.102180744150351
42
0.048812831015209786
10
5.9886647123558143
20
13.107237120472156
42
0.072676089962834561
10
5.9923589826531165
20
13.114355803383106
42
0.0081360471789342845
10
5.9939606178210072
20
13.119232512929884
10
5.9939606207972753
20
14.648888415445226
42
0.0018524916192521493
10
5.9935511284110348
20
14.66460376288582
42
0.0090407623507112022
10
5.9927995032649983
20
14.680304001531697
42
0.014494438567309807
10
5.9912990700733264
20
14.696066376698049
42
0.043585131898376261
10
5.9879939911799216
20
14.711496593920971
42
0.058411948507207934
10
5.9816173229159046
20
14.725976985390121
42
0.065730416705795602
10
5.9718994404390084
20
14.738426814816119
42
0.09731026604944519
10
5.9531745059911874
20
14.75198513573296
42
-0.010086478991045979
10
5.9283051326420919
20
14.76286738321382
42
-0.033047834662707713
10
5.9119069031495775
20
14.771798506680575
42
-0.04490901350820653
10
5.8970032302471651
20
14.783235662618729
42
-0.062547406542564035
10
5.8849242048095416
20
14.797531100277105
42
-0.071892972674188899
10
5.877105154227924
20
14.814442142635826
42
-0.039135989413281155
10
5.8731687801190908
20
14.832791876087811
42
-0.020427403725562791
10
5.871446471320743
20
14.851411825431873
42
-0.0039357512494938808
10
5.8706323683373389
20
14.870108577072147
42
-0.0077753996737971957
10
5.8713648613291838
20
14.888906649328996
42
-0.03272361725201884
10
5.8736109101702727
20
14.907546174876749
42
-0.034909951466458145
10
5.8783719586871577
20
14.925800289899119
42
-0.05323346662144534
10
5.8862328978294025
20
14.942882274876984
42
-0.068789757143837491
10
5.8980867843525839
20
14.95769103022657
42
-0.077321240489879844
10
5.9136597434830795
20
14.968438454162591
42
-0.079310603413074943
10
5.9315749067669374
20
14.973812836837766
42
-0.016448206628262255
10
5.9504103091609561
20
14.975707721748385
10
6.3982459986185729
20
14.975707721748385
10
6.9559208792908089
20
13.930501226478194
10
6.9559208792893772
20
14.685886196242924
42
0.021130320905269714
10
6.9539181139485722
20
14.69913563468695
42
0.11684916678023916
10
6.9459892645936421
20
14.717283721261706
42
0.061459726375568763
10
6.9318060769188854
20
14.731652003199894
42
0.035499060276596592
10
6.9207775793203812
20
14.739167050471188
42
0.026348646105414958
10
6.908892948922607
20
14.745271384223013
42
0.021561780531572962
10
6.8964975149041283
20
14.750203490372
42
0.0044775022827250495
10
6.8838509273479795
20
14.754487560118056
42
-0.0051398071240583111
10
6.8610577536366453
20
14.762620319684562
42
-0.029373741321226866
10
6.8389166993224286
20
14.772289244937109
42
-0.050245821207345817
10
6.8184668005902296
20
14.785422211257094
42
-0.072204885945902797
10
6.8018947705731687
20
14.803021128200863
42
-0.079049045095644851
10
6.7913462493028698
20
14.824668548332827
42
-0.041787871644276046
10
6.78623038819266
20
14.848422465929664
42
-0.021047972269221348
10
6.7841409592569395
20
14.872514051773924
42
-0.0040351553300654094
10
6.7832613350706836
20
14.89670073202112
42
-0.0049692593121284717
10
6.7838881572529468
20
14.912385860996082
42
-0.029199929882981958
10
6.7855815119988607
20
14.927965784051114
42
-0.049328824021943177
10
6.7897330762433192
20
14.943250050583158
42
-0.080560640303719858
10
6.7976014103083147
20
14.95684769686388
42
-0.10150530975422487
10
6.8097032813927312
20
14.966696790121743
42
-0.061267405796202941
10
6.8245075568487756
20
14.972242624092043
42
-0.039040704081042467
10
6.840007255222547
20
14.974712245658306
42
-0.0083402621672518489
10
6.8557166857013359
20
14.975707721748385
10
7.3147289367249693
20
14.975322000203185
42
-0.016734349443981691
10
7.3341309142810891
20
14.971781649983017
42
-0.065454363183976266
10
7.3525452251971348
20
14.965170792852067
42
-0.066059701112958266
10
7.3687114789631405
20
14.953936124364564
42
-0.061116946132837358
10
7.3815520061672606
20
14.938980786255872
42
-0.053048804827755737
10
7.3906631345381157
20
14.921538773556874
42
-0.042264629397366846
10
7.3963188408692417
20
14.902648435677841
42
-0.035834811276482997
10
7.3989556472082398
20
14.883204041617708
42
-0.0074952991960172705
10
7.3999025392625937
20
14.863556252620059
42
-0.003143786566922361
10
7.399391058698896
20
14.845248826443024
42
-0.023153019812409085
10
7.3977297792784444
20
14.824928888043072
42
-0.030229110105097396
10
7.3947153103881424
20
14.809019592939853
42
-0.022165960910024124
10
7.3915056445421978
20
14.798342675893256
42
-0.10302268487690765
10
7.3824920717735649
20
14.784812775114634
42
-0.034927646318991312
10
7.3755102753729869
20
14.778836305517803
42
-0.023123913331484783
10
7.3679090031182888
20
14.773725833311055
42
-0.012553850642769548
10
7.3599567709306397
20
14.769166785246066
42
-0.028677702202035114
10
7.343398214708075
20
14.76140948016805
42
-0.0093774577624432236
10
7.3230905153901249
20
14.753718763491847
42
0.021598980354267643
10
7.3063700202106121
20
14.747896986312195
42
0.016022659118297387
10
7.2964166478278107
20
14.743567529010226
42
0.069766062788065519
10
7.2874305058880848
20
14.737659042571149
42
0.14562755984733802
10
7.2797478748607611
20
14.726108807289728
42
0.057757371208444555
10
7.2768953310411293
20
14.708480981852219
42
0.0074505256157332582
10
7.2765742987872253
20
14.697833724259104
10
7.2765742987872217
20
12.854462099226911
10
6.940504840044551
20
12.854462099226911
10
6.7208826907360173
20
13.264360611105067
10
6.8175997657971923
20
12.679244013428075
42
-0.40033331526025262
10
13.351422029917671
20
6.1182514667761376
10
13.617347020184358
20
6.0813174508199124
10
13.61734696252311
20
6.9151753742040567
42
0.13066784171445683
10
13.609481385372899
20
6.9235469813223052
42
0.028160584421585939
10
13.601080104704897
20
6.9280853937411653
42
0.0076320309405933356
10
13.594658014890822
20
6.9309425560330782
42
0.0072539648244861754
10
13.57581186831113
20
6.9386635922912046
42
-0.0051026260426019219
10
13.549739989597192
20
6.9495559841160874
42
-0.038168563139307589
10
13.526083453293369
20
6.962106450528772
42
-0.094647799922631295
10
13.510095292252416
20
6.9769218035031386
42
-0.047994775686855999
10
13.503443300385188
20
6.9883867953650931
42
-0.068525563606798942
10
13.497503302291969
20
7.0080777267077821
42
-0.026421310550810258
10
13.495365178062826
20
7.0286996452261779
42
-0.0057549951908685811
10
13.494562588485291
20
7.0492828122206523
42
-0.00053497349982136778
10
13.494018952220436
20
7.0698757989097718
42
-0.0037757740241461633
10
13.494877256975053
20
7.0890932493597871
42
-0.018745308907919627
10
13.496598748223228
20
7.1082396557529819
42
-0.031087081635347326
10
13.500264653778718
20
7.1273722065071672
42
-0.11685950315014959
10
13.509104419997648
20
7.1441819862931464
42
-0.059466343456312333
10
13.516233697551518
20
7.1506293154431146
42
-0.052658175245598134
10
13.524629882310677
20
7.1553390171429205
42
-0.040924630539818006
10
13.533865694297313
20
7.1584425306249342
42
-0.022073842649663184
10
13.543440906510604
20
7.1603659019911383
42
-0.025657620525895954
10
13.562610749121701
20
7.162343287192301
42
-0.005021845413486244
10
13.581890157604558
20
7.1631426779840535
10
14.56273478203742
20
7.1631426779840526
42
-0.0051879020244507412
10
14.583299384735742
20
7.1623316094768947
42
-0.02621607046447659
10
14.603745534301275
20
7.1602343882451809
42
-0.035383581165373899
10
14.623869335217115
20
7.1556206409927841
42
-0.046050431476275064
10
14.642946277187782
20
7.1478202675271145
42
-0.051321457559226916
10
14.660257315189128
20
7.1364108189006323
42
-0.064887778716013547
10
14.674434267097125
20
7.1213722214301205
42
-0.068126094186629946
10
14.684072711354514
20
7.1033140931220657
42
-0.014083340111822031
10
14.690688064589345
20
7.0837502127127303
10
14.768924595205693
20
6.745753714489787
42
-0.002348061384144728
10
14.771787962883096
20
6.7335743528980707
42
-0.021140054156840785
10
14.775203168613132
20
6.7154928183648295
42
-0.0026258230123641273
10
14.77663263020859
20
6.7052866537311244
42
-0.011495317250387594
10
14.775544094722296
20
6.6956497482707631
42
-0.10966243547851809
10
14.76986653080789
20
6.6802832558746017
42
-0.055663225522680354
10
14.761538948544818
20
6.6709005240112429
42
-0.074625733452901313
10
14.745541798601074
20
6.6603114647488564
42
-0.039786733782372463
10
14.727417901127343
20
6.6535678425252041
42
-0.026141287733286871
10
14.708619041487815
20
6.6492769168988382
42
-0.020243927300498416
10
14.689493101604988
20
6.6467442019391525
42
-0.015676156004428756
10
14.670261806990263
20
6.6455923160421833
42
-0.0031295615394823406
10
14.650991731726647
20
6.6451641394959315
42
-0.0073499493566543299
10
14.619692228487089
20
6.6457893397741614
42
-0.022300615469949575
10
14.588512411019197
20
6.6482660154121556
42
-0.0070389844280287026
10
14.572993058908221
20
6.6504203916609903
42
-0.013811391353447902
10
14.557581359141192
20
6.6532190549511174
42
-0.024172049652346251
10
14.542408341760089
20
6.6571838661779994
42
-0.041048362307691884
10
14.527911552662369
20
6.6630747797320957
42
-0.048750199931814779
10
14.514694800859939
20
6.6714617224889681
42
-0.041644532988963437
10
14.50318537296352
20
6.6821006485810583
42
-0.031656973686034422
10
14.493362756978652
20
6.6942935398168499
42
-0.013781145173655406
10
14.484672789100374
20
6.7073485244751927
42
-0.031049253105296746
10
14.469749128792214
20
6.7348190190920247
42
-0.010503442627891043
10
14.457135180908704
20
6.7634821540560885
42
0.0036200575261933414
10
14.435377655667718
20
6.8213983086390098
42
0.015846085393630274
10
14.411393950523991
20
6.8783966475640623
42
0.01674901387372801
10
14.397555926619004
20
6.9060846819618842
42
0.032962264692668608
10
14.381065267932057
20
6.932220718340588
42
0.027041234937613651
10
14.3712958974494
20
6.9442317083451019
42
0.044687626836894291
10
14.359939264472009
20
6.9546969270751466
42
0.026534039397490577
10
14.353531782421156
20
6.9591012448178047
42
0.044808996681330836
10
14.346581507827562
20
6.962541167425945
42
0.092771510194503762
10
14.332218567324183
20
6.9652292617969138
10
14.283319374373097
20
6.9658175724466052
10
14.283319374373097
20
6.2751794263168597
10
14.324942861757481
20
6.2751794263177549
42
0.0012890001584403951
10
14.336687179632047
20
6.2758228907438065
42
0.026838737067560667
10
14.348359966891993
20
6.2771236494647278
42
0.030883819642426969
10
14.354060375236157
20
6.2784366731930978
42
0.059956707463455362
10
14.359401811277626
20
6.2807449545022287
42
0.081501969396596777
10
14.365351172224187
20
6.2855563210859824
42
0.10444718781676177
10
14.375070303389329
20
6.3024089812931097
42
0.02447024493485728
10
14.380042851031256
20
6.3215394233431752
42
0.0025281231791217341
10
14.382367648685582
20
6.3329895350470125
42
-0.0041420393245766608
10
14.394178227568917
20
6.3784049001643002
42
-0.031500945143849456
10
14.409163365161049
20
6.422777394072348
42
-0.039973705077137496
10
14.419843228492974
20
6.4438767043142544
42
-0.138727534834408
10
14.442442837993967
20
6.4647883400399637
42
-0.056219038454681729
10
14.457350883010355
20
6.4699015146503136
42
-0.033359383461923464
10
14.468933055050163
20
6.4716685090248793
42
-0.0067156229698676932
10
14.480644553062453
20
6.4725045933291723
42
-0.0013322564965895904
10
14.51556399660522
20
6.472129926028579
42
-0.0050811652737143814
10
14.550474010082885
20
6.471307439976318
42
-0.0038567967076863969
10
14.585374089493286
20
6.4698606453410994
42
-0.018243273928364105
10
14.620154044561493
20
6.4668752186977319
42
-0.0049853969863141072
10
14.637479144008974
20
6.464573503897201
42
-0.027704018422053306
10
14.654591466020859
20
6.4611501513549499
42
-0.060732936489692441
10
14.670901984222109
20
6.4547457880432519
42
-0.090144089602403499
10
14.684458297954684
20
6.4438888527980653
42
-0.07739107013738139
10
14.693735948471112
20
6.4291316144450503
42
-0.047153710656802128
10
14.699136071665174
20
6.412419302245028
42
-0.036735884161393645
10
14.701654150825236
20
6.3951577827818973
42
-0.0076398947984954871
10
14.702635454021985
20
6.3776960105830476
10
14.702635454021985
20
5.9668588188500511
42
-0.011816053742471872
10
14.701628931279094
20
5.9529278872497198
42
-0.047534271180569819
10
14.69899196052136
20
5.9392720059172266
42
-0.0512698236634231
10
14.693710671727398
20
5.9263578371874157
42
-0.052470323300970456
10
14.685886493284308
20
5.9148099783071455
42
-0.052751406628297914
10
14.675830467408957
20
5.9051550569591642
42
-0.052083051430240279
10
14.663984881946448
20
5.8978012998884806
42
-0.038541833409297101
10
14.65100025057604
20
5.8926983473319288
42
-0.020983683335197033
10
14.637473359541746
20
5.8891657248617921
42
-0.023895631296816145
10
14.609987702103526
20
5.8845690156139421
42
-0.012308556943690341
10
14.58221825492501
20
5.8819703383371396
42
-0.013359747293470893
10
14.554379155872509
20
5.8808011074278435
42
-0.0027482102780914527
10
14.526507314596939
20
5.8805290524791127
42
-0.0056255647115254119
10
14.503976848575952
20
5.8811294563190444
42
-0.025772797408271455
10
14.481556830321839
20
5.8831397826860048
42
-0.031535491785508303
10
14.459432763971131
20
5.8877170308120723
42
-0.056585498181793502
10
14.438545177332758
20
5.8960625168600167
42
-0.10370596601470096
10
14.421515629035989
20
5.9104015279251385
42
-0.042363625650008306
10
14.409102084995009
20
5.929364727761997
42
-0.026680205205106833
10
14.399481949220105
20
5.949715328348387
42
-0.016771172178526549
10
14.391657346151121
20
5.9708421584188072
10
14.283319374373097
20
5.9529343980818474
10
14.283319374373097
20
5.239222222499059
10
14.313766284794861
20
5.2392222230220185
42
0.0072935277444837483
10
14.332469801424116
20
5.2401635216601488
42
0.032189050041956338
10
14.351004364628222
20
5.2425721216322492
42
0.036263353261057334
10
14.369121635402893
20
5.2475098161759055
42
0.063799073251881583
10
14.385805279169411
20
5.2559007292470401
42
0.036834438515907286
10
14.393173984140034
20
5.2617034348069032
42
0.065697374189798818
10
14.403616402459335
20
5.2739828015498098
42
0.016674254266282794
10
14.409702319009158
20
5.2842623506297919
42
0.011334936458330018
10
14.41831615735234
20
5.3008674328308452
42
0.0096969284323100442
10
14.426224682458722
20
5.3178212064066566
42
-0.00031780406750793255
10
14.433814272307647
20
5.3349213483101057
42
0.0031864319932285558
10
14.441305479640812
20
5.3520644071007704
42
0.0074353687915313061
10
14.448429986170593
20
5.3693606295359464
42
-0.00081822833645391632
10
14.45532573035613
20
5.3867515199058769
42
0.0025050951736757063
10
14.46899877637266
20
5.4215770333891449
42
0.004442913327960955
10
14.482186229188892
20
5.4565882354948956
42
-0.0058749441865042999
10
14.493567247025117
20
5.4839963942860708
42
-0.025575068005046449
10
14.506632095797659
20
5.5106021165583376
42
-0.015322264841683678
10
14.514237635246095
20
5.5233406795949573
42
-0.020211389666961357
10
14.522725464345134
20
5.5355028777741371
42
-0.022777168258278253
10
14.532244570712287
20
5.54691347311004
42
-0.037248588492941638
10
14.543042527332091
20
5.5570846718249527
42
-0.082963948568037571
10
14.568676083563229
20
5.571608898136037
42
-0.038573562981060454
10
14.597356385841065
20
5.5796344238031645
42
-0.033890914658522148
10
14.626731076948188
20
5.5834145634538803
42
-0.011127141971906659
10
14.656387364893249
20
5.5845412820680504
42
-0.003293257605498221
10
14.679162450078762
20
5.5839537804116413
42
-0.016975111063923409
10
14.701882417165077
20
5.5824446984248555
42
-0.026089915058670976
10
14.724387862993986
20
5.5789871791681929
42
-0.026347642038762834
10
14.746407256524002
20
5.5731934054310059
42
-0.017786168448132189
10
14.757133718586855
20
5.5693320524920908
42
-0.034103111385722341
10
14.767385239113706
20
5.5643889818319661
42
-0.032951119075796786
10
14.776916593811338
20
5.5580986318660388
42
-0.043986637212203548
10
14.787550571798914
20
5.5482904644724256
42
-0.1040991865430007
10
14.797605873726843
20
5.5314458347903734
42
-0.051840140912461891
10
14.800165461600599
20
5.5203710648503295
42
-0.012122954238410743
10
14.801298044159484
20
5.5090027364931142
42
-0.0042459632381124414
10
14.799597776563132
20
5.4921582260766302
42
-0.017564193917701122
10
14.796156977886364
20
5.4716140542531173
42
-0.002109970996946623
10
14.79359002930404
20
5.4592860406764085
10
14.735009116411621
20
5.1721624873610823
42
-0.0032788456452270171
10
14.730107427752205
20
5.1452974077547857
42
-0.015176565582694696
10
14.724220339376132
20
5.1186432048708435
42
-0.0093310723538908708
10
14.720628267011907
20
5.1054795038420995
42
-0.013580857454761114
10
14.716437809696053
20
5.0924966854130753
42
-0.015551755213462609
10
14.711469443137005
20
5.0797050935547103
42
-0.062333490217588369
10
14.704628701460981
20
5.0679242139000529
42
-0.077966075204570121
10
14.694804201922578
20
5.05850025838087
42
-0.065711993172801977
10
14.682672127778442
20
5.0522189877972075
42
-0.031094912336073935
10
14.669501839292108
20
5.0483699332991323
42
-0.011138128069051408
10
14.656031145651081
20
5.0456408432918325
42
-0.033164819597662092
10
14.628953114155918
20
5.0426143198021069
42
-0.0093641896354280003
10
14.601660678699863
20
5.0418970379678747
10
13.578421615645196
20
5.0418970554632914
42
-0.014925222838473185
10
13.555618085219066
20
5.0433761203353153
42
-0.093635836044111465
10
13.525810866184946
20
5.0521583918767936
42
-0.088519347144869545
10
13.514370928839554
20
5.060765249721193
42
-0.069074177894481031
10
13.507829402819146
20
5.070099195072018
42
-0.034876580502053695
10
13.503320798414377
20
5.080656046348067
42
-0.049839088653112019
10
13.49803749293587
20
5.1027903209920957
42
-0.017741515242777822
10
13.495773215499243
20
5.1255329059657475
42
-0.0078695722429792617
10
13.494681115100954
20
5.1482599433951854
42
-0.0015873122018419796
10
13.494018952220436
20
5.1710062726723489
42
-0.0076738078957601583
10
13.495315277909148
20
5.1857494899837944
42
-0.040869137173443926
10
13.498025196472591
20
5.2002509359801197
42
-0.052629704811268586
10
13.50338134774521
20
5.2139951873870469
42
-0.041993899011288929
10
13.51124141079125
20
5.2265127718936988
42
-0.03803499060189245
10
13.521006078339818
20
5.2376310588748574
42
-0.037578100155126061
10
13.53233437465088
20
5.2471528759810457
42
-0.034842440105890597
10
13.544846038530183
20
5.2548962486840711
42
-0.0072727923844715034
10
13.557995174821974
20
5.2615754487797934
42
0.0097767555965834717
10
13.578023526196304
20
5.2707612862461497
42
0.054889807274817647
10
13.596592453189274
20
5.2823834045817755
42
0.037269415704102152
10
13.604754754933476
20
5.2898875676710864
42
0.058301509391521615
10
13.611317808718178
20
5.2987688674239442
42
0.13072106044515938
10
13.61622865257327
20
5.3172315589607901
10
13.617347020184358
20
5.8428521783097747
10
13.350759175559583
20
5.7987864400040348
42
-0.40033331526027283
10
6.7897666289100664
20
-0.73503582411493373
10
6.7685422098493921
20
-0.88785141539590928
42
-0.0016220454001342904
10
6.802769477766561
20
-0.89850270253881692
42
-0.0081371107188800557
10
6.8367780234285442
20
-0.90981852558494802
42
-0.0099035672953749071
10
6.8703493096478718
20
-0.92235116886521995
42
-0.0021513348904233323
10
6.902894169608186
20
-0.93540290566495676
42
-0.1202399727811088
10
6.9095810901761379
20
-0.92558674114184813
42
-7.1398456967995477e-05
10
6.912609055336211
20
-0.92285882931427843
42
0.016708253016541375
10
6.920437648137181
20
-0.91541435141678573
42
-0.016892097995900652
10
6.9356367900317357
20
-0.900787790632126
42
-0.0033333893996427412
10
6.9475493065639951
20
-0.89021779007988899
42
-0.0068931027779435524
10
6.9586458177331867
20
-0.88125585486819469
42
-0.03476050647575301
10
6.9704219797869298
20
-0.87326658683690128
42
-0.03432769411563015
10
6.983211623840452
20
-0.86696213606099803
42
-0.019024551778065401
10
6.9966216887796797
20
-0.86204722487414398
42
-0.02883612324649849
10
7.0170340711651882
20
-0.85671303810186505
42
-0.030819131366177144
10
7.0385211556268379
20
-0.85424366060022494
42
-0.0033413831626724561
10
7.050460123076955
20
-0.85369264079422713
42
-0.038945506703226718
10
7.0607507549467758
20
-0.85392199637300281
42
0.011438380353468188
10
7.075819811279894
20
-0.85510896990688912
42
-0.0074852992534748279
10
7.084698633035142
20
-0.8557257589865167
42
-0.0010050033278931872
10
7.1088418823075656
20
-0.85781539362897519
42
-0.0013596352424050074
10
7.1484687402397205
20
-0.86160598744600914
42
-0.00062170245707943086
10
7.1803313551704502
20
-0.86478134105889448
42
-0.0053684118351174604
10
7.1912662334038826
20
-0.87305995787445623
42
-0.048799623433339295
10
7.2055091895631511
20
-0.88631334658104788
42
-0.02068776234297743
10
7.2124893362651044
20
-0.89490142463584177
42
-0.019126629480534698
10
7.2187746399469406
20
-0.90403244106100311
42
-0.030551604014818764
10
7.2241173736815698
20
-0.91373074193686676
42
-0.030522327757642673
10
7.2282313820116419
20
-0.92398859698079538
42
-0.0061117073961085202
10
7.2315896539530584
20
-0.93453887549617942
10
7.3310230455732537
20
-1.3623336999073006
42
-0.0010796071122838511
10
7.333400922109262
20
-1.3736739984701647
42
-0.00094375804553880824
10
7.3357328893708402
20
-1.3850238325360813
42
0.0012001472327332621
10
7.3380715143517223
20
-1.3963765377505
42
-0.024042030812824203
10
7.3398872529160908
20
-1.4078109664169891
42
-0.013385410493976202
10
7.3380782664503785
20
-1.4204071720209051
42
-0.078601120737414293
10
7.3340480418346372
20
-1.4323174615982901
42
-0.082627697891526269
10
7.3264089233208329
20
-1.4424070545762815
42
-0.048892609876281044
10
7.3163234961458521
20
-1.4502369949966953
42
-0.07632358584682658
10
7.2933302311211889
20
-1.4602333490660111
42
-0.02539779621247943
10
7.2685375097270386
20
-1.4654391066798353
42
-0.029616021496330202
10
7.2184213262191355
20
-1.4703139204529425
42
-0.0080888625471157351
10
7.1679985424406363
20
-1.4714018650098979
42
-0.0073515482298085865
10
7.1272346041159995
20
-1.4704607276609958
42
-0.025688630600928533
10
7.0866709186029873
20
-1.466834774544989
42
-0.013298070416675732
10
7.0663007102684761
20
-1.4633986067921514
42
-0.049472125869587678
10
7.0425972637353942
20
-1.4561846854789351
42
-0.054680212559845592
10
7.0285969359304667
20
-1.4485227912681424
42
-0.029157403287823468
10
7.0206047052321789
20
-1.4422131128740565
42
-0.018773720587200733
10
7.0132456339183902
20
-1.4351605607918607
42
-0.021996904153789753
10
6.9995563029419863
20
-1.4197132060261519
42
-0.0053608764346092675
10
6.9867204525354234
20
-1.4035256872058937
42
-0.0068612429921807569
10
6.9744774320093095
20
-1.3872857467348605
42
-0.0056200621069867618
10
6.9626432027503595
20
-1.3707447711671601
42
-0.0089240390315410388
10
6.9398958399401902
20
-1.3369125171287919
42
-0.0017639386411778641
10
6.9178734416995828
20
-1.3025965614528516
42
0.0013580202585155973
10
6.8988707175014188
20
-1.273470517834898
42
0.0067961488735036133
10
6.8793972639300778
20
-1.2446607679888793
42
0.0082131680648927039
10
6.8590655704571812
20
-1.2164452310281695
42
0.0081835047899816195
10
6.83781969426808
20
-1.1889114496421658
42
0.0088347426865982154
10
6.8156467050121501
20
-1.1621136098988576
42
0.012824732149809873
10
6.7923381028931118
20
-1.1363055378451044
42
0.018121086965490505
10
6.7674588935246014
20
-1.1119697678689662
42
0.028287535300523425
10
6.7404571468159951
20
-1.0900648198049898
10
6.7059444193546591
20
-1.338555732928157
42
0.0083710076814756951
10
6.7440448904810086
20
-1.3910295484829771
42
0.0058948868758154629
10
6.7836295923940586
20
-1.4423987294021301
42
0.0056426830579400919
10
6.8243850018562151
20
-1.4928359694878937
42
0.0013506574345771465
10
6.8658443480844387
20
-1.5427012769233477
42
-0.0012330715590491929
10
6.9540980964339205
20
-1.6487861217375841
42
-0.0049525619474820462
10
7.0410287144389656
20
-1.755949674515181
42
-0.0025033174273393923
10
7.0836951669244304
20
-1.8101798887223552
42
-0.0025448625561638343
10
7.1258119177991972
20
-1.8648380939757108
42
-0.0032797124370360069
10
7.1672948946844715
20
-1.9199908990822041
42
-0.0059858556361490466
10
7.2077467440858847
20
-1.9759001067521784
42
-0.0067845291715987648
10
7.2467639847010821
20
-2.0328334251370594
42
-0.014211627293301606
10
7.2833454838810558
20
-2.0913361703869344
42
-0.020276324373629563
10
7.3158208187543048
20
-2.1522441489160737
42
-0.024311734254514161
10
7.3427340450479059
20
-2.2157790181389005
42
-0.023163608006738112
10
7.3635154233989466
20
-2.2816163798369828
42
-0.023071478588319601
10
7.3781299328334597
20
-2.3490917174361066
42
-0.012980206073959149
10
7.3829839526533849
20
-2.3832393581501226
42
-0.011450130841907272
10
7.3861646887479555
20
-2.4175858816560996
42
-0.0078741482149304962
10
7.3880171051092578
20
-2.4520505481367074
42
-0.001567452358077217
10
7.3892185810560713
20
-2.4865481553682165
42
-0.001688824158145459
10
7.3882564534948791
20
-2.5146572673501018
42
-0.0084935182988540407
10
7.3867223559569357
20
-2.542737067932936
42
-0.012366266105134941
10
7.3840205256705653
20
-2.5707075132418109
42
-0.015426315265085781
10
7.3797697530558359
20
-2.5984799465418988
42
-0.02923108146706057
10
7.3663329820489789
20
-2.6531094777892186
42
-0.029237452857581142
10
7.3466160762431718
20
-2.7057988642181341
42
-0.029981728618551765
10
7.3208128789411973
20
-2.7557907932321548
42
-0.032739198414376301
10
7.2889707170021358
20
-2.8021468705749499
42
-0.031619907477825684
10
7.2514558100368971
20
-2.8440199485389765
42
-0.025198179038276248
10
7.2094053089725847
20
-2.8813976777510866
42
-0.043207375169996891
10
7.1160254020727551
20
-2.9439057172427807
42
-0.042655526683778221
10
7.01333250632256
20
-2.9895524539962897
42
-0.021277664779933172
10
6.9594203537017227
20
-3.0056675628709226
42
-0.024042266245446035
10
6.9042848301519841
20
-3.0168346839881037
42
-0.023652730378182944
10
6.8484108346391235
20
-3.0226928454238107
42
-0.0050570445425198833
10
6.792232804922973
20
-3.0253381781028712
42
-0.0022027398742516073
10
6.7582600114034701
20
-3.0242419776938632
42
-0.011070703637358899
10
6.7243362707495056
20
-3.0222448986781094
42
-0.014272661955729361
10
6.690561209498421
20
-3.0185321662481703
42
-0.011390328895319692
10
6.6570161241052981
20
-3.0130908390501006
42
-0.0096848012560331615
10
6.6237153000653324
20
-3.0062378350169117
42
-0.013312782230596365
10
6.5907702684309575
20
-2.9978624112148955
42
-0.014278191095927295
10
6.5583580078409991
20
-2.9876893054329638
42
-0.0030972894932489829
10
6.5263062970740231
20
-2.9763918852769424
42
0.0044135762660221425
10
6.5100140243681226
20
-2.9703467170250399
42
0.022642937157831933
10
6.4934350393079399
20
-2.965196544913888
42
0.041176656286668667
10
6.4680176286243078
20
-2.9607389877265469
42
-0.00014504908920515039
10
6.4607881610272253
20
-2.9709967035723599
42
-0.0058620414874063177
10
6.4486749701765005
20
-2.9835725722821915
42
-0.054193651813336338
10
6.4334215193680935
20
-2.9962737511528359
42
-0.035080489147813108
10
6.4226995981695119
20
-3.002354996197858
42
-0.026290439946897833
10
6.4111424570788875
20
-3.0071493853958393
42
-0.013778791261125824
10
6.3992267152030538
20
-3.0110072382149786
42
-0.011121549951295108
10
6.3872109023055028
20
-3.0142463647697566
42
-0.010467626143205714
10
6.3750661335481666
20
-3.0169639076903656
42
-0.035835915141025632
10
6.3258649660351516
20
-3.0232742987288357
42
-0.0072015736623288864
10
6.2761812117650733
20
-3.0253381781028685
42
-0.0092040287767009288
10
6.2559599871038438
20
-3.0247339891780327
42
-0.028101817399506897
10
6.2358683756912558
20
-3.0226274211940343
42
-0.036349201508657503
10
6.2160418839990736
20
-3.0179156571849668
42
-0.086741033666870707
10
6.1981800174692641
20
-3.0086384269358071
42
-0.10242951455607271
10
6.185019749268462
20
-2.9934679941980948
42
-0.052888795097337349
10
6.176988797295885
20
-2.9747210982350465
42
-0.025687434873094207
10
6.1720229034208796
20
-2.9550843235150754
42
-0.0050797501137613416
10
6.1682689985478349
20
-2.9351541194381165
10
6.0761581527190156
20
-2.5150669682378255
42
0.00086837183678221681
10
6.0711831726453243
20
-2.4916991477240567
42
0.0018889286632289594
10
6.0660794334802839
20
-2.4683592486401063
42
-0.0046997752782409934
10
6.06110582568909
20
-2.4449855906488795
42
-0.019544222543334201
10
6.0572736015610955
20
-2.4214153289809337
42
-0.010645549855770998
10
6.0583057564345371
20
-2.4118627540868407
42
-0.09669780611572526
10
6.0633250075371032
20
-2.3968034084689269
42
-0.057942576331583853
10
6.0712896450173313
20
-2.386746341770952
42
-0.07989111589906292
10
6.0866998239412524
20
-2.3756096773801283
42
-0.043657772428610866
10
6.1045219508838686
20
-2.36851022280293
42
-0.026042756240870969
10
6.1231029239171848
20
-2.3639680758491894
42
-0.021392505131030484
10
6.1420389128692365
20
-2.361204932640276
42
-0.016869485403567641
10
6.1611038452034697
20
-2.3598991737649069
42
-0.0033616921805767024
10
6.1802164343371482
20
-2.3593653319227967
42
-0.0029727059152222413
10
6.2232597093705957
20
-2.3602274259178757
42
-0.014997562672748058
10
6.2662256423882718
20
-2.3626344906611512
42
-0.0097366699088147993
10
6.2876101010884007
20
-2.3648974392578115
42
-0.012833819315967016
10
6.3088676932170955
20
-2.3681225762518872
42
-0.015384966485590203
10
6.3299718014569404
20
-2.3725546644142463
42
-0.04922341991641746
10
6.3565851785491922
20
-2.3819754472009831
42
-0.057019186666122587
10
6.3691864717907318
20
-2.3896753318342725
42
-0.038443913422260258
10
6.377136032171177
20
-2.3969232425297955
42
-0.019626979752075242
10
6.384207929733317
20
-2.4050609892990038
42
-0.018547277086732473
10
6.3970445129040066
20
-2.4223344319089732
42
-0.0079982519742366805
10
6.4089531247746354
20
-2.4402747140529075
42
-0.02207817354638094
10
6.4305341268291905
20
-2.4774592992942104
42
-0.0061937682506307866
10
6.449996952009279
20
-2.5158383931732136
42
0.0029482275742235323
10
6.4752212703361955
20
-2.5644604896839054
42
0.011469322429508069
10
6.5018303437374616
20
-2.612323394368929
42
0.0099814289299380281
10
6.5304875819120562
20
-2.6590336311321061
42
0.016388113165186947
10
6.561556627022652
20
-2.7041531308849809
42
0.023322805041887613
10
6.5961058664409675
20
-2.7466644857809799
42
0.034672878333950857
10
6.6352898495079504
20
-2.7848428796868636
42
0.021397903275520089
10
6.6570579900427473
20
-2.8017474697981597
42
0.048812644492364159
10
6.6808847873393864
20
-2.8153883944918876
42
0.058917956640595681
10
6.7069217728669219
20
-2.8235770968427598
42
0.012425412573240277
10
6.7340372975174088
20
-2.8280130725663164
42
0.0087032038674440728
10
6.7535502836838885
20
-2.8269170974950173
42
0.036510116575579593
10
6.7728361140160942
20
-2.8240713101788613
42
0.040546729921089063
10
6.7915365526610554
20
-2.8182755580760568
42
0.048809356434719731
10
6.8088843549120579
20
-2.8092633112309144
42
0.053456746536563626
10
6.8240467343293076
20
-2.7969145224441112
42
0.055076338758668374
10
6.8361927923465986
20
-2.7815980334341197
42
0.034694434981522901
10
6.840797113253184
20
-2.7729877856687803
42
0.07718769239093233
10
6.8453345483227732
20
-2.7570536093118623
42
0.0082588252126212774
10
6.8465743102053001
20
-2.7443803762571979
42
0.0060901300767092865
10
6.841316541264101
20
-2.7124790520122084
42
0.031971684340166118
10
6.8336636801428385
20
-2.6811316215589547
42
0.040121735786878089
10
6.8216210727393314
20
-2.6512904501936956
42
0.021267288064111045
10
6.8059797009690177
20
-2.623082777684159
42
0.020329016028231183
10
6.7701324910107523
20
-2.5694834755949207
42
0.0085059206086021549
10
6.7312293158809728
20
-2.518004115646872
42
0.0099006494506534461
10
6.6497702983642482
20
-2.4180816190842109
42
0.0016828079160590551
10
6.5660025681809122
20
-2.3200542058793627
42
-0.0012780096689217811
10
6.4758058944589481
20
-2.2157372024370598
42
-0.0058145771481397587
10
6.387103694758526
20
-2.1101580877067692
42
-0.0069565276231903089
10
6.3011121009772051
20
-2.0023295803349428
42
-0.012145669861734399
10
6.2193178356249952
20
-1.8913174238080934
42
-0.0071223817990196696
10
6.1805600674491661
20
-1.8342337192700884
42
-0.013100041017109189
10
6.1441508085899477
20
-1.7756438022983079
42
-0.018972839043364689
10
6.1115841933870314
20
-1.7148638491088208
42
-0.02116143258151228
10
6.0840000764425071
20
-1.6516797269588723
42
-0.020165688232955104
10
6.0616875090677995
20
-1.5863219093901548
42
-0.026448053972181765
10
6.0455644083171221
20
-1.5192103830862487
42
-0.027603013432763088
10
6.0367892605481126
20
-1.4508670495990035
42
-0.0059377336792422949
10
6.0326079351649051
20
-1.3819891936103641
42
-0.0017082729619996395
10
6.0331467663135951
20
-1.3579777712909078
42
-0.0085790952347893374
10
6.0341793186852986
20
-1.3339859638058553
42
-0.011847544069169162
10
6.0361900542371929
20
-1.3100657416209471
42
-0.010168663371781711
10
6.0392519489249272
20
-1.2862554479120367
42
-0.017224063935606243
10
6.0479787241479608
20
-1.2390158488288292
42
-0.025909039029963932
10
6.0607329223889375
20
-1.1927383019929647
42
-0.022489320941563945
10
6.0779119982758676
20
-1.1478759595198831
42
-0.029385150316717016
10
6.0996281846161535
20
-1.1050640693238793
42
-0.023288779963366927
10
6.1257417657812194
20
-1.0647461343529394
42
-0.026617683986616403
10
6.1557321936354104
20
-1.0272428498672279
42
-0.025875331963113812
10
6.1894799019751181
20
-0.99309498174693167
42
-0.019888329239961436
10
6.2262270651244513
20
-0.9621570079570132
42
-0.023429346962371807
10
6.2654946785209011
20
-0.93452703599706965
42
-0.02397146987974403
10
6.3071988472307687
20
-0.91073867372292161
42
-0.022857077309665266
10
6.3509541152111346
20
-0.89094969567816884
42
-0.02529937014054567
10
6.3963986063833369
20
-0.87546290502291968
42
-0.023672672497833173
10
6.4431475577491053
20
-0.86449143425614661
42
-0.022203180822248259
10
6.4907114165667439
20
-0.85784772946704346
10
6.470301602138111
20
-0.73437296975870203
42
-0.40033331526040211
10
-0.063520661980823109
20
5.8266195768930942
10
-0.52377797187185782
20
5.8905442073168164
10
-0.71423246412391062
20
5.0917536571552411
42
-0.0031584583967094767
10
-0.72154951386492661
20
5.0626156570121044
42
-0.012853240318406588
10
-0.72979314922886196
20
5.0337358282530671
42
-0.0061339452397936468
10
-0.7344621447745554
20
5.0194568177841505
42
-0.0071490354726889624
10
-0.73950864230705493
20
5.00530724663773
42
-0.018143642744991601
10
-0.74869788950304228
20
4.9836782864939266
42
-0.056008913122009438
10
-0.75982571238812791
20
4.9651720340790577
42
-0.058442583439716637
10
-0.77027476527288896
20
4.954396747511864
42
-0.061314318720842656
10
-0.78296900653081514
20
4.9464108390726791
42
-0.034681288610287846
10
-0.7970245350310069
20
4.94096358419909
42
-0.025508644314307469
10
-0.81158677231848075
20
4.9372547122960846
42
-0.022562849753842661
10
-0.82644195525339825
20
4.9349599419462784
42
-0.017095396931511506
10
-0.84142286421687773
20
4.9338499425060762
42
-0.0033834937559655848
10
-0.85644509238581723
20
4.9333539583689276
10
-1.1427971174743503
20
4.9336952404903291
42
-0.057000111897154718
10
-1.1600586754905688
20
4.9356950851457277
42
-0.058286495908685884
10
-1.1736164377116087
20
4.940555631722364
42
-0.067442964718127052
10
-1.1878761712627177
20
4.9502143319198737
42
-0.060487835085992626
10
-1.1992520474382065
20
4.963186516318431
42
-0.04047387190172777
10
-1.2077960901904803
20
4.9781715622682272
42
-0.029151646345501749
10
-1.2141885254349603
20
4.9942223810810988
42
-0.026584446533866001
10
-1.2187481103868509
20
5.0108548497363268
42
-0.0068553752265832855
10
-1.222190715080542
20
5.02777713583089
42
0.010290954919501976
10
-1.223507927491954
20
5.0378324761001032
42
0.012090201458006652
10
-1.2252736075410215
20
5.04781799188404
10
-1.4029436420263812
20
5.9411768941701197
10
-1.5806131845209412
20
5.0324019218777032
42
-0.0074016610211720081
10
-1.5858510985966181
20
5.0115667499691963
42
-0.033947078142109871
10
-1.5927764102916255
20
4.9912798515092396
42
-0.042147166120555891
10
-1.6027806063867003
20
4.972114028933114
42
-0.064622490042599248
10
-1.6165491517047641
20
4.9555799819450721
42
-0.083428002688173394
10
-1.6344385405876893
20
4.9438370871547521
42
-0.052926741303273135
10
-1.6549968266139972
20
4.9372823451651611
42
-0.034683573738282666
10
-1.6762791632977168
20
4.9344229952231808
42
-0.0072621362180805065
10
-1.6977756116690406
20
4.9333539550560754
10
-1.9933770564453153
20
4.9333539550560754
42
-0.010691117996018686
10
-2.0057514128553309
20
4.934976438359735
42
-0.058212778499220359
10
-2.0177074516595668
20
4.9382602649071359
42
-0.062467112524336406
10
-2.0285775647553836
20
4.9443279339167159
42
-0.039520524311737873
10
-2.0380390770567987
20
4.9525079898586304
42
-0.058765751363485781
10
-2.0532555165830875
20
4.9720530339670628
42
-0.030380462578197855
10
-2.0648262255718834
20
4.9940963831338587
42
-0.050144203424438406
10
-2.0805197839057765
20
5.0410710522820432
42
-0.010174733334542212
10
-2.0904981990110669
20
5.0898266473049816
42
0.0026478126573376806
10
-2.0938170051726206
20
5.1158612387991562
42
0.0031083411640704839
10
-2.0974352829126026
20
5.1418557605391513
10
-2.5005644800817377
20
6.7979227378552061
42
0.0065319520120113838
10
-2.5043263416810007
20
6.8082312262731444
42
0.033940115484554001
10
-2.5088989697028579
20
6.818179818962296
42
0.062122276774671421
10
-2.5179075163488349
20
6.8308448457232505
42
0.079285627500672792
10
-2.5400474865449945
20
6.8482359931937431
42
0.012773442909415664
10
-2.559531661204796
20
6.8584306526922694
42
-0.0045457754471667829
10
-2.5717505057482661
20
6.8638422959531828
42
-0.035783320704807282
10
-2.5900557358622409
20
6.8739215374141169
42
-0.084695139738791364
10
-2.610267618372581
20
6.8924231559191211
42
-0.075455729531268889
10
-2.6193474884775183
20
6.9085468933871566
42
-0.054869481503804066
10
-2.622676077653213
20
6.9214417790871083
42
-0.011524857827977641
10
-2.6242787615827199
20
6.9347399900691258
10
-2.6242787615827141
20
7.0268507499798787
42
-0.020998844232813351
10
-2.6227678447569449
20
7.0395634240951228
42
-0.080864744599637037
10
-2.6187695395055819
20
7.0515617150261969
42
-0.077079904945053207
10
-2.6111787192871287
20
7.0618232330467654
42
-0.066360112215257755
10
-2.6009669949047955
20
7.0695462605509896
42
-0.054433171237410337
10
-2.5892695479628611
20
7.0745779887358466
42
-0.03556823112125989
10
-2.5768184354188706
20
7.0774456241801014
42
-0.02611816649122348
10
-2.5641648438185816
20
7.0787539992339585
42
-0.0053272042724477929
10
-2.5514374126590997
20
7.0792653387681455
10
-1.8719761221409195
20
7.0792652816031838
42
-0.0062579378241713092
10
-1.8508405206128451
20
7.0782922023019132
42
-0.032334425107975524
10
-1.8298850383860543
20
7.0756979968085876
42
-0.045040104896024238
10
-1.8095174975830273
20
7.0698889330763768
42
-0.065331902744902734
10
-1.790996759475237
20
7.0598110639764187
42
-0.086573496477641593
10
-1.7763687684117273
20
7.04470341374694
42
-0.066593855733313445
10
-1.7669082090679034
20
7.0257782012638428
42
-0.057674306803251189
10
-1.7624087705432092
20
7.0052084583598075
42
-0.016339826005148782
10
-1.7609808813563124
20
6.9840713039608362
42
-0.003563182938992424
10
-1.761197803590572
20
6.9658553651298609
42
-0.018998829707333974
10
-1.762235395944008
20
6.9476804125123746
42
-0.020733889837021905
10
-1.764194961609898
20
6.9334120035383799
42
-0.022733510389245357
10
-1.7674445094347868
20
6.918819445969663
42
-0.10226456818669352
0
ENDSEC
0
SECTION
2
OBJECTS
0
DICTIONARY
5
C
100
AcDbDictionary
3
ACAD_GROUP
350
D
3
ACAD_MLINESTYLE
350
17
0
DICTIONARY
5
D
100
AcDbDictionary
0
DICTIONARY
5
1A
330
C
100
AcDbDictionary
0
DICTIONARY
5
17
100
AcDbDictionary
0
ENDSEC
0
EOF
