  0
SECTION
  2
HEADER
  9
$ACADVER
  1
AC1014
  9
$HANDSEED
  5
FFFF
  9
$MEASUREMENT
 70
     1
  0
ENDSEC
  0
SECTION
  2
TABLES
  0
TABLE
  2
VPORT
  5
8
330
0
100
AcDbSymbolTable
 70
     4
  0
VPORT
  5
2E
330
8
100
AcDbSymbolTableRecord
100
AcDbViewportTableRecord
  2
*ACTIVE
 70
     0
 10
0.0
 20
0.0
 11
1.0
 21
1.0
 12
210.0
 22
148.5
 13
0.0
 23
0.0
 14
10.0
 24
10.0
 15
10.0
 25
10.0
 16
0.0
 26
0.0
 36
1.0
 17
0.0
 27
0.0
 37
0.0
 40
341.0
 41
1.24
 42
50.0
 43
0.0
 44
0.0
 50
0.0
 51
0.0
 71
     0
 72
   100
 73
     1
 74
     3
 75
     0
 76
     0
 77
     0
 78
     0
  0
ENDTAB
  0
TABLE
  2
LTYPE
  5
5
330
0
100
AcDbSymbolTable
 70
     1
  0
LTYPE
  5
14
330
5
100
AcDbSymbolTableRecord
100
AcDbLinetypeTableRecord
  2
BYBLOCK
 70
     0
  3

 72
    65
 73
     0
 40
0.0
  0
LTYPE
  5
15
330
5
100
AcDbSymbolTableRecord
100
AcDbLinetypeTableRecord
  2
BYLAYER
 70
     0
  3

 72
    65
 73
     0
 40
0.0
  0
LTYPE
  5
16
330
5
100
AcDbSymbolTableRecord
100
AcDbLinetypeTableRecord
  2
CONTINUOUS
 70
     0
  3
Solid line
 72
    65
 73
     0
 40
0.0
  0
ENDTAB
  0
TABLE
  2
LAYER
  5
2
100
AcDbSymbolTable
 70
1
  0
LAYER
  5
50
100
AcDbSymbolTableRecord
100
AcDbLayerTableRecord
  2
0
 70
0
  6
CONTINUOUS
  0
ENDTAB
  0
TABLE
  2
STYLE
  5
3
330
0
100
AcDbSymbolTable
 70
     1
  0
STYLE
  5
11
330
3
100
AcDbSymbolTableRecord
100
AcDbTextStyleTableRecord
  2
STANDARD
 70
     0
 40
0.0
 41
1.0
 50
0.0
 71
     0
 42
2.5
  3
txt
  4

  0
ENDTAB
  0
TABLE
  2
VIEW
  5
6
330
0
100
AcDbSymbolTable
 70
     0
  0
ENDTAB
  0
TABLE
  2
UCS
  5
7
330
0
100
AcDbSymbolTable
 70
     0
  0
ENDTAB
  0
TABLE
  2
APPID
  5
9
330
0
100
AcDbSymbolTable
 70
     2
  0
APPID
  5
12
330
9
100
AcDbSymbolTableRecord
100
AcDbRegAppTableRecord
  2
ACAD
 70
     0
  0
ENDTAB
  0
TABLE
  2
DIMSTYLE
  5
A
330
0
100
AcDbSymbolTable
 70
     1
  0
DIMSTYLE
105
27
330
A
100
AcDbSymbolTableRecord
100
AcDbDimStyleTableRecord
  2
ISO-25
 70
     0
  3

  4

  5

  6

  7

 40
1.0
 41
2.5
 42
0.625
 43
3.75
 44
1.25
 45
0.0
 46
0.0
 47
0.0
 48
0.0
140
2.5
141
2.5
142
0.0
143
0.03937007874016
144
1.0
145
0.0
146
1.0
147
0.625
 71
     0
 72
     0
 73
     0
 74
     0
 75
     0
 76
     0
 77
     1
 78
     8
170
     0
171
     3
172
     1
173
     0
174
     0
175
     0
176
     0
177
     0
178
     0
270
     2
271
     2
272
     2
273
     2
274
     3
340
11
275
     0
280
     0
281
     0
282
     0
283
     0
284
     8
285
     0
286
     0
287
     3
288
     0
  0
ENDTAB
  0
TABLE
  2
BLOCK_RECORD
  5
1
330
0
100
AcDbSymbolTable
 70
     1
  0
BLOCK_RECORD
  5
1F
330
1
100
AcDbSymbolTableRecord
100
AcDbBlockTableRecord
  2
*MODEL_SPACE
  0
BLOCK_RECORD
  5
1B
330
1
100
AcDbSymbolTableRecord
100
AcDbBlockTableRecord
  2
*PAPER_SPACE
  0
ENDTAB
  0
ENDSEC
  0
SECTION
  2
BLOCKS
  0
BLOCK
  5
20
330
1F
100
AcDbEntity
  8
0
100
AcDbBlockBegin
  2
*MODEL_SPACE
 70
     0
 10
0.0
 20
0.0
 30
0.0
  3
*MODEL_SPACE
  1

  0
ENDBLK
  5
21
330
1F
100
AcDbEntity
  8
0
100
AcDbBlockEnd
  0
BLOCK
  5
1C
330
1B
100
AcDbEntity
 67
     1
  8
0
100
AcDbBlockBegin
  2
*PAPER_SPACE
  1

  0
ENDBLK
  5
1D
330
1B
100
AcDbEntity
 67
     1
  8
0
100
AcDbBlockEnd
  0
ENDSEC
  0
SECTION
  2
ENTITIES
  0
SPLINE
  5
100
100
AcDbEntity
  8
0
 62
7
100
AcDbSpline
 70
8
 71
3
 72
8
 73
4
 74
0
 40
0
 40
0
 40
0
 40
0
 40
1
 40
1
 40
1
 40
1
 10
9.907414
 20
18.352870
 30
0.0
 10
10.595786
 20
18.346165
 30
0.0
 10
11.284159
 20
18.361065
 30
0.0
 10
11.971786
 20
18.343185
 30
0.0
  0
SPLINE
  5
101
100
AcDbEntity
  8
0
 62
7
100
AcDbSpline
 70
8
 71
3
 72
8
 73
4
 74
0
 40
0
 40
0
 40
0
 40
0
 40
1
 40
1
 40
1
 40
1
 10
11.971786
 20
18.343185
 30
0.0
 10
12.081300
 20
18.010918
 30
0.0
 10
12.212418
 20
17.685357
 30
0.0
 10
12.332362
 20
17.356071
 30
0.0
  0
SPLINE
  5
102
100
AcDbEntity
  8
0
 62
7
100
AcDbSpline
 70
8
 71
3
 72
8
 73
4
 74
0
 40
0
 40
0
 40
0
 40
0
 40
1
 40
1
 40
1
 40
1
 10
12.332362
 20
17.356071
 30
0.0
 10
12.878441
 20
17.350856
 30
0.0
 10
13.463260
 20
17.251772
 30
0.0
 10
13.884180
 20
16.876296
 30
0.0
  0
SPLINE
  5
103
100
AcDbEntity
  8
0
 62
7
100
AcDbSpline
 70
8
 71
3
 72
8
 73
4
 74
0
 40
0
 40
0
 40
0
 40
0
 40
1
 40
1
 40
1
 40
1
 10
13.884180
 20
16.876296
 30
0.0
 10
14.147162
 20
16.651308
 30
0.0
 10
14.254441
 20
16.312337
 30
0.0
 10
14.362465
 20
15.996460
 30
0.0
  0
SPLINE
  5
104
100
AcDbEntity
  8
0
 62
7
100
AcDbSpline
 70
8
 71
3
 72
8
 73
4
 74
0
 40
0
 40
0
 40
0
 40
0
 40
1
 40
1
 40
1
 40
1
 10
14.362465
 20
15.996460
 30
0.0
 10
15.095537
 20
16.257953
 30
0.0
 10
15.865113
 20
16.421106
 30
0.0
 10
16.644375
 20
16.449415
 30
0.0
  0
SPLINE
  5
105
100
AcDbEntity
  8
0
 62
7
100
AcDbSpline
 70
8
 71
3
 72
8
 73
4
 74
0
 40
0
 40
0
 40
0
 40
0
 40
1
 40
1
 40
1
 40
1
 10
16.644375
 20
16.449415
 30
0.0
 10
16.666725
 20
16.780192
 30
0.0
 10
16.689819
 20
17.132573
 30
0.0
 10
16.521451
 20
17.432060
 30
0.0
  0
SPLINE
  5
106
100
AcDbEntity
  8
0
 62
7
100
AcDbSpline
 70
8
 71
3
 72
8
 73
4
 74
0
 40
0
 40
0
 40
0
 40
0
 40
1
 40
1
 40
1
 40
1
 10
16.521451
 20
17.432060
 30
0.0
 10
16.336693
 20
17.780716
 30
0.0
 10
15.988037
 20
18.074243
 30
0.0
 10
15.582017
 20
18.097337
 30
0.0
  0
SPLINE
  5
107
100
AcDbEntity
  8
0
 62
7
100
AcDbSpline
 70
8
 71
3
 72
8
 73
4
 74
0
 40
0
 40
0
 40
0
 40
0
 40
1
 40
1
 40
1
 40
1
 10
15.582017
 20
18.097337
 30
0.0
 10
15.376399
 20
18.075733
 30
0.0
 10
15.207286
 20
17.927479
 30
0.0
 10
15.000923
 20
17.904385
 30
0.0
  0
SPLINE
  5
108
100
AcDbEntity
  8
0
 62
7
100
AcDbSpline
 70
8
 71
3
 72
8
 73
4
 74
0
 40
0
 40
0
 40
0
 40
0
 40
1
 40
1
 40
1
 40
1
 10
15.000923
 20
17.904385
 30
0.0
 10
14.912269
 20
17.941634
 30
0.0
 10
14.828085
 20
17.988569
 30
0.0
 10
14.749861
 20
18.045933
 30
0.0
  0
SPLINE
  5
109
100
AcDbEntity
  8
0
 62
7
100
AcDbSpline
 70
8
 71
3
 72
8
 73
4
 74
0
 40
0
 40
0
 40
0
 40
0
 40
1
 40
1
 40
1
 40
1
 10
14.749861
 20
18.045933
 30
0.0
 10
14.960693
 20
18.428114
 30
0.0
 10
15.442703
 20
18.362555
 30
0.0
 10
15.795829
 20
18.261981
 30
0.0
  0
SPLINE
  5
10a
100
AcDbEntity
  8
0
 62
7
100
AcDbSpline
 70
8
 71
3
 72
8
 73
4
 74
0
 40
0
 40
0
 40
0
 40
0
 40
1
 40
1
 40
1
 40
1
 10
15.795829
 20
18.261981
 30
0.0
 10
16.253999
 20
18.137567
 30
0.0
 10
16.650335
 20
17.793381
 30
0.0
 10
16.808273
 20
17.341916
 30
0.0
  0
SPLINE
  5
10b
100
AcDbEntity
  8
0
 62
7
100
AcDbSpline
 70
8
 71
3
 72
8
 73
4
 74
0
 40
0
 40
0
 40
0
 40
0
 40
1
 40
1
 40
1
 40
1
 10
16.808273
 20
17.341916
 30
0.0
 10
16.919277
 20
17.057329
 30
0.0
 10
16.884262
 20
16.747412
 30
0.0
 10
16.870852
 20
16.449415
 30
0.0
  0
SPLINE
  5
10c
100
AcDbEntity
  8
0
 62
7
100
AcDbSpline
 70
8
 71
3
 72
8
 73
4
 74
0
 40
0
 40
0
 40
0
 40
0
 40
1
 40
1
 40
1
 40
1
 10
16.870852
 20
16.449415
 30
0.0
 10
17.941406
 20
16.459100
 30
0.0
 10
19.041759
 20
16.226663
 30
0.0
 10
19.949159
 20
15.639609
 30
0.0
  0
SPLINE
  5
10d
100
AcDbEntity
  8
0
 62
7
100
AcDbSpline
 70
8
 71
3
 72
8
 73
4
 74
0
 40
0
 40
0
 40
0
 40
0
 40
1
 40
1
 40
1
 40
1
 10
19.949159
 20
15.639609
 30
0.0
 10
20.589107
 20
15.214219
 30
0.0
 10
21.115071
 20
14.528082
 30
0.0
 10
21.137421
 20
13.733920
 30
0.0
  0
SPLINE
  5
10e
100
AcDbEntity
  8
0
 62
7
100
AcDbSpline
 70
8
 71
3
 72
8
 73
4
 74
0
 40
0
 40
0
 40
0
 40
0
 40
1
 40
1
 40
1
 40
1
 10
21.137421
 20
13.733920
 30
0.0
 10
21.188080
 20
12.947954
 30
0.0
 10
20.874439
 20
12.158262
 30
0.0
 10
20.312715
 20
11.609203
 30
0.0
  0
SPLINE
  5
10f
100
AcDbEntity
  8
0
 62
7
100
AcDbSpline
 70
8
 71
3
 72
8
 73
4
 74
0
 40
0
 40
0
 40
0
 40
0
 40
1
 40
1
 40
1
 40
1
 10
20.312715
 20
11.609203
 30
0.0
 10
20.084747
 20
11.377511
 30
0.0
 10
19.799415
 20
11.216593
 30
0.0
 10
19.534198
 20
11.031835
 30
0.0
  0
SPLINE
  5
110
100
AcDbEntity
  8
0
 62
7
100
AcDbSpline
 70
8
 71
3
 72
8
 73
4
 74
0
 40
0
 40
0
 40
0
 40
0
 40
1
 40
1
 40
1
 40
1
 10
19.534198
 20
11.031835
 30
0.0
 10
20.136152
 20
11.007250
 30
0.0
 10
20.738850
 20
11.025875
 30
0.0
 10
21.340804
 20
11.021405
 30
0.0
  0
SPLINE
  5
111
100
AcDbEntity
  8
0
 62
7
100
AcDbSpline
 70
8
 71
3
 72
8
 73
4
 74
0
 40
0
 40
0
 40
0
 40
0
 40
1
 40
1
 40
1
 40
1
 10
21.340804
 20
11.021405
 30
0.0
 10
21.346018
 20
10.861977
 30
0.0
 10
21.347508
 20
10.702548
 30
0.0
 10
21.346763
 20
10.543120
 30
0.0
  0
SPLINE
  5
112
100
AcDbEntity
  8
0
 62
7
100
AcDbSpline
 70
8
 71
3
 72
8
 73
4
 74
0
 40
0
 40
0
 40
0
 40
0
 40
1
 40
1
 40
1
 40
1
 10
21.346763
 20
10.543120
 30
0.0
 10
14.413869
 20
10.537160
 30
0.0
 10
7.480230
 20
10.542375
 30
0.0
 10
0.547336
 20
10.540885
 30
0.0
  0
SPLINE
  5
113
100
AcDbEntity
  8
0
 62
7
100
AcDbSpline
 70
8
 71
3
 72
8
 73
4
 74
0
 40
0
 40
0
 40
0
 40
0
 40
1
 40
1
 40
1
 40
1
 10
0.547336
 20
10.540885
 30
0.0
 10
0.547336
 20
10.698823
 30
0.0
 10
0.546591
 20
10.856762
 30
0.0
 10
0.545101
 20
11.014700
 30
0.0
  0
SPLINE
  5
114
100
AcDbEntity
  8
0
 62
7
100
AcDbSpline
 70
8
 71
3
 72
8
 73
4
 74
0
 40
0
 40
0
 40
0
 40
0
 40
1
 40
1
 40
1
 40
1
 10
0.545101
 20
11.014700
 30
0.0
 10
1.366082
 20
11.032580
 30
0.0
 10
2.187808
 20
11.008740
 30
0.0
 10
3.008789
 20
11.024385
 30
0.0
  0
SPLINE
  5
115
100
AcDbEntity
  8
0
 62
7
100
AcDbSpline
 70
8
 71
3
 72
8
 73
4
 74
0
 40
0
 40
0
 40
0
 40
0
 40
1
 40
1
 40
1
 40
1
 10
3.008789
 20
11.024385
 30
0.0
 10
2.290617
 20
11.236708
 30
0.0
 10
1.544135
 20
11.497455
 30
0.0
 10
1.015191
 20
12.054709
 30
0.0
  0
SPLINE
  5
116
100
AcDbEntity
  8
0
 62
7
100
AcDbSpline
 70
8
 71
3
 72
8
 73
4
 74
0
 40
0
 40
0
 40
0
 40
0
 40
1
 40
1
 40
1
 40
1
 10
1.015191
 20
12.054709
 30
0.0
 10
0.701549
 20
12.375800
 30
0.0
 10
0.519771
 20
12.836950
 30
0.0
 10
0.574901
 20
13.286180
 30
0.0
  0
SPLINE
  5
117
100
AcDbEntity
  8
0
 62
7
100
AcDbSpline
 70
8
 71
3
 72
8
 73
4
 74
0
 40
0
 40
0
 40
0
 40
0
 40
1
 40
1
 40
1
 40
1
 10
0.574901
 20
13.286180
 30
0.0
 10
0.606190
 20
13.461253
 30
0.0
 10
0.721664
 20
13.654951
 30
0.0
 10
0.907167
 20
13.691456
 30
0.0
  0
SPLINE
  5
118
100
AcDbEntity
  8
0
 62
7
100
AcDbSpline
 70
8
 71
3
 72
8
 73
4
 74
0
 40
0
 40
0
 40
0
 40
0
 40
1
 40
1
 40
1
 40
1
 10
0.907167
 20
13.691456
 30
0.0
 10
1.036796
 20
13.732430
 30
0.0
 10
1.114275
 20
13.586412
 30
0.0
 10
1.204419
 20
13.523088
 30
0.0
  0
SPLINE
  5
119
100
AcDbEntity
  8
0
 62
7
100
AcDbSpline
 70
8
 71
3
 72
8
 73
4
 74
0
 40
0
 40
0
 40
0
 40
0
 40
1
 40
1
 40
1
 40
1
 10
1.204419
 20
13.523088
 30
0.0
 10
1.088200
 20
13.385264
 30
0.0
 10
0.932497
 20
13.276495
 30
0.0
 10
0.849803
 20
13.114087
 30
0.0
  0
SPLINE
  5
11a
100
AcDbEntity
  8
0
 62
7
100
AcDbSpline
 70
8
 71
3
 72
8
 73
4
 74
0
 40
0
 40
0
 40
0
 40
0
 40
1
 40
1
 40
1
 40
1
 10
0.849803
 20
13.114087
 30
0.0
 10
0.774559
 20
12.702851
 30
0.0
 10
1.015191
 20
12.315456
 30
0.0
 10
1.325108
 20
12.066628
 30
0.0
  0
SPLINE
  5
11b
100
AcDbEntity
  8
0
 62
7
100
AcDbSpline
 70
8
 71
3
 72
8
 73
4
 74
0
 40
0
 40
0
 40
0
 40
0
 40
1
 40
1
 40
1
 40
1
 10
1.325108
 20
12.066628
 30
0.0
 10
1.852562
 20
11.641983
 30
0.0
 10
2.549874
 20
11.487770
 30
0.0
 10
3.215152
 20
11.498945
 30
0.0
  0
SPLINE
  5
11c
100
AcDbEntity
  8
0
 62
7
100
AcDbSpline
 70
8
 71
3
 72
8
 73
4
 74
0
 40
0
 40
0
 40
0
 40
0
 40
1
 40
1
 40
1
 40
1
 10
3.215152
 20
11.498945
 30
0.0
 10
3.988453
 20
11.492985
 30
0.0
 10
4.752070
 20
11.661353
 30
0.0
 10
5.479182
 20
11.913160
 30
0.0
  0
SPLINE
  5
11d
100
AcDbEntity
  8
0
 62
7
100
AcDbSpline
 70
8
 71
3
 72
8
 73
4
 74
0
 40
0
 40
0
 40
0
 40
0
 40
1
 40
1
 40
1
 40
1
 10
5.479182
 20
11.913160
 30
0.0
 10
6.273343
 20
12.188807
 30
0.0
 10
7.050370
 20
12.511389
 30
0.0
 10
7.802812
 20
12.886864
 30
0.0
  0
SPLINE
  5
11e
100
AcDbEntity
  8
0
 62
7
100
AcDbSpline
 70
8
 71
3
 72
8
 73
4
 74
0
 40
0
 40
0
 40
0
 40
0
 40
1
 40
1
 40
1
 40
1
 10
7.802812
 20
12.886864
 30
0.0
 10
7.364756
 20
13.255635
 30
0.0
 10
6.936386
 20
13.724235
 30
0.0
 10
6.900627
 20
14.326189
 30
0.0
  0
SPLINE
  5
11f
100
AcDbEntity
  8
0
 62
7
100
AcDbSpline
 70
8
 71
3
 72
8
 73
4
 74
0
 40
0
 40
0
 40
0
 40
0
 40
1
 40
1
 40
1
 40
1
 10
6.900627
 20
14.326189
 30
0.0
 10
6.824637
 20
14.907282
 30
0.0
 10
7.184468
 20
15.479436
 30
0.0
 10
7.703728
 20
15.725283
 30
0.0
  0
SPLINE
  5
120
100
AcDbEntity
  8
0
 62
7
100
AcDbSpline
 70
8
 71
3
 72
8
 73
4
 74
0
 40
0
 40
0
 40
0
 40
0
 40
1
 40
1
 40
1
 40
1
 10
7.703728
 20
15.725283
 30
0.0
 10
8.102298
 20
15.942821
 30
0.0
 10
8.564193
 20
15.957721
 30
0.0
 10
9.005974
 20
15.948781
 30
0.0
  0
SPLINE
  5
121
100
AcDbEntity
  8
0
 62
7
100
AcDbSpline
 70
8
 71
3
 72
8
 73
4
 74
0
 40
0
 40
0
 40
0
 40
0
 40
1
 40
1
 40
1
 40
1
 10
9.005974
 20
15.948781
 30
0.0
 10
9.295030
 20
16.754117
 30
0.0
 10
9.602712
 20
17.553493
 30
0.0
 10
9.907414
 20
18.352870
 30
0.0
  0
SPLINE
  5
122
100
AcDbEntity
  8
0
 62
7
100
AcDbSpline
 70
8
 71
3
 72
8
 73
4
 74
0
 40
0
 40
0
 40
0
 40
0
 40
1
 40
1
 40
1
 40
1
 10
12.438151
 20
17.101283
 30
0.0
 10
12.616204
 20
16.564144
 30
0.0
 10
12.825547
 20
16.038180
 30
0.0
 10
13.019990
 20
15.507746
 30
0.0
  0
SPLINE
  5
123
100
AcDbEntity
  8
0
 62
7
100
AcDbSpline
 70
8
 71
3
 72
8
 73
4
 74
0
 40
0
 40
0
 40
0
 40
0
 40
1
 40
1
 40
1
 40
1
 10
13.019990
 20
15.507746
 30
0.0
 10
13.297872
 20
15.611300
 30
0.0
 10
13.570539
 20
15.728263
 30
0.0
 10
13.846931
 20
15.836287
 30
0.0
  0
SPLINE
  5
124
100
AcDbEntity
  8
0
 62
7
100
AcDbSpline
 70
8
 71
3
 72
8
 73
4
 74
0
 40
0
 40
0
 40
0
 40
0
 40
1
 40
1
 40
1
 40
1
 10
13.846931
 20
15.836287
 30
0.0
 10
13.799251
 20
16.181963
 30
0.0
 10
13.683032
 20
16.540305
 30
0.0
 10
13.403660
 20
16.768272
 30
0.0
  0
SPLINE
  5
125
100
AcDbEntity
  8
0
 62
7
100
AcDbSpline
 70
8
 71
3
 72
8
 73
4
 74
0
 40
0
 40
0
 40
0
 40
0
 40
1
 40
1
 40
1
 40
1
 10
13.403660
 20
16.768272
 30
0.0
 10
13.142168
 20
17.008904
 30
0.0
 10
12.780847
 20
17.076699
 30
0.0
 10
12.438151
 20
17.101283
 30
0.0
  0
SPLINE
  5
126
100
AcDbEntity
  8
0
 62
7
100
AcDbSpline
 70
8
 71
3
 72
8
 73
4
 74
0
 40
0
 40
0
 40
0
 40
0
 40
1
 40
1
 40
1
 40
1
 10
10.400598
 20
16.077665
 30
0.0
 10
10.312689
 20
15.848207
 30
0.0
 10
10.230740
 20
15.616515
 30
0.0
 10
10.149536
 20
15.384822
 30
0.0
  0
SPLINE
  5
127
100
AcDbEntity
  8
0
 62
7
100
AcDbSpline
 70
8
 71
3
 72
8
 73
4
 74
0
 40
0
 40
0
 40
0
 40
0
 40
1
 40
1
 40
1
 40
1
 10
10.149536
 20
15.384822
 30
0.0
 10
10.403578
 20
15.098000
 30
0.0
 10
10.587591
 20
14.757539
 30
0.0
 10
10.698595
 20
14.391003
 30
0.0
  0
SPLINE
  5
128
100
AcDbEntity
  8
0
 62
7
100
AcDbSpline
 70
8
 71
3
 72
8
 73
4
 74
0
 40
0
 40
0
 40
0
 40
0
 40
1
 40
1
 40
1
 40
1
 10
10.698595
 20
14.391003
 30
0.0
 10
10.788739
 20
14.427508
 30
0.0
 10
10.878883
 20
14.464012
 30
0.0
 10
10.969027
 20
14.499772
 30
0.0
  0
SPLINE
  5
129
100
AcDbEntity
  8
0
 62
7
100
AcDbSpline
 70
8
 71
3
 72
8
 73
4
 74
0
 40
0
 40
0
 40
0
 40
0
 40
1
 40
1
 40
1
 40
1
 10
10.969027
 20
14.499772
 30
0.0
 10
10.799169
 20
15.032441
 30
0.0
 10
10.617391
 20
15.562130
 30
0.0
 10
10.400598
 20
16.077665
 30
0.0
  0
SPLINE
  5
12a
100
AcDbEntity
  8
0
 62
7
100
AcDbSpline
 70
8
 71
3
 72
8
 73
4
 74
0
 40
0
 40
0
 40
0
 40
0
 40
1
 40
1
 40
1
 40
1
 10
16.706954
 20
15.950271
 30
0.0
 10
16.379158
 20
15.360237
 30
0.0
 10
15.902363
 20
14.841723
 30
0.0
 10
15.285510
 20
14.549686
 30
0.0
  0
SPLINE
  5
12b
100
AcDbEntity
  8
0
 62
7
100
AcDbSpline
 70
8
 71
3
 72
8
 73
4
 74
0
 40
0
 40
0
 40
0
 40
0
 40
1
 40
1
 40
1
 40
1
 10
15.285510
 20
14.549686
 30
0.0
 10
14.877999
 20
14.324699
 30
0.0
 10
14.414614
 20
14.258394
 30
0.0
 10
13.968364
 20
14.154096
 30
0.0
  0
SPLINE
  5
12c
100
AcDbEntity
  8
0
 62
7
100
AcDbSpline
 70
8
 71
3
 72
8
 73
4
 74
0
 40
0
 40
0
 40
0
 40
0
 40
1
 40
1
 40
1
 40
1
 10
13.968364
 20
14.154096
 30
0.0
 10
13.846186
 20
14.036387
 30
0.0
 10
13.764981
 20
13.883664
 30
0.0
 10
13.674092
 20
13.742115
 30
0.0
  0
SPLINE
  5
12d
100
AcDbEntity
  8
0
 62
7
100
AcDbSpline
 70
8
 71
3
 72
8
 73
4
 74
0
 40
0
 40
0
 40
0
 40
0
 40
1
 40
1
 40
1
 40
1
 10
13.674092
 20
13.742115
 30
0.0
 10
14.023494
 20
12.836950
 30
0.0
 10
14.340860
 20
11.919120
 30
0.0
 10
14.701436
 20
11.016935
 30
0.0
  0
SPLINE
  5
12e
100
AcDbEntity
  8
0
 62
7
100
AcDbSpline
 70
8
 71
3
 72
8
 73
4
 74
0
 40
0
 40
0
 40
0
 40
0
 40
1
 40
1
 40
1
 40
1
 10
14.701436
 20
11.016935
 30
0.0
 10
15.177486
 20
11.025875
 30
0.0
 10
15.653536
 20
11.016190
 30
0.0
 10
16.130331
 20
11.021405
 30
0.0
  0
SPLINE
  5
12f
100
AcDbEntity
  8
0
 62
7
100
AcDbSpline
 70
8
 71
3
 72
8
 73
4
 74
0
 40
0
 40
0
 40
0
 40
0
 40
1
 40
1
 40
1
 40
1
 10
16.130331
 20
11.021405
 30
0.0
 10
15.682590
 20
11.303757
 30
0.0
 10
15.254220
 20
11.681468
 30
0.0
 10
15.112672
 20
12.211157
 30
0.0
  0
SPLINE
  5
130
100
AcDbEntity
  8
0
 62
7
100
AcDbSpline
 70
8
 71
3
 72
8
 73
4
 74
0
 40
0
 40
0
 40
0
 40
0
 40
1
 40
1
 40
1
 40
1
 10
15.112672
 20
12.211157
 30
0.0
 10
14.897369
 20
12.861535
 30
0.0
 10
15.218461
 20
13.619191
 30
0.0
 10
15.809984
 20
13.949223
 30
0.0
  0
SPLINE
  5
131
100
AcDbEntity
  8
0
 62
7
100
AcDbSpline
 70
8
 71
3
 72
8
 73
4
 74
0
 40
0
 40
0
 40
0
 40
0
 40
1
 40
1
 40
1
 40
1
 10
15.809984
 20
13.949223
 30
0.0
 10
16.180245
 20
14.162291
 30
0.0
 10
16.670450
 20
14.269569
 30
0.0
 10
17.053375
 20
14.026702
 30
0.0
  0
SPLINE
  5
132
100
AcDbEntity
  8
0
 62
7
100
AcDbSpline
 70
8
 71
3
 72
8
 73
4
 74
0
 40
0
 40
0
 40
0
 40
0
 40
1
 40
1
 40
1
 40
1
 10
17.053375
 20
14.026702
 30
0.0
 10
17.044436
 20
13.936558
 30
0.0
 10
17.035496
 20
13.845669
 30
0.0
 10
17.026556
 20
13.754780
 30
0.0
  0
SPLINE
  5
133
100
AcDbEntity
  8
0
 62
7
100
AcDbSpline
 70
8
 71
3
 72
8
 73
4
 74
0
 40
0
 40
0
 40
0
 40
0
 40
1
 40
1
 40
1
 40
1
 10
17.026556
 20
13.754780
 30
0.0
 10
16.689819
 20
13.675066
 30
0.0
 10
16.416407
 20
14.033407
 30
0.0
 10
16.083396
 20
13.898563
 30
0.0
  0
SPLINE
  5
134
100
AcDbEntity
  8
0
 62
7
100
AcDbSpline
 70
8
 71
3
 72
8
 73
4
 74
0
 40
0
 40
0
 40
0
 40
0
 40
1
 40
1
 40
1
 40
1
 10
16.083396
 20
13.898563
 30
0.0
 10
15.441213
 20
13.704121
 30
0.0
 10
15.119377
 20
12.947209
 30
0.0
 10
15.275825
 20
12.322161
 30
0.0
  0
SPLINE
  5
135
100
AcDbEntity
  8
0
 62
7
100
AcDbSpline
 70
8
 71
3
 72
8
 73
4
 74
0
 40
0
 40
0
 40
0
 40
0
 40
1
 40
1
 40
1
 40
1
 10
15.275825
 20
12.322161
 30
0.0
 10
15.402474
 20
11.729892
 30
0.0
 10
15.926203
 20
11.317912
 30
0.0
 10
16.470792
 20
11.118999
 30
0.0
  0
SPLINE
  5
136
100
AcDbEntity
  8
0
 62
7
100
AcDbSpline
 70
8
 71
3
 72
8
 73
4
 74
0
 40
0
 40
0
 40
0
 40
0
 40
1
 40
1
 40
1
 40
1
 10
16.470792
 20
11.118999
 30
0.0
 10
16.801568
 20
10.973725
 30
0.0
 10
17.168849
 20
11.028110
 30
0.0
 10
17.518995
 20
11.019915
 30
0.0
  0
SPLINE
  5
137
100
AcDbEntity
  8
0
 62
7
100
AcDbSpline
 70
8
 71
3
 72
8
 73
4
 74
0
 40
0
 40
0
 40
0
 40
0
 40
1
 40
1
 40
1
 40
1
 10
17.518995
 20
11.019915
 30
0.0
 10
17.916076
 20
11.030345
 30
0.0
 10
18.314647
 20
10.999800
 30
0.0
 10
18.710982
 20
11.033325
 30
0.0
  0
SPLINE
  5
138
100
AcDbEntity
  8
0
 62
7
100
AcDbSpline
 70
8
 71
3
 72
8
 73
4
 74
0
 40
0
 40
0
 40
0
 40
0
 40
1
 40
1
 40
1
 40
1
 10
18.710982
 20
11.033325
 30
0.0
 10
19.078263
 20
11.117509
 30
0.0
 10
19.412020
 20
11.314932
 30
0.0
 10
19.708526
 20
11.544389
 30
0.0
  0
SPLINE
  5
139
100
AcDbEntity
  8
0
 62
7
100
AcDbSpline
 70
8
 71
3
 72
8
 73
4
 74
0
 40
0
 40
0
 40
0
 40
0
 40
1
 40
1
 40
1
 40
1
 10
19.708526
 20
11.544389
 30
0.0
 10
20.377529
 20
12.068863
 30
0.0
 10
20.732145
 20
12.951679
 30
0.0
 10
20.646471
 20
13.793520
 30
0.0
  0
SPLINE
  5
13a
100
AcDbEntity
  8
0
 62
7
100
AcDbSpline
 70
8
 71
3
 72
8
 73
4
 74
0
 40
0
 40
0
 40
0
 40
0
 40
1
 40
1
 40
1
 40
1
 10
20.646471
 20
13.793520
 30
0.0
 10
20.583892
 20
14.415588
 30
0.0
 10
20.151797
 20
14.934102
 30
0.0
 10
19.639987
 20
15.258919
 30
0.0
  0
SPLINE
  5
13b
100
AcDbEntity
  8
0
 62
7
100
AcDbSpline
 70
8
 71
3
 72
8
 73
4
 74
0
 40
0
 40
0
 40
0
 40
0
 40
1
 40
1
 40
1
 40
1
 10
19.639987
 20
15.258919
 30
0.0
 10
18.769092
 20
15.803508
 30
0.0
 10
17.716418
 20
15.951761
 30
0.0
 10
16.706954
 20
15.950271
 30
0.0
  0
SPLINE
  5
13c
100
AcDbEntity
  8
0
 62
7
100
AcDbSpline
 70
8
 71
3
 72
8
 73
4
 74
0
 40
0
 40
0
 40
0
 40
0
 40
1
 40
1
 40
1
 40
1
 10
14.361720
 20
15.504021
 30
0.0
 10
14.310315
 20
15.115135
 30
0.0
 10
14.208252
 20
14.735189
 30
0.0
 10
14.080858
 20
14.364183
 30
0.0
  0
SPLINE
  5
13d
100
AcDbEntity
  8
0
 62
7
100
AcDbSpline
 70
8
 71
3
 72
8
 73
4
 74
0
 40
0
 40
0
 40
0
 40
0
 40
1
 40
1
 40
1
 40
1
 10
14.080858
 20
14.364183
 30
0.0
 10
15.053072
 20
14.484127
 30
0.0
 10
15.982822
 20
15.045851
 30
0.0
 10
16.440247
 20
15.927176
 30
0.0
  0
SPLINE
  5
13e
100
AcDbEntity
  8
0
 62
7
100
AcDbSpline
 70
8
 71
3
 72
8
 73
4
 74
0
 40
0
 40
0
 40
0
 40
0
 40
1
 40
1
 40
1
 40
1
 10
16.440247
 20
15.927176
 30
0.0
 10
15.731760
 20
15.882477
 30
0.0
 10
15.032213
 20
15.734223
 30
0.0
 10
14.361720
 20
15.504021
 30
0.0
  0
SPLINE
  5
13f
100
AcDbEntity
  8
0
 62
7
100
AcDbSpline
 70
8
 71
3
 72
8
 73
4
 74
0
 40
0
 40
0
 40
0
 40
0
 40
1
 40
1
 40
1
 40
1
 10
7.629229
 20
15.425797
 30
0.0
 10
7.271633
 20
15.191124
 30
0.0
 10
7.066015
 20
14.750834
 30
0.0
 10
7.124124
 20
14.325444
 30
0.0
  0
SPLINE
  5
140
100
AcDbEntity
  8
0
 62
7
100
AcDbSpline
 70
8
 71
3
 72
8
 73
4
 74
0
 40
0
 40
0
 40
0
 40
0
 40
1
 40
1
 40
1
 40
1
 10
7.124124
 20
14.325444
 30
0.0
 10
7.156159
 20
13.804694
 30
0.0
 10
7.520460
 20
13.391224
 30
0.0
 10
7.912326
 20
13.085032
 30
0.0
  0
SPLINE
  5
141
100
AcDbEntity
  8
0
 62
7
100
AcDbSpline
 70
8
 71
3
 72
8
 73
4
 74
0
 40
0
 40
0
 40
0
 40
0
 40
1
 40
1
 40
1
 40
1
 10
7.912326
 20
13.085032
 30
0.0
 10
8.246827
 20
13.953693
 30
0.0
 10
8.583563
 20
14.822353
 30
0.0
 10
8.895715
 20
15.699954
 30
0.0
  0
SPLINE
  5
142
100
AcDbEntity
  8
0
 62
7
100
AcDbSpline
 70
8
 71
3
 72
8
 73
4
 74
0
 40
0
 40
0
 40
0
 40
0
 40
1
 40
1
 40
1
 40
1
 10
8.895715
 20
15.699954
 30
0.0
 10
8.459895
 20
15.739438
 30
0.0
 10
7.993530
 20
15.690269
 30
0.0
 10
7.629229
 20
15.425797
 30
0.0
  0
SPLINE
  5
143
100
AcDbEntity
  8
0
 62
7
100
AcDbSpline
 70
8
 71
3
 72
8
 73
4
 74
0
 40
0
 40
0
 40
0
 40
0
 40
1
 40
1
 40
1
 40
1
 10
13.186868
 20
15.109175
 30
0.0
 10
13.262112
 20
14.853643
 30
0.0
 10
13.340336
 20
14.597366
 30
0.0
 10
13.455065
 20
14.355988
 30
0.0
  0
SPLINE
  5
144
100
AcDbEntity
  8
0
 62
7
100
AcDbSpline
 70
8
 71
3
 72
8
 73
4
 74
0
 40
0
 40
0
 40
0
 40
0
 40
1
 40
1
 40
1
 40
1
 10
13.455065
 20
14.355988
 30
0.0
 10
13.481140
 20
14.352263
 30
0.0
 10
13.532544
 20
14.344069
 30
0.0
 10
13.557874
 20
14.340344
 30
0.0
  0
SPLINE
  5
145
100
AcDbEntity
  8
0
 62
7
100
AcDbSpline
 70
8
 71
3
 72
8
 73
4
 74
0
 40
0
 40
0
 40
0
 40
0
 40
1
 40
1
 40
1
 40
1
 10
13.557874
 20
14.340344
 30
0.0
 10
13.738162
 20
14.645045
 30
0.0
 10
13.804466
 20
14.999661
 30
0.0
 10
13.850656
 20
15.346083
 30
0.0
  0
SPLINE
  5
146
100
AcDbEntity
  8
0
 62
7
100
AcDbSpline
 70
8
 71
3
 72
8
 73
4
 74
0
 40
0
 40
0
 40
0
 40
0
 40
1
 40
1
 40
1
 40
1
 10
13.850656
 20
15.346083
 30
0.0
 10
13.627158
 20
15.273073
 30
0.0
 10
13.407385
 20
15.190379
 30
0.0
 10
13.186868
 20
15.109175
 30
0.0
  0
SPLINE
  5
147
100
AcDbEntity
  8
0
 62
7
100
AcDbSpline
 70
8
 71
3
 72
8
 73
4
 74
0
 40
0
 40
0
 40
0
 40
0
 40
1
 40
1
 40
1
 40
1
 10
9.590792
 20
13.809164
 30
0.0
 10
9.771825
 20
13.899308
 30
0.0
 10
9.952858
 20
13.992432
 30
0.0
 10
10.131656
 20
14.087046
 30
0.0
  0
SPLINE
  5
148
100
AcDbEntity
  8
0
 62
7
100
AcDbSpline
 70
8
 71
3
 72
8
 73
4
 74
0
 40
0
 40
0
 40
0
 40
0
 40
1
 40
1
 40
1
 40
1
 10
10.131656
 20
14.087046
 30
0.0
 10
10.082487
 20
14.323954
 30
0.0
 10
10.024377
 20
14.558626
 30
0.0
 10
9.954348
 20
14.790319
 30
0.0
  0
SPLINE
  5
149
100
AcDbEntity
  8
0
 62
7
100
AcDbSpline
 70
8
 71
3
 72
8
 73
4
 74
0
 40
0
 40
0
 40
0
 40
0
 40
1
 40
1
 40
1
 40
1
 10
9.954348
 20
14.790319
 30
0.0
 10
9.804605
 20
14.474442
 30
0.0
 10
9.694346
 20
14.142176
 30
0.0
 10
9.590792
 20
13.809164
 30
0.0
  0
SPLINE
  5
14a
100
AcDbEntity
  8
0
 62
7
100
AcDbSpline
 70
8
 71
3
 72
8
 73
4
 74
0
 40
0
 40
0
 40
0
 40
0
 40
1
 40
1
 40
1
 40
1
 10
10.748509
 20
14.005097
 30
0.0
 10
10.721690
 20
13.397929
 30
0.0
 10
10.461688
 20
12.839185
 30
0.0
 10
10.103347
 20
12.358665
 30
0.0
  0
SPLINE
  5
14b
100
AcDbEntity
  8
0
 62
7
100
AcDbSpline
 70
8
 71
3
 72
8
 73
4
 74
0
 40
0
 40
0
 40
0
 40
0
 40
1
 40
1
 40
1
 40
1
 10
10.103347
 20
12.358665
 30
0.0
 10
10.631546
 20
12.338550
 30
0.0
 10
11.162725
 20
12.411560
 30
0.0
 10
11.658145
 20
12.598553
 30
0.0
  0
SPLINE
  5
14c
100
AcDbEntity
  8
0
 62
7
100
AcDbSpline
 70
8
 71
3
 72
8
 73
4
 74
0
 40
0
 40
0
 40
0
 40
0
 40
1
 40
1
 40
1
 40
1
 10
11.658145
 20
12.598553
 30
0.0
 10
11.479346
 20
13.125262
 30
0.0
 10
11.290119
 20
13.648246
 30
0.0
 10
11.097166
 20
14.170485
 30
0.0
  0
SPLINE
  5
14d
100
AcDbEntity
  8
0
 62
7
100
AcDbSpline
 70
8
 71
3
 72
8
 73
4
 74
0
 40
0
 40
0
 40
0
 40
0
 40
1
 40
1
 40
1
 40
1
 10
11.097166
 20
14.170485
 30
0.0
 10
10.980947
 20
14.114611
 30
0.0
 10
10.864728
 20
14.059482
 30
0.0
 10
10.748509
 20
14.005097
 30
0.0
  0
SPLINE
  5
14e
100
AcDbEntity
  8
0
 62
7
100
AcDbSpline
 70
8
 71
3
 72
8
 73
4
 74
0
 40
0
 40
0
 40
0
 40
0
 40
1
 40
1
 40
1
 40
1
 10
9.429874
 20
13.328645
 30
0.0
 10
9.286090
 20
13.077582
 30
0.0
 10
9.222766
 20
12.790016
 30
0.0
 10
9.114742
 20
12.522563
 30
0.0
  0
SPLINE
  5
14f
100
AcDbEntity
  8
0
 62
7
100
AcDbSpline
 70
8
 71
3
 72
8
 73
4
 74
0
 40
0
 40
0
 40
0
 40
0
 40
1
 40
1
 40
1
 40
1
 10
9.114742
 20
12.522563
 30
0.0
 10
9.263741
 20
12.487549
 30
0.0
 10
9.411994
 20
12.452534
 30
0.0
 10
9.560992
 20
12.417520
 30
0.0
  0
SPLINE
  5
150
100
AcDbEntity
  8
0
 62
7
100
AcDbSpline
 70
8
 71
3
 72
8
 73
4
 74
0
 40
0
 40
0
 40
0
 40
0
 40
1
 40
1
 40
1
 40
1
 10
9.560992
 20
12.417520
 30
0.0
 10
9.855264
 20
12.781821
 30
0.0
 10
10.065352
 20
13.214661
 30
0.0
 10
10.124951
 20
13.683261
 30
0.0
  0
SPLINE
  5
151
100
AcDbEntity
  8
0
 62
7
100
AcDbSpline
 70
8
 71
3
 72
8
 73
4
 74
0
 40
0
 40
0
 40
0
 40
0
 40
1
 40
1
 40
1
 40
1
 10
10.124951
 20
13.683261
 30
0.0
 10
9.888044
 20
13.577472
 30
0.0
 10
9.641452
 20
13.482113
 30
0.0
 10
9.429874
 20
13.328645
 30
0.0
  0
SPLINE
  5
152
100
AcDbEntity
  8
0
 62
7
100
AcDbSpline
 70
8
 71
3
 72
8
 73
4
 74
0
 40
0
 40
0
 40
0
 40
0
 40
1
 40
1
 40
1
 40
1
 10
3.555613
 20
11.210633
 30
0.0
 10
4.309545
 20
10.944671
 30
0.0
 10
5.114881
 20
11.034070
 30
0.0
 10
5.897123
 20
11.020660
 30
0.0
  0
SPLINE
  5
153
100
AcDbEntity
  8
0
 62
7
100
AcDbSpline
 70
8
 71
3
 72
8
 73
4
 74
0
 40
0
 40
0
 40
0
 40
0
 40
1
 40
1
 40
1
 40
1
 10
5.897123
 20
11.020660
 30
0.0
 10
6.313573
 20
11.022895
 30
0.0
 10
6.731513
 20
11.003525
 30
0.0
 10
7.146474
 20
11.051950
 30
0.0
  0
SPLINE
  5
154
100
AcDbEntity
  8
0
 62
7
100
AcDbSpline
 70
8
 71
3
 72
8
 73
4
 74
0
 40
0
 40
0
 40
0
 40
0
 40
1
 40
1
 40
1
 40
1
 10
7.146474
 20
11.051950
 30
0.0
 10
7.337192
 20
11.533959
 30
0.0
 10
7.523440
 20
12.018204
 30
0.0
 10
7.693298
 20
12.508409
 30
0.0
  0
SPLINE
  5
155
100
AcDbEntity
  8
0
 62
7
100
AcDbSpline
 70
8
 71
3
 72
8
 73
4
 74
0
 40
0
 40
0
 40
0
 40
0
 40
1
 40
1
 40
1
 40
1
 10
7.693298
 20
12.508409
 30
0.0
 10
6.368702
 20
11.928060
 30
0.0
 10
5.012072
 20
11.344731
 30
0.0
 10
3.555613
 20
11.210633
 30
0.0
  0
SPLINE
  5
156
100
AcDbEntity
  8
0
 62
7
100
AcDbSpline
 70
8
 71
3
 72
8
 73
4
 74
0
 40
0
 40
0
 40
0
 40
0
 40
1
 40
1
 40
1
 40
1
 10
9.999793
 20
12.184337
 30
0.0
 10
9.745005
 20
12.044279
 30
0.0
 10
9.546838
 20
11.822271
 30
0.0
 10
9.299500
 20
11.668803
 30
0.0
  0
SPLINE
  5
157
100
AcDbEntity
  8
0
 62
7
100
AcDbSpline
 70
8
 71
3
 72
8
 73
4
 74
0
 40
0
 40
0
 40
0
 40
0
 40
1
 40
1
 40
1
 40
1
 10
9.299500
 20
11.668803
 30
0.0
 10
9.032793
 20
11.476595
 30
0.0
 10
8.661042
 20
11.379746
 30
0.0
 10
8.555253
 20
11.028855
 30
0.0
  0
SPLINE
  5
158
100
AcDbEntity
  8
0
 62
7
100
AcDbSpline
 70
8
 71
3
 72
8
 73
4
 74
0
 40
0
 40
0
 40
0
 40
0
 40
1
 40
1
 40
1
 40
1
 10
8.555253
 20
11.028855
 30
0.0
 10
9.777040
 20
11.011720
 30
0.0
 10
10.999572
 20
11.021405
 30
0.0
 10
12.222103
 20
11.024385
 30
0.0
  0
SPLINE
  5
159
100
AcDbEntity
  8
0
 62
7
100
AcDbSpline
 70
8
 71
3
 72
8
 73
4
 74
0
 40
0
 40
0
 40
0
 40
0
 40
1
 40
1
 40
1
 40
1
 10
12.222103
 20
11.024385
 30
0.0
 10
12.071615
 20
11.484790
 30
0.0
 10
11.893562
 20
11.935510
 30
0.0
 10
11.740839
 20
12.395170
 30
0.0
  0
SPLINE
  5
15a
100
AcDbEntity
  8
0
 62
7
100
AcDbSpline
 70
8
 71
3
 72
8
 73
4
 74
0
 40
0
 40
0
 40
0
 40
0
 40
1
 40
1
 40
1
 40
1
 10
11.740839
 20
12.395170
 30
0.0
 10
11.172410
 20
12.240957
 30
0.0
 10
10.586846
 20
12.190297
 30
0.0
 10
9.999793
 20
12.184337
 30
0.0
  0
SPLINE
  5
15b
100
AcDbEntity
  8
0
 62
7
100
AcDbSpline
 70
8
 71
3
 72
8
 73
4
 74
0
 40
0
 40
0
 40
0
 40
0
 40
1
 40
1
 40
1
 40
1
 10
9.043223
 20
12.342275
 30
0.0
 10
8.982879
 20
12.155282
 30
0.0
 10
8.919554
 20
11.969035
 30
0.0
 10
8.864425
 20
11.779807
 30
0.0
  0
SPLINE
  5
15c
100
AcDbEntity
  8
0
 62
7
100
AcDbSpline
 70
8
 71
3
 72
8
 73
4
 74
0
 40
0
 40
0
 40
0
 40
0
 40
1
 40
1
 40
1
 40
1
 10
8.864425
 20
11.779807
 30
0.0
 10
9.073023
 20
11.916140
 30
0.0
 10
9.262251
 20
12.080038
 30
0.0
 10
9.429129
 20
12.264796
 30
0.0
  0
SPLINE
  5
15d
100
AcDbEntity
  8
0
 62
7
100
AcDbSpline
 70
8
 71
3
 72
8
 73
4
 74
0
 40
0
 40
0
 40
0
 40
0
 40
1
 40
1
 40
1
 40
1
 10
9.429129
 20
12.264796
 30
0.0
 10
9.300245
 20
12.291616
 30
0.0
 10
9.172107
 20
12.317691
 30
0.0
 10
9.043223
 20
12.342275
 30
0.0
  0
SPLINE
  5
15e
100
AcDbEntity
  8
0
 62
7
100
AcDbSpline
 70
8
 71
3
 72
8
 73
4
 74
0
 40
0
 40
0
 40
0
 40
0
 40
1
 40
1
 40
1
 40
1
 10
0.550316
 20
8.082412
 30
0.0
 10
7.482465
 20
8.084647
 30
0.0
 10
14.414614
 20
8.086882
 30
0.0
 10
21.346018
 20
8.081667
 30
0.0
  0
SPLINE
  5
15f
100
AcDbEntity
  8
0
 62
7
100
AcDbSpline
 70
8
 71
3
 72
8
 73
4
 74
0
 40
0
 40
0
 40
0
 40
0
 40
1
 40
1
 40
1
 40
1
 10
21.346018
 20
8.081667
 30
0.0
 10
21.346763
 20
7.920004
 30
0.0
 10
21.347508
 20
7.759086
 30
0.0
 10
21.347508
 20
7.597422
 30
0.0
  0
SPLINE
  5
160
100
AcDbEntity
  8
0
 62
7
100
AcDbSpline
 70
8
 71
3
 72
8
 73
4
 74
0
 40
0
 40
0
 40
0
 40
0
 40
1
 40
1
 40
1
 40
1
 10
21.347508
 20
7.597422
 30
0.0
 10
19.553568
 20
7.592952
 30
0.0
 10
17.758883
 20
7.595932
 30
0.0
 10
15.964942
 20
7.595932
 30
0.0
  0
SPLINE
  5
161
100
AcDbEntity
  8
0
 62
7
100
AcDbSpline
 70
8
 71
3
 72
8
 73
4
 74
0
 40
0
 40
0
 40
0
 40
0
 40
1
 40
1
 40
1
 40
1
 10
15.964942
 20
7.595932
 30
0.0
 10
16.462597
 20
6.267612
 30
0.0
 10
16.951312
 20
4.936311
 30
0.0
 10
17.451201
 20
3.609481
 30
0.0
  0
SPLINE
  5
162
100
AcDbEntity
  8
0
 62
7
100
AcDbSpline
 70
8
 71
3
 72
8
 73
4
 74
0
 40
0
 40
0
 40
0
 40
0
 40
1
 40
1
 40
1
 40
1
 10
17.451201
 20
3.609481
 30
0.0
 10
17.638194
 20
3.158761
 30
0.0
 10
17.828912
 20
2.677496
 30
0.0
 10
18.210348
 20
2.354170
 30
0.0
  0
SPLINE
  5
163
100
AcDbEntity
  8
0
 62
7
100
AcDbSpline
 70
8
 71
3
 72
8
 73
4
 74
0
 40
0
 40
0
 40
0
 40
0
 40
1
 40
1
 40
1
 40
1
 10
18.210348
 20
2.354170
 30
0.0
 10
18.575394
 20
2.051703
 30
0.0
 10
19.070068
 20
2.030098
 30
0.0
 10
19.522278
 20
2.029353
 30
0.0
  0
SPLINE
  5
164
100
AcDbEntity
  8
0
 62
7
100
AcDbSpline
 70
8
 71
3
 72
8
 73
4
 74
0
 40
0
 40
0
 40
0
 40
0
 40
1
 40
1
 40
1
 40
1
 10
19.522278
 20
2.029353
 30
0.0
 10
19.520788
 20
1.803621
 30
0.0
 10
19.521533
 20
1.577143
 30
0.0
 10
19.526748
 20
1.350666
 30
0.0
  0
SPLINE
  5
165
100
AcDbEntity
  8
0
 62
7
100
AcDbSpline
 70
8
 71
3
 72
8
 73
4
 74
0
 40
0
 40
0
 40
0
 40
0
 40
1
 40
1
 40
1
 40
1
 10
19.526748
 20
1.350666
 30
0.0
 10
19.921594
 20
1.496684
 30
0.0
 10
20.323890
 20
1.682932
 30
0.0
 10
20.589852
 20
2.021903
 30
0.0
  0
SPLINE
  5
166
100
AcDbEntity
  8
0
 62
7
100
AcDbSpline
 70
8
 71
3
 72
8
 73
4
 74
0
 40
0
 40
0
 40
0
 40
0
 40
1
 40
1
 40
1
 40
1
 10
20.589852
 20
2.021903
 30
0.0
 10
20.772375
 20
2.243911
 30
0.0
 10
20.890083
 20
2.535948
 30
0.0
 10
20.848364
 20
2.825750
 30
0.0
  0
SPLINE
  5
167
100
AcDbEntity
  8
0
 62
7
100
AcDbSpline
 70
8
 71
3
 72
8
 73
4
 74
0
 40
0
 40
0
 40
0
 40
0
 40
1
 40
1
 40
1
 40
1
 10
20.848364
 20
2.825750
 30
0.0
 10
20.761200
 20
2.988158
 30
0.0
 10
20.609967
 20
3.103632
 30
0.0
 10
20.490023
 20
3.239220
 30
0.0
  0
SPLINE
  5
168
100
AcDbEntity
  8
0
 62
7
100
AcDbSpline
 70
8
 71
3
 72
8
 73
4
 74
0
 40
0
 40
0
 40
0
 40
0
 40
1
 40
1
 40
1
 40
1
 10
20.490023
 20
3.239220
 30
0.0
 10
20.575697
 20
3.321914
 30
0.0
 10
20.651686
 20
3.461973
 30
0.0
 10
20.794725
 20
3.412058
 30
0.0
  0
SPLINE
  5
169
100
AcDbEntity
  8
0
 62
7
100
AcDbSpline
 70
8
 71
3
 72
8
 73
4
 74
0
 40
0
 40
0
 40
0
 40
0
 40
1
 40
1
 40
1
 40
1
 10
20.794725
 20
3.412058
 30
0.0
 10
21.056217
 20
3.337559
 30
0.0
 10
21.150086
 20
3.026897
 30
0.0
 10
21.124011
 20
2.781795
 30
0.0
  0
SPLINE
  5
16a
100
AcDbEntity
  8
0
 62
7
100
AcDbSpline
 70
8
 71
3
 72
8
 73
4
 74
0
 40
0
 40
0
 40
0
 40
0
 40
1
 40
1
 40
1
 40
1
 10
21.124011
 20
2.781795
 30
0.0
 10
21.100916
 20
2.161217
 30
0.0
 10
20.647216
 20
1.659837
 30
0.0
 10
20.142112
 20
1.349921
 30
0.0
  0
SPLINE
  5
16b
100
AcDbEntity
  8
0
 62
7
100
AcDbSpline
 70
8
 71
3
 72
8
 73
4
 74
0
 40
0
 40
0
 40
0
 40
0
 40
1
 40
1
 40
1
 40
1
 10
20.142112
 20
1.349921
 30
0.0
 10
19.366575
 20
0.864931
 30
0.0
 10
18.452470
 20
0.674213
 30
0.0
 10
17.562205
 20
0.521490
 30
0.0
  0
SPLINE
  5
16c
100
AcDbEntity
  8
0
 62
7
100
AcDbSpline
 70
8
 71
3
 72
8
 73
4
 74
0
 40
0
 40
0
 40
0
 40
0
 40
1
 40
1
 40
1
 40
1
 10
17.562205
 20
0.521490
 30
0.0
 10
16.903632
 20
0.448481
 30
0.0
 10
16.246549
 20
0.321832
 30
0.0
 10
15.581272
 20
0.359827
 30
0.0
  0
SPLINE
  5
16d
100
AcDbEntity
  8
0
 62
7
100
AcDbSpline
 70
8
 71
3
 72
8
 73
4
 74
0
 40
0
 40
0
 40
0
 40
0
 40
1
 40
1
 40
1
 40
1
 10
15.581272
 20
0.359827
 30
0.0
 10
14.447394
 20
0.468595
 30
0.0
 10
13.297872
 20
0.756907
 30
0.0
 10
12.350987
 20
1.415480
 30
0.0
  0
SPLINE
  5
16e
100
AcDbEntity
  8
0
 62
7
100
AcDbSpline
 70
8
 71
3
 72
8
 73
4
 74
0
 40
0
 40
0
 40
0
 40
0
 40
1
 40
1
 40
1
 40
1
 10
12.350987
 20
1.415480
 30
0.0
 10
12.123019
 20
1.563733
 30
0.0
 10
11.933047
 20
1.764881
 30
0.0
 10
11.701354
 20
1.906430
 30
0.0
  0
SPLINE
  5
16f
100
AcDbEntity
  8
0
 62
7
100
AcDbSpline
 70
8
 71
3
 72
8
 73
4
 74
0
 40
0
 40
0
 40
0
 40
0
 40
1
 40
1
 40
1
 40
1
 10
11.701354
 20
1.906430
 30
0.0
 10
11.421982
 20
1.936974
 30
0.0
 10
11.139630
 20
1.912390
 30
0.0
 10
10.859513
 20
1.944424
 30
0.0
  0
SPLINE
  5
170
100
AcDbEntity
  8
0
 62
7
100
AcDbSpline
 70
8
 71
3
 72
8
 73
4
 74
0
 40
0
 40
0
 40
0
 40
0
 40
1
 40
1
 40
1
 40
1
 10
10.859513
 20
1.944424
 30
0.0
 10
9.727871
 20
2.064368
 30
0.0
 10
8.618578
 20
2.631307
 30
0.0
 10
7.955535
 20
3.572231
 30
0.0
  0
SPLINE
  5
171
100
AcDbEntity
  8
0
 62
7
100
AcDbSpline
 70
8
 71
3
 72
8
 73
4
 74
0
 40
0
 40
0
 40
0
 40
0
 40
1
 40
1
 40
1
 40
1
 10
7.955535
 20
3.572231
 30
0.0
 10
7.843786
 20
3.714525
 30
0.0
 10
7.757367
 20
3.919398
 30
0.0
 10
7.547280
 20
3.920888
 30
0.0
  0
SPLINE
  5
172
100
AcDbEntity
  8
0
 62
7
100
AcDbSpline
 70
8
 71
3
 72
8
 73
4
 74
0
 40
0
 40
0
 40
0
 40
0
 40
1
 40
1
 40
1
 40
1
 10
7.547280
 20
3.920888
 30
0.0
 10
7.068995
 20
3.991662
 30
0.0
 10
6.610080
 20
4.151835
 30
0.0
 10
6.183199
 20
4.376823
 30
0.0
  0
SPLINE
  5
173
100
AcDbEntity
  8
0
 62
7
100
AcDbSpline
 70
8
 71
3
 72
8
 73
4
 74
0
 40
0
 40
0
 40
0
 40
0
 40
1
 40
1
 40
1
 40
1
 10
6.183199
 20
4.376823
 30
0.0
 10
6.093800
 20
4.141405
 30
0.0
 10
6.010361
 20
3.904498
 30
0.0
 10
5.923942
 20
3.667590
 30
0.0
  0
SPLINE
  5
174
100
AcDbEntity
  8
0
 62
7
100
AcDbSpline
 70
8
 71
3
 72
8
 73
4
 74
0
 40
0
 40
0
 40
0
 40
0
 40
1
 40
1
 40
1
 40
1
 10
5.923942
 20
3.667590
 30
0.0
 10
6.160105
 20
3.465698
 30
0.0
 10
6.398502
 20
3.248160
 30
0.0
 10
6.520681
 20
2.954633
 30
0.0
  0
SPLINE
  5
175
100
AcDbEntity
  8
0
 62
7
100
AcDbSpline
 70
8
 71
3
 72
8
 73
4
 74
0
 40
0
 40
0
 40
0
 40
0
 40
1
 40
1
 40
1
 40
1
 10
6.520681
 20
2.954633
 30
0.0
 10
6.651054
 20
2.674516
 30
0.0
 10
6.621255
 20
2.357895
 30
0.0
 10
6.624235
 20
2.057663
 30
0.0
  0
SPLINE
  5
176
100
AcDbEntity
  8
0
 62
7
100
AcDbSpline
 70
8
 71
3
 72
8
 73
4
 74
0
 40
0
 40
0
 40
0
 40
0
 40
1
 40
1
 40
1
 40
1
 10
6.624235
 20
2.057663
 30
0.0
 10
6.907332
 20
2.053938
 30
0.0
 10
7.190428
 20
2.047233
 30
0.0
 10
7.473525
 20
2.036058
 30
0.0
  0
SPLINE
  5
177
100
AcDbEntity
  8
0
 62
7
100
AcDbSpline
 70
8
 71
3
 72
8
 73
4
 74
0
 40
0
 40
0
 40
0
 40
0
 40
1
 40
1
 40
1
 40
1
 10
7.473525
 20
2.036058
 30
0.0
 10
7.476505
 20
1.688892
 30
0.0
 10
7.475760
 20
1.341726
 30
0.0
 10
7.474270
 20
0.993815
 30
0.0
  0
SPLINE
  5
178
100
AcDbEntity
  8
0
 62
7
100
AcDbSpline
 70
8
 71
3
 72
8
 73
4
 74
0
 40
0
 40
0
 40
0
 40
0
 40
1
 40
1
 40
1
 40
1
 10
7.474270
 20
0.993815
 30
0.0
 10
6.955011
 20
0.976680
 30
0.0
 10
6.432027
 20
1.026594
 30
0.0
 10
5.915747
 20
0.971465
 30
0.0
  0
SPLINE
  5
179
100
AcDbEntity
  8
0
 62
7
100
AcDbSpline
 70
8
 71
3
 72
8
 73
4
 74
0
 40
0
 40
0
 40
0
 40
0
 40
1
 40
1
 40
1
 40
1
 10
5.915747
 20
0.971465
 30
0.0
 10
5.262390
 20
0.573639
 30
0.0
 10
4.501753
 20
0.333752
 30
0.0
 10
3.732921
 20
0.356102
 30
0.0
  0
SPLINE
  5
17a
100
AcDbEntity
  8
0
 62
7
100
AcDbSpline
 70
8
 71
3
 72
8
 73
4
 74
0
 40
0
 40
0
 40
0
 40
0
 40
1
 40
1
 40
1
 40
1
 10
3.732921
 20
0.356102
 30
0.0
 10
2.830736
 20
0.440286
 30
0.0
 10
1.900241
 20
0.751692
 30
0.0
 10
1.274448
 20
1.436340
 30
0.0
  0
SPLINE
  5
17b
100
AcDbEntity
  8
0
 62
7
100
AcDbSpline
 70
8
 71
3
 72
8
 73
4
 74
0
 40
0
 40
0
 40
0
 40
0
 40
1
 40
1
 40
1
 40
1
 10
1.274448
 20
1.436340
 30
0.0
 10
0.699314
 20
2.053938
 30
0.0
 10
0.440802
 20
2.949418
 30
0.0
 10
0.591291
 20
3.778594
 30
0.0
  0
SPLINE
  5
17c
100
AcDbEntity
  8
0
 62
7
100
AcDbSpline
 70
8
 71
3
 72
8
 73
4
 74
0
 40
0
 40
0
 40
0
 40
0
 40
1
 40
1
 40
1
 40
1
 10
0.591291
 20
3.778594
 30
0.0
 10
0.720174
 20
4.428972
 30
0.0
 10
1.161209
 20
4.975796
 30
0.0
 10
1.704308
 20
5.337862
 30
0.0
  0
SPLINE
  5
17d
100
AcDbEntity
  8
0
 62
7
100
AcDbSpline
 70
8
 71
3
 72
8
 73
4
 74
0
 40
0
 40
0
 40
0
 40
0
 40
1
 40
1
 40
1
 40
1
 10
1.704308
 20
5.337862
 30
0.0
 10
2.616178
 20
5.949500
 30
0.0
 10
3.735156
 20
6.173743
 30
0.0
 10
4.819119
 20
6.175233
 30
0.0
  0
SPLINE
  5
17e
100
AcDbEntity
  8
0
 62
7
100
AcDbSpline
 70
8
 71
3
 72
8
 73
4
 74
0
 40
0
 40
0
 40
0
 40
0
 40
1
 40
1
 40
1
 40
1
 10
4.819119
 20
6.175233
 30
0.0
 10
4.812414
 20
6.403945
 30
0.0
 10
4.793045
 20
6.634893
 30
0.0
 10
4.823589
 20
6.862860
 30
0.0
  0
SPLINE
  5
17f
100
AcDbEntity
  8
0
 62
7
100
AcDbSpline
 70
8
 71
3
 72
8
 73
4
 74
0
 40
0
 40
0
 40
0
 40
0
 40
1
 40
1
 40
1
 40
1
 10
4.823589
 20
6.862860
 30
0.0
 10
4.868289
 20
7.142977
 30
0.0
 10
5.037402
 20
7.379885
 30
0.0
 10
5.200555
 20
7.604127
 30
0.0
  0
SPLINE
  5
180
100
AcDbEntity
  8
0
 62
7
100
AcDbSpline
 70
8
 71
3
 72
8
 73
4
 74
0
 40
0
 40
0
 40
0
 40
0
 40
1
 40
1
 40
1
 40
1
 10
5.200555
 20
7.604127
 30
0.0
 10
3.647992
 20
7.585502
 30
0.0
 10
2.096174
 20
7.598167
 30
0.0
 10
0.543611
 20
7.597422
 30
0.0
  0
SPLINE
  5
181
100
AcDbEntity
  8
0
 62
7
100
AcDbSpline
 70
8
 71
3
 72
8
 73
4
 74
0
 40
0
 40
0
 40
0
 40
0
 40
1
 40
1
 40
1
 40
1
 10
0.543611
 20
7.597422
 30
0.0
 10
0.546591
 20
7.759831
 30
0.0
 10
0.548826
 20
7.920749
 30
0.0
 10
0.550316
 20
8.082412
 30
0.0
  0
SPLINE
  5
182
100
AcDbEntity
  8
0
 62
7
100
AcDbSpline
 70
8
 71
3
 72
8
 73
4
 74
0
 40
0
 40
0
 40
0
 40
0
 40
1
 40
1
 40
1
 40
1
 10
5.347319
 20
7.426819
 30
0.0
 10
5.032187
 20
7.087848
 30
0.0
 10
4.994937
 20
6.611798
 30
0.0
 10
5.041872
 20
6.172998
 30
0.0
  0
SPLINE
  5
183
100
AcDbEntity
  8
0
 62
7
100
AcDbSpline
 70
8
 71
3
 72
8
 73
4
 74
0
 40
0
 40
0
 40
0
 40
0
 40
1
 40
1
 40
1
 40
1
 10
5.041872
 20
6.172998
 30
0.0
 10
5.124566
 20
6.164058
 30
0.0
 10
5.206515
 20
6.154373
 30
0.0
 10
5.289209
 20
6.144688
 30
0.0
  0
SPLINE
  5
184
100
AcDbEntity
  8
0
 62
7
100
AcDbSpline
 70
8
 71
3
 72
8
 73
4
 74
0
 40
0
 40
0
 40
0
 40
0
 40
1
 40
1
 40
1
 40
1
 10
5.289209
 20
6.144688
 30
0.0
 10
5.493337
 20
6.625953
 30
0.0
 10
5.678095
 20
7.115413
 30
0.0
 10
5.840503
 20
7.612322
 30
0.0
  0
SPLINE
  5
185
100
AcDbEntity
  8
0
 62
7
100
AcDbSpline
 70
8
 71
3
 72
8
 73
4
 74
0
 40
0
 40
0
 40
0
 40
0
 40
1
 40
1
 40
1
 40
1
 10
5.840503
 20
7.612322
 30
0.0
 10
5.660960
 20
7.598912
 30
0.0
 10
5.451617
 20
7.603382
 30
0.0
 10
5.347319
 20
7.426819
 30
0.0
  0
SPLINE
  5
186
100
AcDbEntity
  8
0
 62
7
100
AcDbSpline
 70
8
 71
3
 72
8
 73
4
 74
0
 40
0
 40
0
 40
0
 40
0
 40
1
 40
1
 40
1
 40
1
 10
7.302177
 20
7.473754
 30
0.0
 10
7.104754
 20
6.955239
 30
0.0
 10
6.922976
 20
6.432255
 30
0.0
 10
6.733003
 20
5.911506
 30
0.0
  0
SPLINE
  5
187
100
AcDbEntity
  8
0
 62
7
100
AcDbSpline
 70
8
 71
3
 72
8
 73
4
 74
0
 40
0
 40
0
 40
0
 40
0
 40
1
 40
1
 40
1
 40
1
 10
6.733003
 20
5.911506
 30
0.0
 10
6.933406
 20
5.850416
 30
0.0
 10
7.132319
 20
5.785602
 30
0.0
 10
7.330487
 20
5.718553
 30
0.0
  0
SPLINE
  5
188
100
AcDbEntity
  8
0
 62
7
100
AcDbSpline
 70
8
 71
3
 72
8
 73
4
 74
0
 40
0
 40
0
 40
0
 40
0
 40
1
 40
1
 40
1
 40
1
 10
7.330487
 20
5.718553
 30
0.0
 10
7.440001
 20
6.072424
 30
0.0
 10
7.571864
 20
6.453115
 30
0.0
 10
7.889976
 20
6.675122
 30
0.0
  0
SPLINE
  5
189
100
AcDbEntity
  8
0
 62
7
100
AcDbSpline
 70
8
 71
3
 72
8
 73
4
 74
0
 40
0
 40
0
 40
0
 40
0
 40
1
 40
1
 40
1
 40
1
 10
7.889976
 20
6.675122
 30
0.0
 10
8.395825
 20
7.031229
 30
0.0
 10
9.070043
 20
7.158622
 30
0.0
 10
9.670506
 20
7.006644
 30
0.0
  0
SPLINE
  5
18a
100
AcDbEntity
  8
0
 62
7
100
AcDbSpline
 70
8
 71
3
 72
8
 73
4
 74
0
 40
0
 40
0
 40
0
 40
0
 40
1
 40
1
 40
1
 40
1
 10
9.670506
 20
7.006644
 30
0.0
 10
10.242660
 20
6.845726
 30
0.0
 10
10.735100
 20
6.301137
 30
0.0
 10
10.698595
 20
5.685028
 30
0.0
  0
SPLINE
  5
18b
100
AcDbEntity
  8
0
 62
7
100
AcDbSpline
 70
8
 71
3
 72
8
 73
4
 74
0
 40
0
 40
0
 40
0
 40
0
 40
1
 40
1
 40
1
 40
1
 10
10.698595
 20
5.685028
 30
0.0
 10
10.682950
 20
5.238778
 30
0.0
 10
10.406558
 20
4.865537
 30
0.0
 10
10.120481
 20
4.546681
 30
0.0
  0
SPLINE
  5
18c
100
AcDbEntity
  8
0
 62
7
100
AcDbSpline
 70
8
 71
3
 72
8
 73
4
 74
0
 40
0
 40
0
 40
0
 40
0
 40
1
 40
1
 40
1
 40
1
 10
10.120481
 20
4.546681
 30
0.0
 10
10.405813
 20
4.394702
 30
0.0
 10
10.694870
 20
4.248684
 30
0.0
 10
10.987652
 20
4.111606
 30
0.0
  0
SPLINE
  5
18d
100
AcDbEntity
  8
0
 62
7
100
AcDbSpline
 70
8
 71
3
 72
8
 73
4
 74
0
 40
0
 40
0
 40
0
 40
0
 40
1
 40
1
 40
1
 40
1
 10
10.987652
 20
4.111606
 30
0.0
 10
11.122495
 20
4.542211
 30
0.0
 10
11.338543
 20
4.963131
 30
0.0
 10
11.708804
 20
5.238033
 30
0.0
  0
SPLINE
  5
18e
100
AcDbEntity
  8
0
 62
7
100
AcDbSpline
 70
8
 71
3
 72
8
 73
4
 74
0
 40
0
 40
0
 40
0
 40
0
 40
1
 40
1
 40
1
 40
1
 10
11.708804
 20
5.238033
 30
0.0
 10
12.442621
 20
5.815402
 30
0.0
 10
13.527329
 20
5.796777
 30
0.0
 10
14.290201
 20
5.281988
 30
0.0
  0
SPLINE
  5
18f
100
AcDbEntity
  8
0
 62
7
100
AcDbSpline
 70
8
 71
3
 72
8
 73
4
 74
0
 40
0
 40
0
 40
0
 40
0
 40
1
 40
1
 40
1
 40
1
 10
14.290201
 20
5.281988
 30
0.0
 10
14.057763
 20
6.015060
 30
0.0
 10
13.794036
 20
6.738447
 30
0.0
 10
13.553404
 20
7.468539
 30
0.0
  0
SPLINE
  5
190
100
AcDbEntity
  8
0
 62
7
100
AcDbSpline
 70
8
 71
3
 72
8
 73
4
 74
0
 40
0
 40
0
 40
0
 40
0
 40
1
 40
1
 40
1
 40
1
 10
13.553404
 20
7.468539
 30
0.0
 10
11.469662
 20
7.476734
 30
0.0
 10
9.385919
 20
7.467794
 30
0.0
 10
7.302177
 20
7.473754
 30
0.0
  0
SPLINE
  5
191
100
AcDbEntity
  8
0
 62
7
100
AcDbSpline
 70
8
 71
3
 72
8
 73
4
 74
0
 40
0
 40
0
 40
0
 40
0
 40
1
 40
1
 40
1
 40
1
 10
8.247572
 20
6.464290
 30
0.0
 10
7.992785
 20
6.236322
 30
0.0
 10
7.893701
 20
5.895116
 30
0.0
 10
7.837081
 20
5.569555
 30
0.0
  0
SPLINE
  5
192
100
AcDbEntity
  8
0
 62
7
100
AcDbSpline
 70
8
 71
3
 72
8
 73
4
 74
0
 40
0
 40
0
 40
0
 40
0
 40
1
 40
1
 40
1
 40
1
 10
7.837081
 20
5.569555
 30
0.0
 10
8.543334
 20
5.284223
 30
0.0
 10
9.232451
 20
4.962386
 30
0.0
 10
9.920824
 20
4.637570
 30
0.0
  0
SPLINE
  5
193
100
AcDbEntity
  8
0
 62
7
100
AcDbSpline
 70
8
 71
3
 72
8
 73
4
 74
0
 40
0
 40
0
 40
0
 40
0
 40
1
 40
1
 40
1
 40
1
 10
9.920824
 20
4.637570
 30
0.0
 10
10.320139
 20
5.057000
 30
0.0
 10
10.578651
 20
5.725258
 30
0.0
 10
10.275440
 20
6.267612
 30
0.0
  0
SPLINE
  5
194
100
AcDbEntity
  8
0
 62
7
100
AcDbSpline
 70
8
 71
3
 72
8
 73
4
 74
0
 40
0
 40
0
 40
0
 40
0
 40
1
 40
1
 40
1
 40
1
 10
10.275440
 20
6.267612
 30
0.0
 10
9.858989
 20
6.950024
 30
0.0
 10
8.810041
 20
6.973119
 30
0.0
 10
8.247572
 20
6.464290
 30
0.0
  0
SPLINE
  5
195
100
AcDbEntity
  8
0
 62
7
100
AcDbSpline
 70
8
 71
3
 72
8
 73
4
 74
0
 40
0
 40
0
 40
0
 40
0
 40
1
 40
1
 40
1
 40
1
 10
3.148848
 20
5.455571
 30
0.0
 10
2.299557
 20
5.224623
 30
0.0
 10
1.410782
 20
4.727714
 30
0.0
 10
1.110550
 20
3.848623
 30
0.0
  0
SPLINE
  5
196
100
AcDbEntity
  8
0
 62
7
100
AcDbSpline
 70
8
 71
3
 72
8
 73
4
 74
0
 40
0
 40
0
 40
0
 40
0
 40
1
 40
1
 40
1
 40
1
 10
1.110550
 20
3.848623
 30
0.0
 10
0.808083
 20
2.795205
 30
0.0
 10
1.348202
 20
1.603218
 30
0.0
 10
2.280932
 20
1.053414
 30
0.0
  0
SPLINE
  5
197
100
AcDbEntity
  8
0
 62
7
100
AcDbSpline
 70
8
 71
3
 72
8
 73
4
 74
0
 40
0
 40
0
 40
0
 40
0
 40
1
 40
1
 40
1
 40
1
 10
2.280932
 20
1.053414
 30
0.0
 10
2.285402
 20
1.378230
 30
0.0
 10
2.283912
 20
1.703792
 30
0.0
 10
2.284657
 20
2.028608
 30
0.0
  0
SPLINE
  5
198
100
AcDbEntity
  8
0
 62
7
100
AcDbSpline
 70
8
 71
3
 72
8
 73
4
 74
0
 40
0
 40
0
 40
0
 40
0
 40
1
 40
1
 40
1
 40
1
 10
2.284657
 20
2.028608
 30
0.0
 10
2.709302
 20
2.056918
 30
0.0
 10
3.177157
 20
2.044998
 30
0.0
 10
3.536243
 20
2.309470
 30
0.0
  0
SPLINE
  5
199
100
AcDbEntity
  8
0
 62
7
100
AcDbSpline
 70
8
 71
3
 72
8
 73
4
 74
0
 40
0
 40
0
 40
0
 40
0
 40
1
 40
1
 40
1
 40
1
 10
3.536243
 20
2.309470
 30
0.0
 10
3.963124
 20
2.616407
 30
0.0
 10
4.139687
 20
3.134921
 30
0.0
 10
4.337855
 20
3.599051
 30
0.0
  0
SPLINE
  5
19a
100
AcDbEntity
  8
0
 62
7
100
AcDbSpline
 70
8
 71
3
 72
8
 73
4
 74
0
 40
0
 40
0
 40
0
 40
0
 40
1
 40
1
 40
1
 40
1
 10
4.337855
 20
3.599051
 30
0.0
 10
4.587427
 20
4.273269
 30
0.0
 10
4.873504
 20
4.934822
 30
0.0
 10
5.082101
 20
5.623194
 30
0.0
  0
SPLINE
  5
19b
100
AcDbEntity
  8
0
 62
7
100
AcDbSpline
 70
8
 71
3
 72
8
 73
4
 74
0
 40
0
 40
0
 40
0
 40
0
 40
1
 40
1
 40
1
 40
1
 10
5.082101
 20
5.623194
 30
0.0
 10
4.437684
 20
5.731218
 30
0.0
 10
3.776131
 20
5.611274
 30
0.0
 10
3.148848
 20
5.455571
 30
0.0
  0
SPLINE
  5
19c
100
AcDbEntity
  8
0
 62
7
100
AcDbSpline
 70
8
 71
3
 72
8
 73
4
 74
0
 40
0
 40
0
 40
0
 40
0
 40
1
 40
1
 40
1
 40
1
 10
6.572830
 20
5.449611
 30
0.0
 10
6.457356
 20
5.156829
 30
0.0
 10
6.351568
 20
4.861067
 30
0.0
 10
6.252484
 20
4.562326
 30
0.0
  0
SPLINE
  5
19d
100
AcDbEntity
  8
0
 62
7
100
AcDbSpline
 70
8
 71
3
 72
8
 73
4
 74
0
 40
0
 40
0
 40
0
 40
0
 40
1
 40
1
 40
1
 40
1
 10
6.252484
 20
4.562326
 30
0.0
 10
6.668189
 20
4.315733
 30
0.0
 10
7.130084
 20
4.154070
 30
0.0
 10
7.609114
 20
4.083296
 30
0.0
  0
SPLINE
  5
19e
100
AcDbEntity
  8
0
 62
7
100
AcDbSpline
 70
8
 71
3
 72
8
 73
4
 74
0
 40
0
 40
0
 40
0
 40
0
 40
1
 40
1
 40
1
 40
1
 10
7.609114
 20
4.083296
 30
0.0
 10
7.483955
 20
4.455047
 30
0.0
 10
7.369971
 20
4.832013
 30
0.0
 10
7.331232
 20
5.223878
 30
0.0
  0
SPLINE
  5
19f
100
AcDbEntity
  8
0
 62
7
100
AcDbSpline
 70
8
 71
3
 72
8
 73
4
 74
0
 40
0
 40
0
 40
0
 40
0
 40
1
 40
1
 40
1
 40
1
 10
7.331232
 20
5.223878
 30
0.0
 10
7.081660
 20
5.309552
 30
0.0
 10
6.828362
 20
5.383307
 30
0.0
 10
6.572830
 20
5.449611
 30
0.0
  0
SPLINE
  5
1a0
100
AcDbEntity
  8
0
 62
7
100
AcDbSpline
 70
8
 71
3
 72
8
 73
4
 74
0
 40
0
 40
0
 40
0
 40
0
 40
1
 40
1
 40
1
 40
1
 10
12.283938
 20
5.185884
 30
0.0
 10
11.830238
 20
4.876712
 30
0.0
 10
11.624620
 20
4.323183
 30
0.0
 10
11.569490
 20
3.796474
 30
0.0
  0
SPLINE
  5
1a1
100
AcDbEntity
  8
0
 62
7
100
AcDbSpline
 70
8
 71
3
 72
8
 73
4
 74
0
 40
0
 40
0
 40
0
 40
0
 40
1
 40
1
 40
1
 40
1
 10
11.569490
 20
3.796474
 30
0.0
 10
12.266803
 20
3.443348
 30
0.0
 10
12.956665
 20
3.076067
 30
0.0
 10
13.656213
 20
2.727411
 30
0.0
  0
SPLINE
  5
1a2
100
AcDbEntity
  8
0
 62
7
100
AcDbSpline
 70
8
 71
3
 72
8
 73
4
 74
0
 40
0
 40
0
 40
0
 40
0
 40
1
 40
1
 40
1
 40
1
 10
13.656213
 20
2.727411
 30
0.0
 10
14.211977
 20
3.085007
 30
0.0
 10
14.686536
 20
3.721975
 30
0.0
 10
14.547968
 20
4.414817
 30
0.0
  0
SPLINE
  5
1a3
100
AcDbEntity
  8
0
 62
7
100
AcDbSpline
 70
8
 71
3
 72
8
 73
4
 74
0
 40
0
 40
0
 40
0
 40
0
 40
1
 40
1
 40
1
 40
1
 10
14.547968
 20
4.414817
 30
0.0
 10
14.343840
 20
5.372132
 30
0.0
 10
13.037124
 20
5.723768
 30
0.0
 10
12.283938
 20
5.185884
 30
0.0
  0
SPLINE
  5
1a4
100
AcDbEntity
  8
0
 62
7
100
AcDbSpline
 70
8
 71
3
 72
8
 73
4
 74
0
 40
0
 40
0
 40
0
 40
0
 40
1
 40
1
 40
1
 40
1
 10
7.838571
 20
5.072645
 30
0.0
 10
7.868371
 20
4.713559
 30
0.0
 10
7.973415
 20
4.366393
 30
0.0
 10
8.129863
 20
4.043066
 30
0.0
  0
SPLINE
  5
1a5
100
AcDbEntity
  8
0
 62
7
100
AcDbSpline
 70
8
 71
3
 72
8
 73
4
 74
0
 40
0
 40
0
 40
0
 40
0
 40
1
 40
1
 40
1
 40
1
 10
8.129863
 20
4.043066
 30
0.0
 10
8.605168
 20
4.057221
 30
0.0
 10
9.090903
 20
4.133210
 30
0.0
 10
9.501393
 20
4.388742
 30
0.0
  0
SPLINE
  5
1a6
100
AcDbEntity
  8
0
 62
7
100
AcDbSpline
 70
8
 71
3
 72
8
 73
4
 74
0
 40
0
 40
0
 40
0
 40
0
 40
1
 40
1
 40
1
 40
1
 10
9.501393
 20
4.388742
 30
0.0
 10
8.960529
 20
4.648745
 30
0.0
 10
8.404765
 20
4.875222
 30
0.0
 10
7.838571
 20
5.072645
 30
0.0
  0
SPLINE
  5
1a7
100
AcDbEntity
  8
0
 62
7
100
AcDbSpline
 70
8
 71
3
 72
8
 73
4
 74
0
 40
0
 40
0
 40
0
 40
0
 40
1
 40
1
 40
1
 40
1
 10
9.289070
 20
4.087766
 30
0.0
 10
8.945629
 20
3.946217
 30
0.0
 10
8.573878
 20
3.900773
 30
0.0
 10
8.208832
 20
3.853838
 30
0.0
  0
SPLINE
  5
1a8
100
AcDbEntity
  8
0
 62
7
100
AcDbSpline
 70
8
 71
3
 72
8
 73
4
 74
0
 40
0
 40
0
 40
0
 40
0
 40
1
 40
1
 40
1
 40
1
 10
8.208832
 20
3.853838
 30
0.0
 10
8.443505
 20
3.515612
 30
0.0
 10
8.683392
 20
3.171426
 30
0.0
 10
9.008954
 20
2.912914
 30
0.0
  0
SPLINE
  5
1a9
100
AcDbEntity
  8
0
 62
7
100
AcDbSpline
 70
8
 71
3
 72
8
 73
4
 74
0
 40
0
 40
0
 40
0
 40
0
 40
1
 40
1
 40
1
 40
1
 10
9.008954
 20
2.912914
 30
0.0
 10
9.718931
 20
2.314685
 30
0.0
 10
10.663580
 20
2.042018
 30
0.0
 10
11.583645
 20
2.078523
 30
0.0
  0
SPLINE
  5
1aa
100
AcDbEntity
  8
0
 62
7
100
AcDbSpline
 70
8
 71
3
 72
8
 73
4
 74
0
 40
0
 40
0
 40
0
 40
0
 40
1
 40
1
 40
1
 40
1
 10
11.583645
 20
2.078523
 30
0.0
 10
11.221579
 20
2.559043
 30
0.0
 10
10.973497
 20
3.121511
 30
0.0
 10
10.934012
 20
3.726445
 30
0.0
  0
SPLINE
  5
1ab
100
AcDbEntity
  8
0
 62
7
100
AcDbSpline
 70
8
 71
3
 72
8
 73
4
 74
0
 40
0
 40
0
 40
0
 40
0
 40
1
 40
1
 40
1
 40
1
 10
10.934012
 20
3.726445
 30
0.0
 10
10.541402
 20
3.900773
 30
0.0
 10
10.170396
 20
4.128740
 30
0.0
 10
9.762140
 20
4.264329
 30
0.0
  0
SPLINE
  5
1ac
100
AcDbEntity
  8
0
 62
7
100
AcDbSpline
 70
8
 71
3
 72
8
 73
4
 74
0
 40
0
 40
0
 40
0
 40
0
 40
1
 40
1
 40
1
 40
1
 10
9.762140
 20
4.264329
 30
0.0
 10
9.595262
 20
4.233784
 30
0.0
 10
9.447009
 20
4.145130
 30
0.0
 10
9.289070
 20
4.087766
 30
0.0
  0
SPLINE
  5
1ad
100
AcDbEntity
  8
0
 62
7
100
AcDbSpline
 70
8
 71
3
 72
8
 73
4
 74
0
 40
0
 40
0
 40
0
 40
0
 40
1
 40
1
 40
1
 40
1
 10
14.776680
 20
3.885128
 30
0.0
 10
14.656737
 20
3.359164
 30
0.0
 10
14.289456
 20
2.944948
 30
0.0
 10
13.885670
 20
2.608957
 30
0.0
  0
SPLINE
  5
1ae
100
AcDbEntity
  8
0
 62
7
100
AcDbSpline
 70
8
 71
3
 72
8
 73
4
 74
0
 40
0
 40
0
 40
0
 40
0
 40
1
 40
1
 40
1
 40
1
 10
13.885670
 20
2.608957
 30
0.0
 10
14.173237
 20
2.465919
 30
0.0
 10
14.463784
 20
2.327350
 30
0.0
 10
14.763271
 20
2.209641
 30
0.0
  0
SPLINE
  5
1af
100
AcDbEntity
  8
0
 62
7
100
AcDbSpline
 70
8
 71
3
 72
8
 73
4
 74
0
 40
0
 40
0
 40
0
 40
0
 40
1
 40
1
 40
1
 40
1
 10
14.763271
 20
2.209641
 30
0.0
 10
14.896624
 20
2.374285
 30
0.0
 10
15.070207
 20
2.547868
 30
0.0
 10
15.055307
 20
2.778070
 30
0.0
  0
SPLINE
  5
1b0
100
AcDbEntity
  8
0
 62
7
100
AcDbSpline
 70
8
 71
3
 72
8
 73
4
 74
0
 40
0
 40
0
 40
0
 40
0
 40
1
 40
1
 40
1
 40
1
 10
15.055307
 20
2.778070
 30
0.0
 10
15.031468
 20
3.160996
 30
0.0
 10
14.883214
 20
3.520827
 30
0.0
 10
14.776680
 20
3.885128
 30
0.0
  0
SPLINE
  5
1b1
100
AcDbEntity
  8
0
 62
7
100
AcDbSpline
 70
8
 71
3
 72
8
 73
4
 74
0
 40
0
 40
0
 40
0
 40
0
 40
1
 40
1
 40
1
 40
1
 10
5.819643
 20
2.480073
 30
0.0
 10
5.939587
 20
2.243166
 30
0.0
 10
6.198099
 20
2.144082
 30
0.0
 10
6.436497
 20
2.072563
 30
0.0
  0
SPLINE
  5
1b2
100
AcDbEntity
  8
0
 62
7
100
AcDbSpline
 70
8
 71
3
 72
8
 73
4
 74
0
 40
0
 40
0
 40
0
 40
0
 40
1
 40
1
 40
1
 40
1
 10
6.436497
 20
2.072563
 30
0.0
 10
6.527386
 20
2.614917
 30
0.0
 10
6.327728
 20
3.184091
 30
0.0
 10
5.874028
 20
3.508907
 30
0.0
  0
SPLINE
  5
1b3
100
AcDbEntity
  8
0
 62
7
100
AcDbSpline
 70
8
 71
3
 72
8
 73
4
 74
0
 40
0
 40
0
 40
0
 40
0
 40
1
 40
1
 40
1
 40
1
 10
5.874028
 20
3.508907
 30
0.0
 10
5.765259
 20
3.183346
 30
0.0
 10
5.628181
 20
2.802655
 30
0.0
 10
5.819643
 20
2.480073
 30
0.0
  0
SPLINE
  5
1b4
100
AcDbEntity
  8
0
 62
7
100
AcDbSpline
 70
8
 71
3
 72
8
 73
4
 74
0
 40
0
 40
0
 40
0
 40
0
 40
1
 40
1
 40
1
 40
1
 10
11.564276
 20
3.409078
 30
0.0
 10
11.645480
 20
2.956123
 30
0.0
 10
11.790008
 20
2.457724
 30
0.0
 10
12.158034
 20
2.156747
 30
0.0
  0
SPLINE
  5
1b5
100
AcDbEntity
  8
0
 62
7
100
AcDbSpline
 70
8
 71
3
 72
8
 73
4
 74
0
 40
0
 40
0
 40
0
 40
0
 40
1
 40
1
 40
1
 40
1
 10
12.158034
 20
2.156747
 30
0.0
 10
12.564800
 20
2.209641
 30
0.0
 10
12.958155
 20
2.348210
 30
0.0
 10
13.315751
 20
2.547868
 30
0.0
  0
SPLINE
  5
1b6
100
AcDbEntity
  8
0
 62
7
100
AcDbSpline
 70
8
 71
3
 72
8
 73
4
 74
0
 40
0
 40
0
 40
0
 40
0
 40
1
 40
1
 40
1
 40
1
 10
13.315751
 20
2.547868
 30
0.0
 10
12.734658
 20
2.839904
 30
0.0
 10
12.149839
 20
3.126726
 30
0.0
 10
11.564276
 20
3.409078
 30
0.0
  0
SPLINE
  5
1b7
100
AcDbEntity
  8
0
 62
7
100
AcDbSpline
 70
8
 71
3
 72
8
 73
4
 74
0
 40
0
 40
0
 40
0
 40
0
 40
1
 40
1
 40
1
 40
1
 10
12.254883
 20
1.970499
 30
0.0
 10
12.561075
 20
1.653132
 30
0.0
 10
12.935806
 20
1.416225
 30
0.0
 10
13.327671
 20
1.218802
 30
0.0
  0
SPLINE
  5
1b8
100
AcDbEntity
  8
0
 62
7
100
AcDbSpline
 70
8
 71
3
 72
8
 73
4
 74
0
 40
0
 40
0
 40
0
 40
0
 40
1
 40
1
 40
1
 40
1
 10
13.327671
 20
1.218802
 30
0.0
 10
13.328416
 20
1.492214
 30
0.0
 10
13.328416
 20
1.766371
 30
0.0
 10
13.330651
 20
2.039783
 30
0.0
  0
SPLINE
  5
1b9
100
AcDbEntity
  8
0
 62
7
100
AcDbSpline
 70
8
 71
3
 72
8
 73
4
 74
0
 40
0
 40
0
 40
0
 40
0
 40
1
 40
1
 40
1
 40
1
 10
13.330651
 20
2.039783
 30
0.0
 10
13.662173
 20
2.059153
 30
0.0
 10
13.994439
 20
2.065858
 30
0.0
 10
14.326705
 20
2.079268
 30
0.0
  0
SPLINE
  5
1ba
100
AcDbEntity
  8
0
 62
7
100
AcDbSpline
 70
8
 71
3
 72
8
 73
4
 74
0
 40
0
 40
0
 40
0
 40
0
 40
1
 40
1
 40
1
 40
1
 10
14.326705
 20
2.079268
 30
0.0
 10
14.078623
 20
2.199211
 30
0.0
 10
13.836501
 20
2.340015
 30
0.0
 10
13.569794
 20
2.414514
 30
0.0
  0
SPLINE
  5
1bb
100
AcDbEntity
  8
0
 62
7
100
AcDbSpline
 70
8
 71
3
 72
8
 73
4
 74
0
 40
0
 40
0
 40
0
 40
0
 40
1
 40
1
 40
1
 40
1
 10
13.569794
 20
2.414514
 30
0.0
 10
13.134718
 20
2.258811
 30
0.0
 10
12.710073
 20
2.069583
 30
0.0
 10
12.254883
 20
1.970499
 30
0.0
  0
SPLINE
  5
1bc
100
AcDbEntity
  8
0
 62
7
100
AcDbSpline
 70
8
 71
3
 72
8
 73
4
 74
0
 40
0
 40
0
 40
0
 40
0
 40
1
 40
1
 40
1
 40
1
 10
2.421736
 20
0.976680
 30
0.0
 10
2.780822
 20
0.783727
 30
0.0
 10
3.178647
 20
0.659313
 30
0.0
 10
3.586158
 20
0.634729
 30
0.0
  0
SPLINE
  5
1bd
100
AcDbEntity
  8
0
 62
7
100
AcDbSpline
 70
8
 71
3
 72
8
 73
4
 74
0
 40
0
 40
0
 40
0
 40
0
 40
1
 40
1
 40
1
 40
1
 10
3.586158
 20
0.634729
 30
0.0
 10
4.239516
 20
0.593754
 30
0.0
 10
4.918203
 20
0.668998
 30
0.0
 10
5.505257
 20
0.975190
 30
0.0
  0
SPLINE
  5
1be
100
AcDbEntity
  8
0
 62
7
100
AcDbSpline
 70
8
 71
3
 72
8
 73
4
 74
0
 40
0
 40
0
 40
0
 40
0
 40
1
 40
1
 40
1
 40
1
 10
5.505257
 20
0.975190
 30
0.0
 10
4.477913
 20
1.005735
 30
0.0
 10
3.449079
 20
1.002755
 30
0.0
 10
2.421736
 20
0.976680
 30
0.0
  0
SPLINE
  5
1bf
100
AcDbEntity
  8
0
 62
7
100
AcDbSpline
 70
8
 71
3
 72
8
 73
4
 74
0
 40
0
 40
0
 40
0
 40
0
 40
1
 40
1
 40
1
 40
1
 10
13.957934
 20
0.975190
 30
0.0
 10
15.314565
 20
0.452951
 30
0.0
 10
16.824663
 20
0.593754
 30
0.0
 10
18.207368
 20
0.937940
 30
0.0
  0
SPLINE
  5
1c0
100
AcDbEntity
  8
0
 62
7
100
AcDbSpline
 70
8
 71
3
 72
8
 73
4
 74
0
 40
0
 40
0
 40
0
 40
0
 40
1
 40
1
 40
1
 40
1
 10
18.207368
 20
0.937940
 30
0.0
 10
17.708223
 20
1.012439
 30
0.0
 10
17.202374
 20
0.991580
 30
0.0
 10
16.699504
 20
0.993070
 30
0.0
  0
SPLINE
  5
1c1
100
AcDbEntity
  8
0
 62
7
100
AcDbSpline
 70
8
 71
3
 72
8
 73
4
 74
0
 40
0
 40
0
 40
0
 40
0
 40
1
 40
1
 40
1
 40
1
 10
16.699504
 20
0.993070
 30
0.0
 10
15.786144
 20
0.981895
 30
0.0
 10
14.870549
 20
1.015419
 30
0.0
 10
13.957934
 20
0.975190
 30
0.0
  0
LWPOLYLINE
  5
1c2
100
AcDbEntity
  8
0
 62
7
100
AcDbPolyline
 90
1
 70
1
 10
9.043223
 20
12.342275
 30
0.0
  0
LWPOLYLINE
  5
1c3
100
AcDbEntity
  8
0
 62
7
100
AcDbPolyline
 90
1
 70
1
 10
13.957934
 20
0.975190
 30
0.0
  0
ENDSEC
  0
SECTION
  2
OBJECTS
  0
DICTIONARY
  5
C
330
0
100
AcDbDictionary
  3
ACAD_GROUP
350
D
  3
ACAD_MLINESTYLE
350
17
  0
DICTIONARY
  5
D
330
C
100
AcDbDictionary
  0
DICTIONARY
  5
1A
330
C
100
AcDbDictionary
  0
DICTIONARY
  5
17
330
C
100
AcDbDictionary
  3
STANDARD
350
18
  0
DICTIONARY
  5
19
330
C
100
AcDbDictionary
  0
ENDSEC
  0
EOF
