0
SECTION
2
HEADER
9
$INSUNITS
70
1
9
$ACADVER
1
AC1014
9
$HANDSEED
5
FFFF
0
ENDSEC
0
SECTION
2
TABLES
0
TABLE
2
VPORT
5
8
100
AcDbSymbolTable
0
ENDTAB
0
TABLE
2
LTYPE
5
5
100
AcDbSymbolTable
0
LTYPE
5
14
100
AcDbSymbolTableRecord
100
AcDbLinetypeTableRecord
2
BYBLOCK
70
0
0
LTYPE
5
15
100
AcDbSymbolTableRecord
100
AcDbLinetypeTableRecord
2
BYLAYER
70
0
0
ENDTAB
0
TABLE
2
LAYER
5
2
100
AcDbSymbolTable
70
2
0
LAYER
5
50
100
AcDbSymbolTableRecord
100
AcDbLayerTableRecord
2
0
70
0
6
CONTINUOUS
0
ENDTAB
0
TABLE
2
STYLE
5
3
100
AcDbSymbolTable
70
1
0
STYLE
5
11
100
AcDbSymbolTableRecord
100
AcDbTextStyleTableRecord
2
STANDARD
70
0
0
ENDTAB
0
TABLE
2
VIEW
5
6
100
AcDbSymbolTable
70
0
0
ENDTAB
0
TABLE
2
UCS
5
7
100
AcDbSymbolTable
70
0
0
ENDTAB
0
TABLE
2
APPID
5
9
100
AcDbSymbolTable
70
2
0
APPID
5
12
100
AcDbSymbolTableRecord
100
AcDbRegAppTableRecord
2
ACAD
70
0
0
ENDTAB
0
TABLE
2
DIMSTYLE
5
A
100
AcDbSymbolTable
70
1
0
ENDTAB
0
TABLE
2
BLOCK_RECORD
5
1
100
AcDbSymbolTable
70
1
0
BLOCK_RECORD
5
1F
100
AcDbSymbolTableRecord
100
AcDbBlockTableRecord
2
*MODEL_SPACE
0
BLOCK_RECORD
5
1B
100
AcDbSymbolTableRecord
100
AcDbBlockTableRecord
2
*PAPER_SPACE
0
ENDTAB
0
ENDSEC
0
SECTION
2
BLOCKS
0
BLOCK
5
20
100
AcDbEntity
100
AcDbBlockBegin
2
*MODEL_SPACE
0
ENDBLK
5
21
100
AcDbEntity
100
AcDbBlockEnd
0
BLOCK
5
1C
100
AcDbEntity
100
AcDbBlockBegin
2
*PAPER_SPACE
0
ENDBLK
5
1D
100
AcDbEntity
100
AcDbBlockEnd
0
ENDSEC
0
SECTION
2
ENTITIES
0
LWPOLYLINE
5
100
100
AcDbEntity
8
0
100
AcDbPolyline
90
155
70
1
43
0.0
10
4.5257029929009835
20
6.8327521278143433
42
0.051849999999999605
10
4.3532453929009813
20
6.31939872781434
10
4.348171792900982
20
6.307794127814339
42
-0.14426000000000208
10
4.1757071929009824
20
6.7138921278143391
42
-0.2340389999999998
10
4.471422192900981
20
7.4409149278143403
42
-0.22543900000000008
10
5.26384599290098
20
7.6002293278143389
42
-0.41411155488771278
10
5.5478902483931547
20
15.512905256077984
10
5.6696329279892339
20
15.705128986731712
42
-0.057908366116122489
10
5.8626105929009764
20
15.955175927814327
42
-0.042397999999999499
10
6.9874475929009821
20
16.871977127814336
10
7.0907983929010108
20
16.95166372781436
42
0.0072209999999914816
10
7.3918039929009804
20
17.222772327814337
42
0.074125000000003591
10
8.0963161929009821
20
18.057820527814336
42
0.2454980000000013
10
8.1873357929009778
20
19.378395727814333
42
0.16835799999999757
10
7.5204793929009837
20
19.886394127814334
42
0.29019699999999909
10
6.8100437929009807
20
19.736902127814339
42
0.1609750000000004
10
6.5827579929009792
20
19.390472127814338
42
0.35124699999999587
10
6.7242867929009797
20
19.013468927814337
42
0.5357079999999963
10
7.1145255929009821
20
19.173231327814335
10
7.1262757929009792
20
19.171106127814337
42
-0.095247000000000651
10
7.2545395929009775
20
18.883201727814335
42
-0.31325999999999216
10
7.0902873929009846
20
18.372683327814343
42
-0.12884799999999982
10
6.5442173929009817
20
18.189032727814336
42
-0.27790100000000556
10
5.9066139929009829
20
18.771147127814334
42
-0.14473399999999753
10
5.939172392900983
20
19.562298327814343
42
-0.10613899999999843
10
6.2909251929009793
20
20.083563127814333
42
-0.2590130000000026
10
7.4427471929009821
20
20.420117527814341
42
-0.10816100000000113
10
8.26591639290098
20
20.014991127814337
10
8.3669067929009806
20
19.938343927814341
42
-0.0082269999999876157
10
8.2734595929009807
20
20.063247727814339
42
0.044716000000000408
10
7.8233119929009813
20
20.637767127814339
42
0.17447400000000374
10
7.1345973929009787
20
20.989385527814335
42
0.11604299999999587
10
6.3613283929009814
20
20.873906527814338
10
6.3329811929009825
20
20.888742327814342
42
-0.15951299999999774
10
6.7879069929009797
20
21.346434527814342
42
-0.33581400000000078
10
7.9935365929009814
20
21.175978927814338
10
8.0378745929009803
20
21.133190727814338
10
8.0813739929009802
20
21.088330527814339
42
-0.063538000000002759
10
8.6602599929009809
20
20.233148927814337
42
-0.04267100000000041
10
8.4397529929009814
20
20.971606927814339
42
-0.071845000000000478
10
8.360466792900981
20
22.019518127814333
42
-0.11527999999999862
10
8.6295691929009806
20
22.917055327814339
42
-0.12209099999999565
10
8.967453592900986
20
23.299956727814337
42
-0.22966100000000225
10
9.6110643929009836
20
23.423590727814339
42
-0.18815099999999435
10
10.127241592900981
20
22.999728127814343
10
10.099966792900982
20
22.988774527814339
42
0.14699000000000531
10
9.4430111929009826
20
22.789380927814342
42
0.31536799999999909
10
8.8882009929009822
20
21.517717527814348
42
-0.076790000000001399
10
9.0047145929009815
20
19.509113727814338
42
-0.090095999999996498
10
8.7356373929009834
20
18.450164927814338
10
8.7493615929009803
20
18.455276327814342
10
8.7768015929009806
20
18.487918727814336
42
0.052373999999992676
10
8.9175337929009793
20
18.75971612781434
42
0.078156000000000253
10
9.2154453929009819
20
20.55194432781434
42
-0.076570999999998002
10
9.3121671929009828
20
21.446535927814338
42
-0.11558899999999279
10
9.5798723929009775
20
22.002655127814339
42
-0.33580599999999633
10
10.232434792900982
20
22.189786127814333
10
10.31131499290098
20
22.160023527814346
10
10.313392592900982
20
22.144920327814337
42
-0.019182000000030865
10
10.243512992900982
20
22.106462327814338
42
0.18385999999999761
10
9.6014757929009793
20
21.493637527814343
42
0.11449999999999658
10
9.427877192900981
20
20.54586132781434
42
-0.11146299999999944
10
8.8404609929009776
20
18.220366127814337
42
-0.09774599999999932
10
8.2125063929009805
20
17.400667527814345
10
8.2235817929009798
20
17.400016527814334
42
0.03007499999997968
10
8.3286657929009795
20
17.451780127814338
42
0.13159699999999724
10
9.0089775929009832
20
18.19276512781434
10
9.0288239929009837
20
18.239100927814338
42
-0.3189519999999999
10
10.180816792900982
20
19.208075927814338
10
10.25245339290098
20
19.213997927814336
10
10.324257992900977
20
19.217306127814343
42
-0.20761199999999591
10
11.552010392900982
20
18.757602127814341
42
-0.1153240000000005
10
12.177598992900981
20
17.701457527814338
42
0.047278999999999162
10
12.532336592900977
20
16.747231527814339
42
0.09492400000000295
10
13.029048192900976
20
16.039839527814337
42
0.14552599999999846
10
13.625393592900977
20
15.695491327814336
42
0.17426499999999653
10
13.95239019290098
20
15.736469327814335
42
0.12857200000000354
10
14.189635592900986
20
15.975065727814339
42
0.064340999999997234
10
14.373111192900984
20
16.501800327814337
10
14.378473192900982
20
16.516941327814337
10
14.398452592900986
20
16.499477727814341
42
-0.12476700000000726
10
14.549683392900983
20
16.144378927814337
42
-0.23940199999999984
10
14.26862359290098
20
15.398282527814338
42
-0.22757100000000349
10
13.474325192900981
20
15.22726132781434
10
13.507222392900974
20
15.18104452781434
42
-0.18733199999999955
10
14.963906992900982
20
11.414233927814339
42
-0.20942386936517232
10
13.164919500716502
20
7.2996192516597631
10
13.075393792900977
20
7.1461463278143391
42
-0.056323000000003565
10
12.845291192900975
20
6.852737127814331
42
-0.041451999999997907
10
11.677691192901019
20
5.9126497278143733
42
0.0094629999999960163
10
11.302002592900983
20
5.5737965278143395
42
0.078252999999998754
10
10.610996192900982
20
4.7322817278143399
42
0.24435400000000101
10
10.552051992900982
20
3.4350669278143404
42
0.15912999999999763
10
11.181797192900982
20
2.9532653278143401
42
0.3079579999999994
10
11.935554392900981
20
3.1079779278143396
42
0.16380000000000236
10
12.149407192900981
20
3.4525711278143403
42
0.35077400000000286
10
11.997026992900979
20
3.8207893278143406
42
0.5107109999999998
10
11.618661592900983
20
3.6693835278143405
10
11.610479992900981
20
3.6483695278143409
42
-0.10541299999999826
10
11.471269592900983
20
3.9623909278143428
42
-0.30079299999999631
10
11.632776392900983
20
4.4535585278143417
42
-0.14393699999999982
10
12.20333659290098
20
4.637470927814336
42
-0.2796789999999989
10
12.831243592900982
20
4.029558727814341
42
-0.14249099999999998
10
12.776055592900981
20
3.2265271278143404
42
-0.08711799999999828
10
12.471415592900982
20
2.7794441278143402
42
-0.25652699999999945
10
11.340956192900983
20
2.3991551278143399
42
-0.11145499999999961
10
10.52856419290098
20
2.7665431278143404
10
10.40070499290098
20
2.8633195278143408
10
10.382237592900983
20
2.8656169278143353
42
-0.0063959999999959848
10
10.475751992900982
20
2.7384829278143363
42
0.043892999999997309
10
10.865335592900982
20
2.2360733278143425
42
0.14356200000000024
10
11.424475992900982
20
1.8751183278143408
42
0.13683499999999987
10
12.181360792900982
20
1.8960665278143407
10
12.30312019290098
20
1.9332267278143409
10
12.405766792900982
20
1.9635661278143401
42
-0.17303400000000399
10
11.91567299290098
20
1.4704245278143413
42
-0.3357649999999987
10
10.713802392900982
20
1.6744325278143406
10
10.669859192900983
20
1.7182791278143406
42
-0.066556999999998465
10
10.066193192900979
20
2.6019731278143392
42
-0.07846800000000187
10
10.37259159290098
20
1.24670592781434
42
-0.1201790000000011
10
10.19246059290098
20
0.093013527814340746
10
10.131876992900981
20
-0.031347072185659311
10
10.061071992900981
20
-0.15233227218565973
42
-0.10217800000000037
10
9.7841897929009836
20
-0.45441307218565946
42
-0.22704500000000075
10
9.1432641929009808
20
-0.60028747218565692
42
-0.19160799999999836
10
8.6202059929009813
20
-0.19889207218565913
10
8.6047289929009807
20
-0.15685007218565883
42
0.040033999999997981
10
8.7216149929009799
20
-0.15888567218566013
42
0.12670799999999979
10
9.3306597929009794
20
0.071034927814342327
42
0.28894800000000065
10
9.8519721929009805
20
1.2517165278143405
42
-0.080709999999999227
10
9.7303723929009802
20
3.3734823278143407
42
-0.085162999999998559
10
9.9936731929009817
20
4.3883535278143402
10
9.9661057929009793
20
4.3590445278143415
42
0.066273999999998917
10
9.7998431929009815
20
4.0382527278143403
42
0.082444000000000475
10
9.5161037929009815
20
2.1562159278143405
42
-0.083232000000001416
10
9.383925592900983
20
1.278599327814341
42
-0.099839999999998291
10
9.1541785929009816
20
0.82920352781434059
10
9.1239203929009793
20
0.79607532781434032
42
-0.35174300000000064
10
8.4079757929009826
20
0.67944132781434141
42
-0.021364000000000986
10
8.4948541929009789
20
0.72797512781434082
42
0.17423200000000072
10
9.1098825929009823
20
1.3007333278143403
42
0.10018700000000239
10
9.3001341929009822
20
2.0780847278143404
42
-0.12440200000000122
10
9.9184189929009801
20
4.664675727814342
42
-0.091339000000000073
10
10.51869979290098
20
5.4349781278143405
42
0.03661599999999491
10
10.392384792900982
20
5.3734089278143413
42
0.13215000000000005
10
9.7082299929009785
20
4.6147727278143407
42
-0.32873599999999925
10
8.5179765929009825
20
3.61846132781434
10
8.4502067929009836
20
3.6138217278143396
10
8.3823109929009814
20
3.6116895278143395
42
-0.21090900000000037
10
7.1454487929009813
20
4.1029775278143408
42
-0.11086199999999902
10
6.5446597929009807
20
5.1499675278143418
42
0.044175000000001949
10
6.2158641929009821
20
6.0432137278143374
42
0.10036899999999957
10
5.6864695929009805
20
6.8023847278143403
42
0.12246600000000006
10
5.1944269929009828
20
7.110636727814339
42
0.19412599999999841
10
4.8024381929009818
20
7.1053279278143391
42
0.15074500000000221
0
LWPOLYLINE
5
101
100
AcDbEntity
8
0
100
AcDbPolyline
90
5
70
1
43
0.0
10
12.392046792900983
20
16.125284327814338
10
12.40655079290098
20
16.127020327814339
42
-0.063743999999994597
10
12.06387279290098
20
16.782266527814343
42
-0.068730000000000735
10
11.76084839290098
20
16.484112727814342
10
11.784421592900969
20
16.465137127814344
42
-0.031156999999996056
0
LWPOLYLINE
5
102
100
AcDbEntity
8
0
100
AcDbPolyline
90
5
70
1
43
0.0
10
6.9433237929009843
20
6.363357327814338
42
-0.030958999999998092
10
6.3396507929009811
20
6.7006635278143394
10
6.3252097929009823
20
6.6988743278143383
42
-0.063530000000002571
10
6.6652879929009794
20
6.0475103278143409
42
-0.06826099999999985
10
6.9667205929009803
20
6.3444839278143403
0
LINE
5
103
100
AcDbEntity
8
0
100
AcDbLine
10
9.3639069929009811
20
6.1642339278143394
30
0
11
9.2439423929009816
21
6.16543512781434
31
0
0
LINE
5
104
100
AcDbEntity
8
0
100
AcDbLine
10
8.6462599929009833
20
6.2125619278143382
30
0
11
8.5275903929009829
21
6.23017812781434
31
0
0
LINE
5
105
100
AcDbEntity
8
0
100
AcDbLine
10
9.1240365929009819
20
6.1693803278143404
30
0
11
9.0042525929009809
21
6.1760695278143398
31
0
0
LINE
5
106
100
AcDbEntity
8
0
100
AcDbLine
10
8.5275903929009829
20
6.23017812781434
30
0
11
8.4093547929009809
21
6.250506127814341
31
0
0
LINE
5
107
100
AcDbEntity
8
0
100
AcDbLine
10
8.4093547929009809
20
6.250506127814341
30
0
11
8.2916147929009814
21
6.2735361278143413
31
0
0
LINE
5
108
100
AcDbEntity
8
0
100
AcDbLine
10
9.0042525929009809
20
6.1760695278143398
30
0
11
8.8846547929009816
21
6.1855013278143396
31
0
0
LINE
5
109
100
AcDbEntity
8
0
100
AcDbLine
10
8.8846547929009816
20
6.1855013278143396
30
0
11
8.7653019929009819
21
6.1976673278143402
31
0
0
LINE
5
110
100
AcDbEntity
8
0
100
AcDbLine
10
8.7653019929009819
20
6.1976673278143402
30
0
11
8.6462599929009833
21
6.2125619278143382
31
0
0
LINE
5
111
100
AcDbEntity
8
0
100
AcDbLine
10
9.2439423929009816
20
6.16543512781434
30
0
11
9.1240365929009819
21
6.1693803278143404
31
0
0
ARC
5
112
100
AcDbEntity
8
0
100
AcDbCircle
10
-10.897251454752448
20
12.807352310791849
30
0
40
1.0114471530105216
210
-0
220
0
230
-1
100
AcDbArc
50
294.58567913187096
51
311.34204597493698
0
LINE
5
113
100
AcDbEntity
8
0
100
AcDbLine
10
10.185404707401471
20
9.4076533267138434
30
0
11
10.185406107401473
21
9.3207630267138413
31
0
0
ARC
5
114
100
AcDbEntity
8
0
100
AcDbCircle
10
-9.7458676429834519
20
10.57071978949736
30
0
40
0.29944417628728287
210
0
220
0
230
-1
100
AcDbArc
50
171.25385730393987
51
201.95497779252932
0
ARC
5
115
100
AcDbEntity
8
0
100
AcDbCircle
10
-11.040404852859249
20
8.621625180083635
30
0
40
1.5293914982379879
210
0
220
0
230
-1
100
AcDbArc
50
9.8167391519958329
51
13.968853730565302
0
LINE
5
116
100
AcDbEntity
8
0
100
AcDbLine
10
9.308658207401475
20
16.463007226713831
30
0
11
9.3160306074014763
21
16.415558426713829
31
0
0
ARC
5
117
100
AcDbEntity
8
0
100
AcDbCircle
10
-9.5194238529809674
20
14.29713565775142
30
0
40
0.0060848468297673135
210
0
220
-0
230
-1
100
AcDbArc
50
242.3333698828998
51
322.11670806260094
0
LWPOLYLINE
5
118
100
AcDbEntity
8
0
100
AcDbPolyline
90
46
70
1
43
0.0
10
10.426650607401479
20
13.896527926713832
42
-0.017600999999998104
10
10.592729107401475
20
13.640745826713836
10
10.603039407401472
20
13.620159526713833
42
0.015549999999996298
10
10.756992507401474
20
13.250014926713831
42
-0.13965099999999928
10
10.795934207401469
20
13.113048726713837
42
0.080316000000000429
10
10.843309507401473
20
12.772652726713828
42
0.013102999999997336
10
10.997133107401469
20
12.465811926713837
10
11.19154690740147
20
12.076978726713836
10
11.279105007401469
20
11.858078926713835
10
11.293602007401468
20
11.742101526713833
42
0.025014999999995895
10
11.307428407401479
20
11.471269426713802
42
-0.0066049999999898291
10
11.353839807401471
20
11.165675326713835
42
-0.19083299999998962
10
11.338660307401469
20
11.086829426713837
42
0.048571000000003611
10
11.25828000740146
20
10.976627726713804
42
-0.01519299999999481
10
11.075290207401471
20
10.502783726713838
10
11.072563707401471
20
10.497969126713839
10
10.76872030740147
20
9.9915695267138318
42
-0.020560999999998494
10
10.578763407401475
20
9.6052451267138395
42
0.080251999999997103
10
10.493397007401489
20
9.3911424267139871
42
-0.0085320000000081563
10
10.419877407401472
20
8.7675628267138421
10
10.412278207401473
20
8.726014326713857
42
0.010330999999996631
10
10.24253030740147
20
8.0473846267138427
42
-0.058656999999998634
10
10.087720407401472
20
7.7232993267138417
42
0.04200399999999764
10
9.9110509074014725
20
7.4158425267138419
42
0.027276999999999677
10
9.8310437074014771
20
7.1566164267138443
42
-0.02145699999999753
10
9.7963790074014518
20
6.9897665267137796
42
0.0079590000000071635
10
9.6022403074015106
20
6.2880956267140924
42
-0.0019801344554914073
10
9.5859128377868803
20
6.1684572268012676
42
0.012395225803774159
10
9.8443771929009767
20
6.1852969278143402
42
0.94139339793039378
10
9.5142433074014736
20
16.664542147124561
10
9.5142433074014772
20
16.615376926713832
42
-0.12426699999999979
10
9.5845660074014738
20
16.496615626713833
42
-0.02827399999999999
10
9.6206587074014749
20
16.223535126713831
10
9.6199629074014741
20
16.206833126713832
42
0.10557200000000695
10
9.6155816074014755
20
16.160397226713826
42
0.021770000000000522
10
9.6783919074014744
20
15.945468526713849
42
-0.0095260000000017345
10
9.7618781074014738
20
15.514145326713832
10
9.7625767074014718
20
15.501331126713833
42
0.049091999999998817
10
9.8351268074014655
20
15.285751426713848
42
0.014171999999995195
10
10.036525207401473
20
14.980046726713832
42
-0.075734000000000648
10
10.129123307401473
20
14.820954226713832
42
-0.059390000000000137
10
10.199210107401472
20
14.490853826713833
42
0.094957999999999904
10
10.259277807401471
20
14.228745126713832
42
0.095146000000001021
10
10.338663407401471
20
14.095429426713833
10
10.348362607401473
20
14.081491726713834
42
-0.026412000000001344
10
10.41971150740147
20
13.911062026713836
0
ARC
5
119
100
AcDbEntity
8
0
100
AcDbCircle
10
9.619870047382781
20
10.205546594458577
30
0
40
0.14852510347979136
210
0
220
0
230
1
100
AcDbArc
50
154.73367781812513
51
209.46082966001302
0
LINE
5
120
100
AcDbEntity
8
0
100
AcDbLine
10
9.9086506074014729
20
9.6849996267138412
30
0
11
9.9666414074014735
21
9.6270123267138388
31
0
0
LINE
5
121
100
AcDbEntity
8
0
100
AcDbLine
10
9.350633007401477
20
16.148784226713833
30
0
11
9.3575196074014748
21
16.086666926713832
31
0
0
ARC
5
122
100
AcDbEntity
8
0
100
AcDbCircle
10
-10.62453606769512
20
10.30521506455937
30
0
40
0.11997089280672991
210
0
220
-0
230
-1
100
AcDbArc
50
194.7992996531728
51
215.31670412568189
0
ARC
5
123
100
AcDbEntity
8
0
100
AcDbCircle
10
-9.4451986735832278
20
14.306369881664395
30
0
40
0.078425934943020803
210
0
220
0
230
-1
100
AcDbArc
50
166.59834847138552
51
190.74630647925645
0
LINE
5
124
100
AcDbEntity
8
0
100
AcDbLine
10
10.302068107401475
20
9.1157400267138406
30
0
11
10.302068107401475
21
8.9417067267138428
31
0
0
ARC
5
125
100
AcDbEntity
8
0
100
AcDbCircle
10
54.154166707028047
20
22.095733723417993
30
0
40
45.196491459956533
210
0
220
0
230
1
100
AcDbArc
50
187.21987358724144
51
187.56089781521243
0
LINE
5
126
100
AcDbEntity
8
0
100
AcDbLine
10
9.4125508074014732
20
8.7522405267138428
30
0
11
9.4271094074014741
21
8.5478741267138414
31
0
0
ARC
5
127
100
AcDbEntity
8
0
100
AcDbCircle
10
11.052615760895552
20
11.265451963509838
30
0
40
0.14551151973829768
210
0
220
0
230
1
100
AcDbArc
50
195.50350372723668
51
249.70612118112348
0
ARC
5
128
100
AcDbEntity
8
0
100
AcDbCircle
10
10.560634622736927
20
9.244940116124166
30
0
40
0.28342030753866865
210
0
220
0
230
1
100
AcDbArc
50
161.9812895226915
51
197.47506552545397
0
LINE
5
129
100
AcDbEntity
8
0
100
AcDbLine
10
10.392874907401472
20
9.6479325267138414
30
0
11
10.382421107401472
21
9.6220773267138391
31
0
0
ARC
5
130
100
AcDbEntity
8
0
100
AcDbCircle
10
9.5516795467839319
20
15.316585265457684
30
0
40
0.21272829843194091
210
0
220
0
230
1
100
AcDbArc
50
160.04582494076013
51
184.53211557835803
0
ARC
5
131
100
AcDbEntity
8
0
100
AcDbCircle
10
9.5014680645853318
20
15.063596909284307
30
0
40
0.19377780474377615
210
0
220
0
230
1
100
AcDbArc
50
176.04040982641683
51
206.19685220730508
0
ARC
5
132
100
AcDbEntity
8
0
100
AcDbCircle
10
-9.6758715183101991
20
11.679321589832448
30
0
40
0.78683587047932779
210
0
220
0
230
-1
100
AcDbArc
50
113.77699170723356
51
121.87501390437403
0
LINE
5
133
100
AcDbEntity
8
0
100
AcDbLine
10
9.4672201074014737
20
9.46687472671384
30
0
11
9.4692613074014744
21
9.4561934267138419
31
0
0
ARC
5
134
100
AcDbEntity
8
0
100
AcDbCircle
10
10.955510812362494
20
10.111252425690726
30
0
40
0.26429995873716861
210
0
220
0
230
1
100
AcDbArc
50
151.87060906161346
51
173.14032162588748
0
ARC
5
135
100
AcDbEntity
8
0
100
AcDbCircle
10
-10.003623023028329
20
12.522438674898051
30
0
40
0.23924468857571829
210
-0
220
0
230
-1
100
AcDbArc
50
293.78331401029959
51
319.06843940914808
0
ARC
5
136
100
AcDbEntity
8
0
100
AcDbCircle
10
11.548503754893185
20
10.45382439062683
30
0
40
0.99970993949366171
210
0
220
0
230
1
100
AcDbArc
50
160.13116675687314
51
169.66952827298644
0
LINE
5
137
100
AcDbEntity
8
0
100
AcDbLine
10
10.564999307401473
20
10.633097826713838
30
0
11
10.637447207401472
21
10.61860712671384
31
0
0
ARC
5
138
100
AcDbEntity
8
0
100
AcDbCircle
10
23.720983439182515
20
14.857239559752523
30
0
40
14.354390855827837
210
0
220
0
230
1
100
AcDbArc
50
176.81180981878819
51
177.52044176152535
0
ARC
5
139
100
AcDbEntity
8
0
100
AcDbCircle
10
-11.6849028124304
20
10.43474161890874
30
0
40
1.1583862638492162
210
0
220
0
230
-1
100
AcDbArc
50
37.728935674468445
51
48.488505018909329
0
ARC
5
140
100
AcDbEntity
8
0
100
AcDbCircle
10
10.07532173921123
20
12.052404009444766
30
0
40
0.13602033821566661
210
0
220
-0
230
1
100
AcDbArc
50
24.129430174875175
51
64.500745213279828
0
LINE
5
141
100
AcDbEntity
8
0
100
AcDbLine
10
9.3396164074014756
20
15.299775926713831
30
0
11
9.3396164074014756
21
15.124644326713835
31
0
0
ARC
5
142
100
AcDbEntity
8
0
100
AcDbCircle
10
12.196440926015159
20
10.026048006166214
30
0
40
1.4769727285041985
210
0
220
0
230
1
100
AcDbArc
50
158.80788493315194
51
170.31305777938485
0
ARC
5
143
100
AcDbEntity
8
0
100
AcDbCircle
10
-10.989024631027101
20
10.963924488015076
30
0
40
0.28427843890041787
210
0
220
0
230
-1
100
AcDbArc
50
12.064342483240688
51
39.197954546578558
0
ARC
5
144
100
AcDbEntity
8
0
100
AcDbCircle
10
-10.952039477369592
20
11.249077089647537
30
0
40
0.063523745665799367
210
0
220
0
230
-1
100
AcDbArc
50
56.694945010235244
51
79.517348956207186
0
ARC
5
145
100
AcDbEntity
8
0
100
AcDbCircle
10
9.4547892178367299
20
10.617546498804582
30
0
40
0.36186414220908381
210
-0
220
0
230
1
100
AcDbArc
50
332.77811497326292
51
357.14340670488116
0
ARC
5
146
100
AcDbEntity
8
0
100
AcDbCircle
10
-9.3503852985331068
20
10.074045417922722
30
0
40
0.15186484170832035
210
0
220
0
230
-1
100
AcDbArc
50
157.36265934399617
51
191.7976607280157
0
ARC
5
147
100
AcDbEntity
8
0
100
AcDbCircle
10
-7.5687271593308214
20
14.223893838017435
30
0
40
1.913731923960907
210
0
220
0
230
-1
100
AcDbArc
50
156.79155086032213
51
168.03678394496231
0
LINE
5
148
100
AcDbEntity
8
0
100
AcDbLine
10
11.118004907401472
20
10.984551726713839
30
0
11
11.121931207401474
21
10.970327026713838
31
0
0
ARC
5
149
100
AcDbEntity
8
0
100
AcDbCircle
10
-9.4723736832873158
20
11.304364869196977
30
0
40
0.49586581825905718
210
0
220
0
230
-1
100
AcDbArc
50
117.38283244140483
51
144.6459255820422
0
LINE
5
150
100
AcDbEntity
8
0
100
AcDbLine
10
11.002147207401473
20
11.128972926713837
30
0
11
11.074732307401474
21
11.114454226713837
31
0
0
ARC
5
151
100
AcDbEntity
8
0
100
AcDbCircle
10
-9.1538757759434226
20
13.05038199777564
30
0
40
0.46207156724977722
210
0
220
0
230
-1
100
AcDbArc
50
149.80328342580097
51
155.31796895275778
0
LINE
5
152
100
AcDbEntity
8
0
100
AcDbLine
10
9.4746170074014717
20
11.867223726713839
30
0
11
9.4853620074014717
21
11.858171326713839
31
0
0
ARC
5
153
100
AcDbEntity
8
0
100
AcDbCircle
10
-9.0992009745394693
20
15.518478344350468
30
0
40
0.28369760271490968
210
0
220
-0
230
-1
100
AcDbArc
50
188.15144614175924
51
207.11329968106784
0
ARC
5
154
100
AcDbEntity
8
0
100
AcDbCircle
10
-9.4244833859857788
20
13.227205374657725
30
0
40
0.14024790129055961
210
0
220
0
230
-1
100
AcDbArc
50
103.77564610899741
51
156.65082831496335
0
ARC
5
155
100
AcDbEntity
8
0
100
AcDbCircle
10
9.3593729800624548
20
11.155339325849233
30
0
40
0.54645436264603831
210
0
220
-0
230
1
100
AcDbArc
50
47.171075621426532
51
65.077980554649798
0
ARC
5
156
100
AcDbEntity
8
0
100
AcDbCircle
10
-10.22586774743327
20
10.057996469557096
30
0
40
0.18869073613460807
210
-0
220
0
230
-1
100
AcDbArc
50
-3.7392820614902305
51
26.372787314302993
0
ARC
5
157
100
AcDbEntity
8
0
100
AcDbCircle
10
-12.683754383164928
20
10.431950966283132
30
0
40
2.4816799041994178
210
0
220
0
230
-1
100
AcDbArc
50
2.4497517519554295
51
5.0080166383175877
0
ARC
5
158
100
AcDbEntity
8
0
100
AcDbCircle
10
-6.7797814235932128
20
12.155405498540372
30
0
40
3.1031928265272541
210
0
220
0
230
-1
100
AcDbArc
50
164.08384336587261
51
168.47972396268577
0
LINE
5
159
100
AcDbEntity
8
0
100
AcDbLine
10
10.637465407401473
20
11.055787226713838
30
0
11
10.637465407401473
21
10.939646726713839
31
0
0
ARC
5
160
100
AcDbEntity
8
0
100
AcDbCircle
10
9.2752039386110745
20
12.302050747963069
30
0
40
0.49122213650722457
210
0
220
-0
230
1
100
AcDbArc
50
18.47075516383326
51
39.108877414163771
0
ARC
5
161
100
AcDbEntity
8
0
100
AcDbCircle
10
-7.2521286806129988
20
10.779321622464012
30
0
40
2.4120736310312361
210
0
220
0
230
-1
100
AcDbArc
50
158.73933424171767
51
167.02619100292839
0
ARC
5
162
100
AcDbEntity
8
0
100
AcDbCircle
10
-5.3427322391758931
20
13.925361746681826
30
0
40
4.1880914488927319
210
0
220
0
230
-1
100
AcDbArc
50
174.95850803346534
51
179.64281691962432
0
ARC
5
163
100
AcDbEntity
8
0
100
AcDbCircle
10
12.444633353194353
20
9.6030813445607546
30
0
40
2.9789956145142442
210
0
220
0
230
1
100
AcDbArc
50
182.82627867201532
51
186.57652563427015
0
ARC
5
164
100
AcDbEntity
8
0
100
AcDbCircle
10
9.4149527100534947
20
8.6360418094120188
30
0
40
0.076417442338627933
210
-0
220
0
230
1
100
AcDbArc
50
-13.111754835176271
51
26.238001553478728
0
LINE
5
165
100
AcDbEntity
8
0
100
AcDbLine
10
9.4270681074014728
20
8.8828843267138407
30
0
11
9.4125508074014732
21
8.7522405267138428
31
0
0
ARC
5
166
100
AcDbEntity
8
0
100
AcDbCircle
10
-8.5242377140042098
20
15.771415318684063
30
0
40
0.87229862951086423
210
0
220
0
230
-1
100
AcDbArc
50
172.56499418332655
51
187.63175070322484
0
LINE
5
167
100
AcDbEntity
8
0
100
AcDbLine
10
10.035394707401473
20
9.6680141267138406
30
0
11
10.038648307401473
21
9.6769279267138391
31
0
0
ARC
5
168
100
AcDbEntity
8
0
100
AcDbCircle
10
11.19931134588052
20
8.5341389447457541
30
0
40
0.98547294528807639
210
0
220
0
230
1
100
AcDbArc
50
155.57033890853234
51
165.62502194529435
0
ARC
5
169
100
AcDbEntity
8
0
100
AcDbCircle
10
10.742102860135203
20
9.0146310673898054
30
0
40
0.68145383525321657
210
0
220
0
230
1
100
AcDbArc
50
127.29770993624648
51
144.77836413927099
0
LINE
5
170
100
AcDbEntity
8
0
100
AcDbLine
10
9.5418254074014737
20
9.6385756267138394
30
0
11
9.5416007074014733
21
9.6536683267138397
31
0
0
ARC
5
171
100
AcDbEntity
8
0
100
AcDbCircle
10
-14.129744447879487
20
8.6696829018110275
30
0
40
4.5847627212258573
210
0
220
0
230
-1
100
AcDbArc
50
4.0164355714510238
51
6.3288147617529527
0
ARC
5
172
100
AcDbEntity
8
0
100
AcDbCircle
10
9.343208955814843
20
9.5885794119640604
30
0
40
0.20481239300923809
210
-0
220
0
230
1
100
AcDbArc
50
-0.6238733693202424
51
14.129088260001742
0
ARC
5
173
100
AcDbEntity
8
0
100
AcDbCircle
10
-9.8370583100876505
20
8.6029290399611167
30
0
40
0.33912668250142763
210
0
220
-0
230
-1
100
AcDbArc
50
186.27111829465622
51
201.86606292477438
0
LINE
5
174
100
AcDbEntity
8
0
100
AcDbLine
10
10.197204607401472
20
8.6891572267138422
30
0
11
10.191698407401473
21
8.6773958267138411
31
0
0
ARC
5
175
100
AcDbEntity
8
0
100
AcDbCircle
10
12.603986004199671
20
15.32274138685921
30
0
40
3.2400894302869299
210
0
220
0
230
1
100
AcDbArc
50
192.51591171099221
51
197.94332822197876
0
ARC
5
176
100
AcDbEntity
8
0
100
AcDbCircle
10
6.5375764214996925
20
8.9764706221847685
30
0
40
3.0418372974127612
210
0
220
-0
230
1
100
AcDbArc
50
3.7436599679491351
51
9.2017696994400122
0
ARC
5
177
100
AcDbEntity
8
0
100
AcDbCircle
10
-10.275695470976967
20
9.33708444244429
30
0
40
0.016055182035574787
210
0
220
0
230
-1
100
AcDbArc
50
99.881827340162687
51
196.18276758618529
0
ARC
5
178
100
AcDbEntity
8
0
100
AcDbCircle
10
10.095680207528359
20
12.651724936717807
30
0
40
0.73490949223654445
210
0
220
0
230
1
100
AcDbArc
50
182.98300576683968
51
194.93048784720003
0
ARC
5
179
100
AcDbEntity
8
0
100
AcDbCircle
10
10.478408743652409
20
9.6252129226445611
30
0
40
0.088499816682670818
210
0
220
0
230
1
100
AcDbArc
50
126.01932760909463
51
165.12451896803231
0
ARC
5
180
100
AcDbEntity
8
0
100
AcDbCircle
10
10.590459802241213
20
8.3964581861475835
30
0
40
0.44593768162154795
210
0
220
0
230
1
100
AcDbArc
50
169.64351612796926
51
192.6778417802478
0
ARC
5
181
100
AcDbEntity
8
0
100
AcDbCircle
10
10.632308455298039
20
16.503473093165546
30
0
40
1.3242686529191579
210
0
220
0
230
1
100
AcDbArc
50
172.92676636150614
51
181.75106790041804
0
ARC
5
182
100
AcDbEntity
8
0
100
AcDbCircle
10
9.3688565808767397
20
8.6618702349331862
30
0
40
0.12801759444419161
210
-0
220
0
230
1
100
AcDbArc
50
297.06735732018308
51
340.29539623203061
0
ARC
5
183
100
AcDbEntity
8
0
100
AcDbCircle
10
10.652478903545907
20
8.5477712680068905
30
0
40
0.47866605462167577
210
0
220
0
230
1
100
AcDbArc
50
164.28790023526469
51
177.83127399199367
0
ARC
5
184
100
AcDbEntity
8
0
100
AcDbCircle
10
10.235603689111448
20
12.641993074403008
30
0
40
0.34490644690798383
210
0
220
0
230
1
100
AcDbArc
50
200.58865936266952
51
223.26877695894714
0
ARC
5
185
100
AcDbEntity
8
0
100
AcDbCircle
10
-10.273262238804627
20
9.656652239901975
30
0
40
0.11450363843699524
210
0
220
-0
230
-1
100
AcDbArc
50
197.57504556217845
51
240.77278947915423
0
ARC
5
186
100
AcDbEntity
8
0
100
AcDbCircle
10
10.486300149136259
20
16.159715108355776
30
0
40
1.1311417012206153
210
0
220
0
230
1
100
AcDbArc
50
183.70269005583569
51
194.09268750267765
0
LINE
5
187
100
AcDbEntity
8
0
100
AcDbLine
10
9.427112207401473
20
8.9853307267138423
30
0
11
9.4270681074014728
21
8.8828843267138407
31
0
0
ARC
5
188
100
AcDbEntity
8
0
100
AcDbCircle
10
-9.8320022227690096
20
10.310145425762189
30
0
40
0.86485547716036471
210
0
220
-0
230
-1
100
AcDbArc
50
199.51433838071259
51
223.42179608943701
0
ARC
5
189
100
AcDbEntity
8
0
100
AcDbCircle
10
9.3543036730705182
20
15.080732125782163
30
0
40
0.046303316981578524
210
0
220
0
230
1
100
AcDbArc
50
108.49348586925916
51
184.65067929583489
0
ARC
5
190
100
AcDbEntity
8
0
100
AcDbCircle
10
-10.704540344129542
20
11.042437738094065
30
0
40
0.37577309854037044
210
0
220
0
230
-1
100
AcDbArc
50
45.994105310149564
51
68.185959552313278
0
LINE
5
191
100
AcDbEntity
8
0
100
AcDbLine
10
9.6011294074014728
20
7.6608271267138432
30
0
11
9.5952746074014765
21
7.650278126713844
31
0
0
ARC
5
192
100
AcDbEntity
8
0
100
AcDbCircle
10
-7.9312271604199713
20
6.8073525781903701
30
0
40
1.583479566807221
210
0
220
-0
230
-1
100
AcDbArc
50
190.72169583594922
51
197.83669089036448
0
ARC
5
193
100
AcDbEntity
8
0
100
AcDbCircle
10
9.71370253252379
20
6.27328516203759
30
0
40
0.27944486763842047
210
0
220
0
230
1
100
AcDbArc
50
169.89282882153526
51
196.79545591273788
0
ARC
5
194
100
AcDbEntity
8
0
100
AcDbCircle
10
9.992030583637602
20
7.0440332101239571
30
0
40
0.38296875217338666
210
0
220
0
230
1
100
AcDbArc
50
155.57360874975933
51
182.87782486034928
0
ARC
5
195
100
AcDbEntity
8
0
100
AcDbCircle
10
9.8312854108503256
20
6.446160956713368
30
0
40
0.35060668175352466
210
0
220
0
230
1
100
AcDbArc
50
144.44467254908992
51
169.04922977378479
0
ARC
5
196
100
AcDbEntity
8
0
100
AcDbCircle
10
-8.6153187514622029
20
7.0266903558758749
30
0
40
1.0040547610653188
210
0
220
-0
230
-1
100
AcDbArc
50
189.61824120647969
51
202.03262282355118
0
ARC
5
197
100
AcDbEntity
8
0
100
AcDbCircle
10
-7.7743264480291794
20
6.989225557734998
30
0
40
1.8355632310006924
210
0
220
0
230
-1
100
AcDbArc
50
178.88932118242812
51
184.07049781356156
0
LINE
5
198
100
AcDbEntity
8
0
100
AcDbLine
10
9.4461781074014741
20
6.192537926713845
30
0
11
9.4523140165811022
21
6.164784792168855
31
0
0
ARC
5
199
100
AcDbEntity
8
0
100
AcDbCircle
10
-9.9294846498014326
20
7.4815955409657198
30
0
40
0.21583271062382092
210
0
220
0
230
-1
100
AcDbArc
50
18.321151392066316
51
44.595186624029623
0
ARC
5
200
100
AcDbEntity
8
0
100
AcDbCircle
10
10.280817455719838
20
7.8666184052076833
30
0
40
0.38887813923153014
210
0
220
0
230
1
100
AcDbArc
50
131.13690208805022
51
143.86729102463207
0
ARC
5
201
100
AcDbEntity
8
0
100
AcDbCircle
10
-10.549801115838726
20
10.037765474898904
30
0
40
0.5088618252424898
210
0
220
0
230
-1
100
AcDbArc
50
19.514081551807095
51
36.690750038716573
0
ARC
5
202
100
AcDbEntity
8
0
100
AcDbCircle
10
10.290433530168464
20
10.674903653529428
30
0
40
0.25542863800058568
210
0
220
0
230
1
100
AcDbArc
50
167.3777400831051
51
193.27465518615426
0
ARC
5
203
100
AcDbEntity
8
0
100
AcDbCircle
10
-10.913741874656385
20
11.064741594839383
30
0
40
0.23287009917335361
210
0
220
-0
230
-1
100
AcDbArc
50
208.10774993789937
51
231.31017810006415
0
LINE
5
204
100
AcDbEntity
8
0
100
AcDbLine
10
9.5580682074014724
20
10.923965326713837
30
0
11
9.555239507401474
21
10.911539626713838
31
0
0
ARC
5
205
100
AcDbEntity
8
0
100
AcDbCircle
10
-1.5962869164435769
20
10.896553974866231
30
0
40
7.9487169588054263
210
0
220
-0
230
-1
100
AcDbArc
50
186.16448736035196
51
188.44501329569272
0
ARC
5
206
100
AcDbEntity
8
0
100
AcDbCircle
10
-8.7589473892132439
20
13.464802356450116
30
0
40
0.85774062892017033
210
0
220
0
230
-1
100
AcDbArc
50
169.05833632861734
51
180.17301702031796
0
LINE
5
207
100
AcDbEntity
8
0
100
AcDbLine
10
9.8208447074014735
20
11.47897712671384
30
0
11
9.7308590074014738
21
11.556101726713839
31
0
0
ARC
5
208
100
AcDbEntity
8
0
100
AcDbCircle
10
-10.257588280934844
20
9.9074032481243322
30
0
40
0.22769100755328781
210
-0
220
0
230
-1
100
AcDbArc
50
-14.078770788562618
51
16.741191528741652
0
ARC
5
209
100
AcDbEntity
8
0
100
AcDbCircle
10
-10.241344658672523
20
11.253664172439706
30
0
40
0.41323361425265104
210
0
220
0
230
-1
100
AcDbArc
50
171.23319943033209
51
187.13699483918558
0
ARC
5
210
100
AcDbEntity
8
0
100
AcDbCircle
10
10.328670204801359
20
9.9689499652747333
30
0
40
0.39469894044814779
210
0
220
0
230
1
100
AcDbArc
50
167.83493074175854
51
187.36866839690754
0
ARC
5
211
100
AcDbEntity
8
0
100
AcDbCircle
10
-11.866206547825467
20
10.449345979286933
30
0
40
2.0554954725594885
210
0
220
0
230
-1
100
AcDbArc
50
4.1895403850934141
51
8.664688641958632
0
LINE
5
212
100
AcDbEntity
8
0
100
AcDbLine
10
9.4705374074014745
20
13.506096626713834
30
0
11
9.2963284074014751
21
13.578680326713837
31
0
0
LINE
5
213
100
AcDbEntity
8
0
100
AcDbLine
10
10.637465407401473
20
10.939646726713839
30
0
11
10.608303407401472
21
10.79359382671384
31
0
0
LINE
5
214
100
AcDbEntity
8
0
100
AcDbLine
10
11.059309907401472
20
10.882976826713838
30
0
11
11.013328307401471
21
10.840440626713837
31
0
0
ARC
5
215
100
AcDbEntity
8
0
100
AcDbCircle
10
-9.5607752239262016
20
9.9173649287896577
30
0
40
0.37645691671397552
210
0
220
0
230
-1
100
AcDbArc
50
179.85334270127794
51
202.59654955832505
0
ARC
5
216
100
AcDbEntity
8
0
100
AcDbCircle
10
10.292390912140139
20
13.126912526554216
30
0
40
1.5036621579517435
210
0
220
0
230
1
100
AcDbArc
50
237.54011891749903
51
246.81673649167365
0
LINE
5
217
100
AcDbEntity
8
0
100
AcDbLine
10
11.074732307401474
20
11.114454226713837
30
0
11
11.07504450740147
21
11.113935526713837
31
0
0
LINE
5
218
100
AcDbEntity
8
0
100
AcDbLine
10
9.3944096074014727
20
12.421906526713837
30
0
11
9.4035215074014733
21
12.381498326713837
31
0
0
ARC
5
219
100
AcDbEntity
8
0
100
AcDbCircle
10
11.297977186147547
20
10.503788471632655
30
0
40
0.4408624022211502
210
0
220
0
230
1
100
AcDbArc
50
130.21546059520372
51
154.68679705256929
0
LINE
5
220
100
AcDbEntity
8
0
100
AcDbLine
10
10.382573007401474
20
11.015428026713838
30
0
11
10.385618707401472
21
11.031810826713839
31
0
0
ARC
5
221
100
AcDbEntity
8
0
100
AcDbCircle
10
-10.543879882693501
20
10.777713869709578
30
0
40
0.70740844533145164
210
0
220
0
230
-1
100
AcDbArc
50
23.385331974714116
51
35.359784069783004
0
LINE
5
222
100
AcDbEntity
8
0
100
AcDbLine
10
10.477976007401471
20
11.887891226713839
30
0
11
10.476435307401472
21
11.887602826713836
31
0
0
ARC
5
223
100
AcDbEntity
8
0
100
AcDbCircle
10
9.8733964025844614
20
10.004866565871252
30
0
40
0.16918168140649367
210
-0
220
0
230
1
100
AcDbArc
50
-10.860566287183667
51
13.963496869386823
0
ARC
5
224
100
AcDbEntity
8
0
100
AcDbCircle
10
-8.8543569026952085
20
11.089481177422059
30
0
40
0.74669752908954723
210
0
220
0
230
-1
100
AcDbArc
50
169.09799570884877
51
182.20647857512003
0
ARC
5
225
100
AcDbEntity
8
0
100
AcDbCircle
10
-10.358774182178703
20
10.820103880703492
30
0
40
0.10061507319728222
210
0
220
0
230
-1
100
AcDbArc
50
4.0511455595095365
51
59.722626013120518
0
LINE
5
226
100
AcDbEntity
8
0
100
AcDbLine
10
10.023355407401471
20
11.435583426713839
30
0
11
9.8208447074014735
21
11.47897712671384
31
0
0
ARC
5
227
100
AcDbEntity
8
0
100
AcDbCircle
10
13.183989107865106
20
14.557397843721308
30
0
40
4.442446470441948
210
0
220
0
230
1
100
AcDbArc
50
221.88788788130492
51
224.64597355070418
0
ARC
5
228
100
AcDbEntity
8
0
100
AcDbCircle
10
9.5866160593692467
20
11.983558540423875
30
0
40
0.1614855303816056
210
0
220
0
230
1
100
AcDbArc
50
177.30068336213017
51
226.08784124853921
0
ARC
5
229
100
AcDbEntity
8
0
100
AcDbCircle
10
-8.9465043835552134
20
12.991712378910346
30
0
40
0.81763777094745904
210
0
220
0
230
-1
100
AcDbArc
50
164.20073310163764
51
178.9710404874788
0
ARC
5
230
100
AcDbEntity
8
0
100
AcDbCircle
10
-11.499665170199362
20
10.933091440187678
30
0
40
1.1184118376289636
210
0
220
0
230
-1
100
AcDbArc
50
5.0639438923980862
51
17.221463291884394
0
LINE
5
231
100
AcDbEntity
8
0
100
AcDbLine
10
9.9844613074014745
20
12.405586726713837
30
0
11
9.9931063074014723
21
12.399372126713837
31
0
0
LINE
5
232
100
AcDbEntity
8
0
100
AcDbLine
10
9.2963284074014751
20
13.578680326713837
30
0
11
9.2959714074014741
21
13.578361126713833
31
0
0
ARC
5
233
100
AcDbEntity
8
0
100
AcDbCircle
10
9.7716533776485814
20
11.845649697932744
30
0
40
0.4774872643680072
210
0
220
-0
230
1
100
AcDbArc
50
58.010069637922442
51
73.515815585054156
0
ARC
5
234
100
AcDbEntity
8
0
100
AcDbCircle
10
-10.664449292556837
20
10.545595359559989
30
0
40
0.46446431598392451
210
0
220
0
230
-1
100
AcDbArc
50
12.81173916853432
51
25.288046442875558
0
ARC
5
235
100
AcDbEntity
8
0
100
AcDbCircle
10
-9.3076261443500599
20
12.372479393345929
30
0
40
0.096318543457930741
210
0
220
0
230
-1
100
AcDbArc
50
174.62715157371102
51
201.20626231611149
0
ARC
5
236
100
AcDbEntity
8
0
100
AcDbCircle
10
16.897496162773127
20
15.382191216812942
30
0
40
7.5044003702589919
210
0
220
0
230
1
100
AcDbArc
50
190.99077478347601
51
193.5213119304623
0
ARC
5
237
100
AcDbEntity
8
0
100
AcDbCircle
10
5.5481915124236059
20
9.9527338984017621
30
0
40
4.8937034484895259
210
0
220
-0
230
1
100
AcDbArc
50
32.914547370145797
51
35.65636338080779
0
LINE
5
238
100
AcDbEntity
8
0
100
AcDbLine
10
9.3855819074014768
20
12.462377726713838
30
0
11
9.3944096074014727
21
12.421906526713837
31
0
0
ARC
5
239
100
AcDbEntity
8
0
100
AcDbCircle
10
9.915088179432491
20
9.7875505116378996
30
0
40
0.13767409180540688
210
-0
220
0
230
1
100
AcDbArc
50
-1.276450031230737
51
27.920628956853712
0
ARC
5
240
100
AcDbEntity
8
0
100
AcDbCircle
10
11.657704115705853
20
11.235576783202669
30
0
40
0.5952216515127764
210
0
220
0
230
1
100
AcDbArc
50
191.79220967832197
51
204.94409456675263
0
ARC
5
241
100
AcDbEntity
8
0
100
AcDbCircle
10
-10.449628501249505
20
11.906864697010972
30
0
40
0.03411119581826489
210
0
220
0
230
-1
100
AcDbArc
50
129.29333053374245
51
213.79507142965977
0
ARC
5
242
100
AcDbEntity
8
0
100
AcDbCircle
10
10.467130461629074
20
10.288354773711905
30
0
40
0.47514485927356659
210
0
220
0
230
1
100
AcDbArc
50
158.98285054594461
51
177.30631784817808
0
ARC
5
243
100
AcDbEntity
8
0
100
AcDbCircle
10
-9.5427271029612193
20
11.018286935195029
30
0
40
0.53024585994614437
210
0
220
0
230
-1
100
AcDbArc
50
172.90446227333879
51
199.80708936454013
0
ARC
5
244
100
AcDbEntity
8
0
100
AcDbCircle
10
10.119337501912774
20
12.64486941127465
30
0
40
0.24104966078920523
210
0
220
0
230
1
100
AcDbArc
50
180.7225304193031
51
211.00419601085943
0
LINE
5
245
100
AcDbEntity
8
0
100
AcDbLine
10
10.308045407401474
20
10.906994526713838
30
0
11
10.329426207401475
21
10.92316872671384
31
0
0
ARC
5
246
100
AcDbEntity
8
0
100
AcDbCircle
10
11.032708535135965
20
12.47398049193138
30
0
40
0.77950737699259198
210
0
220
0
230
1
100
AcDbArc
50
211.82851274413937
51
223.92089760432782
0
ARC
5
247
100
AcDbEntity
8
0
100
AcDbCircle
10
-17.016698242784088
20
8.4588893907864442
30
0
40
7.5418337513338001
210
0
220
0
230
-1
100
AcDbArc
50
17.757054620974916
51
18.795247044242753
0
ARC
5
248
100
AcDbEntity
8
0
100
AcDbCircle
10
-9.6330593575869834
20
10.265384441220545
30
0
40
0.36229452924249284
210
0
220
0
230
-1
100
AcDbArc
50
172.81708129951332
51
200.32914467777346
0
ARC
5
249
100
AcDbEntity
8
0
100
AcDbCircle
10
9.8443225470642464
20
10.219169402928914
30
0
40
0.226134830635697
210
-0
220
0
230
1
100
AcDbArc
50
339.99676196337197
51
357.10414783280896
0
ARC
5
250
100
AcDbEntity
8
0
100
AcDbCircle
10
11.053912941977369
20
11.226924840564584
30
0
40
0.14151461231350143
210
0
220
0
230
1
100
AcDbArc
50
143.27823500626394
51
180.14887844499003
0
ARC
5
251
100
AcDbEntity
8
0
100
AcDbCircle
10
-10.045364733102598
20
10.83366149026824
30
0
40
0.00621663184547986
210
0
220
0
230
-1
100
AcDbArc
50
52.763478294012558
51
162.93956993326395
0
LINE
5
252
100
AcDbEntity
8
0
100
AcDbLine
10
9.5896403074014724
20
11.650909026713839
30
0
11
9.5775191074014732
21
11.653680326713836
31
0
0
ARC
5
253
100
AcDbEntity
8
0
100
AcDbCircle
10
-10.17019361571419
20
10.270888026829201
30
0
40
0.53836368842837423
210
0
220
-0
230
-1
100
AcDbArc
50
193.76168508448606
51
207.62636786522285
0
LINE
5
254
100
AcDbEntity
8
0
100
AcDbLine
10
9.8770253074014764
20
10.888771426713838
30
0
11
9.8785674074014747
21
10.899161526713838
31
0
0
ARC
5
255
100
AcDbEntity
8
0
100
AcDbCircle
10
-10.342718343712551
20
12.594453640392796
30
0
40
0.46841106568293611
210
-0
220
0
230
-1
100
AcDbArc
50
296.47757893317862
51
312.77476720681602
0
ARC
5
256
100
AcDbEntity
8
0
100
AcDbCircle
10
-10.431405248139994
20
10.924070760549693
30
0
40
0.55339872432335602
210
-0
220
0
230
-1
100
AcDbArc
50
-2.5798330719255915
51
14.057989995261343
0
ARC
5
257
100
AcDbEntity
8
0
100
AcDbCircle
10
-8.9242614777549001
20
11.195572384091262
30
0
40
0.6895515674425704
210
0
220
-0
230
-1
100
AcDbArc
50
191.27667254362632
51
203.19672715071223
0
ARC
5
258
100
AcDbEntity
8
0
100
AcDbCircle
10
10.251516033817587
20
10.856736783299777
30
0
40
0.69842991980896318
210
0
220
0
230
1
100
AcDbArc
50
175.49961624807784
51
194.94143177085911
0
ARC
5
259
100
AcDbEntity
8
0
100
AcDbCircle
10
10.89342385488259
20
12.55598781386494
30
0
40
0.71881033204410949
210
0
220
0
230
1
100
AcDbArc
50
213.42329424370217
51
223.31419269502274
0
ARC
5
260
100
AcDbEntity
8
0
100
AcDbCircle
10
-9.2369616659538991
20
10.643066419919556
30
0
40
0.34139523344844708
210
0
220
0
230
-1
100
AcDbArc
50
174.35298825933413
51
193.26522021643672
0
LINE
5
261
100
AcDbEntity
8
0
100
AcDbLine
10
10.436435907401471
20
11.301784726713839
30
0
11
10.443478607401476
21
11.312719426713837
31
0
0
ARC
5
262
100
AcDbEntity
8
0
100
AcDbCircle
10
-9.650725894777235
20
10.773078318454115
30
0
40
0.52097833844407437
210
0
220
0
230
-1
100
AcDbArc
50
127.37350164919728
51
143.38814082037806
0
ARC
5
263
100
AcDbEntity
8
0
100
AcDbCircle
10
9.2476091075995335
20
9.8755946489343849
30
0
40
0.3421155749746716
210
-0
220
0
230
1
100
AcDbArc
50
-16.92448431741807
51
0.92387823055036533
0
LINE
5
264
100
AcDbEntity
8
0
100
AcDbLine
10
10.644909207401472
20
11.326783826713838
30
0
11
10.649750407401475
21
11.316646426713838
31
0
0
LINE
5
265
100
AcDbEntity
8
0
100
AcDbLine
10
9.7911605074014751
20
12.383275626713836
30
0
11
9.7813822074014745
21
12.388727926713836
31
0
0
ARC
5
266
100
AcDbEntity
8
0
100
AcDbCircle
10
9.7806892020125726
20
13.690086707039995
30
0
40
0.49742732706583725
210
0
220
0
230
1
100
AcDbArc
50
192.97976005662056
51
213.08991397630217
0
ARC
5
267
100
AcDbEntity
8
0
100
AcDbCircle
10
9.483611863162988
20
13.51493321251513
30
0
40
0.15368370968395101
210
0
220
0
230
1
100
AcDbArc
50
218.85761376758725
51
260.36108402130372
0
ARC
5
268
100
AcDbEntity
8
0
100
AcDbCircle
10
9.5657567806562671
20
12.315801411444896
30
0
40
0.1697448569322213
210
0
220
0
230
1
100
AcDbArc
50
172.60863689187389
51
195.22407306881826
0
ARC
5
269
100
AcDbEntity
8
0
100
AcDbCircle
10
-8.8626406042626318
20
10.471173700249553
30
0
40
1.1586289078002354
210
0
220
-0
230
-1
100
AcDbArc
50
196.63344990838334
51
201.2032139397671
0
ARC
5
270
100
AcDbEntity
8
0
100
AcDbCircle
10
-8.6875141420456536
20
10.668600728182545
30
0
40
0.8878307913357798
210
0
220
-0
230
-1
100
AcDbArc
50
186.71862500558066
51
200.5061254758819
0
ARC
5
271
100
AcDbEntity
8
0
100
AcDbCircle
10
-9.9372060775779349
20
11.978591169532452
30
0
40
0.39983086133951201
210
0
220
0
230
-1
100
AcDbArc
50
112.67999224578007
51
153.00932054093269
0
ARC
5
272
100
AcDbEntity
8
0
100
AcDbCircle
10
10.694766377744884
20
11.097792538284176
30
0
40
0.07104820477969416
210
0
220
0
230
1
100
AcDbArc
50
184.00536728929887
51
216.24382290069099
0
ARC
5
273
100
AcDbEntity
8
0
100
AcDbCircle
10
11.056586406467767
20
11.042411867104143
30
0
40
0.43562216799799869
210
0
220
0
230
1
100
AcDbArc
50
158.46391967583159
51
173.35381686596784
0
ARC
5
274
100
AcDbEntity
8
0
100
AcDbCircle
10
9.7637884999049458
20
12.296497471923873
30
0
40
0.090992719176541531
210
0
220
-0
230
1
100
AcDbArc
50
49.506737211081195
51
72.493417945055754
0
LINE
5
275
100
AcDbEntity
8
0
100
AcDbLine
10
9.5737321074014741
20
13.243334826713836
30
0
11
9.7332530074014745
21
13.214328926713838
31
0
0
ARC
5
276
100
AcDbEntity
8
0
100
AcDbCircle
10
-8.5928763771551502
20
12.062792240584722
30
0
40
0.8355093701629257
210
0
220
0
230
-1
100
AcDbArc
50
165.5538083497303
51
184.91803125075677
0
ARC
5
277
100
AcDbEntity
8
0
100
AcDbCircle
10
-9.8947709706641191
20
12.501166066167093
30
0
40
0.1596851490838847
210
-0
220
0
230
-1
100
AcDbArc
50
315.24118654514768
51
344.19741672312819
0
ARC
5
278
100
AcDbEntity
8
0
100
AcDbCircle
10
-9.7933366364260177
20
10.049518741249026
30
0
40
0.17708718122432976
210
-0
220
0
230
-1
100
AcDbArc
50
-3.0947022837091702
51
41.336811200529141
0
ARC
5
279
100
AcDbEntity
8
0
100
AcDbCircle
10
10.122074216761904
20
12.832053937439827
30
0
40
0.30693589566168178
210
0
220
0
230
1
100
AcDbArc
50
190.68242073058377
51
216.84833405929783
0
ARC
5
280
100
AcDbEntity
8
0
100
AcDbCircle
10
2.3386215140562148
20
11.092421222288669
30
0
40
11.79884320414663
210
0
220
0
230
-1
100
AcDbArc
50
170.86114182462964
51
172.59304567958671
0
LINE
5
281
100
AcDbEntity
8
0
100
AcDbLine
10
10.695799907401469
20
10.72075392671384
30
0
11
10.695799207401469
21
10.836785926713839
31
0
0
LINE
5
282
100
AcDbEntity
8
0
100
AcDbLine
10
9.5725001074014724
20
11.65396732671384
30
0
11
9.5000375074014727
21
11.65396732671384
31
0
0
ARC
5
283
100
AcDbEntity
8
0
100
AcDbCircle
10
11.044916923735961
20
10.49315675574659
30
0
40
0.23525289021653745
210
0
220
0
230
1
100
AcDbArc
50
145.82033600833975
51
163.50103121158725
0
ARC
5
284
100
AcDbEntity
8
0
100
AcDbCircle
10
-9.8412969525651643
20
10.802919139269871
30
0
40
0.2125208594790455
210
0
220
0
230
-1
100
AcDbArc
50
171.18540261594973
51
199.86011003240128
0
ARC
5
285
100
AcDbEntity
8
0
100
AcDbCircle
10
9.0773705949300645
20
12.433890349561951
30
0
40
0.58128957321105235
210
0
220
-0
230
1
100
AcDbArc
50
39.723653552247569
51
66.361100090847842
0
ARC
5
286
100
AcDbEntity
8
0
100
AcDbCircle
10
8.8533623634764353
20
10.860830779204527
30
0
40
1.3890105550611356
210
-0
220
0
230
1
100
AcDbArc
50
338.05826664941833
51
346.56163984211332
0
ARC
5
287
100
AcDbEntity
8
0
100
AcDbCircle
10
6.3226860806974043
20
10.514557511900282
30
0
40
3.3278379167566494
210
-0
220
0
230
1
100
AcDbArc
50
349.02691862021038
51
351.80081562146933
0
LINE
5
288
100
AcDbEntity
8
0
100
AcDbLine
10
9.5190873074014757
20
10.357586926713839
30
0
11
9.4855538074014749
21
10.26894102671384
31
0
0
LINE
5
289
100
AcDbEntity
8
0
100
AcDbLine
10
9.8764562074014748
20
12.647984826713836
30
0
11
9.8783070074014745
21
12.641829726713839
31
0
0
ARC
5
290
100
AcDbEntity
8
0
100
AcDbCircle
10
-10.463058737382694
20
11.183151883449295
30
0
40
0.23173201887525002
210
0
220
0
230
-1
100
AcDbArc
50
116.07194160968606
51
141.697070854998
0
ARC
5
291
100
AcDbEntity
8
0
100
AcDbCircle
10
8.8619070130947701
20
10.657838511001643
30
0
40
0.93753844734502489
210
-0
220
0
230
1
100
AcDbArc
50
328.39285671542495
51
347.31829091856775
0
LINE
5
292
100
AcDbEntity
8
0
100
AcDbLine
10
10.637447207401472
20
10.61860712671384
30
0
11
10.695799907401469
21
10.72075392671384
31
0
0
LINE
5
293
100
AcDbEntity
8
0
100
AcDbLine
10
11.121931207401474
20
10.970327026713838
30
0
11
11.119148007401472
21
10.955029226713838
31
0
0
ARC
5
294
100
AcDbEntity
8
0
100
AcDbCircle
10
-10.324231694207434
20
12.132346932718789
30
0
40
0.12712594631465776
210
-0
220
0
230
-1
100
AcDbArc
50
318.42033327297878
51
348.96274702235581
0
LINE
5
295
100
AcDbEntity
8
0
100
AcDbLine
10
9.6166841074014755
20
13.462212226713836
30
0
11
9.4705374074014745
21
13.506096626713834
31
0
0
LINE
5
296
100
AcDbEntity
8
0
100
AcDbLine
10
9.5775191074014732
20
11.653680326713836
30
0
11
9.5725001074014724
21
11.65396732671384
31
0
0
ARC
5
297
100
AcDbEntity
8
0
100
AcDbCircle
10
8.6965347759941416
20
11.093854636359668
30
0
40
2.0157238372776756
210
-0
220
0
230
1
100
AcDbArc
50
352.67301749382671
51
357.99529680273554
0
ARC
5
298
100
AcDbEntity
8
0
100
AcDbCircle
10
-10.567671337177041
20
10.884259706063332
30
0
40
0.38331094585763797
210
0
220
-0
230
-1
100
AcDbArc
50
210.05488583285054
51
222.49577459597273
0
ARC
5
299
100
AcDbEntity
8
0
100
AcDbCircle
10
-9.3561830076119108
20
7.6685022667091092
30
0
40
0.48881445727353368
210
0
220
-0
230
-1
100
AcDbArc
50
184.12610692601572
51
210.42615299865415
0
LINE
5
300
100
AcDbEntity
8
0
100
AcDbLine
10
9.5875067074014737
20
7.5416542267138444
30
0
11
9.5330278074014743
21
7.4326985267138443
31
0
0
LINE
5
301
100
AcDbEntity
8
0
100
AcDbLine
10
9.5330278074014743
20
7.4326985267138443
30
0
11
9.5264506074014736
21
7.4190800267138437
31
0
0
LINE
5
302
100
AcDbEntity
8
0
100
AcDbLine
10
9.839448607401474
20
7.7070110267138441
30
0
11
9.843995107401474
21
7.708153426713845
31
0
0
LINE
5
303
100
AcDbEntity
8
0
100
AcDbLine
10
9.843995107401474
20
7.708153426713845
30
0
11
9.8467237074014715
21
7.7024456267138426
31
0
0
ARC
5
304
100
AcDbEntity
8
0
100
AcDbCircle
10
-9.5667191486100869
20
7.6799499560098585
30
0
40
0.28090676058859887
210
0
220
0
230
-1
100
AcDbArc
50
175.40670134561233
51
189.55291289182134
0
ARC
5
305
100
AcDbEntity
8
0
100
AcDbCircle
10
-9.7438405769158329
20
8.5537650405063346
30
0
40
0.48424314574123939
210
0
220
-0
230
-1
100
AcDbArc
50
211.80022020323605
51
234.50757099753486
0
LINE
5
306
100
AcDbEntity
8
0
100
AcDbLine
10
9.9667387074014737
20
8.0959233267138444
30
0
11
9.8937546074014744
21
7.9208393267138435
31
0
0
LINE
5
307
100
AcDbEntity
8
0
100
AcDbLine
10
9.8252106074014733
20
7.688115926713845
30
0
11
9.839448607401474
21
7.7070110267138441
31
0
0
ARC
5
308
100
AcDbEntity
8
0
100
AcDbCircle
10
7.200204507180346
20
9.5359869600005016
30
0
40
3.2140951718387396
210
-0
220
0
230
1
100
AcDbArc
50
317.21195185268948
51
321.56109610956156
0
ARC
5
309
100
AcDbEntity
8
0
100
AcDbCircle
10
-9.5763517018653079
20
7.7555643226165261
30
0
40
0.092661412198051227
210
0
220
-0
230
-1
100
AcDbArc
50
232.38704902270831
51
249.52884868987601
0
ARC
5
310
100
AcDbEntity
8
0
100
AcDbCircle
10
-10.909450966143968
20
6.6639793587295593
30
0
40
1.4914532729551684
210
0
220
0
230
-1
100
AcDbArc
50
40.526753438341181
51
43.367103572876154
0
ARC
5
311
100
AcDbEntity
8
0
100
AcDbCircle
10
10.519629564854418
20
6.7957237717902528
30
0
40
1.2874798927741533
210
0
220
0
230
1
100
AcDbArc
50
119.08614428407365
51
128.48311220858918
0
ARC
5
312
100
AcDbEntity
8
0
100
AcDbCircle
10
9.5667991192368937
20
7.3976804028315515
30
0
40
0.045672161210485125
210
0
220
0
230
1
100
AcDbArc
50
152.05988050351414
51
260.08836256128006
0
LINE
5
313
100
AcDbEntity
8
0
100
AcDbLine
10
9.6087587074014724
20
7.6687546267138442
30
0
11
9.6011294074014728
21
7.6608271267138432
31
0
0
ARC
5
314
100
AcDbEntity
8
0
100
AcDbCircle
10
9.8380151981937534
20
7.5783295905627268
30
0
40
0.2531789609593833
210
0
220
0
230
1
100
AcDbArc
50
163.49012769859405
51
188.32914006514019
0
ARC
5
315
100
AcDbEntity
8
0
100
AcDbCircle
10
-9.3295336755365579
20
7.9867937760548982
30
0
40
0.42992388320191965
210
0
220
-0
230
-1
100
AcDbArc
50
205.22782030129127
51
225.11872003121709
0
LINE
5
316
100
AcDbEntity
8
0
100
AcDbLine
10
9.7177137074014741
20
7.537849026713844
30
0
11
9.7245926074014726
21
7.5494410267138443
31
0
0
ARC
5
317
100
AcDbEntity
8
0
100
AcDbCircle
10
-10.32667538145378
20
9.4755615935907986
30
0
40
0.78650806252943395
210
-0
220
0
230
-1
100
AcDbArc
50
-0.92271225215181008
51
8.097629048784869
0
ARC
5
318
100
AcDbEntity
8
0
100
AcDbCircle
10
9.9484481836026486
20
9.7356642909171835
30
0
40
0.1101646164493804
210
-0
220
0
230
1
100
AcDbArc
50
279.50570443298
51
322.1147159419279
0
ARC
5
319
100
AcDbEntity
8
0
100
AcDbCircle
10
-10.301926185019504
20
9.1341800235269641
30
0
40
0.21997760241976094
210
0
220
0
230
-1
100
AcDbArc
50
58.015444811148171
51
83.873893403006093
0
ARC
5
320
100
AcDbEntity
8
0
100
AcDbCircle
10
-9.6272358078232347
20
8.7041196205061127
30
0
40
0.14777360069013171
210
-0
220
0
230
-1
100
AcDbArc
50
-13.418882020539295
51
35.002059441830767
0
LINE
5
321
100
AcDbEntity
8
0
100
AcDbLine
10
9.9083328074014752
20
9.7727152267138404
30
0
11
9.9083328074014752
21
9.6856422267138385
31
0
0
ARC
5
322
100
AcDbEntity
8
0
100
AcDbCircle
10
-11.270105968163055
20
9.570420852828164
30
0
40
1.2360549045394689
210
0
220
0
230
-1
100
AcDbArc
50
4.9431320624117765
51
9.9728938234879294
0
LINE
5
323
100
AcDbEntity
8
0
100
AcDbLine
10
9.9083328074014752
20
9.6856422267138385
30
0
11
9.9086506074014729
21
9.6849996267138412
31
0
0
LINE
5
324
100
AcDbEntity
8
0
100
AcDbLine
10
9.4417268074014729
20
9.1458477267138427
30
0
11
9.427112207401473
21
8.9853307267138423
31
0
0
ARC
5
325
100
AcDbEntity
8
0
100
AcDbCircle
10
10.983517981160075
20
9.3213178168245818
30
0
40
0.71178378615449989
210
0
220
0
230
1
100
AcDbArc
50
193.11317958028815
51
196.78735770908523
0
ARC
5
326
100
AcDbEntity
8
0
100
AcDbCircle
10
-7.9875459972649505
20
8.3707380845265664
30
0
40
2.0264915953845022
210
0
220
-0
230
-1
100
AcDbArc
50
207.94892746246325
51
215.20702116339373
0
ARC
5
327
100
AcDbEntity
8
0
100
AcDbCircle
10
9.276143732461648
20
8.9065584915568863
30
0
40
0.25839624122853405
210
-0
220
0
230
1
100
AcDbArc
50
332.90897329735748
51
354.63144112274728
0
ARC
5
328
100
AcDbEntity
8
0
100
AcDbCircle
10
-10.388789890858341
20
9.8037220414602544
30
0
40
0.11333893158114706
210
0
220
-0
230
-1
100
AcDbArc
50
230.97279399041409
51
250.63803304234008
0
LINE
5
329
100
AcDbEntity
8
0
100
AcDbLine
10
9.485240207401473
20
9.2618965267138407
30
0
11
9.4417268074014729
21
9.1458477267138427
31
0
0
ARC
5
330
100
AcDbEntity
8
0
100
AcDbCircle
10
-9.8899339450469359
20
8.9093310295860846
30
0
40
0.37801026892800227
210
0
220
-0
230
-1
100
AcDbArc
50
200.20089439047044
51
215.62336877819411
0
ARC
5
331
100
AcDbEntity
8
0
100
AcDbCircle
10
9.8576241790900223
20
9.6106780710584996
30
0
40
0.41604656113914285
210
0
220
0
230
1
100
AcDbArc
50
163.44796345834737
51
200.22101700166934
0
ARC
5
332
100
AcDbEntity
8
0
100
AcDbCircle
10
-10.077368965356069
20
9.5734987583144964
30
0
40
0.54173313165159065
210
0
220
0
230
-1
100
AcDbArc
50
8.5102997271248242
51
21.950441300440136
0
ARC
5
333
100
AcDbEntity
8
0
100
AcDbCircle
10
-9.5906000250060561
20
11.24279308588096
30
0
40
0.012461129779312395
210
0
220
-0
230
-1
100
AcDbArc
50
221.0738958236644
51
284.03458326117857
0
ARC
5
334
100
AcDbEntity
8
0
100
AcDbCircle
10
10.25600497979802
20
11.026901181789482
30
0
40
0.1270869737574174
210
-0
220
0
230
1
100
AcDbArc
50
305.29063773750994
51
354.82040081757219
0
ARC
5
335
100
AcDbEntity
8
0
100
AcDbCircle
10
10.033677496270762
20
10.822027699454217
30
0
40
0.22479280135495858
210
-0
220
0
230
1
100
AcDbArc
50
-20.310554438422425
51
1.3215121129435996
0
ARC
5
336
100
AcDbEntity
8
0
100
AcDbCircle
10
-10.744360948252023
20
11.241341807633596
30
0
40
0.31380117471060076
210
0
220
0
230
-1
100
AcDbArc
50
4.1800423439062104
51
11.105451783777491
0
ARC
5
337
100
AcDbEntity
8
0
100
AcDbCircle
10
-9.4262850632859809
20
11.283073122486975
30
0
40
0.18034379867006872
210
0
220
0
230
-1
100
AcDbArc
50
167.91000859903482
51
195.58989806770307
0
ARC
5
338
100
AcDbEntity
8
0
100
AcDbCircle
10
-9.3755563301391458
20
11.389058128347536
30
0
40
5.2248371872753552
210
0
220
-0
230
-1
100
AcDbArc
50
269.1582417727908
51
270.12774721717716
0
SPLINE
5
339
100
AcDbEntity
8
0
100
AcDbSpline
70
0
71
3
72
9
73
5
74
0
42
0.000000001
43
0.0000000001
44
0.0000000001
40
0
40
0
40
0
40
0
40
0.098920659186050724
40
0.1995589470874185
40
0.1995589470874185
40
0.1995589470874185
40
0.1995589470874185
10
6.0297430393431162
20
14.396748437329149
30
0
10
6.0490017591313849
20
14.394097203627709
30
0
10
6.0878536013534434
20
14.388748700996452
30
0
10
6.1044500839072899
20
14.353158338958487
30
0
10
6.1128197491805407
20
14.335209992599847
30
0
0
SPLINE
5
340
100
AcDbEntity
8
0
100
AcDbSpline
70
0
71
3
72
9
73
5
74
0
42
0.000000001
43
0.0000000001
44
0.0000000001
40
0
40
0
40
0
40
0
40
0.077013204644715033
40
0.1138880040284819
40
0.1138880040284819
40
0.1138880040284819
40
0.1138880040284819
10
6.1128197491805407
20
14.335209992599847
30
0
10
6.1172350728953182
20
14.321764058039845
30
0
10
6.1237645038849182
20
14.301880056894831
30
0
10
6.13118613788426
20
14.282314247210874
30
0
10
6.1335891237576199
20
14.275979205052293
30
0
0
SPLINE
5
341
100
AcDbEntity
8
0
100
AcDbSpline
70
0
71
3
72
9
73
5
74
0
42
0.000000001
43
0.0000000001
44
0.0000000001
40
0
40
0
40
0
40
0
40
0.019469718702697401
40
0.045788024163913976
40
0.045788024163913976
40
0.045788024163913976
40
0.045788024163913976
10
6.1335891237576199
20
14.275979205052293
30
0
10
6.135559402069477
20
14.272955185231583
30
0
10
6.1401930155453863
20
14.26584342903535
30
0
10
6.1472341914446753
20
14.261044982626339
30
0
10
6.1512813592687392
20
14.258286903835266
30
0
0
SPLINE
5
342
100
AcDbEntity
8
0
100
AcDbSpline
70
0
71
3
72
9
73
5
74
0
42
0.000000001
43
0.0000000001
44
0.0000000001
40
0
40
0
40
0
40
0
40
0.063130904587855891
40
0.14797912977976574
40
0.14797912977976574
40
0.14797912977976574
40
0.14797912977976574
10
6.1512813592687392
20
14.258286903835266
30
0
10
6.1617301509595981
20
14.252931158888938
30
0
10
6.1862221665858206
20
14.240377268181142
30
0
10
6.2138828261760288
20
14.240026504387377
30
0
10
6.2297428861544857
20
14.239825383557656
30
0
0
LINE
5
343
100
AcDbEntity
8
0
100
AcDbLine
10
6.2297428861544848
20
14.239825383557655
30
0
11
7.769742968155458
21
14.239825383557655
31
0
0
SPLINE
5
344
100
AcDbEntity
8
0
100
AcDbSpline
70
0
71
3
72
9
73
5
74
0
42
0.000000001
43
0.0000000001
44
0.0000000001
40
0
40
0
40
0
40
0
40
0.084848485975945617
40
0.14797929569294632
40
0.14797929569294632
40
0.14797929569294632
40
0.14797929569294632
10
7.769742968155458
20
14.239825383557656
30
0
10
7.785603066410518
20
14.240026566878509
30
0
10
7.813263738753804
20
14.240377438974605
30
0
10
7.837755829942787
20
14.252931219814094
30
0
10
7.8482046264530174
20
14.258286903835266
30
0
0
SPLINE
5
345
100
AcDbEntity
8
0
100
AcDbSpline
70
0
71
3
72
9
73
5
74
0
42
0.000000001
43
0.0000000001
44
0.0000000001
40
0
40
0
40
0
40
0
40
0.026318305461216572
40
0.045788024163913976
40
0.045788024163913976
40
0.045788024163913976
40
0.045788024163913976
10
7.8482046264530174
20
14.258286903835266
30
0
10
7.8522517942770831
20
14.261044982626339
30
0
10
7.8592929701763703
20
14.26584342903535
30
0
10
7.8639265836522814
20
14.272955185231586
30
0
10
7.8658968619641376
20
14.275979205052293
30
0
0
SPLINE
5
346
100
AcDbEntity
8
0
100
AcDbSpline
70
0
71
3
72
9
73
5
74
0
42
0.000000001
43
0.0000000001
44
0.0000000001
40
0
40
0
40
0
40
0
40
0.036874757650234222
40
0.11388792395001741
40
0.11388792395001741
40
0.11388792395001741
40
0.11388792395001741
10
7.8658968619641376
20
14.275979205052293
30
0
10
7.8682998242977966
20
14.282314247873908
30
0
10
7.8757213887757622
20
14.301880067992144
30
0
10
7.8822507963454456
20
14.32176406087042
30
0
10
7.8866661051294029
20
14.335209992599847
30
0
0
SPLINE
5
347
100
AcDbEntity
8
0
100
AcDbSpline
70
0
71
3
72
9
73
5
74
0
42
0.000000001
43
0.0000000001
44
0.0000000001
40
0
40
0
40
0
40
0
40
0.10063838708895456
40
0.19955919427711571
40
0.19955919427711571
40
0.19955919427711571
40
0.19955919427711571
10
7.8866661051294029
20
14.335209992599847
30
0
10
7.8950358498191715
20
14.353158305938216
30
0
10
7.911632494051152
20
14.388748611506925
30
0
10
7.9504843474854194
20
14.394097173513101
30
0
10
7.9697430777904579
20
14.396748437329149
30
0
0
SPLINE
5
348
100
AcDbEntity
8
0
100
AcDbSpline
70
0
71
3
72
9
73
5
74
0
42
0.000000001
43
0.0000000001
44
0.0000000001
40
0
40
0
40
0
40
0
40
0.063236720991187045
40
0.12451837116044173
40
0.12451837116044173
40
0.12451837116044173
40
0.12451837116044173
10
7.9697430777904579
20
14.396748437329149
30
0
10
7.9817699411500378
20
14.395578854137504
30
0
10
8.0054518369256389
20
14.393275847408535
30
0
10
8.0212156482629293
20
14.375497860721731
30
0
10
8.0289737996321051
20
14.366748434025082
30
0
0
SPLINE
5
349
100
AcDbEntity
8
0
100
AcDbSpline
70
0
71
3
72
9
73
5
74
0
42
0.000000001
43
0.0000000001
44
0.0000000001
40
0
40
0
40
0
40
0
40
0.071743167477185774
40
0.16121021554911424
40
0.16121021554911424
40
0.16121021554911424
40
0.16121021554911424
10
8.0289737996321051
20
14.366748434025082
30
0
10
8.0350126319479287
20
14.354853873034706
30
0
10
8.0485821674665345
20
14.328126244348249
30
0
10
8.0493287248511418
20
14.298053381138146
30
0
10
8.0497430427973669
20
14.281363804182279
30
0
0
LINE
5
350
100
AcDbEntity
8
0
100
AcDbLine
10
8.0497430427973669
20
14.281363804182279
30
0
11
8.0497430427973669
21
14.241363821678821
31
0
0
LINE
5
351
100
AcDbEntity
8
0
100
AcDbLine
10
8.0497430427973669
20
14.241363821678821
30
0
11
8.0497430427973669
21
13.555209906694063
31
0
0
LINE
5
352
100
AcDbEntity
8
0
100
AcDbLine
10
8.0497430427973669
20
13.555209906694063
30
0
11
8.0497430427973669
21
13.515209989896517
31
0
0
SPLINE
5
353
100
AcDbEntity
8
0
100
AcDbSpline
70
0
71
3
72
9
73
5
74
0
42
0.000000001
43
0.0000000001
44
0.0000000001
40
0
40
0
40
0
40
0
40
0.089467285165160185
40
0.16121034307168408
40
0.16121034307168408
40
0.16121034307168408
40
0.16121034307168408
10
8.0497430427973669
20
13.515209989896517
30
0
10
8.0493287348040354
20
13.498520366277324
30
0
10
8.0485821967413287
20
13.468447474891153
30
0
10
8.0350126312754888
20
13.441719833442589
30
0
10
8.0289737996321051
20
13.429825294347808
30
0
0
SPLINE
5
354
100
AcDbEntity
8
0
100
AcDbSpline
70
0
71
3
72
9
73
5
74
0
42
0.000000001
43
0.0000000001
44
0.0000000001
40
0
40
0
40
0
40
0
40
0.06128165016925468
40
0.12451837116044173
40
0.12451837116044173
40
0.12451837116044173
40
0.12451837116044173
10
8.0289737996321051
20
13.429825294347808
30
0
10
8.0212156482629293
20
13.421075867651158
30
0
10
8.0054518369256389
20
13.403297880964351
30
0
10
7.9817699411500378
20
13.400994874235385
30
0
10
7.9697430777904579
20
13.399825291043738
30
0
0
SPLINE
5
355
100
AcDbEntity
8
0
100
AcDbSpline
70
0
71
3
72
9
73
5
74
0
42
0.000000001
43
0.0000000001
44
0.0000000001
40
0
40
0
40
0
40
0
40
0.098920807188161139
40
0.19955919427711571
40
0.19955919427711571
40
0.19955919427711571
40
0.19955919427711571
10
7.9697430777904579
20
13.399825291043738
30
0
10
7.9504843474854194
20
13.402476554859787
30
0
10
7.911632494051152
20
13.407825116865961
30
0
10
7.8950358498191715
20
13.443415422434672
30
0
10
7.8866661051294029
20
13.461363735773043
30
0
0
SPLINE
5
356
100
AcDbEntity
8
0
100
AcDbSpline
70
0
71
3
72
9
73
5
74
0
42
0.000000001
43
0.0000000001
44
0.0000000001
40
0
40
0
40
0
40
0
40
0.077013127955016789
40
0.11388781567344625
40
0.11388781567344625
40
0.11388781567344625
40
0.11388781567344625
10
7.8866661051294029
20
13.461363735773043
30
0
10
7.8822508435225851
20
13.474809676722973
30
0
10
7.8757215086756638
20
13.494693674232542
30
0
10
7.8682998519071319
20
13.514259438777829
30
0
10
7.8658968619641376
20
13.520594457614687
30
0
0
SPLINE
5
357
100
AcDbEntity
8
0
100
AcDbSpline
70
0
71
3
72
9
73
5
74
0
42
0.000000001
43
0.0000000001
44
0.0000000001
40
0
40
0
40
0
40
0
40
0.019470007096397891
40
0.045788312557614466
40
0.045788312557614466
40
0.045788312557614466
40
0.045788312557614466
10
7.8658968619641376
20
13.520594457614687
30
0
10
7.8639265936988521
20
13.523618551278833
30
0
10
7.8592930432996857
20
13.530730420586934
30
0
10
7.8522518047796428
20
13.535528884480229
30
0
10
7.8482046264530174
20
13.538286955949438
30
0
0
SPLINE
5
358
100
AcDbEntity
8
0
100
AcDbSpline
70
0
71
3
72
9
73
5
74
0
42
0.000000001
43
0.0000000001
44
0.0000000001
40
0
40
0
40
0
40
0
40
0.063130809717000705
40
0.14797929569294632
40
0.14797929569294632
40
0.14797929569294632
40
0.14797929569294632
10
7.8482046264530174
20
13.538286955949438
30
0
10
7.837755829942787
20
13.543642639970608
30
0
10
7.813263738753804
20
13.556196420810101
30
0
10
7.785603066410518
20
13.556547292906194
30
0
10
7.769742968155458
20
13.556748476227046
30
0
0
LINE
5
359
100
AcDbEntity
8
0
100
AcDbLine
10
7.769742968155458
20
13.556748476227042
30
0
11
6.2297428861544848
21
13.556748476227046
31
0
0
SPLINE
5
360
100
AcDbEntity
8
0
100
AcDbSpline
70
0
71
3
72
9
73
5
74
0
42
0.000000001
43
0.0000000001
44
0.0000000001
40
0
40
0
40
0
40
0
40
0.12584662569851321
40
0.21120975012244575
40
0.21120975012244575
40
0.21120975012244575
40
0.21120975012244575
10
6.2297428861544857
20
13.556748476227046
30
0
10
6.2049662140010415
20
13.556821667754148
30
0
10
6.1633832577211383
20
13.556944505884006
30
0
10
6.1383299914939942
20
13.525031166791779
30
0
10
6.1282043932158201
20
13.512132982242372
30
0
0
LINE
5
361
100
AcDbEntity
8
0
100
AcDbLine
10
6.128204393215821
20
13.512132982242372
30
0
11
6.1128197491805407
21
13.464440612015371
31
0
0
SPLINE
5
362
100
AcDbEntity
8
0
100
AcDbSpline
70
0
71
3
72
9
73
5
74
0
42
0.000000001
43
0.0000000001
44
0.0000000001
40
0
40
0
40
0
40
0
40
0.096387567528652227
40
0.19626800035080308
40
0.19626800035080308
40
0.19626800035080308
40
0.19626800035080308
10
6.1128197491805407
20
13.464440612015371
30
0
10
6.1045566594013652
20
13.447390875509996
30
0
10
6.0877310443427026
20
13.412673558990701
30
0
10
6.0493003504380871
20
13.408236954828752
30
0
10
6.0297430393431162
20
13.405979174940214
30
0
0
LINE
5
363
100
AcDbEntity
8
0
100
AcDbLine
10
7.4405122165771944
20
12.945979211885707
30
0
11
6.2251274403791754
21
12.481363803055888
31
0
0
SPLINE
5
364
100
AcDbEntity
8
0
100
AcDbSpline
70
0
71
3
72
9
73
5
74
0
42
0.000000001
43
0.0000000001
44
0.0000000001
40
0
40
0
40
0
40
0
40
0.085625919848109466
40
0.15271387810472414
40
0.15271387810472414
40
0.15271387810472414
40
0.15271387810472414
10
6.2251274403791745
20
12.48136380305589
30
0
10
6.2103996132329637
20
12.475660079713714
30
0
10
6.1841325249080299
20
12.465487485798635
30
0
10
6.1607737147629962
20
12.449795680336763
30
0
10
6.1505120745022497
20
12.442902192967692
30
0
0
SPLINE
5
365
100
AcDbEntity
8
0
100
AcDbSpline
70
0
71
3
72
9
73
5
74
0
42
0.000000001
43
0.0000000001
44
0.0000000001
40
0
40
0
40
0
40
0
40
0.058474842412313849
40
0.11958033722557279
40
0.11958033722557279
40
0.11958033722557279
40
0.11958033722557279
10
6.1505120745022497
20
12.442902192967692
30
0
10
6.1424832643807683
20
12.435608841629325
30
0
10
6.1260644459241531
20
12.420694027384997
30
0
10
6.1162808534965416
20
12.400773756976042
30
0
10
6.1112814424711903
20
12.390594508377195
30
0
0
SPLINE
5
366
100
AcDbEntity
8
0
100
AcDbSpline
70
0
71
3
72
9
73
5
74
0
42
0.000000001
43
0.0000000001
44
0.0000000001
40
0
40
0
40
0
40
0
40
0.053988699524092208
40
0.086314163308675543
40
0.086314163308675543
40
0.086314163308675543
40
0.086314163308675543
10
6.1112814424711903
20
12.390594508377195
30
0
10
6.1070650605847563
20
12.38159334485883
30
0
10
6.1003241411344762
20
12.367202779708331
30
0
10
6.0915066933289586
20
12.354000426980937
30
0
10
6.088204476418273
20
12.349056022046668
30
0
0
SPLINE
5
367
100
AcDbEntity
8
0
100
AcDbSpline
70
0
71
3
72
9
73
5
74
0
42
0.000000001
43
0.0000000001
44
0.0000000001
40
0
40
0
40
0
40
0
40
0.05400210818361053
40
0.11273779099638248
40
0.11273779099638248
40
0.11273779099638248
40
0.11273779099638248
10
6.088204476418273
20
12.349056022046668
30
0
10
6.080218432661483
20
12.342776962537551
30
0
10
6.0635463255489279
20
12.329668450251594
30
0
10
6.0423332339017426
20
12.328254358480342
30
0
10
6.0312813460524648
20
12.327517625526729
30
0
0
SPLINE
5
368
100
AcDbEntity
8
0
100
AcDbSpline
70
0
71
3
72
9
73
5
74
0
42
0.000000001
43
0.0000000001
44
0.0000000001
40
0
40
0
40
0
40
0
40
0.083634805616778773
40
0.18161817597494043
40
0.18161817597494043
40
0.18161817597494043
40
0.18161817597494043
10
6.0389736680701054
20
13.332133093829778
30
0
10
6.0547874227341234
20
13.329094059273524
30
0
10
6.0891279733722676
20
13.322494606943113
30
0
10
6.1065160084387644
20
13.291780360856375
30
0
10
6.1158968882465015
20
13.27520996346397
30
0
0
SPLINE
5
369
100
AcDbEntity
8
0
100
AcDbSpline
70
0
71
3
72
9
73
5
74
0
42
0.000000001
43
0.0000000001
44
0.0000000001
40
0
40
0
40
0
40
0
40
0.060709624862768936
40
0.10098484202513495
40
0.10098484202513495
40
0.10098484202513495
40
0.10098484202513495
10
6.1158968882465015
20
13.27520996346397
30
0
10
6.1207038727701013
20
13.265101049528566
30
0
10
6.1286998466182405
20
13.248285806820013
30
0
10
6.139893871834234
20
13.233438901191548
30
0
10
6.1443583220175899
20
13.227517593236968
30
0
0
SPLINE
5
370
100
AcDbEntity
8
0
100
AcDbSpline
70
0
71
3
72
9
73
5
74
0
42
0.000000001
43
0.0000000001
44
0.0000000001
40
0
40
0
40
0
40
0
40
0.030298371963074382
40
0.063641681076488765
40
0.063641681076488765
40
0.063641681076488765
40
0.063641681076488765
10
6.1443583220175899
20
13.227517593236968
30
0
10
6.1487035421644807
20
13.223854545606558
30
0
10
6.1578306700224612
20
13.216160320010982
30
0
10
6.169685751069272
20
13.214527165264254
30
0
10
6.1758968948546382
20
13.213671518734669
30
0
0
SPLINE
5
371
100
AcDbEntity
8
0
100
AcDbSpline
70
0
71
3
72
9
73
5
74
0
42
0.000000001
43
0.0000000001
44
0.0000000001
40
0
40
0
40
0
40
0
40
0.032580609937577991
40
0.092200520406772499
40
0.092200520406772499
40
0.092200520406772499
40
0.092200520406772499
10
6.1758968948546382
20
13.213671518734669
30
0
10
6.1818212469760612
20
13.214581326479783
30
0
10
6.1985866896646646
20
13.217156009634287
30
0
10
6.2147048828073483
20
13.222514304300734
30
0
10
6.2251274403791745
20
13.225979155115802
30
0
0
LINE
5
372
100
AcDbEntity
8
0
100
AcDbLine
10
6.2251274403791763
20
13.225979155115802
30
0
11
6.812820001491227
21
13.422902257096657
31
0
0
SPLINE
5
373
100
AcDbEntity
8
0
100
AcDbSpline
70
0
71
3
72
9
73
5
74
0
42
0.000000001
43
0.0000000001
44
0.0000000001
40
0
40
0
40
0
40
0
40
0.1418651594148671
40
0.25699186840689392
40
0.25699186840689392
40
0.25699186840689392
40
0.25699186840689392
10
6.812820001491227
20
13.422902257096657
30
0
10
6.8377327469514197
20
13.430951307880715
30
0
10
6.8828627353810541
20
13.445532341084563
30
0
10
6.9301140047675682
20
13.449028386155728
30
0
10
6.9512815349851076
20
13.450594537513073
30
0
0
SPLINE
5
374
100
AcDbEntity
8
0
100
AcDbSpline
70
0
71
3
72
9
73
5
74
0
42
0.000000001
43
0.0000000001
44
0.0000000001
40
0
40
0
40
0
40
0
40
0.10386939579169033
40
0.22973131452216386
40
0.22973131452216386
40
0.22973131452216386
40
0.22973131452216386
10
6.9512815349851076
20
13.450594537513073
30
0
10
6.9704518592381968
20
13.448117065606787
30
0
10
7.0128514877034478
20
13.442637560566988
30
0
10
7.0486123751542609
20
13.418954378968547
30
0
10
7.0682045405472369
20
13.405979174940214
30
0
0
LINE
5
375
100
AcDbEntity
8
0
100
AcDbLine
10
7.0682045405472378
20
13.40597917494021
30
0
11
7.5866660720887182
21
13.038286813273752
31
0
0
SPLINE
5
376
100
AcDbEntity
8
0
100
AcDbSpline
70
0
71
3
72
9
73
5
74
0
42
0.000000001
43
0.0000000001
44
0.0000000001
40
0
40
0
40
0
40
0
40
0.15171080808593657
40
0.29327351316239864
40
0.29327351316239864
40
0.29327351316239864
40
0.29327351316239864
10
7.5866660720887182
20
13.038286813273752
30
0
10
7.6105407690748059
20
13.023035744319008
30
0
10
7.6566931582759219
20
12.993553767205642
30
0
10
7.7111494158036109
20
12.988445083160435
30
0
10
7.7374353733755497
20
12.985979128683255
30
0
0
SPLINE
5
377
100
AcDbEntity
8
0
100
AcDbSpline
70
0
71
3
72
9
73
5
74
0
42
0.000000001
43
0.0000000001
44
0.0000000001
40
0
40
0
40
0
40
0
40
0.076086089905155724
40
0.15260599986057954
40
0.15260599986057954
40
0.15260599986057954
40
0.15260599986057954
10
7.7374353733755497
20
12.985979128683255
30
0
10
7.7515553432502635
20
12.986951556102886
30
0
10
7.7798757908303413
20
12.988901955431457
30
0
10
7.8048917844955925
20
13.002325328555846
30
0
10
7.8174353383824595
20
13.009056094736176
30
0
0
SPLINE
5
378
100
AcDbEntity
8
0
100
AcDbSpline
70
0
71
3
72
9
73
5
74
0
42
0.000000001
43
0.0000000001
44
0.0000000001
40
0
40
0
40
0
40
0
40
0.075233025470362397
40
0.1484724561854214
40
0.1484724561854214
40
0.1484724561854214
40
0.1484724561854214
10
7.8174353383824595
20
13.009056094736176
30
0
10
7.8288098909785839
20
13.017301152097172
30
0
10
7.8512575826857587
20
13.033572781612582
30
0
10
7.8636366154993729
20
13.058364829916934
30
0
10
7.8697430229729566
20
13.07059440805366
30
0
0
LINE
5
379
100
AcDbEntity
8
0
100
AcDbLine
10
7.8697430229729566
20
13.07059440805366
30
0
11
7.8928199890258766
21
13.125979231710117
31
0
0
SPLINE
5
380
100
AcDbEntity
8
0
100
AcDbSpline
70
0
71
3
72
9
73
5
74
0
42
0.000000001
43
0.0000000001
44
0.0000000001
40
0
40
0
40
0
40
0
40
0.088345442653216075
40
0.17068910701567563
40
0.17068910701567563
40
0.17068910701567563
40
0.17068910701567563
10
7.8928199890258766
20
13.125979231710117
30
0
10
7.9009013004261588
20
13.141229998868642
30
0
10
7.9165149165336048
20
13.170695467028787
30
0
10
7.9493077478730347
20
13.175816366031475
30
0
10
7.9651276320151467
20
13.178286784888801
30
0
0
SPLINE
5
381
100
AcDbEntity
8
0
100
AcDbSpline
70
0
71
3
72
9
73
5
74
0
42
0.000000001
43
0.0000000001
44
0.0000000001
40
0
40
0
40
0
40
0
40
0.069937096023789821
40
0.13990183539281714
40
0.13990183539281714
40
0.13990183539281714
40
0.13990183539281714
10
7.9651276320151467
20
13.178286784888801
30
0
10
7.9783336281942034
20
13.176939538624564
30
0
10
8.0047508403560013
20
13.174244513583364
30
0
10
8.0234623548035913
20
13.15540220562395
30
0
10
8.0328199606409232
20
13.145979190108893
30
0
0
SPLINE
5
382
100
AcDbEntity
8
0
100
AcDbSpline
70
0
71
3
72
9
73
5
74
0
42
0.000000001
43
0.0000000001
44
0.0000000001
40
0
40
0
40
0
40
0
40
0.056539227982026374
40
0.13368045464267564
40
0.13368045464267564
40
0.13368045464267564
40
0.13368045464267564
10
8.0328199606409232
20
13.145979190108893
30
0
10
8.0377268222956637
20
13.136671550168714
30
0
10
8.0493285282312872
20
13.114664713795761
30
0
10
8.0495913688239025
20
13.089646681562941
30
0
10
8.0497430427973669
20
13.075209853828971
30
0
0
LINE
5
383
100
AcDbEntity
8
0
100
AcDbLine
10
8.0497430427973669
20
13.075209853828973
30
0
11
8.0497430427973669
21
12.527517735161728
31
0
0
SPLINE
5
384
100
AcDbEntity
8
0
100
AcDbSpline
70
0
71
3
72
9
73
5
74
0
42
0.000000001
43
0.0000000001
44
0.0000000001
40
0
40
0
40
0
40
0
40
0.087547089794315788
40
0.16041491899736376
40
0.16041491899736376
40
0.16041491899736376
40
0.16041491899736376
10
8.0497430427973669
20
12.527517735161728
30
0
10
8.0491680708336357
20
12.511130641061955
30
0
10
8.0481145340318463
20
12.481104121861916
30
0
10
8.032836781009145
20
12.455363879079588
30
0
10
8.0258969233897766
20
12.443671477734181
30
0
0
SPLINE
5
385
100
AcDbEntity
8
0
100
AcDbSpline
70
0
71
3
72
9
73
5
74
0
42
0.000000001
43
0.0000000001
44
0.0000000001
40
0
40
0
40
0
40
0
40
0.066098341349231746
40
0.13685042427155653
40
0.13685042427155653
40
0.13685042427155653
40
0.13685042427155653
10
8.0258969233897766
20
12.443671477734181
30
0
10
8.016916999531972
20
12.434924240586611
30
0
10
7.998324908342064
20
12.416813905434255
30
0
10
7.9723848412159972
20
12.414742432300459
30
0
10
7.9589737481186722
20
12.413671474430114
30
0
0
SPLINE
5
386
100
AcDbEntity
8
0
100
AcDbSpline
70
0
71
3
72
9
73
5
74
0
42
0.000000001
43
0.0000000001
44
0.0000000001
40
0
40
0
40
0
40
0
40
0.10548577268660721
40
0.22279131386079917
40
0.22279131386079917
40
0.22279131386079917
40
0.22279131386079917
10
7.9589737481186722
20
12.413671474430114
30
0
10
7.9387618039494647
20
12.417198625267135
30
0
10
7.8960731504708868
20
12.424648147123506
30
0
10
7.8768091528684163
20
12.463817156201516
30
0
10
7.8666661467306271
20
12.484440679298221
30
0
0
LINE
5
387
100
AcDbEntity
8
0
100
AcDbLine
10
7.8666661467306271
20
12.484440679298221
30
0
11
7.8343584205389032
21
12.565979082426296
31
0
0
SPLINE
5
388
100
AcDbEntity
8
0
100
AcDbSpline
70
0
71
3
72
9
73
5
74
0
42
0.000000001
43
0.0000000001
44
0.0000000001
40
0
40
0
40
0
40
0
40
0.11797622116235232
40
0.27958908751327172
40
0.27958908751327172
40
0.27958908751327172
40
0.27958908751327172
10
7.8343584205389032
20
12.565979082426296
30
0
10
7.824973486596563
20
12.585594578948633
30
0
10
7.8027323511248561
20
12.632080885424351
30
0
10
7.7701279826161169
20
12.672085546151434
30
0
10
7.7512814478778482
20
12.69520972436956
30
0
0
SPLINE
5
389
100
AcDbEntity
8
0
100
AcDbSpline
70
0
71
3
72
9
73
5
74
0
42
0.000000001
43
0.0000000001
44
0.0000000001
40
0
40
0
40
0
40
0
40
0.16825734867208952
40
0.3980928966421301
40
0.3980928966421301
40
0.3980928966421301
40
0.3980928966421301
10
7.7512814478778482
20
12.69520972436956
30
0
10
7.7298228486571539
20
12.717524624483275
30
0
10
7.6790523118035354
20
12.770321148942136
30
0
10
7.6204814569656687
20
12.814385243156282
30
0
10
7.5866660720887182
20
12.839825273171733
30
0
0
LINE
5
390
100
AcDbEntity
8
0
100
AcDbLine
10
7.5866660720887182
20
12.83982527317173
30
0
11
7.4405122165771944
21
12.945979211885707
31
0
0
SPLINE
5
391
100
AcDbEntity
8
0
100
AcDbSpline
70
0
71
3
72
9
73
5
74
0
42
0.000000001
43
0.0000000001
44
0.0000000001
40
0
40
0
40
0
40
0
40
0.14275559566584362
40
0.3263616337748575
40
0.3263616337748575
40
0.3263616337748575
40
0.3263616337748575
10
7.2082045121622862
20
11.593671471726784
30
0
10
7.2321300863943385
20
11.604555946417223
30
0
10
7.2868276935806264
20
11.629439559043291
30
0
10
7.3453056741668394
20
11.64347020071788
30
0
10
7.3782044870814012
20
11.651363624035453
30
0
0
SPLINE
5
392
100
AcDbEntity
8
0
100
AcDbSpline
70
0
71
3
72
9
73
5
74
0
42
0.000000001
43
0.0000000001
44
0.0000000001
40
0
40
0
40
0
40
0
40
0.19120348728064318
40
0.35663488081626593
40
0.35663488081626593
40
0.35663488081626593
40
0.35663488081626593
10
7.3782044870814012
20
11.651363624035453
30
0
10
7.412623663377393
20
11.658755545940103
30
0
10
7.4768226955744277
20
11.67254304126752
30
0
10
7.5424004606545285
20
11.675415664499864
30
0
10
7.5728198661746031
20
11.676748181564211
30
0
0
SPLINE
5
393
100
AcDbEntity
8
0
100
AcDbSpline
70
0
71
3
72
9
73
5
74
0
42
0.000000001
43
0.0000000001
44
0.0000000001
40
0
40
0
40
0
40
0
40
0.2437541846418356
40
0.49454644342184972
40
0.49454644342184972
40
0.49454644342184972
40
0.49454644342184972
10
7.5728198661746031
20
11.676748181564211
30
0
10
7.6180659187565425
20
11.673262904977351
30
0
10
7.7098644428153431
20
11.666191719131222
30
0
10
7.7899165701054223
20
11.620625153109806
30
0
10
7.8305122595300842
20
11.597517632735606
30
0
0
SPLINE
5
394
100
AcDbEntity
8
0
100
AcDbSpline
70
0
71
3
72
9
73
5
74
0
42
0.000000001
43
0.0000000001
44
0.0000000001
40
0
40
0
40
0
40
0
40
0.25972343048712859
40
0.52845842430024703
40
0.52845842430024703
40
0.52845842430024703
40
0.52845842430024703
10
7.8305122595300842
20
11.597517632735606
30
0
10
7.8688785191085442
20
11.568326082202075
30
0
10
7.9469422234308729
20
11.508930128710718
30
0
10
7.9967315709633571
20
11.424366622106602
30
0
10
8.0220507623809549
20
11.381363857122466
30
0
0
SPLINE
5
395
100
AcDbEntity
8
0
100
AcDbSpline
70
0
71
3
72
9
73
5
74
0
42
0.000000001
43
0.0000000001
44
0.0000000001
40
0
40
0
40
0
40
0
40
0.27965433931423489
40
0.54554208934081638
40
0.54554208934081638
40
0.54554208934081638
40
0.54554208934081638
10
8.0220507623809549
20
11.381363857122466
30
0
10
8.0435851825541516
20
11.334189667817196
30
0
10
8.0855939445237901
20
11.242163540635813
30
0
10
8.0925208096159533
20
11.141294553786389
30
0
10
8.0958968434913903
20
11.092132759518121
30
0
0
SPLINE
5
396
100
AcDbEntity
8
0
100
AcDbSpline
70
0
71
3
72
9
73
5
74
0
42
0.000000001
43
0.0000000001
44
0.0000000001
40
0
40
0
40
0
40
0
40
0.089416353084312214
40
0.20731819749523372
40
0.20731819749523372
40
0.20731819749523372
40
0.20731819749523372
10
8.0958968434913903
20
11.092132759518121
30
0
10
8.0953391325512456
20
11.0757063026556
30
0
10
8.0940460399250558
20
11.037620389838743
30
0
10
8.0893415349836335
20
10.999796949490142
30
0
10
8.0866660833525863
20
10.978286761610137
30
0
0
SPLINE
5
397
100
AcDbEntity
8
0
100
AcDbSpline
70
0
71
3
72
9
73
5
74
0
42
0.000000001
43
0.0000000001
44
0.0000000001
40
0
40
0
40
0
40
0
40
0.087691259793364965
40
0.16738174149065216
40
0.16738174149065216
40
0.16738174149065216
40
0.16738174149065216
10
7.895896865268206
20
10.978286761610137
30
0
10
7.8897930790176387
20
10.993476238948356
30
0
10
7.8781424039707302
20
11.022469335583022
30
0
10
7.8547339503037161
20
11.043086358579759
30
0
10
7.8435891806777089
20
11.052902127487062
30
0
0
SPLINE
5
398
100
AcDbEntity
8
0
100
AcDbSpline
70
0
71
3
72
9
73
5
74
0
42
0.000000001
43
0.0000000001
44
0.0000000001
40
0
40
0
40
0
40
0
40
0.079114386293003325
40
0.16502133087472098
40
0.16502133087472098
40
0.16502133087472098
40
0.16502133087472098
10
7.8435891806777089
20
11.052902127487062
30
0
10
7.8308304476518451
20
11.060302514402643
30
0
10
7.804217549507058
20
11.075738666473327
30
0
10
7.7734515315384414
20
11.077414354118376
30
0
10
7.7574353317743228
20
11.078286685015819
30
0
0
SPLINE
5
399
100
AcDbEntity
8
0
100
AcDbSpline
70
0
71
3
72
9
73
5
74
0
42
0.000000001
43
0.0000000001
44
0.0000000001
40
0
40
0
40
0
40
0
40
0.13174431921728352
40
0.27700279679056444
40
0.27700279679056444
40
0.27700279679056444
40
0.27700279679056444
10
7.7574353317743228
20
11.078286685015819
30
0
10
7.7330964431271365
20
11.076317501652831
30
0
10
7.6819220147639262
20
11.072177138696905
30
0
10
7.6355819217466765
20
11.049945103753627
30
0
10
7.6112814762628016
20
11.038286768218274
30
0
0
SPLINE
5
400
100
AcDbEntity
8
0
100
AcDbSpline
70
0
71
3
72
9
73
5
74
0
42
0.000000001
43
0.0000000001
44
0.0000000001
40
0
40
0
40
0
40
0
40
0.085642807718870992
40
0.14858941281975735
40
0.14858941281975735
40
0.14858941281975735
40
0.14858941281975735
10
6.2235891336698259
20
10.29213284662538
30
0
10
6.2095947745665745
20
10.284823229454576
30
0
10
6.1853147018164307
20
10.27214111694243
30
0
10
6.1641102959491185
20
10.254844718964602
30
0
10
6.1551275202775591
20
10.247517484052523
30
0
0
SPLINE
5
401
100
AcDbEntity
8
0
100
AcDbSpline
70
0
71
3
72
9
73
5
74
0
42
0.000000001
43
0.0000000001
44
0.0000000001
40
0
40
0
40
0
40
0
40
0.061609485402469383
40
0.14289381381993038
40
0.14289381381993038
40
0.14289381381993038
40
0.14289381381993038
10
6.1551275202775591
20
10.247517484052523
30
0
10
6.1475177345281926
20
10.239107911447002
30
0
10
6.1298679960021207
20
10.219603189173338
30
0
10
6.1160594682401088
20
10.197190304968938
30
0
10
6.1082045662288618
20
10.184440864025685
30
0
0
SPLINE
5
402
100
AcDbEntity
8
0
100
AcDbSpline
70
0
71
3
72
9
73
5
74
0
42
0.000000001
43
0.0000000001
44
0.0000000001
40
0
40
0
40
0
40
0
40
0.056518199576908547
40
0.099939231613293045
40
0.099939231613293045
40
0.099939231613293045
40
0.099939231613293045
10
6.1082045662288618
20
10.184440864025685
30
0
10
6.1030445913566167
20
10.175333906546745
30
0
10
6.0939203813192089
20
10.159230379902347
30
0
10
6.0802833445237701
20
10.146775061586029
30
0
10
6.0743584019159726
20
10.141363545338548
30
0
0
SPLINE
5
403
100
AcDbEntity
8
0
100
AcDbSpline
70
0
71
3
72
9
73
5
74
0
42
0.000000001
43
0.0000000001
44
0.0000000001
40
0
40
0
40
0
40
0
40
0.038073733872869719
40
0.079620525739340642
40
0.079620525739340642
40
0.079620525739340642
40
0.079620525739340642
10
6.0743584019159726
20
10.141363545338548
30
0
10
6.0682316334938546
20
10.137775598547407
30
0
10
6.0554192173415267
20
10.130272415098437
30
0
10
6.0405689398680664
20
10.129473120392987
30
0
10
6.0328199155854456
20
10.129056040369228
30
0
0
SPLINE
5
404
100
AcDbEntity
8
0
100
AcDbSpline
70
0
71
3
72
9
73
5
74
0
42
0.000000001
43
0.0000000001
44
0.0000000001
40
0
40
0
40
0
40
0
40
0.097676507379174493
40
0.17569068617167716
40
0.17569068617167716
40
0.17569068617167716
40
0.17569068617167716
10
8.0682045630749766
20
10.842902367182214
30
0
10
8.064776416238141
20
10.825244925644993
30
0
10
8.0586102101951358
20
10.793484494166137
30
0
10
8.047142759389823
20
10.763250251995474
30
0
10
8.0420507207797307
20
10.749824955380415
30
0
0
SPLINE
5
405
100
AcDbEntity
8
0
100
AcDbSpline
70
0
71
3
72
9
73
5
74
0
42
0.000000001
43
0.0000000001
44
0.0000000001
40
0
40
0
40
0
40
0
40
0.073707321507312504
40
0.15869918641186154
40
0.15869918641186154
40
0.15869918641186154
40
0.15869918641186154
10
8.0420507207797307
20
10.749824955380415
30
0
10
8.0358786593121359
20
10.737729437500299
30
0
10
8.0225895977459256
20
10.711686585751652
30
0
10
8.0042045321608288
20
10.688933767565011
30
0
10
7.9943583505527256
20
10.676748421860102
30
0
0
SPLINE
5
406
100
AcDbEntity
8
0
100
AcDbSpline
70
0
71
3
72
9
73
5
74
0
42
0.000000001
43
0.0000000001
44
0.0000000001
40
0
40
0
40
0
40
0
40
0.15692721965442341
40
0.31192519045649231
40
0.31192519045649231
40
0.31192519045649231
40
0.31192519045649231
10
7.9943583505527256
20
10.676748421860102
30
0
10
7.9745996447210512
20
10.655473735960568
30
0
10
7.9353251447758408
20
10.613185913199633
30
0
10
7.8848329359892491
20
10.585246706714138
30
0
10
7.8597429780676631
20
10.571363505088987
30
0
0
SPLINE
5
407
100
AcDbEntity
8
0
100
AcDbSpline
70
0
71
3
72
9
73
5
74
0
42
0.000000001
43
0.0000000001
44
0.0000000001
40
0
40
0
40
0
40
0
40
0.15360919635552189
40
0.30703437134809275
40
0.30703437134809275
40
0.30703437134809275
40
0.30703437134809275
10
7.8597429780676631
20
10.571363505088987
30
0
10
7.8335016132135884
20
10.560369856525016
30
0
10
7.7810503202412598
20
10.538395729612413
30
0
10
7.7242700210003896
20
10.535245575582069
30
0
10
7.6958968870450226
20
10.533671442590906
30
0
0
SPLINE
5
408
100
AcDbEntity
8
0
100
AcDbSpline
70
0
71
3
72
9
73
5
74
0
42
0.000000001
43
0.0000000001
44
0.0000000001
40
0
40
0
40
0
40
0
40
0.22749309097339301
40
0.46872401871329433
40
0.46872401871329433
40
0.46872401871329433
40
0.46872401871329433
10
7.6958968870450226
20
10.533671442590906
30
0
10
7.6536922372496754
20
10.53730743321483
30
0
10
7.5667342862375451
20
10.544798984408569
30
0
10
7.4915260899670217
20
10.589253823469862
30
0
10
7.4528198529583296
20
10.612132706653025
30
0
0
SPLINE
5
409
100
AcDbEntity
8
0
100
AcDbSpline
70
0
71
3
72
9
73
5
74
0
42
0.000000001
43
0.0000000001
44
0.0000000001
40
0
40
0
40
0
40
0
40
0.15879471047662408
40
0.33523918523333052
40
0.33523918523333052
40
0.33523918523333052
40
0.33523918523333052
10
7.4528198529583296
20
10.612132706653025
30
0
10
7.429808903760585
20
10.630321698102302
30
0
10
7.3812293771671422
20
10.668721356726758
30
0
10
7.3454812103146967
20
10.719338366203539
30
0
10
7.3266660872573945
20
10.745979320018858
30
0
0
SPLINE
5
410
100
AcDbEntity
8
0
100
AcDbSpline
70
0
71
3
72
9
73
5
74
0
42
0.000000001
43
0.0000000001
44
0.0000000001
40
0
40
0
40
0
40
0
40
0.1377365206159285
40
0.24495522317446011
40
0.24495522317446011
40
0.24495522317446011
40
0.24495522317446011
10
7.4697429351147733
20
10.819825401129293
30
0
10
7.4874680126017177
20
10.801587357497304
30
0
10
7.5189908817157578
20
10.769152212278286
30
0
10
7.5575018859488603
20
10.745543545847623
30
0
10
7.5743584357075822
20
10.735209858935256
30
0
0
SPLINE
5
411
100
AcDbEntity
8
0
100
AcDbSpline
70
0
71
3
72
9
73
5
74
0
42
0.000000001
43
0.0000000001
44
0.0000000001
40
0
40
0
40
0
40
0
40
0.095995165321700923
40
0.20118755087449952
40
0.20118755087449952
40
0.20118755087449952
40
0.20118755087449952
10
7.5743584357075822
20
10.735209858935256
30
0
10
7.5908144988290678
20
10.728483047971647
30
0
10
7.6253032673556147
20
10.714384935650788
30
0
10
7.6625670429443344
20
10.71290610849803
30
0
10
7.6820506811309084
20
10.712132892882339
30
0
0
SPLINE
5
412
100
AcDbEntity
8
0
100
AcDbSpline
70
0
71
3
72
9
73
5
74
0
42
0.000000001
43
0.0000000001
44
0.0000000001
40
0
40
0
40
0
40
0
40
0.12395046002120541
40
0.2337744243436137
40
0.2337744243436137
40
0.2337744243436137
40
0.2337744243436137
10
7.6820506811309084
20
10.712132892882339
30
0
10
7.7050964645652957
20
10.713075164095626
30
0
10
7.7485615291967687
20
10.714852316922844
30
0
10
7.7875708299081765
20
10.733936634640399
30
0
10
7.8058968553560009
20
10.742902180952896
30
0
0
SPLINE
5
413
100
AcDbEntity
8
0
100
AcDbSpline
70
0
71
3
72
9
73
5
74
0
42
0.000000001
43
0.0000000001
44
0.0000000001
40
0
40
0
40
0
40
0
40
0.11311530072520566
40
0.24594642889218904
40
0.24594642889218904
40
0.24594642889218904
40
0.24594642889218904
10
7.8058968553560009
20
10.742902180952896
30
0
10
7.8225969868920124
20
10.75556779122762
30
0
10
7.8589080578698418
20
10.783106608671737
30
0
10
7.8829254921635741
20
10.821932967294284
30
0
10
7.895896865268206
20
10.842902367182214
30
0
0
SPLINE
5
414
100
AcDbEntity
8
0
100
AcDbSpline
70
0
71
3
72
9
73
5
74
0
42
0.000000001
43
0.0000000001
44
0.0000000001
40
0
40
0
40
0
40
0
40
0.14481531891567687
40
0.27559507609838069
40
0.27559507609838069
40
0.27559507609838069
40
0.27559507609838069
10
6.8543583564099384
20
10.492132693436751
30
0
10
6.8777312762361014
20
10.478681640931191
30
0
10
6.9222118026497732
20
10.453083217597046
30
0
10
6.9732267705939774
20
10.448265121088721
30
0
10
6.9974352042673171
20
10.445978761330911
30
0
0
SPLINE
5
415
100
AcDbEntity
8
0
100
AcDbSpline
70
0
71
3
72
9
73
5
74
0
42
0.000000001
43
0.0000000001
44
0.0000000001
40
0
40
0
40
0
40
0
40
0.10326064082016237
40
0.20005688799897803
40
0.20005688799897803
40
0.20005688799897803
40
0.20005688799897803
10
6.9974352042673171
20
10.445978761330911
30
0
10
7.0165918817119124
20
10.446920608807266
30
0
10
7.0537059771070805
20
10.448745341576618
30
0
10
7.0873235130052761
20
10.464506790217959
30
0
10
7.1035891429812903
20
10.47213286644979
30
0
0
LINE
5
416
100
AcDbEntity
8
0
100
AcDbLine
10
7.1035891429812903
20
10.472132866449792
30
0
11
7.1497429436753137
21
10.496748402035688
31
0
0
SPLINE
5
417
100
AcDbEntity
8
0
100
AcDbSpline
70
0
71
3
72
9
73
5
74
0
42
0.000000001
43
0.0000000001
44
0.0000000001
40
0
40
0
40
0
40
0
40
0.047187980715229318
40
0.088144952701808998
40
0.088144952701808998
40
0.088144952701808998
40
0.088144952701808998
10
7.1497429436753128
20
10.49674840203569
30
0
10
7.1575261633858052
20
10.500780428817375
30
0
10
7.1720648557148783
20
10.508312067268042
30
0
10
7.1883362806886
20
10.509870393045379
30
0
10
7.195896875781151
20
10.510594476537989
30
0
0
SPLINE
5
418
100
AcDbEntity
8
0
100
AcDbSpline
70
0
71
3
72
9
73
5
74
0
42
0.000000001
43
0.0000000001
44
0.0000000001
40
0
40
0
40
0
40
0
40
0.073591596282640032
40
0.16499128171826541
40
0.16499128171826541
40
0.16499128171826541
40
0.16499128171826541
10
7.195896875781151
20
10.510594476537989
30
0
10
7.2096427768948592
20
10.507655386453353
30
0
10
7.2404608859954216
20
10.501065989502546
30
0
10
7.2573243063475825
20
10.474031836168644
30
0
10
7.2666660806492569
20
10.45905581389035
30
0
0
SPLINE
5
419
100
AcDbEntity
8
0
100
AcDbSpline
70
0
71
3
72
9
73
5
74
0
42
0.000000001
43
0.0000000001
44
0.0000000001
40
0
40
0
40
0
40
0
40
0.11099473086378066
40
0.23556265989839451
40
0.23556265989839451
40
0.23556265989839451
40
0.23556265989839451
10
7.2666660806492569
20
10.45905581389035
30
0
10
7.2751840600857944
20
10.440309175315184
30
0
10
7.2932616559988217
20
10.400523430419423
30
0
10
7.2949853122436892
20
10.356795071058494
30
0
10
7.2958967991868366
20
10.333671070132278
30
0
0
SPLINE
5
420
100
AcDbEntity
8
0
100
AcDbSpline
70
0
71
3
72
9
73
5
74
0
42
0.000000001
43
0.0000000001
44
0.0000000001
40
0
40
0
40
0
40
0
40
0.084535796376170744
40
0.17187182151152003
40
0.17187182151152003
40
0.17187182151152003
40
0.17187182151152003
10
7.2958967991868366
20
10.333671070132278
30
0
10
7.2938855296958653
20
10.317603315520918
30
0
10
7.2897963678758773
20
10.284935565632269
30
0
10
7.2637483533084426
20
10.264715174715835
30
0
10
7.2505121518474871
20
10.254440258480042
30
0
0
SPLINE
5
421
100
AcDbEntity
8
0
100
AcDbSpline
70
0
71
3
72
9
73
5
74
0
42
0.000000001
43
0.0000000001
44
0.0000000001
40
0
40
0
40
0
40
0
40
0.10606230019968345
40
0.23822999297739378
40
0.23822999297739378
40
0.23822999297739378
40
0.23822999297739378
10
7.2505121518474871
20
10.254440258480042
30
0
10
7.2326499209282158
20
10.246164689543194
30
0
10
7.1925289812687225
20
10.227576664146824
30
0
10
7.1481886742599023
20
10.226549145130836
30
0
10
7.1235891013800652
20
10.225979087532584
30
0
0
SPLINE
5
422
100
AcDbEntity
8
0
100
AcDbSpline
70
0
71
3
72
9
73
5
74
0
42
0.000000001
43
0.0000000001
44
0.0000000001
40
0
40
0
40
0
40
0
40
0.19695236485787818
40
0.38067632689595515
40
0.38067632689595515
40
0.38067632689595515
40
0.38067632689595515
10
7.1235891013800652
20
10.225979087532584
30
0
10
7.087167901844464
20
10.22742893367605
30
0
10
7.0167717506209843
20
10.230231246330973
30
0
10
6.9508089720253246
20
10.254861236750337
30
0
10
6.9189736773815707
20
10.266748289096622
30
0
0
SPLINE
5
423
100
AcDbEntity
8
0
100
AcDbSpline
70
0
71
3
72
9
73
5
74
0
42
0.000000001
43
0.0000000001
44
0.0000000001
40
0
40
0
40
0
40
0
40
0.20651653652155305
40
0.46959670805215836
40
0.46959670805215836
40
0.46959670805215836
40
0.46959670805215836
10
6.9189736773815707
20
10.266748289096622
30
0
10
6.8854867133058288
20
10.284805757177493
30
0
10
6.8093409074662681
20
10.325866525043169
30
0
10
6.7435332227837845
20
10.382143575914997
30
0
10
6.7066660627772512
20
10.413671429374633
30
0
0
SPLINE
5
424
100
AcDbEntity
8
0
100
AcDbSpline
70
0
71
3
72
9
73
5
74
0
42
0.000000001
43
0.0000000001
44
0.0000000001
40
0
40
0
40
0
40
0
40
0.10400064496654951
40
0.17677656388370416
40
0.17677656388370416
40
0.17677656388370416
40
0.17677656388370416
10
6.9651276094874088
20
11.593671471726784
30
0
10
6.9494992907115707
20
11.605211843132105
30
0
10
6.9229348353338152
20
11.624827752279883
30
0
10
6.8907040569261415
20
11.631092356863194
30
0
10
6.8774351910510436
20
11.633671388524332
30
0
0
SPLINE
5
425
100
AcDbEntity
8
0
100
AcDbSpline
70
0
71
3
72
9
73
5
74
0
42
0.000000001
43
0.0000000001
44
0.0000000001
40
0
40
0
40
0
40
0
40
0.080231816396491851
40
0.20948177624928302
40
0.20948177624928302
40
0.20948177624928302
40
0.20948177624928302
10
6.8774351910510436
20
11.633671388524332
30
0
10
6.8628868786657158
20
11.630888493202304
30
0
10
6.8249018690175891
20
11.623622474790187
30
0
10
6.7907899508941965
20
11.605099884039262
30
0
10
6.7697429456277174
20
11.593671471726784
30
0
0
LINE
5
426
100
AcDbEntity
8
0
100
AcDbLine
10
6.7697429456277174
20
11.593671471726783
30
0
11
6.2497429759650744
21
11.313671528496689
31
0
0
SPLINE
5
427
100
AcDbEntity
8
0
100
AcDbSpline
70
0
71
3
72
9
73
5
74
0
42
0.000000001
43
0.0000000001
44
0.0000000001
40
0
40
0
40
0
40
0
40
0.050709882929336869
40
0.10942892409680111
40
0.10942892409680111
40
0.10942892409680111
40
0.10942892409680111
10
6.2497429759650744
20
11.313671528496691
30
0
10
6.2418075478462782
20
11.308710677637496
30
0
10
6.2246833639372445
20
11.298005455286996
30
0
10
6.2109554026915506
20
11.283170360072473
30
0
10
6.2035890438592354
20
11.275209918408493
30
0
0
SPLINE
5
428
100
AcDbEntity
8
0
100
AcDbSpline
70
0
71
3
72
9
73
5
74
0
42
0.000000001
43
0.0000000001
44
0.0000000001
40
0
40
0
40
0
40
0
40
0.062728527485613444
40
0.141998783438266
40
0.141998783438266
40
0.141998783438266
40
0.141998783438266
10
6.2035890438592354
20
11.275209918408493
30
0
10
6.197597410739915
20
11.265197812202331
30
0
10
6.184034130238115
20
11.242533372944516
30
0
10
6.1817738630001067
20
11.216112939283269
30
0
10
6.1805120778063181
20
11.201363837298054
30
0
0
SPLINE
5
429
100
AcDbEntity
8
0
100
AcDbSpline
70
0
71
3
72
9
73
5
74
0
42
0.000000001
43
0.0000000001
44
0.0000000001
40
0
40
0
40
0
40
0
40
0.017459030302582987
40
0.030881722100660303
40
0.030881722100660303
40
0.030881722100660303
40
0.030881722100660303
10
6.1805120778063181
20
11.201363837298054
30
0
10
6.1804890857496755
20
11.198148332771579
30
0
10
6.1804484171505933
20
11.192460713500688
30
0
10
6.1794205374063997
20
11.186870431139811
30
0
10
6.1789737710969677
20
11.184440623729795
30
0
0
SPLINE
5
430
100
AcDbEntity
8
0
100
AcDbSpline
70
0
71
3
72
9
73
5
74
0
42
0.000000001
43
0.0000000001
44
0.0000000001
40
0
40
0
40
0
40
0
40
0.021733242002062697
40
0.053755834677310238
40
0.053755834677310238
40
0.053755834677310238
40
0.053755834677310238
10
6.1789737710969677
20
11.184440623729795
30
0
10
6.1786697333144396
20
11.180454281557211
30
0
10
6.1779177145971387
20
11.170594309870689
30
0
10
6.1756871078193001
20
11.160953173514741
30
0
10
6.1743583253216583
20
11.155209905192219
30
0
0
LINE
5
431
100
AcDbEntity
8
0
100
AcDbLine
10
6.1743583253216583
20
11.155209905192217
30
0
11
6.0297430393431153
21
11.073671502064141
31
0
0
SPLINE
5
432
100
AcDbEntity
8
0
100
AcDbSpline
70
0
71
3
72
9
73
5
74
0
42
0.000000001
43
0.0000000001
44
0.0000000001
40
0
40
0
40
0
40
0
40
0.35878825701595801
40
0.69987722144234688
40
0.69987722144234688
40
0.69987722144234688
40
0.69987722144234688
10
6.1528199288017191
20
12.024440716243712
30
0
10
6.2075458438753586
20
12.063471773242664
30
0
10
6.3142980037737395
20
12.139608456058259
30
0
10
6.4446679980258361
20
12.152166549116098
30
0
10
6.5082045226752312
20
12.158286803962287
30
0
0
SPLINE
5
433
100
AcDbEntity
8
0
100
AcDbSpline
70
0
71
3
72
9
73
5
74
0
42
0.000000001
43
0.0000000001
44
0.0000000001
40
0
40
0
40
0
40
0
40
0.42265689282320879
40
0.8906636256805408
40
0.8906636256805408
40
0.8906636256805408
40
0.8906636256805408
10
6.5082045226752312
20
12.158286803962287
30
0
10
6.5872329659386537
20
12.147846053502025
30
0
10
6.7537693717185769
20
12.125844290801206
30
0
10
6.8751783781989939
20
12.008943831057167
30
0
10
6.9389737671921594
20
11.947517496067317
30
0
0
SPLINE
5
434
100
AcDbEntity
8
0
100
AcDbSpline
70
0
71
3
72
9
73
5
74
0
42
0.000000001
43
0.0000000001
44
0.0000000001
40
0
40
0
40
0
40
0
40
0.30815061921659243
40
0.60164229403870961
40
0.60164229403870961
40
0.60164229403870961
40
0.60164229403870961
10
6.9389737671921594
20
11.947517496067317
30
0
10
6.9754204960639639
20
11.903678551331568
30
0
10
7.0465801569609194
20
11.818086111679474
30
0
10
7.0879994156878166
20
11.714817109218865
30
0
10
7.1082044573447849
20
11.664440676594891
30
0
0
SPLINE
5
435
100
AcDbEntity
8
0
100
AcDbSpline
70
0
71
3
72
9
73
5
74
0
42
0.000000001
43
0.0000000001
44
0.0000000001
40
0
40
0
40
0
40
0
40
0.22375387475350825
40
0.49457668580148273
40
0.49457668580148273
40
0.49457668580148273
40
0.49457668580148273
10
7.9205122694422903
20
9.1198248634672368
30
0
10
7.9009578441104749
20
9.1592186256843533
30
0
10
7.857735518311574
20
9.2462930344741672
30
0
10
7.7591251907110763
20
9.2520545828342247
30
0
10
7.7051276471838257
20
9.2552095207187914
30
0
0
LINE
5
436
100
AcDbEntity
8
0
100
AcDbLine
10
7.7051276471838257
20
9.2552095207187914
30
0
11
6.2728199420179935
21
9.2552095207187914
31
0
0
SPLINE
5
437
100
AcDbEntity
8
0
100
AcDbSpline
70
0
71
3
72
9
73
5
74
0
42
0.000000001
43
0.0000000001
44
0.0000000001
40
0
40
0
40
0
40
0
40
0.13369061863004938
40
0.23697021428706094
40
0.23697021428706094
40
0.23697021428706094
40
0.23697021428706094
10
6.2728199420179935
20
9.2552095207187914
30
0
10
6.248025998318302
20
9.2548507169457785
30
0
10
6.2040780668049065
20
9.2542147276157145
30
0
10
6.1630214585859271
20
9.2388353883687397
30
0
10
6.1451276067840794
20
9.2321325546658741
30
0
0
SPLINE
5
438
100
AcDbEntity
8
0
100
AcDbSpline
70
0
71
3
72
9
73
5
74
0
42
0.000000001
43
0.0000000001
44
0.0000000001
40
0
40
0
40
0
40
0
40
0.083973836499679197
40
0.19418678181899113
40
0.19418678181899113
40
0.19418678181899113
40
0.19418678181899113
10
6.1451276067840794
20
9.2321325546658741
30
0
10
6.1328343372024285
20
9.2224385044029376
30
0
10
6.1044065487673569
20
9.2000213266030588
30
0
10
6.0901450192969273
20
9.1665274013132603
30
0
10
6.0820507239336132
20
9.1475175381190983
30
0
0
LINE
5
439
100
AcDbEntity
8
0
100
AcDbLine
10
6.0820507239336141
20
9.1475175381190983
30
0
11
5.9771628196036248
21
9.1475175381190983
31
0
0
SPLINE
5
440
100
AcDbEntity
8
0
100
AcDbSpline
70
0
71
3
72
9
73
5
74
0
42
0.000000001
43
0.0000000001
44
0.0000000001
40
0
40
0
40
0
40
0
40
0.31340976637855567
40
0.63256443544533236
40
0.63256443544533236
40
0.63256443544533236
40
0.63256443544533236
10
6.1158968882465015
20
9.6382865264205311
30
0
10
6.1559404137607903
20
9.6800787721289243
30
0
10
6.2367614756022096
20
9.7644293289669974
30
0
10
6.3374187774883906
20
9.823744223361949
30
0
10
6.3882045094589568
20
9.8536710172671818
30
0
0
SPLINE
5
441
100
AcDbEntity
8
0
100
AcDbSpline
70
0
71
3
72
9
73
5
74
0
42
0.000000001
43
0.0000000001
44
0.0000000001
40
0
40
0
40
0
40
0
40
0.52183046088122886
40
1.0977881810255772
40
1.0977881810255772
40
1.0977881810255772
40
1.0977881810255772
10
6.3882045094589568
20
9.8536710172671818
30
0
10
6.4770881787364054
20
9.8917869937520972
30
0
10
6.6640750431179754
20
9.9719725552134388
30
0
10
6.8675858438745019
20
9.9801501126080296
30
0
10
6.9743583696262128
20
9.9844404915670548
30
0
0
SPLINE
5
442
100
AcDbEntity
8
0
100
AcDbSpline
70
0
71
3
72
9
73
5
74
0
42
0.000000001
43
0.0000000001
44
0.0000000001
40
0
40
0
40
0
40
0
40
0.5635339605459635
40
1.0825635122943851
40
1.0825635122943851
40
1.0825635122943851
40
1.0825635122943851
10
6.9743583696262128
20
9.9844404915670548
30
0
10
7.0786129732850318
20
9.9804213450312513
30
0
10
7.2788888001409786
20
9.9727004591666102
30
0
10
7.4661265840026925
20
9.901604305496706
30
0
10
7.5558967840181568
20
9.8675176174167412
30
0
0
SPLINE
5
443
100
AcDbEntity
8
0
100
AcDbSpline
70
0
71
3
72
9
73
5
74
0
42
0.000000001
43
0.0000000001
44
0.0000000001
40
0
40
0
40
0
40
0
40
0.48537232649218714
40
0.95441454034486251
40
0.95441454034486251
40
0.95441454034486251
40
0.95441454034486251
10
7.5558967840181568
20
9.8675176174167412
30
0
10
7.6355314446913862
20
9.824954543437789
30
0
10
7.7921214971388526
20
9.7412604091205957
30
0
10
7.9008998571635098
20
9.601042146107245
30
0
10
7.9543584337551776
20
9.5321325877065579
30
0
0
SPLINE
5
444
100
AcDbEntity
8
0
100
AcDbSpline
70
0
71
3
72
9
73
5
74
0
42
0.000000001
43
0.0000000001
44
0.0000000001
40
0
40
0
40
0
40
0
40
0.27144458790373172
40
0.54046131842865208
40
0.54046131842865208
40
0.54046131842865208
40
0.54046131842865208
10
7.9543584337551776
20
9.5321325877065579
30
0
10
7.9805483978158493
20
9.4894214428218149
30
0
10
8.0326940774005493
20
9.4043811704985654
30
0
10
8.0615391417420206
20
9.308892921705489
30
0
10
8.0758968850926163
20
9.2613632732034503
30
0
0
SPLINE
5
445
100
AcDbEntity
8
0
100
AcDbSpline
70
0
71
3
72
9
73
5
74
0
42
0.000000001
43
0.0000000001
44
0.0000000001
40
0
40
0
40
0
40
0
40
0.12045862119579562
40
0.25880019542637656
40
0.25880019542637656
40
0.25880019542637656
40
0.25880019542637656
10
8.0758968850926163
20
9.2613632732034503
30
0
10
8.0803783471204866
20
9.2396403540813363
30
0
10
8.0900065766078839
20
9.1929695914723499
30
0
10
8.0908374082819829
20
9.1453043209104461
30
0
10
8.0912815291278974
20
9.1198248634672368
30
0
0
SPLINE
5
446
100
AcDbEntity
8
0
100
AcDbSpline
70
0
71
3
72
9
73
5
74
0
42
0.000000001
43
0.0000000001
44
0.0000000001
40
0
40
0
40
0
40
0
40
0.41922524174294606
40
0.76881233737610266
40
0.76881233737610266
40
0.76881233737610266
40
0.76881233737610266
10
8.0897429595949149
20
8.9936710977663044
30
0
10
8.0813462358208099
20
8.916790834038224
30
0
10
8.0659475809014829
20
8.7758010047780868
30
0
10
8.0188507740594499
20
8.642140305975861
30
0
10
7.9974353582068707
20
8.5813633735269867
30
0
0
SPLINE
5
447
100
AcDbEntity
8
0
100
AcDbSpline
70
0
71
3
72
9
73
5
74
0
42
0.000000001
43
0.0000000001
44
0.0000000001
40
0
40
0
40
0
40
0
40
0.082163204979849094
40
0.14021069769680125
40
0.14021069769680125
40
0.14021069769680125
40
0.14021069769680125
10
7.9974353582068707
20
8.5813633735269867
30
0
10
7.9912174331762662
20
8.5674886451484262
30
0
10
7.9806066055316878
20
8.5438115582238279
30
0
10
7.9772757929516835
20
8.5181437947855976
30
0
10
7.9758968302751159
20
8.5075172924165514
30
0
0
SPLINE
5
448
100
AcDbEntity
8
0
100
AcDbSpline
70
0
71
3
72
9
73
5
74
0
42
0.000000001
43
0.0000000001
44
0.0000000001
40
0
40
0
40
0
40
0
40
0.039771691418436048
40
0.072712433732228077
40
0.072712433732228077
40
0.072712433732228077
40
0.072712433732228077
10
7.9758968302751159
20
8.5075172924165514
30
0
10
7.9761688389277667
20
8.5000494756840705
30
0
10
7.9766661376451475
20
8.4863964699928598
30
0
10
7.9840776798303787
20
8.4749918417472792
30
0
10
7.9874353133015781
20
8.4698252299184702
30
0
0
SPLINE
5
449
100
AcDbEntity
8
0
100
AcDbSpline
70
0
71
3
72
9
73
5
74
0
42
0.000000001
43
0.0000000001
44
0.0000000001
40
0
40
0
40
0
40
0
40
0.053864659906339457
40
0.15288986373955266
40
0.15288986373955266
40
0.15288986373955266
40
0.15288986373955266
10
7.9874353133015781
20
8.4698252299184702
30
0
10
7.9947236947823423
20
8.4631220968724072
30
0
10
8.0154110926683373
20
8.4440958726314417
30
0
10
8.0381148968579037
20
8.4274981641008111
30
0
10
8.052819919039699
20
8.4167479977378523
30
0
0
SPLINE
5
450
100
AcDbEntity
8
0
100
AcDbSpline
70
0
71
3
72
9
73
5
74
0
42
0.000000001
43
0.0000000001
44
0.0000000001
40
0
40
0
40
0
40
0
40
0.077030889393343224
40
0.14828178230327682
40
0.14828178230327682
40
0.14828178230327682
40
0.14828178230327682
10
8.052819919039699
20
8.4167479977378523
30
0
10
8.0640328211545746
20
8.4072301342253493
30
0
10
8.0856172676471481
20
8.3889085780747052
30
0
10
8.0894431527322812
20
8.3609509986504325
30
0
10
8.0912815291278974
20
8.3475170995790968
30
0
0
SPLINE
5
451
100
AcDbEntity
8
0
100
AcDbSpline
70
0
71
3
72
9
73
5
74
0
42
0.000000001
43
0.0000000001
44
0.0000000001
40
0
40
0
40
0
40
0
40
0.06751193732112315
40
0.12187108426684007
40
0.12187108426684007
40
0.12187108426684007
40
0.12187108426684007
10
8.0912815291278974
20
8.3475170995790968
30
0
10
8.0907947031750069
20
8.3346387143990395
30
0
10
8.0899158955288044
20
8.3113909329284184
30
0
10
8.0743695435960134
20
8.2943492921238526
30
0
10
8.0674352783084871
20
8.2867480710281018
30
0
0
SPLINE
5
452
100
AcDbEntity
8
0
100
AcDbSpline
70
0
71
3
72
9
73
5
74
0
42
0.000000001
43
0.0000000001
44
0.0000000001
40
0
40
0
40
0
40
0
40
0.062399696580977972
40
0.14895100505221509
40
0.14895100505221509
40
0.14895100505221509
40
0.14895100505221509
10
8.0674352783084871
20
8.2867480710281018
30
0
10
8.0570339594169802
20
8.2816210703831796
30
0
10
8.0322055229397549
20
8.2693826791600262
30
0
10
8.004375724222248
20
8.2691759563962535
30
0
10
7.9882045980680676
20
8.2690558355169816
30
0
0
LINE
5
453
100
AcDbEntity
8
0
100
AcDbLine
10
7.9882045980680676
20
8.2690558355169816
30
0
11
7.3897429701078616
21
8.2690558355169816
31
0
0
SPLINE
5
454
100
AcDbEntity
8
0
100
AcDbSpline
70
0
71
3
72
9
73
5
74
0
42
0.000000001
43
0.0000000001
44
0.0000000001
40
0
40
0
40
0
40
0
40
0.16382725830929956
40
0.29249613457393442
40
0.29249613457393442
40
0.29249613457393442
40
0.29249613457393442
10
7.3897429701078607
20
8.2690558355169816
30
0
10
7.3558004210061627
20
8.2705656108540762
30
0
10
7.2951996118838505
20
8.2732611540422667
30
0
10
7.2796571043842517
20
8.3301736488551388
30
0
10
7.2728199645457314
20
8.3552094215967365
30
0
0
SPLINE
5
455
100
AcDbEntity
8
0
100
AcDbSpline
70
0
71
3
72
9
73
5
74
0
42
0.000000001
43
0.0000000001
44
0.0000000001
40
0
40
0
40
0
40
0
40
0.068836489576472121
40
0.1260272898942319
40
0.1260272898942319
40
0.1260272898942319
40
0.1260272898942319
10
7.2728199645457314
20
8.3552094215967365
30
0
10
7.2733717617618048
20
8.3682365235998084
30
0
10
7.2743820036864113
20
8.3920868153669215
30
0
10
7.2891810410871933
20
8.4106373934007088
30
0
10
7.2958967991868366
20
8.4190555892136931
30
0
0
SPLINE
5
456
100
AcDbEntity
8
0
100
AcDbSpline
70
0
71
3
72
9
73
5
74
0
42
0.000000001
43
0.0000000001
44
0.0000000001
40
0
40
0
40
0
40
0
40
0.072104417136754639
40
0.18034115091852737
40
0.18034115091852737
40
0.18034115091852737
40
0.18034115091852737
10
7.2958967991868366
20
8.4190555892136931
30
0
10
7.3070782616462324
20
8.4262867033908879
30
0
10
7.3350443404102483
20
8.444372522608667
30
0
10
7.3673043538212788
20
8.453067947152384
30
0
10
7.3866660938655313
20
8.4582867468920124
30
0
0
SPLINE
5
457
100
AcDbEntity
8
0
100
AcDbSpline
70
0
71
3
72
9
73
5
74
0
42
0.000000001
43
0.0000000001
44
0.0000000001
40
0
40
0
40
0
40
0
40
0.17908131359627547
40
0.39477349219313568
40
0.39477349219313568
40
0.39477349219313568
40
0.39477349219313568
10
7.3866660938655313
20
8.4582867468920124
30
0
10
7.4180594793152137
20
8.4683115704697585
30
0
10
7.4872642229976041
20
8.4904106635182348
30
0
10
7.5520424901829424
20
8.5233604415641473
30
0
10
7.5874353568552078
20
8.5413631939058057
30
0
0
SPLINE
5
458
100
AcDbEntity
8
0
100
AcDbSpline
70
0
71
3
72
9
73
5
74
0
42
0.000000001
43
0.0000000001
44
0.0000000001
40
0
40
0
40
0
40
0
40
0.21443219617254825
40
0.38960892141378967
40
0.38960892141378967
40
0.38960892141378967
40
0.38960892141378967
10
7.5874353568552078
20
8.5413631939058057
30
0
10
7.6222157738783292
20
8.5600280775839082
30
0
10
7.6854094593629299
20
8.5939409196287908
30
0
10
7.7425243991169683
20
8.6372674602420432
30
0
10
7.7682045300342919
20
8.6567480241704011
30
0
0
SPLINE
5
459
100
AcDbEntity
8
0
100
AcDbSpline
70
0
71
3
72
9
73
5
74
0
42
0.000000001
43
0.0000000001
44
0.0000000001
40
0
40
0
40
0
40
0
40
0.17146417862615518
40
0.33082604875910437
40
0.33082604875910437
40
0.33082604875910437
40
0.33082604875910437
10
7.7682045300342919
20
8.6567480241704011
30
0
10
7.7919049528172986
20
8.6779018837341937
30
0
10
7.8376329718475448
20
8.7187165182051825
30
0
10
7.8670912092521483
20
8.7724179657461541
30
0
10
7.8812815059994179
20
8.7982864339066129
30
0
0
SPLINE
5
460
100
AcDbEntity
8
0
100
AcDbSpline
70
0
71
3
72
9
73
5
74
0
42
0.000000001
43
0.0000000001
44
0.0000000001
40
0
40
0
40
0
40
0
40
0.1680403060896784
40
0.36429687123572596
40
0.36429687123572596
40
0.36429687123572596
40
0.36429687123572596
10
7.8812815059994179
20
8.7982864339066129
30
0
10
7.8921368471744664
20
8.8273530459815284
30
0
10
7.915670289348494
20
8.8903669506971124
30
0
10
7.920816657918877
20
8.9575030614056566
30
0
10
7.9235891456846188
20
8.9936710977663044
30
0
0
SPLINE
5
461
100
AcDbEntity
8
0
100
AcDbSpline
70
0
71
3
72
9
73
5
74
0
42
0.000000001
43
0.0000000001
44
0.0000000001
40
0
40
0
40
0
40
0
40
0.17215316098445457
40
0.37490120621404122
40
0.37490120621404122
40
0.37490120621404122
40
0.37490120621404122
10
6.206666182925197
20
8.2982865540545614
30
0
10
6.1853186401703963
20
8.3217005867260507
30
0
10
6.138829691128076
20
8.3726897700827738
30
0
10
6.1014801939691132
20
8.4307394259453172
30
0
10
6.0812814391671219
20
8.4621329079008341
30
0
0
SPLINE
5
462
100
AcDbEntity
8
0
100
AcDbSpline
70
0
71
3
72
9
73
5
74
0
42
0.000000001
43
0.0000000001
44
0.0000000001
40
0
40
0
40
0
40
0
40
0.20802738212311322
40
0.39549453363521769
40
0.39549453363521769
40
0.39549453363521769
40
0.39549453363521769
10
6.0812814391671219
20
8.4621329079008341
30
0
10
6.0614826448568042
20
8.4948792099561103
30
0
10
6.0238418552531332
20
8.5571353578124771
30
0
10
5.9944460476465844
20
8.6236714236712366
30
0
10
5.9805122309949486
20
8.6552099802846829
30
0
0
LINE
5
463
100
AcDbEntity
8
0
100
AcDbLine
10
5.9771628196036248
20
9.0167480638192234
30
0
11
6.0820507239336132
21
9.0167480638192234
31
0
0
SPLINE
5
464
100
AcDbEntity
8
0
100
AcDbSpline
70
0
71
3
72
9
73
5
74
0
42
0.000000001
43
0.0000000001
44
0.0000000001
40
0
40
0
40
0
40
0
40
0.074057165204832826
40
0.13085430810271373
40
0.13085430810271373
40
0.13085430810271373
40
0.13085430810271373
10
6.0820507239336132
20
9.0167480638192234
30
0
10
6.0853994478564992
20
9.0034822431142718
30
0
10
6.0913164303759384
20
8.9800423803412386
30
0
10
6.1030929731119272
20
8.9589712009141849
30
0
10
6.1082045662288618
20
8.949825282783566
30
0
0
SPLINE
5
465
100
AcDbEntity
8
0
100
AcDbSpline
70
0
71
3
72
9
73
5
74
0
42
0.000000001
43
0.0000000001
44
0.0000000001
40
0
40
0
40
0
40
0
40
0.050156445739473407
40
0.10454985218437401
40
0.10454985218437401
40
0.10454985218437401
40
0.10454985218437401
10
6.1082045662288618
20
8.949825282783566
30
0
10
6.1140196837643597
20
8.94258267274434
30
0
10
6.1261411503038508
20
8.9274856339118056
30
0
10
6.1426779015560316
20
8.9173867624938463
30
0
10
6.1512813592687392
20
8.9121326946382293
30
0
0
SPLINE
5
466
100
AcDbEntity
8
0
100
AcDbSpline
70
0
71
3
72
9
73
5
74
0
42
0.000000001
43
0.0000000001
44
0.0000000001
40
0
40
0
40
0
40
0
40
0.1046286899913131
40
0.22731867000245659
40
0.22731867000245659
40
0.22731867000245659
40
0.22731867000245659
10
6.1512813592687392
20
8.9121326946382293
30
0
10
6.1691153345124414
20
8.904517375753823
30
0
10
6.2078618344790533
20
8.8879721608553961
30
0
10
6.2500499078625387
20
8.8866777457167654
30
0
10
6.2728199420179935
20
8.8859791151666112
30
0
0
LINE
5
467
100
AcDbEntity
8
0
100
AcDbLine
10
6.2728199420179935
20
8.8859791151666112
30
0
11
6.7220507068125306
21
8.8859791151666112
31
0
0
SPLINE
5
468
100
AcDbEntity
8
0
100
AcDbSpline
70
0
71
3
72
9
73
5
74
0
42
0.000000001
43
0.0000000001
44
0.0000000001
40
0
40
0
40
0
40
0
40
0.09408934992235235
40
0.16430425914753707
40
0.16430425914753707
40
0.16430425914753707
40
0.16430425914753707
10
6.7220507068125288
20
8.8859791151666112
30
0
10
6.7397219891146785
20
8.8862391846098099
30
0
10
6.7705806032855449
20
8.8866933328978721
30
0
10
6.7969399651797904
20
8.9023603184790669
30
0
10
6.8082045557159159
20
8.9090555555722677
30
0
0
SPLINE
5
469
100
AcDbEntity
8
0
100
AcDbSpline
70
0
71
3
72
9
73
5
74
0
42
0.000000001
43
0.0000000001
44
0.0000000001
40
0
40
0
40
0
40
0
40
0.029934537105291745
40
0.052975714548983921
40
0.052975714548983921
40
0.052975714548983921
40
0.052975714548983921
10
6.8082045557159159
20
8.9090555555722677
30
0
10
6.8127248445142206
20
8.9123419416036267
30
0
10
6.8207244848031552
20
8.9181579209081523
30
0
10
6.8254012538704627
20
8.9268248825188881
30
0
10
6.8274353607600151
20
8.9305944777394668
30
0
0
SPLINE
5
470
100
AcDbEntity
8
0
100
AcDbSpline
70
0
71
3
72
9
73
5
74
0
42
0.000000001
43
0.0000000001
44
0.0000000001
40
0
40
0
40
0
40
0
40
0.043422488569651196
40
0.13236429009193312
40
0.13236429009193312
40
0.13236429009193312
40
0.13236429009193312
10
6.8274353607600151
20
8.9305944777394668
30
0
10
6.8295948546356167
20
8.9382754902956574
30
0
10
6.8361776158549201
20
8.9616894356423451
30
0
10
6.8415306443029289
20
8.9854186457500198
30
0
10
6.8451275962711353
20
9.0013634197839458
30
0
0
SPLINE
5
471
100
AcDbEntity
8
0
100
AcDbSpline
70
0
71
3
72
9
73
5
74
0
42
0.000000001
43
0.0000000001
44
0.0000000001
40
0
40
0
40
0
40
0
40
0.1149484447957317
40
0.2208676439067305
40
0.2208676439067305
40
0.2208676439067305
40
0.2208676439067305
10
6.8451275962711353
20
9.0013634197839458
30
0
10
6.8528392981023449
20
9.0228910020591737
30
0
10
6.867656944543735
20
9.0642551665294899
30
0
10
6.9106592680745553
20
9.0716589469246767
30
0
10
6.9312814451745188
20
9.0752095008943812
30
0
0
SPLINE
5
472
100
AcDbEntity
8
0
100
AcDbSpline
70
0
71
3
72
9
73
5
74
0
42
0.000000001
43
0.0000000001
44
0.0000000001
40
0
40
0
40
0
40
0
40
0.066089979738233467
40
0.13294781625170449
40
0.13294781625170449
40
0.13294781625170449
40
0.13294781625170449
10
6.9312814451745188
20
9.0752095008943812
30
0
10
6.9438659865367853
20
9.0737339171413112
30
0
10
6.9691812809167963
20
9.0707656057808883
30
0
10
6.9849100723726938
20
9.0506902361728816
30
0
10
6.9928198899038225
20
9.0405945774622651
30
0
0
SPLINE
5
473
100
AcDbEntity
8
0
100
AcDbSpline
70
0
71
3
72
9
73
5
74
0
42
0.000000001
43
0.0000000001
44
0.0000000001
40
0
40
0
40
0
40
0
40
0.08314136181416526
40
0.19139404508142954
40
0.19139404508142954
40
0.19139404508142954
40
0.19139404508142954
10
6.9928198899038225
20
9.0405945774622651
30
0
10
6.9990746089224389
20
9.0264992047099586
30
0
10
7.013473169971955
20
8.9940512107256438
30
0
10
7.0140385224422213
20
8.9584326800456395
30
0
10
7.0143582864237608
20
8.9382867997571083
30
0
0
LINE
5
474
100
AcDbEntity
8
0
100
AcDbLine
10
7.0143582864237608
20
8.93828679975711
30
0
11
7.0143582864237608
21
8.8875171590523294
31
0
0
LINE
5
475
100
AcDbEntity
8
0
100
AcDbLine
10
7.0143582864237608
20
8.8875171590523294
30
0
11
7.0143582864237608
21
8.3244401335261795
31
0
0
SPLINE
5
476
100
AcDbEntity
8
0
100
AcDbSpline
70
0
71
3
72
9
73
5
74
0
42
0.000000001
43
0.0000000001
44
0.0000000001
40
0
40
0
40
0
40
0
40
0.10746649942513964
40
0.18231878342264424
40
0.18231878342264424
40
0.18231878342264424
40
0.18231878342264424
10
7.0143582864237608
20
8.3244401335261795
30
0
10
7.0143177003305794
20
8.3044128110195068
30
0
10
7.0142488453183471
20
8.270436110427589
30
0
10
7.0006930441669484
20
8.2394639195115325
30
0
10
6.9951276127914772
20
8.2267480644199651
30
0
0
SPLINE
5
477
100
AcDbEntity
8
0
100
AcDbSpline
70
0
71
3
72
9
73
5
74
0
42
0.000000001
43
0.0000000001
44
0.0000000001
40
0
40
0
40
0
40
0
40
0.061519427502688719
40
0.13626058749648215
40
0.13626058749648215
40
0.13626058749648215
40
0.13626058749648215
10
6.9951276127914772
20
8.2267480644199651
30
0
10
6.9868762204656543
20
8.2184671835282828
30
0
10
6.9686000496425224
20
8.2001256979018269
30
0
10
6.9425134792739689
20
8.1989382358319123
30
0
10
6.9282045689321903
20
8.1982868934725062
30
0
0
SPLINE
5
478
100
AcDbEntity
8
0
100
AcDbSpline
70
0
71
3
72
9
73
5
74
0
42
0.000000001
43
0.0000000001
44
0.0000000001
40
0
40
0
40
0
40
0
40
0.048778691246433581
40
0.091215683671789852
40
0.091215683671789852
40
0.091215683671789852
40
0.091215683671789852
10
6.9282045689321903
20
8.1982868934725062
30
0
10
6.9191381224624262
20
8.1986188248808727
30
0
10
6.9021839547289181
20
8.1992395334233308
30
0
10
6.8868684148464236
20
8.2064638329608126
30
0
10
6.8797430453505122
20
8.2098248508517049
30
0
0
SPLINE
5
479
100
AcDbEntity
8
0
100
AcDbSpline
70
0
71
3
72
9
73
5
74
0
42
0.000000001
43
0.0000000001
44
0.0000000001
40
0
40
0
40
0
40
0
40
0.046593730565456945
40
0.10713205002897427
40
0.10713205002897427
40
0.10713205002897427
40
0.10713205002897427
10
6.8797430453505122
20
8.2098248508517049
30
0
10
6.8728740698515116
20
8.2150100062650484
30
0
10
6.8570803693283713
20
8.2269321323195381
30
0
10
6.8455112215743954
20
8.2430338450066412
30
0
10
6.8389737123746581
20
8.2521326219487214
30
0
0
SPLINE
5
480
100
AcDbEntity
8
0
100
AcDbSpline
70
0
71
3
72
9
73
5
74
0
42
0.000000001
43
0.0000000001
44
0.0000000001
40
0
40
0
40
0
40
0
40
0.058967094954062688
40
0.10155625439812063
40
0.10155625439812063
40
0.10155625439812063
40
0.10155625439812063
10
6.8389737123746581
20
8.2521326219487214
30
0
10
6.832617417180419
20
8.2610814649807676
30
0
10
6.8216702689059678
20
8.2764936364679187
30
0
10
6.805679595990485
20
8.2864280744260945
30
0
10
6.7989736641652971
20
8.2905942320369199
30
0
0
SPLINE
5
481
100
AcDbEntity
8
0
100
AcDbSpline
70
0
71
3
72
9
73
5
74
0
42
0.000000001
43
0.0000000001
44
0.0000000001
40
0
40
0
40
0
40
0
40
0.048591389652648899
40
0.12403477111002786
40
0.12403477111002786
40
0.12403477111002786
40
0.12403477111002786
10
6.7989736641652971
20
8.2905942320369199
30
0
10
6.7902949031234652
20
8.2928132453239733
30
0
10
6.7681414280523224
20
8.298477516445196
30
0
10
6.7452219600350176
20
8.2983587767430862
30
0
10
6.7312813355395198
20
8.2982865540545614
30
0
0
LINE
5
482
100
AcDbEntity
8
0
100
AcDbLine
10
6.7312813355395198
20
8.2982865540545614
30
0
11
6.206666182925197
21
8.2982865540545614
31
0
0
LWPOLYLINE
5
483
100
AcDbEntity
8
0
100
AcDbPolyline
90
2
70
1
43
0.0
10
5.5808686690744542
20
7.7708822934851725
10
5.5808686690744551
20
15.059006498936442
42
0.40339016177928033
0
LINE
5
484
100
AcDbEntity
8
0
100
AcDbLine
10
5.9291408322476382
20
7.4410179992691079
30
0
11
5.9771628196036248
21
7.4410179992691079
31
0
0
ARC
5
485
100
AcDbEntity
8
0
100
AcDbCircle
10
-9.362675224369374
20
11.414944396210807
30
0
40
5.251785356447157
210
-0
220
0
230
-1
100
AcDbArc
50
281.76758091289599
51
310.82752722887523
0
SPLINE
5
486
100
AcDbEntity
8
0
100
AcDbSpline
70
0
71
3
72
8
73
4
74
0
42
0.000000001
43
0.0000000001
44
0.0000000001
40
0
40
0
40
0
40
0
40
0.018040012040525463
40
0.018040012040525463
40
0.018040012040525463
40
0.018040012040525463
10
5.9805122309949486
20
8.6552099802846829
30
0
10
5.979394981499409
20
8.6583344478415274
30
0
10
5.9782777320038694
20
8.6614589153983719
30
0
10
5.9771628196069564
20
8.6645840518400981
30
0
0
LINE
5
487
100
AcDbEntity
8
0
100
AcDbLine
10
5.9771628196036248
20
7.4410179992691079
30
0
11
5.9771628196069573
21
8.6645840518400981
31
0
0
LINE
5
488
100
AcDbEntity
8
0
100
AcDbLine
10
5.9771628196036248
20
9.0167480638192234
30
0
11
5.9771628196036248
21
9.1475175381190983
31
0
0
SPLINE
5
489
100
AcDbEntity
8
0
100
AcDbSpline
70
0
71
3
72
9
73
5
74
0
42
0.000000001
43
0.0000000001
44
0.0000000001
40
0.14499760391496724
40
0.14499760391496724
40
0.14499760391496724
40
0.14499760391496724
40
0.30665483224292911
40
0.61571477371869332
40
0.61571477371869332
40
0.61571477371869332
40
0.61571477371869332
10
5.9771628257550491
20
9.420227738958193
30
0
10
5.9890532383997375
20
9.4474989126115307
30
0
10
6.026387593236544
20
9.525339249833138
30
0
10
6.080420420577525
20
9.5935205565209181
30
0
10
6.1158968882465015
20
9.6382865264205311
30
0
0
LINE
5
490
100
AcDbEntity
8
0
100
AcDbLine
10
5.9771628257550491
20
9.420227738958193
30
0
11
5.9771628228501017
21
10.150809522720534
31
0
0
SPLINE
5
491
100
AcDbEntity
8
0
100
AcDbSpline
70
0
71
3
72
9
73
5
74
0
42
0.000000001
43
0.0000000001
44
0.0000000001
40
0
40
0
40
0
40
0
40
0.19994125227310761
40
0.2037416809956778
40
0.2037416809956778
40
0.2037416809956778
40
0.2037416809956778
10
6.0297430393431162
20
11.073671502064141
30
0
10
6.0113581017724282
20
11.105597407154077
30
0
10
5.9926237083290168
20
11.138130151129525
30
0
10
5.9774447438570579
20
11.17225172127327
30
0
10
5.9771628217549857
20
11.172888739195663
30
0
0
SPLINE
5
492
100
AcDbEntity
8
0
100
AcDbSpline
70
0
71
3
72
8
73
4
74
0
42
0.000000001
43
0.0000000001
44
0.0000000001
40
0.59452043991033687
40
0.59452043991033687
40
0.59452043991033687
40
0.59452043991033687
40
1.1003348275664173
40
1.1003348275664173
40
1.1003348275664173
40
1.1003348275664173
10
5.9771628215059884
20
11.806798625660901
30
0
10
6.0188549709626553
20
11.887128491279457
30
0
10
6.0858374498821872
20
11.955784603761584
30
0
10
6.1528199288017191
20
12.024440716243712
30
0
0
LINE
5
493
100
AcDbEntity
8
0
100
AcDbLine
10
5.9771628218592632
20
10.907418323740893
30
0
11
5.9771628217549875
21
11.172888739195663
31
0
0
SPLINE
5
494
100
AcDbEntity
8
0
100
AcDbSpline
70
0
71
3
72
8
73
4
74
0
42
0.000000001
43
0.0000000001
44
0.0000000001
40
0
40
0
40
0
40
0
40
0.10380840419281484
40
0.10380840419281484
40
0.10380840419281484
40
0.10380840419281484
10
6.0312813460524639
20
12.327517625526729
30
0
10
6.0112502131437333
20
12.333401453793154
30
0
10
5.9912190802350018
20
12.339285282059585
30
0
10
5.9771626602332084
20
12.350007726469382
30
0
0
SPLINE
5
495
100
AcDbEntity
8
0
100
AcDbSpline
70
0
71
3
72
8
73
4
74
0
42
0.000000001
43
0.0000000001
44
0.0000000001
40
0
40
0
40
0
40
0
40
0.099914029706326069
40
0.099914029706326069
40
0.099914029706326069
40
0.099914029706326069
10
6.0297430393431162
20
13.40597917494021
30
0
10
6.0103248661946012
20
13.411338874349255
30
0
10
5.9909066930460853
20
13.416698573758298
30
0
10
5.9771625192956703
20
13.426756470212659
30
0
0
LINE
5
496
100
AcDbEntity
8
0
100
AcDbLine
10
5.977162535241682
20
13.306434964201136
30
0
11
5.9771625192956694
21
13.426756470212659
31
0
0
LINE
5
497
100
AcDbEntity
8
0
100
AcDbLine
10
5.977162387330119
20
14.374113200685876
30
0
11
5.9771622387652368
21
15.429860981567224
31
0
0
ARC
5
498
100
AcDbEntity
8
0
100
AcDbCircle
10
-9.362675224369374
20
11.414944396210807
30
0
40
5.2517857308789999
210
0
220
0
230
-1
100
AcDbArc
50
49.86128458415746
51
89.513885613861021
0
LINE
5
499
100
AcDbEntity
8
0
100
AcDbLine
10
8.0897429595949149
20
8.9936710977663044
30
0
11
8.0912815291278974
21
9.1198248634672385
31
0
0
LINE
5
500
100
AcDbEntity
8
0
100
AcDbLine
10
7.9205122694422903
20
9.1198248634672385
30
0
11
7.9235891456846188
21
8.9936710977663044
31
0
0
LINE
5
501
100
AcDbEntity
8
0
100
AcDbLine
10
8.0682045630749766
20
10.842902367182212
30
0
11
8.0866660833525863
21
10.978286761610136
31
0
0
LINE
5
502
100
AcDbEntity
8
0
100
AcDbLine
10
7.895896865268206
20
10.978286761610136
30
0
11
7.895896865268206
21
10.842902367182212
31
0
0
LINE
5
503
100
AcDbEntity
8
0
100
AcDbLine
10
6.7066660627772512
20
10.413671429374634
30
0
11
6.6490186311967099
21
10.520883757902899
31
0
0
LINE
5
504
100
AcDbEntity
8
0
100
AcDbLine
10
6.8543583564099384
20
10.49213269343675
30
0
11
6.7963138408084154
21
10.600083516314953
31
0
0
LINE
5
505
100
AcDbEntity
8
0
100
AcDbLine
10
6.6490186311967099
20
10.520883757902899
30
0
11
6.2235891336698259
21
10.29213284662538
31
0
0
LINE
5
506
100
AcDbEntity
8
0
100
AcDbLine
10
7.1082044573447849
20
11.664440676594891
30
0
11
7.149675013328384
21
11.561043776709473
31
0
0
LINE
5
507
100
AcDbEntity
8
0
100
AcDbLine
10
6.9651276094874088
20
11.593671471726784
30
0
11
7.0227570164436051
21
11.490292415821928
31
0
0
LINE
5
508
100
AcDbEntity
8
0
100
AcDbLine
10
5.9771628218592632
20
10.907418323740893
30
0
11
7.0227570164436051
21
11.490292415821928
31
0
0
LINE
5
509
100
AcDbEntity
8
0
100
AcDbLine
10
7.149675013328384
20
11.561043776709473
30
0
11
7.2082045121622862
21
11.593671471726784
31
0
0
LINE
5
510
100
AcDbEntity
8
0
100
AcDbLine
10
7.3266660872573954
20
10.74597932001886
30
0
11
7.2553774322204907
21
10.846919279891051
31
0
0
LINE
5
511
100
AcDbEntity
8
0
100
AcDbLine
10
7.4697429351147733
20
10.819825401129293
30
0
11
7.3968749155586861
21
10.923001635358286
31
0
0
LINE
5
512
100
AcDbEntity
8
0
100
AcDbLine
10
7.6112814762628016
20
11.038286768218274
30
0
11
7.3968749155586861
21
10.923001635358286
31
0
0
LINE
5
513
100
AcDbEntity
8
0
100
AcDbLine
10
7.2553774322204907
20
10.846919279891051
30
0
11
6.7963138408084154
21
10.600083516314953
31
0
0
CIRCLE
5
514
100
AcDbEntity
8
0
100
AcDbCircle
10
8.3203215683693355
20
5.0971703619006403
30
0
40
0.73964362453185728
210
0
220
0
230
1
0
CIRCLE
5
515
100
AcDbEntity
8
0
100
AcDbCircle
10
10.456509834866003
20
17.761715084702448
30
0
40
0.73964362453185728
210
0
220
0
230
1
0
SPLINE
5
516
100
AcDbEntity
8
0
100
AcDbSpline
70
0
71
3
72
9
73
5
74
0
42
0.000000001
43
0.0000000001
44
0.0000000001
40
0.01739472468635191
40
0.01739472468635191
40
0.01739472468635191
40
0.01739472468635191
40
0.061281669173439163
40
0.12451867430053637
40
0.12451867430053637
40
0.12451867430053637
40
0.12451867430053637
10
5.977162387330119
20
14.374113200685876
30
0
10
5.9828290961929875
20
14.380162797372689
30
0
10
5.9973424853783008
20
14.393597422279104
30
0
10
6.0177161403373818
20
14.395578798692304
30
0
10
6.0297430393431162
20
14.396748437329149
30
0
0
SPLINE
5
517
100
AcDbEntity
8
0
100
AcDbSpline
70
0
71
3
72
9
73
5
74
0
42
0.000000001
43
0.0000000001
44
0.0000000001
40
0.010743490865414157
40
0.010743490865414157
40
0.010743490865414157
40
0.010743490865414157
40
0.065278157884538807
40
0.13568774386727064
40
0.13568774386727064
40
0.13568774386727064
40
0.13568774386727064
10
5.977162535241682
20
13.306434964201136
30
0
10
5.9845365720275048
20
13.313657412551789
30
0
10
6.0018885719529207
20
13.329220585000014
30
0
10
6.0256074282392769
20
13.331083365081467
30
0
10
6.0389736680701054
20
13.332133093829778
30
0
0
LINE
5
518
100
AcDbEntity
8
0
100
AcDbLine
10
5.9771626602332102
20
12.350007726469384
30
0
11
5.9771628215059875
21
11.806798625660901
31
0
0
SPLINE
5
519
100
AcDbEntity
8
0
100
AcDbSpline
70
0
71
3
72
9
73
5
74
0
42
0.000000001
43
0.0000000001
44
0.0000000001
40
0
40
0
40
0
40
0
40
0.067194125585436817
40
0.11156184816266282
40
0.11156184816266282
40
0.11156184816266282
40
0.11156184816266282
10
6.0328199155854456
20
10.129056040369228
30
0
10
6.0200284257928223
20
10.129994501224642
30
0
10
5.9987908216185639
20
10.131552619981983
30
0
10
5.9831444388853585
20
10.144964822353044
30
0
10
5.9771628228501017
20
10.150809522720534
30
0
0
ENDSEC
0
SECTION
2
OBJECTS
0
DICTIONARY
5
C
100
AcDbDictionary
3
ACAD_GROUP
350
D
3
ACAD_MLINESTYLE
350
17
0
DICTIONARY
5
D
100
AcDbDictionary
0
DICTIONARY
5
1A
330
C
100
AcDbDictionary
0
DICTIONARY
5
17
100
AcDbDictionary
0
ENDSEC
0
EOF
