0
SECTION
2
HEADER
9
$INSUNITS
70
1
9
$ACADVER
1
AC1014
9
$HANDSEED
5
FFFF
0
ENDSEC
0
SECTION
2
TABLES
0
TABLE
2
VPORT
5
8
100
AcDbSymbolTable
0
ENDTAB
0
TABLE
2
LTYPE
5
5
100
AcDbSymbolTable
0
LTYPE
5
14
100
AcDbSymbolTableRecord
100
AcDbLinetypeTableRecord
2
BYBLOCK
70
0
0
LTYPE
5
15
100
AcDbSymbolTableRecord
100
AcDbLinetypeTableRecord
2
BYLAYER
70
0
0
ENDTAB
0
TABLE
2
LAYER
5
2
100
AcDbSymbolTable
70
2
0
LAYER
5
50
100
AcDbSymbolTableRecord
100
AcDbLayerTableRecord
2
0
70
0
6
CONTINUOUS
0
ENDTAB
0
TABLE
2
STYLE
5
3
100
AcDbSymbolTable
70
1
0
STYLE
5
11
100
AcDbSymbolTableRecord
100
AcDbTextStyleTableRecord
2
STANDARD
70
0
0
ENDTAB
0
TABLE
2
VIEW
5
6
100
AcDbSymbolTable
70
0
0
ENDTAB
0
TABLE
2
UCS
5
7
100
AcDbSymbolTable
70
0
0
ENDTAB
0
TABLE
2
APPID
5
9
100
AcDbSymbolTable
70
2
0
APPID
5
12
100
AcDbSymbolTableRecord
100
AcDbRegAppTableRecord
2
ACAD
70
0
0
ENDTAB
0
TABLE
2
DIMSTYLE
5
A
100
AcDbSymbolTable
70
1
0
ENDTAB
0
TABLE
2
BLOCK_RECORD
5
1
100
AcDbSymbolTable
70
1
0
BLOCK_RECORD
5
1F
100
AcDbSymbolTableRecord
100
AcDbBlockTableRecord
2
*MODEL_SPACE
0
BLOCK_RECORD
5
1B
100
AcDbSymbolTableRecord
100
AcDbBlockTableRecord
2
*PAPER_SPACE
0
ENDTAB
0
ENDSEC
0
SECTION
2
BLOCKS
0
BLOCK
5
20
100
AcDbEntity
100
AcDbBlockBegin
2
*MODEL_SPACE
0
ENDBLK
5
21
100
AcDbEntity
100
AcDbBlockEnd
0
BLOCK
5
1C
100
AcDbEntity
100
AcDbBlockBegin
2
*PAPER_SPACE
0
ENDBLK
5
1D
100
AcDbEntity
100
AcDbBlockEnd
0
ENDSEC
0
SECTION
2
ENTITIES
0
LINE
5
100
100
AcDbEntity
8
0
100
AcDbLine
10
9.0597054035165048
20
-0.26888208245557149
30
0
11
9.1863745251511286
21
-0.26999020295099402
31
0
0
LINE
5
101
100
AcDbEntity
8
0
100
AcDbLine
10
9.1863745251511286
20
-0.26999020295099402
30
0
11
9.3425719410685222
21
-0.42388325953823719
31
0
0
SPLINE
5
102
100
AcDbEntity
8
0
100
AcDbSpline
70
4
71
3
72
8
73
4
74
0
42
0.000000001
43
0.0000000001
44
0.0000000001
40
0
40
0
40
0
40
0
40
1
40
1
40
1
40
1
41
1
41
1
41
1
41
1
10
9.3425719410685222
20
-0.42388325953823719
30
0
10
9.4438498564531503
20
-0.5246878760975443
30
0
10
9.5333444355078143
20
-0.62097784352178975
30
0
10
9.540613122702716
20
-0.63727582898681467
30
0
0
SPLINE
5
103
100
AcDbEntity
8
0
100
AcDbSpline
70
4
71
3
72
8
73
4
74
0
42
0.000000001
43
0.0000000001
44
0.0000000001
40
0
40
0
40
0
40
0
40
1
40
1
40
1
40
1
41
1
41
1
41
1
41
1
10
9.540613122702716
20
-0.63727582898681467
30
0
10
9.5711910201609136
20
-0.71099255071361533
30
0
10
10.080417887245684
20
-0.6453741389936003
30
0
10
10.659608807711006
20
-0.49050820409960488
30
0
0
LINE
5
104
100
AcDbEntity
8
0
100
AcDbLine
10
10.659608807711006
20
-0.49050820409960499
30
0
11
10.884264677308046
21
-0.43111819897424264
31
0
0
LINE
5
105
100
AcDbEntity
8
0
100
AcDbLine
10
10.884264677308046
20
-0.43111819897424264
30
0
11
10.902554706075913
21
-0.52238372210970196
31
0
0
SPLINE
5
106
100
AcDbEntity
8
0
100
AcDbSpline
70
4
71
3
72
8
73
4
74
0
42
0.000000001
43
0.0000000001
44
0.0000000001
40
0
40
0
40
0
40
0
40
1
40
1
40
1
40
1
41
1
41
1
41
1
41
1
10
10.902554706075913
20
-0.52238372210970196
30
0
10
10.94690279557696
20
-0.73650705246139514
30
0
10
11.176294263157166
20
-0.87844802769242569
30
0
10
11.409721876306456
20
-0.8438808106121235
30
0
0
SPLINE
5
107
100
AcDbEntity
8
0
100
AcDbSpline
70
4
71
3
72
8
73
4
74
0
42
0.000000001
43
0.0000000001
44
0.0000000001
40
0
40
0
40
0
40
0
40
1
40
1
40
1
40
1
41
1
41
1
41
1
41
1
10
11.409721876306456
20
-0.8438808106121235
30
0
10
11.524806404634999
20
-0.82358830320389498
30
0
10
11.540352815690472
20
-0.81205722593389396
30
0
10
11.67551921589166
20
-0.61901960090183128
30
0
0
SPLINE
5
108
100
AcDbEntity
8
0
100
AcDbSpline
70
4
71
3
72
8
73
4
74
0
42
0.000000001
43
0.0000000001
44
0.0000000001
40
0
40
0
40
0
40
0
40
1
40
1
40
1
40
1
41
1
41
1
41
1
41
1
10
11.67551921589166
20
-0.61901960090183128
30
0
10
11.812441023887727
20
-0.42347499372653225
30
0
10
11.816204098575286
20
-0.40742926742052482
30
0
10
11.7989230915062
20
-0.27203662284787489
30
0
0
SPLINE
5
109
100
AcDbEntity
8
0
100
AcDbSpline
70
4
71
3
72
8
73
4
74
0
42
0.000000001
43
0.0000000001
44
0.0000000001
40
0
40
0
40
0
40
0
40
1
40
1
40
1
40
1
41
1
41
1
41
1
41
1
10
11.7989230915062
20
-0.27203662284787483
30
0
10
11.782393658785921
20
-0.14090636821327251
30
0
10
11.770111007167525
20
-0.12109756721967166
30
0
10
11.639747935717573
20
-0.029816361888607864
30
0
0
LINE
5
110
100
AcDbEntity
8
0
100
AcDbLine
10
11.639747935717574
20
-0.029816361888607843
30
0
11
11.4993569354417
21
0.068486474794056451
31
0
0
LINE
5
111
100
AcDbEntity
8
0
100
AcDbLine
10
11.4993569354417
20
0.068486474794056451
30
0
11
11.583616509469895
21
0.18882161749285808
31
0
0
SPLINE
5
112
100
AcDbEntity
8
0
100
AcDbSpline
70
4
71
3
72
8
73
4
74
0
42
0.000000001
43
0.0000000001
44
0.0000000001
40
0
40
0
40
0
40
0
40
1
40
1
40
1
40
1
41
1
41
1
41
1
41
1
10
11.583616509469895
20
0.18882161749285808
30
0
10
11.668627657970418
20
0.30489437043139583
30
0
10
11.668627657970418
20
0.30489437043139583
30
0
10
11.584394098545873
20
0.37134760753716067
30
0
0
SPLINE
5
113
100
AcDbEntity
8
0
100
AcDbSpline
70
4
71
3
72
8
73
4
74
0
42
0.000000001
43
0.0000000001
44
0.0000000001
40
0
40
0
40
0
40
0
40
1
40
1
40
1
40
1
41
1
41
1
41
1
41
1
10
11.584394098545873
20
0.37134760753716067
30
0
10
11.535258289127032
20
0.41322513551524281
30
0
10
11.478848589430854
20
0.43404297290081406
30
0
10
11.445501044274492
20
0.42376798817530115
30
0
0
SPLINE
5
114
100
AcDbEntity
8
0
100
AcDbSpline
70
4
71
3
72
8
73
4
74
0
42
0.000000001
43
0.0000000001
44
0.0000000001
40
0
40
0
40
0
40
0
40
1
40
1
40
1
40
1
41
1
41
1
41
1
41
1
10
11.445501044274492
20
0.42376798817530131
30
0
10
11.365267209799043
20
0.40522568561707678
30
0
10
11.343950057163038
20
0.36411013787845797
30
0
10
11.359228600284061
20
0.25253642513946611
30
0
0
SPLINE
5
115
100
AcDbEntity
8
0
100
AcDbSpline
70
4
71
3
72
8
73
4
74
0
42
0.000000001
43
0.0000000001
44
0.0000000001
40
0
40
0
40
0
40
0
40
1
40
1
40
1
40
1
41
1
41
1
41
1
41
1
10
11.359228600284061
20
0.25253642513946689
30
0
10
11.376262551199893
20
0.14346969454373401
30
0
10
11.370244753466961
20
0.14021113805204322
30
0
10
11.251659815439663
20
0.18962001835095488
30
0
0
LINE
5
116
100
AcDbEntity
8
0
100
AcDbLine
10
11.251659815439663
20
0.18962001835095488
30
0
11
11.164162494383707
21
0.22473337807366109
31
0
0
LINE
5
117
100
AcDbEntity
8
0
100
AcDbLine
10
11.164162494383707
20
0.22473337807366109
30
0
11
11.248921387423344
21
0.32977437356793515
31
0
0
SPLINE
5
118
100
AcDbEntity
8
0
100
AcDbSpline
70
4
71
3
72
8
73
4
74
0
42
0.000000001
43
0.0000000001
44
0.0000000001
40
0
40
0
40
0
40
0
40
1
40
1
40
1
40
1
41
1
41
1
41
1
41
1
10
11.248921387423344
20
0.32977437356793515
30
0
10
11.324903237807213
20
0.42228045380724394
30
0
10
11.330421720280777
20
0.44083316225914737
30
0
10
11.28905911636677
20
0.48847622885227565
30
0
0
SPLINE
5
119
100
AcDbEntity
8
0
100
AcDbSpline
70
4
71
3
72
8
73
4
74
0
42
0.000000001
43
0.0000000001
44
0.0000000001
40
0
40
0
40
0
40
0
40
1
40
1
40
1
40
1
41
1
41
1
41
1
41
1
10
11.289059116366955
20
0.48847622885206454
30
0
10
11.238672417321483
20
0.54991029870304164
30
0
10
11.094260880552314
20
0.58377797082669558
30
0
10
11.047621647401314
20
0.54918473899591314
30
0
0
SPLINE
5
120
100
AcDbEntity
8
0
100
AcDbSpline
70
4
71
3
72
8
73
4
74
0
42
0.000000001
43
0.0000000001
44
0.0000000001
40
0
40
0
40
0
40
0
40
1
40
1
40
1
40
1
41
1
41
1
41
1
41
1
10
11.047621647401607
20
0.54918473899613351
30
0
10
11.032075236351647
20
0.5376536617187091
30
0
10
11.022036901920293
20
0.46995994090023874
30
0
10
11.027292719446258
20
0.40276553533960974
30
0
0
SPLINE
5
121
100
AcDbEntity
8
0
100
AcDbSpline
70
4
71
3
72
8
73
4
74
0
42
0.000000001
43
0.0000000001
44
0.0000000001
40
0
40
0
40
0
40
0
40
1
40
1
40
1
40
1
41
1
41
1
41
1
41
1
10
11.02729271944621
20
0.40276553534005288
30
0
10
11.035055519116552
20
0.33381572198582848
30
0
10
11.030535667158903
20
0.28467470961925728
30
0
10
11.018000756438312
20
0.29345174858732764
30
0
0
SPLINE
5
122
100
AcDbEntity
8
0
100
AcDbSpline
70
4
71
3
72
8
73
4
74
0
42
0.000000001
43
0.0000000001
44
0.0000000001
40
0
40
0
40
0
40
0
40
1
40
1
40
1
40
1
41
1
41
1
41
1
41
1
10
11.018000756438443
20
0.29345174858723488
30
0
10
11.00797282786227
20
0.3004733797621213
30
0
10
10.950811553806524
20
0.32555360706038389
30
0
10
10.891894871957055
20
0.34812685221460443
30
0
0
LINE
5
123
100
AcDbEntity
8
0
100
AcDbLine
10
10.891894871957055
20
0.34812685221460443
30
0
11
10.785093196971934
21
0.39302111423667169
31
0
0
LINE
5
124
100
AcDbEntity
8
0
100
AcDbLine
10
10.785093196971934
20
0.39302111423667169
30
0
11
10.860318158470232
21
0.4524318212473411
31
0
0
SPLINE
5
125
100
AcDbEntity
8
0
100
AcDbSpline
70
4
71
3
72
8
73
4
74
0
42
0.000000001
43
0.0000000001
44
0.0000000001
40
0
40
0
40
0
40
0
40
1
40
1
40
1
40
1
41
1
41
1
41
1
41
1
10
10.860318158470232
20
0.4524318212473411
30
0
10
10.904450409622157
20
0.48878046069579745
30
0
10
10.935296175755461
20
0.53816852910352642
30
0
10
10.939563768773873
20
0.5762777794333388
30
0
0
SPLINE
5
126
100
AcDbEntity
8
0
100
AcDbSpline
70
4
71
3
72
8
73
4
74
0
42
0.000000001
43
0.0000000001
44
0.0000000001
40
0
40
0
40
0
40
0
40
1
40
1
40
1
40
1
41
1
41
1
41
1
41
1
10
10.939563768773873
20
0.5762777794333388
30
0
10
10.950858196013849
20
0.66177263431719613
30
0
10
10.83052305336539
20
0.74603220879515975
30
0
10
10.733239659079199
20
0.7244836091066621
30
0
0
SPLINE
5
127
100
AcDbEntity
8
0
100
AcDbSpline
70
4
71
3
72
8
73
4
74
0
42
0.000000001
43
0.0000000001
44
0.0000000001
40
0
40
0
40
0
40
0
40
1
40
1
40
1
40
1
41
1
41
1
41
1
41
1
10
10.733239659079199
20
0.7244836091066621
30
0
10
10.664037586529027
20
0.70568904779724695
30
0
10
10.658771363106828
20
0.69816810139384733
30
0
10
10.656748086748003
20
0.57255632925182343
30
0
0
SPLINE
5
128
100
AcDbEntity
8
0
100
AcDbSpline
70
4
71
3
72
8
73
4
74
0
42
0.000000001
43
0.0000000001
44
0.0000000001
40
0
40
0
40
0
40
0
40
1
40
1
40
1
40
1
41
1
41
1
41
1
41
1
10
10.656748086748003
20
0.57255632925182343
30
0
10
10.655224125628697
20
0.43165040514902719
30
0
10
10.626890544696208
20
0.41786460496260797
30
0
10
10.509062384337811
20
0.50036877185538953
30
0
0
SPLINE
5
129
100
AcDbEntity
8
0
100
AcDbSpline
70
4
71
3
72
8
73
4
74
0
42
0.000000001
43
0.0000000001
44
0.0000000001
40
0
40
0
40
0
40
0
40
1
40
1
40
1
40
1
41
1
41
1
41
1
41
1
10
10.509062384337811
20
0.50036877185538953
30
0
10
10.468950670110004
20
0.5284552966647359
30
0
10
10.470206762695213
20
0.54625643076267871
30
0
10
10.523116052804838
20
0.5951399809622292
30
0
0
SPLINE
5
130
100
AcDbEntity
8
0
100
AcDbSpline
70
4
71
3
72
8
73
4
74
0
42
0.000000001
43
0.0000000001
44
0.0000000001
40
0
40
0
40
0
40
0
40
1
40
1
40
1
40
1
41
1
41
1
41
1
41
1
10
10.523116052804838
20
0.5951399809622292
30
0
10
10.628934632646775
20
0.69290708176971916
30
0
10
10.587582434455067
20
0.81526550031093614
30
0
10
10.437904674275416
20
0.84161222583557238
30
0
0
SPLINE
5
131
100
AcDbEntity
8
0
100
AcDbSpline
70
4
71
3
72
8
73
4
74
0
42
0.000000001
43
0.0000000001
44
0.0000000001
40
0
40
0
40
0
40
0
40
1
40
1
40
1
40
1
41
1
41
1
41
1
41
1
10
10.437904674275416
20
0.84161222583557205
30
0
10
10.335612518844473
20
0.8609321181999865
30
0
10
10.2804433023318
20
0.78747806209074622
30
0
10
10.297976567610373
20
0.66311717941229964
30
0
0
LINE
5
132
100
AcDbEntity
8
0
100
AcDbLine
10
10.297976567610373
20
0.66311717941229975
30
0
11
10.312005013153179
21
0.57109454379167779
31
0
0
LINE
5
133
100
AcDbEntity
8
0
100
AcDbLine
10
10.312005013153179
20
0.57109454379167779
30
0
11
10.197370823986555
21
0.61024358204526585
31
0
0
SPLINE
5
134
100
AcDbEntity
8
0
100
AcDbSpline
70
4
71
3
72
8
73
4
74
0
42
0.000000001
43
0.0000000001
44
0.0000000001
40
0
40
0
40
0
40
0
40
1
40
1
40
1
40
1
41
1
41
1
41
1
41
1
10
10.197370823986555
20
0.61024358204526585
30
0
10
10.134191711911599
20
0.6320651362059988
30
0
10
10.083799765487171
20
0.65614143702575689
30
0
10
10.082296601047824
20
0.66466621412611171
30
0
0
SPLINE
5
135
100
AcDbEntity
8
0
100
AcDbSpline
70
4
71
3
72
8
73
4
74
0
42
0.000000001
43
0.0000000001
44
0.0000000001
40
0
40
0
40
0
40
0
40
1
40
1
40
1
40
1
41
1
41
1
41
1
41
1
10
10.082296601047826
20
0.6646662141261116
30
0
10
10.080793435433931
20
0.67319099101935997
30
0
10
10.112890031792029
20
0.70302258133484818
30
0
10
10.154262987850329
20
0.73009494881760784
30
0
0
SPLINE
5
136
100
AcDbEntity
8
0
100
AcDbSpline
70
4
71
3
72
8
73
4
74
0
42
0.000000001
43
0.0000000001
44
0.0000000001
40
0
40
0
40
0
40
0
40
1
40
1
40
1
40
1
41
1
41
1
41
1
41
1
10
10.154262987850323
20
0.73009494881760761
30
0
10
10.263839241201453
20
0.80655038409741009
30
0
10
10.278392018474623
20
0.88602747904070744
30
0
10
10.193154470736363
20
0.94571112289106163
30
0
0
SPLINE
5
137
100
AcDbEntity
8
0
100
AcDbSpline
70
4
71
3
72
8
73
4
74
0
42
0.000000001
43
0.0000000001
44
0.0000000001
40
0
40
0
40
0
40
0
40
1
40
1
40
1
40
1
41
1
41
1
41
1
41
1
10
10.193154470736363
20
0.94571112289106163
30
0
10
10.035214447207643
20
1.0563016018809293
30
0
10
9.9346673645623422
20
1.0034129886488692
30
0
10
9.9627229187314228
20
0.81937868463556174
30
0
0
SPLINE
5
138
100
AcDbEntity
8
0
100
AcDbSpline
70
4
71
3
72
8
73
4
74
0
42
0.000000001
43
0.0000000001
44
0.0000000001
40
0
40
0
40
0
40
0
40
1
40
1
40
1
40
1
41
1
41
1
41
1
41
1
10
9.9627229187314175
20
0.81937868463556174
30
0
10
9.978001625002177
20
0.70780499423788978
30
0
10
9.9411432866125988
20
0.6925159913293607
30
0
10
9.8032539792369633
20
0.75170554241890575
30
0
0
SPLINE
5
139
100
AcDbEntity
8
0
100
AcDbSpline
70
4
71
3
72
8
73
4
74
0
42
0.000000001
43
0.0000000001
44
0.0000000001
40
0
40
0
40
0
40
0
40
1
40
1
40
1
40
1
41
1
41
1
41
1
41
1
10
9.8032539792369633
20
0.75170554241890575
30
0
10
9.7107425970822838
20
0.79032947971322398
30
0
10
9.7124979984508766
20
0.79283646635617855
30
0
10
9.784963701832444
20
0.84297109202999898
30
0
0
SPLINE
5
140
100
AcDbEntity
8
0
100
AcDbSpline
70
4
71
3
72
8
73
4
74
0
42
0.000000001
43
0.0000000001
44
0.0000000001
40
0
40
0
40
0
40
0
40
1
40
1
40
1
40
1
41
1
41
1
41
1
41
1
10
9.784963701832444
20
0.84297109202999898
30
0
10
9.9108378000649253
20
0.92669543984241831
30
0
10
9.927398073936951
20
1.0197113082221227
30
0
10
9.8321324824750196
20
1.0864164187986318
30
0
0
SPLINE
5
141
100
AcDbEntity
8
0
100
AcDbSpline
70
4
71
3
72
8
73
4
74
0
42
0.000000001
43
0.0000000001
44
0.0000000001
40
0
40
0
40
0
40
0
40
1
40
1
40
1
40
1
41
1
41
1
41
1
41
1
10
9.8321324824750196
20
1.0864164187986312
30
0
10
9.6842204743258904
20
1.1899853905819917
30
0
10
9.5738924912458838
20
1.1177925638458657
30
0
10
9.6114765163150047
20
0.94203076532638208
30
0
0
SPLINE
5
142
100
AcDbEntity
8
0
100
AcDbSpline
70
4
71
3
72
8
73
4
74
0
42
0.000000001
43
0.0000000001
44
0.0000000001
40
0
40
0
40
0
40
0
40
1
40
1
40
1
40
1
41
1
41
1
41
1
41
1
10
9.6114765163150047
20
0.94203076532638241
30
0
10
9.634276125691942
20
0.82519085258514735
30
0
10
9.6152189160146513
20
0.80864579148442683
30
0
10
9.5034033004265765
20
0.85705072366352186
30
0
0
SPLINE
5
143
100
AcDbEntity
8
0
100
AcDbSpline
70
4
71
3
72
8
73
4
74
0
42
0.000000001
43
0.0000000001
44
0.0000000001
40
0
40
0
40
0
40
0
40
1
40
1
40
1
40
1
41
1
41
1
41
1
41
1
10
9.5034033004265765
20
0.85705072366352164
30
0
10
9.3772973952448613
20
0.91172577954641942
30
0
10
9.2047941473553614
20
0.86812399605915525
30
0
10
9.1268046702305146
20
0.76207914213172223
30
0
0
SPLINE
5
144
100
AcDbEntity
8
0
100
AcDbSpline
70
4
71
3
72
8
73
4
74
0
42
0.000000001
43
0.0000000001
44
0.0000000001
40
0
40
0
40
0
40
0
40
1
40
1
40
1
40
1
41
1
41
1
41
1
41
1
10
9.1268046702305128
20
0.76207914213172212
30
0
10
9.0794086799285303
20
0.69439061014843761
30
0
10
9.0372841025910908
20
0.67158070216132326
30
0
10
8.9505331570700495
20
0.66507396923334705
30
0
0
SPLINE
5
145
100
AcDbEntity
8
0
100
AcDbSpline
70
4
71
3
72
8
73
4
74
0
42
0.000000001
43
0.0000000001
44
0.0000000001
40
0
40
0
40
0
40
0
40
1
40
1
40
1
40
1
41
1
41
1
41
1
41
1
10
8.9505331570700459
20
0.66507396923334705
30
0
10
8.8417186433695409
20
0.65907254548526306
30
0
10
7.8939911433129906
20
0.68754286410681698
30
0
10
4.9058926712000304
20
0.78475898712394931
30
0
0
SPLINE
5
146
100
AcDbEntity
8
0
100
AcDbSpline
70
4
71
3
72
8
73
4
74
0
42
0.000000001
43
0.0000000001
44
0.0000000001
40
0
40
0
40
0
40
0
40
1
40
1
40
1
40
1
41
1
41
1
41
1
41
1
10
4.9058926712000286
20
0.78475898712394931
30
0
10
4.1830629482801163
20
0.80893940858372304
30
0
10
3.35242259833112
20
0.83388856060252381
30
0
10
3.058827522317352
20
0.84145534448031567
30
0
0
SPLINE
5
147
100
AcDbEntity
8
0
100
AcDbSpline
70
4
71
3
72
8
73
4
74
0
42
0.000000001
43
0.0000000001
44
0.0000000001
40
0
40
0
40
0
40
0
40
1
40
1
40
1
40
1
41
1
41
1
41
1
41
1
10
3.0588275223173529
20
0.84145534448031578
30
0
10
2.5267957617961905
20
0.85531145631970029
30
0
10
2.5267957617961905
20
0.85531145631970029
30
0
10
2.4119776071191321
20
0.95812207014103756
30
0
0
SPLINE
5
148
100
AcDbEntity
8
0
100
AcDbSpline
70
4
71
3
72
8
73
4
74
0
42
0.000000001
43
0.0000000001
44
0.0000000001
40
0
40
0
40
0
40
0
40
1
40
1
40
1
40
1
41
1
41
1
41
1
41
1
10
2.4119776071191321
20
0.95812207014103723
30
0
10
2.1482071660794442
20
1.1950436256678112
30
0
10
2.1035697873342043
20
1.3981270583785139
30
0
10
2.2650252473903958
20
1.6287988585214523
30
0
0
ELLIPSE
5
149
100
AcDbEntity
8
0
100
AcDbEllipse
10
18.186768205132896
20
-12.644304626485781
30
0
11
15.871521365698955
21
-14.336175463569973
31
0.0
40
0.17386252937759805
41
2.9857227605354302
42
3.1632343652248638
0
SPLINE
5
150
100
AcDbEntity
8
0
100
AcDbSpline
70
4
71
3
72
8
73
4
74
0
42
0.000000001
43
0.0000000001
44
0.0000000001
40
0
40
0
40
0
40
0
40
1
40
1
40
1
40
1
41
1
41
1
41
1
41
1
10
2.8945976206554098
20
1.9464490621727517
30
0
10
3.2077516789514844
20
1.9775240048866798
30
0
10
3.3321126899722961
20
2.0324264428261238
30
0
10
3.4304025487590586
20
2.17282652905519
30
0
0
SPLINE
5
151
100
AcDbEntity
8
0
100
AcDbSpline
70
4
71
3
72
8
73
4
74
0
42
0.000000001
43
0.0000000001
44
0.0000000001
40
0
40
0
40
0
40
0
40
1
40
1
40
1
40
1
41
1
41
1
41
1
41
1
10
3.4304025487590546
20
2.1728265290551896
30
0
10
3.5392183048693409
20
2.3282730931809588
30
0
10
3.5409754372080529
20
2.4802110012494172
30
0
10
3.4366769288089807
20
2.635409751395438
30
0
0
SPLINE
5
152
100
AcDbEntity
8
0
100
AcDbSpline
70
4
71
3
72
8
73
4
74
0
42
0.000000001
43
0.0000000001
44
0.0000000001
40
0
40
0
40
0
40
0
40
1
40
1
40
1
40
1
41
1
41
1
41
1
41
1
10
3.4366769288089785
20
2.635409751395438
30
0
10
3.3594583597426704
20
2.7492405596014198
30
0
10
3.324358052985676
20
2.773812616905512
30
0
10
3.1513623678446359
20
2.8575600801400638
30
0
0
ELLIPSE
5
153
100
AcDbEntity
8
0
100
AcDbEllipse
10
0.87136779503051753
20
-0.47174705726851751
30
0
11
-2.5649988764084846
21
-3.1519492742030737
31
0.0
40
0.56923004102518437
41
3.2860523848694325
42
3.6364487333584234
0
SPLINE
5
154
100
AcDbEntity
8
0
100
AcDbSpline
70
4
71
3
72
8
73
4
74
0
42
0.000000001
43
0.0000000001
44
0.0000000001
40
0
40
0
40
0
40
0
40
1
40
1
40
1
40
1
41
1
41
1
41
1
41
1
10
2.2765948277264609
20
2.9954817804542144
30
0
10
2.01032505760443
20
2.9726929352809002
30
0
10
1.8541211660654775
20
2.9363539399130798
30
0
10
0.96127296480215674
20
2.6909867117617816
30
0
0
SPLINE
5
155
100
AcDbEntity
8
0
100
AcDbSpline
70
4
71
3
72
8
73
4
74
0
42
0.000000001
43
0.0000000001
44
0.0000000001
40
0
40
0
40
0
40
0
40
1
40
1
40
1
40
1
41
1
41
1
41
1
41
1
10
0.96127296480215685
20
2.6909867117617803
30
0
10
0.55885754209843719
20
2.5804382312634608
30
0
10
0.39939640665261422
20
2.5501087988569355
30
0
10
0.27754610071299091
20
2.5681669507770963
30
0
0
SPLINE
5
156
100
AcDbEntity
8
0
100
AcDbSpline
70
4
71
3
72
8
73
4
74
0
42
0.000000001
43
0.0000000001
44
0.0000000001
40
0
40
0
40
0
40
0
40
1
40
1
40
1
40
1
41
1
41
1
41
1
41
1
10
0.27754610071299074
20
2.5681669507770963
30
0
10
0.090501089485878969
20
2.5944508297081312
30
0
10
-0.20989173002004533
20
2.7149809789192547
30
0
10
-0.4864747364973358
20
2.8748799332673958
30
0
0
SPLINE
5
157
100
AcDbEntity
8
0
100
AcDbSpline
70
4
71
3
72
8
73
4
74
0
42
0.000000001
43
0.0000000001
44
0.0000000001
40
0
40
0
40
0
40
0
40
1
40
1
40
1
40
1
41
1
41
1
41
1
41
1
10
-0.48647473649733702
20
2.8748799332673927
30
0
10
-0.8260264283232156
20
3.0675566989377065
30
0
10
-1.4145707500853548
20
3.3260789526728978
30
0
10
-1.7056903074229524
20
3.4064503547605849
30
0
0
SPLINE
5
158
100
AcDbEntity
8
0
100
AcDbSpline
70
4
71
3
72
8
73
4
74
0
42
0.000000001
43
0.0000000001
44
0.0000000001
40
0
40
0
40
0
40
0
40
1
40
1
40
1
40
1
41
1
41
1
41
1
41
1
10
-1.7056903074229537
20
3.4064503547605827
30
0
10
-2.1216748211673329
20
3.5219052366399373
30
0
10
-2.3681434566311204
20
3.5486565632880667
30
0
10
-2.5950330734126914
20
3.501952184269415
30
0
0
SPLINE
5
159
100
AcDbEntity
8
0
100
AcDbSpline
70
4
71
3
72
8
73
4
74
0
42
0.000000001
43
0.0000000001
44
0.0000000001
40
0
40
0
40
0
40
0
40
0.57196018839802953
40
0.57196018839802953
40
0.57196018839802953
40
0.57196018839802953
41
1
41
1
41
1
41
1
10
-2.5950330734126896
20
3.5019521842694128
30
0
10
-2.7199299690240926
20
3.4761035605867034
30
0
10
-2.8899263877626011
20
3.4084932293310928
30
0
10
-3.0367736675305017
20
3.3317452399854455
30
0
0
ARC
5
160
100
AcDbEntity
8
0
100
AcDbCircle
10
-2.1764288279166171
20
1.7507079473323337
30
0
40
1.7999644895969811
210
0
220
0
230
1
100
AcDbArc
50
118.55347627553482
51
144.29693103520165
0
ELLIPSE
5
161
100
AcDbEntity
8
0
100
AcDbEllipse
10
-3.3627159983044344
20
3.0761389349668957
30
0
11
-0.47505426291225827
21
-0.62050687731058429
31
0.0
40
0.075754561869770504
41
5.2286402131343799
42
5.3247610772906011
0
ARC
5
162
100
AcDbEntity
8
0
100
AcDbCircle
10
-2.1764288279166171
20
1.7507079473323337
30
0
40
1.7999644898338596
210
0
220
0
230
1
100
AcDbArc
50
146.31892956195844
51
160.21092280909025
0
LINE
5
163
100
AcDbEntity
8
0
100
AcDbLine
10
-3.8700970058847317
20
2.3601013069517891
30
0
11
-3.8923835002432741
21
2.2941890659835789
31
0
0
SPLINE
5
164
100
AcDbEntity
8
0
100
AcDbSpline
70
4
71
3
72
14
73
10
74
0
42
0.000000001
43
0.0000000001
44
0.0000000001
40
0.1767283533948649
40
0.1767283533948649
40
0.1767283533948649
40
0.1767283533948649
40
1.0767872562123824
40
1.0767872562123824
40
1.0767872562123824
40
1.1287762090442466
40
1.1287762090442466
40
1.1287762090442466
40
1.1894695866860445
40
1.1894695866860445
40
1.1894695866860445
40
1.1894695866860445
41
1
41
1
41
1
41
1
41
1
41
1
41
1
41
1
41
1
41
1
10
-3.8923835002432745
20
2.2941890659835789
30
0
10
-4.033498031642166
20
1.8768432528912453
30
0
10
-4.1350028674487076
20
0.60742708332436168
30
0
10
-4.0779672646580947
20
-0.21917283284885117
30
0
10
-4.0774976135133771
20
-0.22597934628715047
30
0
10
-4.0770279623686569
20
-0.23278585972545005
30
0
10
-4.0765583112239376
20
-0.23959237316374951
30
0
10
-4.0760100271610051
20
-0.2475384899449572
30
0
10
-4.0754617430980709
20
-0.2554846067261648
30
0
10
-4.0749134590351366
20
-0.2634307235073724
30
0
0
LINE
5
165
100
AcDbEntity
8
0
100
AcDbLine
10
-4.0749134590351366
20
-0.2634307235073724
30
0
11
-3.9818187907162739
21
-0.26347008140927619
31
0
0
LINE
5
166
100
AcDbEntity
8
0
100
AcDbLine
10
-3.9818187907162739
20
-0.26347008140927619
30
0
11
-3.9823479653296827
21
-1.5376332674840374
31
0
0
LINE
5
167
100
AcDbEntity
8
0
100
AcDbLine
10
-3.9823479653296827
20
-1.5376332674840374
30
0
11
-3.7017725695929231
21
-1.5377497256013
31
0
0
LINE
5
168
100
AcDbEntity
8
0
100
AcDbLine
10
-3.7017725695929231
20
-1.5377497256013
30
0
11
-3.4324200345952591
21
-1.5378615234415123
31
0
0
SPLINE
5
169
100
AcDbEntity
8
0
100
AcDbSpline
70
0
71
2
72
6
73
3
74
0
42
0.000000001
43
0.0000000001
44
0.0000000001
40
-1
40
-1
40
-1
40
0
40
0
40
0
10
-3.43242003459526
20
-1.5378615234415123
30
0
10
-3.2790387114090693
20
-1.5379251722100626
30
0
10
-3.1658503507045936
20
-1.4827923160976333
30
0
0
SPLINE
5
170
100
AcDbEntity
8
0
100
AcDbSpline
70
0
71
2
72
6
73
3
74
0
42
0.000000001
43
0.0000000001
44
0.0000000001
40
-1
40
-1
40
-1
40
0
40
0
40
0
10
-3.1658503507045936
20
-1.4827923160976333
30
0
10
-3.0526619899872021
20
-1.4276594600117218
30
0
10
-2.9983793221609343
20
-1.3360272115913792
30
0
0
SPLINE
5
171
100
AcDbEntity
8
0
100
AcDbSpline
70
0
71
2
72
6
73
3
74
0
42
0.000000001
43
0.0000000001
44
0.0000000001
40
-1
40
-1
40
-1
40
0
40
0
40
0
10
-2.9983793221609343
20
-1.3360272115913789
30
0
10
-2.9440967483674454
20
-1.2443950569216826
30
0
10
-2.9552770946305142
20
-1.1415126978119468
30
0
0
SPLINE
5
172
100
AcDbEntity
8
0
100
AcDbSpline
70
0
71
2
72
6
73
3
74
0
42
0.000000001
43
0.0000000001
44
0.0000000001
40
-1
40
-1
40
-1
40
0
40
0
40
0
10
-2.9552770946305129
20
-1.1415126978119461
30
0
10
-2.9701727455697111
20
-0.97690212772386109
30
0
10
-3.106686571374357
20
-0.89734902117576765
30
0
0
SPLINE
5
173
100
AcDbEntity
8
0
100
AcDbSpline
70
0
71
2
72
6
73
3
74
0
42
0.000000001
43
0.0000000001
44
0.0000000001
40
-1
40
-1
40
-1
40
-0.68166511423424836
40
-0.68166511423424836
40
-0.68166511423424836
10
-3.106686571374357
20
-0.89734902117576765
30
0
10
-3.1501436546421235
20
-0.87202452197169333
30
0
10
-3.2045980685369218
20
-0.85475139022923863
30
0
0
SPLINE
5
174
100
AcDbEntity
8
0
100
AcDbSpline
70
0
71
2
72
6
73
3
74
0
42
0.000000001
43
0.0000000001
44
0.0000000001
40
-0.0871084184405755
40
-0.0871084184405755
40
-0.0871084184405755
40
0
40
0
40
0
10
-3.204598068556467
20
-0.85475139023782765
30
0
10
-3.189887367803836
20
-0.84828714586047937
30
0
10
-3.1758718747732364
20
-0.84120521015377525
30
0
0
SPLINE
5
175
100
AcDbEntity
8
0
100
AcDbSpline
70
0
71
2
72
6
73
3
74
0
42
0.000000001
43
0.0000000001
44
0.0000000001
40
-1
40
-1
40
-1
40
0
40
0
40
0
10
-3.1758718747732364
20
-0.84120521015377558
30
0
10
-3.014974855393425
20
-0.75990515443566065
30
0
10
-3.007427628736151
20
-0.60278592363651062
30
0
0
SPLINE
5
176
100
AcDbEntity
8
0
100
AcDbSpline
70
0
71
2
72
6
73
3
74
0
42
0.000000001
43
0.0000000001
44
0.0000000001
40
-1
40
-1
40
-1
40
0
40
0
40
0
10
-3.007427628736151
20
-0.6027859236365104
30
0
10
-3.0017508631756007
20
-0.4456659165797926
30
0
10
-3.1017797506546798
20
-0.34181141195719345
30
0
0
SPLINE
5
177
100
AcDbEntity
8
0
100
AcDbSpline
70
0
71
2
72
6
73
3
74
0
42
0.000000001
43
0.0000000001
44
0.0000000001
40
-1.3805171059276478
40
-1.3805171059276478
40
-1.3805171059276478
40
-0.87939927573689947
40
-0.87939927573689947
40
-0.87939927573689947
10
-3.1017797506546798
20
-0.34181141195719317
30
0
10
-3.1519060105228678
20
-0.2897681157522301
30
0
10
-3.233279401705881
20
-0.26378125416338494
30
0
0
LINE
5
178
100
AcDbEntity
8
0
100
AcDbLine
10
-3.233279401705881
20
-0.26378125416338494
30
0
11
-2.3394787711664642
21
-0.26415195717336992
31
0
0
SPLINE
5
179
100
AcDbEntity
8
0
100
AcDbSpline
70
0
71
2
72
6
73
3
74
0
42
0.000000001
43
0.0000000001
44
0.0000000001
40
-0.47020365962820082
40
-0.47020365962820082
40
-0.47020365962820082
40
0
40
0
40
0
10
-2.3394787711664642
20
-0.26415195717336992
30
0
10
-2.4221153631160162
20
-0.28699600775250089
30
0
10
-2.4937899380340869
20
-0.33010256646998265
30
0
0
SPLINE
5
180
100
AcDbEntity
8
0
100
AcDbSpline
70
0
71
2
72
6
73
3
74
0
42
0.000000001
43
0.0000000001
44
0.0000000001
40
-1
40
-1
40
-1
40
0
40
0
40
0
10
-2.4937899380340904
20
-0.33010256646998326
30
0
10
-2.6462762725592182
20
-0.4216902178352287
30
0
10
-2.7305163580291292
20
-0.5750345388204805
30
0
0
SPLINE
5
181
100
AcDbEntity
8
0
100
AcDbSpline
70
0
71
2
72
6
73
3
74
0
42
0.000000001
43
0.0000000001
44
0.0000000001
40
-1
40
-1
40
-1
40
0
40
0
40
0
10
-2.7305163580291305
20
-0.57503453882048061
30
0
10
-2.814748900747464
20
-0.7283829125281146
30
0
10
-2.8185600026166799
20
-0.90794986440734593
30
0
0
SPLINE
5
182
100
AcDbEntity
8
0
100
AcDbSpline
70
0
71
2
72
6
73
3
74
0
42
0.000000001
43
0.0000000001
44
0.0000000001
40
-1
40
-1
40
-1
40
0
40
0
40
0
10
-2.8185600026166786
20
-0.9079498644073456
30
0
10
-2.8223684369723823
20
-1.0968693342100611
30
0
10
-2.7447962682873466
20
-1.2474726303349608
30
0
0
SPLINE
5
183
100
AcDbEntity
8
0
100
AcDbSpline
70
0
71
2
72
6
73
3
74
0
42
0.000000001
43
0.0000000001
44
0.0000000001
40
-1
40
-1
40
-1
40
0
40
0
40
0
10
-2.7447962682873479
20
-1.2474726303349608
30
0
10
-2.6672198731512222
20
-1.3980737403689427
30
0
10
-2.5176084808493924
20
-1.4860364925020164
30
0
0
SPLINE
5
184
100
AcDbEntity
8
0
100
AcDbSpline
70
0
71
2
72
6
73
3
74
0
42
0.000000001
43
0.0000000001
44
0.0000000001
40
-1
40
-1
40
-1
40
0
40
0
40
0
10
-2.5176084808493924
20
-1.4860364925020164
30
0
10
-2.3679945447085218
20
-1.5739951852850256
30
0
10
-2.1678506514149785
20
-1.5740552968882793
30
0
0
SPLINE
5
185
100
AcDbEntity
8
0
100
AcDbSpline
70
0
71
2
72
6
73
3
74
0
42
0.000000001
43
0.0000000001
44
0.0000000001
40
-1
40
-1
40
-1
40
0
40
0
40
0
10
-2.1678506514149789
20
-1.5740552968882793
30
0
10
-1.9770592416197965
20
-1.5741087912756493
30
0
10
-1.8236533557302097
20
-1.4862380465175287
30
0
0
SPLINE
5
186
100
AcDbEntity
8
0
100
AcDbSpline
70
0
71
2
72
6
73
3
74
0
42
0.000000001
43
0.0000000001
44
0.0000000001
40
-1
40
-1
40
-1
40
0
40
0
40
0
10
-1.8236533557302097
20
-1.4862380465175284
30
0
10
-1.6702482998292791
20
-1.3983658767472935
30
0
10
-1.5822935030162397
20
-1.2459434538220324
30
0
0
SPLINE
5
187
100
AcDbEntity
8
0
100
AcDbSpline
70
0
71
2
72
6
73
3
74
0
42
0.000000001
43
0.0000000001
44
0.0000000001
40
-1
40
-1
40
-1
40
0
40
0
40
0
10
-1.5822935030162393
20
-1.2459434538220324
30
0
10
-1.4943373327825584
20
-1.0935219570538803
30
0
10
-1.4905447913254284
20
-0.90834310709137944
30
0
0
SPLINE
5
188
100
AcDbEntity
8
0
100
AcDbSpline
70
0
71
2
72
6
73
3
74
0
42
0.000000001
43
0.0000000001
44
0.0000000001
40
-1
40
-1
40
-1
40
0
40
0
40
0
10
-1.4905447913254284
20
-0.90834310709137944
30
0
10
-1.4867401233159021
20
-0.7194234692766458
30
0
10
-1.5652497583024105
20
-0.56695090864429454
30
0
0
SPLINE
5
189
100
AcDbEntity
8
0
100
AcDbSpline
70
0
71
2
72
6
73
3
74
0
42
0.000000001
43
0.0000000001
44
0.0000000001
40
-1
40
-1
40
-1
40
0
40
0
40
0
10
-1.5652497583024105
20
-0.56695090864429454
30
0
10
-1.6437434117787579
20
-0.41447007167188016
30
0
10
-1.792409510038641
20
-0.32649056404490562
30
0
0
SPLINE
5
190
100
AcDbEntity
8
0
100
AcDbSpline
70
0
71
2
72
6
73
3
74
0
42
0.000000001
43
0.0000000001
44
0.0000000001
40
-1
40
-1
40
-1
40
-0.54190767177844135
40
-0.54190767177844135
40
-0.54190767177844135
10
-1.7924095100386399
20
-0.32649056404490528
30
0
10
-1.8605093146538449
20
-0.28618276700033463
30
0
10
-1.9390205163266281
20
-0.26431814477789251
30
0
0
LINE
5
191
100
AcDbEntity
8
0
100
AcDbLine
10
-1.9390205163266281
20
-0.26431814477789245
30
0
11
-0.86397008973620459
21
-0.26476434966794321
31
0
0
SPLINE
5
192
100
AcDbEntity
8
0
100
AcDbSpline
70
0
71
2
72
6
73
3
74
0
42
0.000000001
43
0.0000000001
44
0.0000000001
40
-0.46905966357982931
40
-0.46905966357982931
40
-0.46905966357982931
40
0
40
0
40
0
10
-0.86397008973620459
20
-0.26476434966794321
30
0
10
-0.94639173615426442
20
-0.28755607488491236
30
0
10
-1.0179158791576897
20
-0.33051790721981333
30
0
0
SPLINE
5
193
100
AcDbEntity
8
0
100
AcDbSpline
70
0
71
2
72
6
73
3
74
0
42
0.000000001
43
0.0000000001
44
0.0000000001
40
-1
40
-1
40
-1
40
0
40
0
40
0
10
-1.0179158791576897
20
-0.33051790721981333
30
0
10
-1.1703999607144353
20
-0.42210930949812309
30
0
10
-1.2546362741128738
20
-0.57545570261985812
30
0
0
SPLINE
5
194
100
AcDbEntity
8
0
100
AcDbSpline
70
0
71
2
72
6
73
3
74
0
42
0.000000001
43
0.0000000001
44
0.0000000001
40
-1
40
-1
40
-1
40
0
40
0
40
0
10
-1.2546362741128738
20
-0.57545570261985812
30
0
10
-1.3388725933389585
20
-0.72880200187358435
30
0
10
-1.3426881174291505
20
-0.9083688598417875
30
0
0
SPLINE
5
195
100
AcDbEntity
8
0
100
AcDbSpline
70
0
71
2
72
6
73
3
74
0
42
0.000000001
43
0.0000000001
44
0.0000000001
40
-1
40
-1
40
-1
40
0
40
0
40
0
10
-1.3426881174291505
20
-0.9083688598417875
30
0
10
-1.3465075225845242
20
-1.0972881081650854
30
0
10
-1.2689440997649646
20
-1.2478959087555535
30
0
0
SPLINE
5
196
100
AcDbEntity
8
0
100
AcDbSpline
70
0
71
2
72
6
73
3
74
0
42
0.000000001
43
0.0000000001
44
0.0000000001
40
-1
40
-1
40
-1
40
0
40
0
40
0
10
-1.2689440997649646
20
-1.2478959087555535
30
0
10
-1.1913806945451999
20
-1.3985037093387178
30
0
10
-1.0417768897519946
20
-1.4864793654073889
30
0
0
SPLINE
5
197
100
AcDbEntity
8
0
100
AcDbSpline
70
0
71
2
72
6
73
3
74
0
42
0.000000001
43
0.0000000001
44
0.0000000001
40
-1
40
-1
40
-1
40
0
40
0
40
0
10
-1.0417768897519946
20
-1.4864793654073889
30
0
10
-0.8921730381039068
20
-1.5744552092266852
30
0
10
-0.69202915301666446
20
-1.5745382651550828
30
0
0
SPLINE
5
198
100
AcDbEntity
8
0
100
AcDbSpline
70
0
71
2
72
6
73
3
74
0
42
0.000000001
43
0.0000000001
44
0.0000000001
40
-1
40
-1
40
-1
40
0
40
0
40
0
10
-0.69202915301666446
20
-1.5745382651550828
30
0
10
-0.50123775215009125
20
-1.5746174399793467
30
0
10
-0.34782004028767283
20
-1.4867673443799916
30
0
0
SPLINE
5
199
100
AcDbEntity
8
0
100
AcDbSpline
70
0
71
2
72
6
73
3
74
0
42
0.000000001
43
0.0000000001
44
0.0000000001
40
-1
40
-1
40
-1
40
0
40
0
40
0
10
-0.34782004028767283
20
-1.4867673443799916
30
0
10
-0.19440223463758444
20
-1.3989174365507384
30
0
10
-0.10642532032730335
20
-1.2465077785848739
30
0
0
SPLINE
5
200
100
AcDbEntity
8
0
100
AcDbSpline
70
0
71
2
72
6
73
3
74
0
42
0.000000001
43
0.0000000001
44
0.0000000001
40
-1
40
-1
40
-1
40
0
40
0
40
0
10
-0.10642532032730335
20
-1.2465077785848739
30
0
10
-0.018448312229353083
20
-1.0940983083891107
30
0
10
-0.01463045361787265
20
-0.90891997866405561
30
0
0
SPLINE
5
201
100
AcDbEntity
8
0
100
AcDbSpline
70
0
71
2
72
6
73
3
74
0
42
0.000000001
43
0.0000000001
44
0.0000000001
40
-1
40
-1
40
-1
40
0
40
0
40
0
10
-0.01463045361787265
20
-0.90891997866405561
30
0
10
-0.010811136422522606
20
-0.72000063643866541
30
0
10
-0.089308948153206238
20
-0.56752198847445012
30
0
0
SPLINE
5
202
100
AcDbEntity
8
0
100
AcDbSpline
70
0
71
2
72
6
73
3
74
0
42
0.000000001
43
0.0000000001
44
0.0000000001
40
-1
40
-1
40
-1
40
0
40
0
40
0
10
-0.089308948153206238
20
-0.56752198847445012
30
0
10
-0.16780685374946419
20
-0.41504334047128272
30
0
10
-0.31647540538837154
20
-0.32706797864939796
30
0
0
SPLINE
5
203
100
AcDbEntity
8
0
100
AcDbSpline
70
0
71
2
72
6
73
3
74
0
42
0.000000001
43
0.0000000001
44
0.0000000001
40
-1
40
-1
40
-1
40
-0.54211853486864203
40
-0.54211853486864203
40
-0.54211853486864203
10
-0.31647540538837154
20
-0.32706797864939796
30
0
10
-0.38454797963175147
20
-0.28678569108293211
30
0
10
-0.46302048539836321
20
-0.26493066597500192
30
0
0
LINE
5
204
100
AcDbEntity
8
0
100
AcDbLine
10
-0.46302048539836321
20
-0.26493066597500192
30
0
11
0.61311145077489748
21
-0.26537731413295501
31
0
0
SPLINE
5
205
100
AcDbEntity
8
0
100
AcDbSpline
70
0
71
2
72
6
73
3
74
0
42
0.000000001
43
0.0000000001
44
0.0000000001
40
-0.46905962709069671
40
-0.46905962709069671
40
-0.46905962709069671
40
0
40
0
40
0
10
0.61311145077489804
20
-0.26537731413295501
30
0
10
0.53086843670701245
20
-0.2881691132720185
30
0
10
0.45890560979008077
20
-0.33113076021698934
30
0
0
SPLINE
5
206
100
AcDbEntity
8
0
100
AcDbSpline
70
0
71
2
72
6
73
3
74
0
42
0.000000001
43
0.0000000001
44
0.0000000001
40
-1
40
-1
40
-1
40
0
40
0
40
0
10
0.45890560979008077
20
-0.33113076021698934
30
0
10
0.30548627511798954
20
-0.42272177438293806
30
0
10
0.22125073796374906
20
-0.57419761434119476
30
0
0
SPLINE
5
207
100
AcDbEntity
8
0
100
AcDbSpline
70
0
71
2
72
6
73
3
74
0
42
0.000000001
43
0.0000000001
44
0.0000000001
40
-1
40
-1
40
-1
40
0
40
0
40
0
10
0.22125073796374906
20
-0.57419761434119476
30
0
10
0.13701519494291006
20
-0.72567345429701668
30
0
10
0.133201223302162
20
-0.90149929980383714
30
0
0
SPLINE
5
208
100
AcDbEntity
8
0
100
AcDbSpline
70
0
71
2
72
6
73
3
74
0
42
0.000000001
43
0.0000000001
44
0.0000000001
40
-1
40
-1
40
-1
40
0
40
0
40
0
10
0.133201223302162
20
-0.90149929980383714
30
0
10
0.12938259435203425
20
-1.0885480888292312
30
0
10
0.20787971783749556
20
-1.2428972899934423
30
0
0
SPLINE
5
209
100
AcDbEntity
8
0
100
AcDbSpline
70
0
71
2
72
6
73
3
74
0
42
0.000000001
43
0.0000000001
44
0.0000000001
40
-1
40
-1
40
-1
40
0
40
0
40
0
10
0.20787971783749556
20
-1.2428972899934423
30
0
10
0.28637682376211421
20
-1.3972463972847764
30
0
10
0.43598024035531568
20
-1.4861575176663353
30
0
0
SPLINE
5
210
100
AcDbEntity
8
0
100
AcDbSpline
70
0
71
2
72
6
73
3
74
0
42
0.000000001
43
0.0000000001
44
0.0000000001
40
-1
40
-1
40
-1
40
0
40
0
40
0
10
0.43598024035531568
20
-1.4861575176663353
30
0
10
0.58558370395920922
20
-1.5750684503362224
30
0
10
0.78385708281576005
20
-1.5751507300398977
30
0
0
SPLINE
5
211
100
AcDbEntity
8
0
100
AcDbSpline
70
0
71
2
72
6
73
3
74
0
42
0.000000001
43
0.0000000001
44
0.0000000001
40
-1
40
-1
40
-1
40
0
40
0
40
0
10
0.78385708281576005
20
-1.5751507300398977
30
0
10
0.96716645875956786
20
-1.5752267999652738
30
0
10
1.1093585103266244
20
-1.493918795397565
30
0
0
SPLINE
5
212
100
AcDbEntity
8
0
100
AcDbSpline
70
0
71
2
72
6
73
3
74
0
42
0.000000001
43
0.0000000001
44
0.0000000001
40
-1
40
-1
40
-1
40
0
40
0
40
0
10
1.1093585103266244
20
-1.493918795397565
30
0
10
1.2515505618157765
20
-1.412610978561005
30
0
10
1.3339073720097785
20
-1.28077460737189
30
0
0
SPLINE
5
213
100
AcDbEntity
8
0
100
AcDbSpline
70
0
71
2
72
6
73
3
74
0
42
0.000000001
43
0.0000000001
44
0.0000000001
40
-1
40
-1
40
-1
40
0
40
0
40
0
10
1.3339073720097785
20
-1.28077460737189
30
0
10
1.4162642760693549
20
-1.1489382362217269
30
0
10
1.4294198706512622
20
-0.9993033590511522
30
0
0
LINE
5
214
100
AcDbEntity
8
0
100
AcDbLine
10
1.4294198706512622
20
-0.9993033590511522
30
0
11
1.4294734300596996
21
-0.8702386637973909
31
0
0
LINE
5
215
100
AcDbEntity
8
0
100
AcDbLine
10
1.4294734300596996
20
-0.8702386637973909
30
0
11
0.76918566928142629
21
-0.86996465686004609
31
0
0
LINE
5
216
100
AcDbEntity
8
0
100
AcDbLine
10
0.76918566928142629
20
-0.86996465686004609
30
0
11
0.76910649447663948
21
-1.0607560107938319
31
0
0
LINE
5
217
100
AcDbEntity
8
0
100
AcDbLine
10
0.76910649447663948
20
-1.0607560107938319
30
0
11
1.1450459828002924
21
-1.0609118310934869
31
0
0
SPLINE
5
218
100
AcDbEntity
8
0
100
AcDbSpline
70
0
71
2
72
6
73
3
74
0
42
0.000000001
43
0.0000000001
44
0.0000000001
40
-0.64556400515407142
40
-0.64556400515407142
40
-0.64556400515407142
40
0
40
0
40
0
10
1.1450459828002924
20
-1.0609118310934869
30
0
10
1.1283606392393273
20
-1.1195540821773768
30
0
10
1.0945295233879622
20
-1.1684449707873807
30
0
0
SPLINE
5
219
100
AcDbEntity
8
0
100
AcDbSpline
70
0
71
2
72
6
73
3
74
0
42
0.000000001
43
0.0000000001
44
0.0000000001
40
-1
40
-1
40
-1
40
0
40
0
40
0
10
1.0945295233879622
20
-1.1684449707873807
30
0
10
1.0421240057221539
20
-1.2441786684779326
30
0
10
0.96167481966923352
20
-1.286231704491309
30
0
0
SPLINE
5
220
100
AcDbEntity
8
0
100
AcDbSpline
70
0
71
2
72
6
73
3
74
0
42
0.000000001
43
0.0000000001
44
0.0000000001
40
-1
40
-1
40
-1
40
0
40
0
40
0
10
0.96167481966923352
20
-1.286231704491309
30
0
10
0.88122572752083961
20
-1.3282846466780642
30
0
10
0.78395954432325543
20
-1.3282442830509484
30
0
0
SPLINE
5
221
100
AcDbEntity
8
0
100
AcDbSpline
70
0
71
2
72
6
73
3
74
0
42
0.000000001
43
0.0000000001
44
0.0000000001
40
-1
40
-1
40
-1
40
0
40
0
40
0
10
0.78395954432325543
20
-1.3282442830509484
30
0
10
0.67172931128014135
20
-1.3281977096260567
30
0
10
0.58570867596416654
20
-1.273917369590013
30
0
0
SPLINE
5
222
100
AcDbEntity
8
0
100
AcDbSpline
70
0
71
2
72
6
73
3
74
0
42
0.000000001
43
0.0000000001
44
0.0000000001
40
-1
40
-1
40
-1
40
0
40
0
40
0
10
0.58570867596416654
20
-1.273917369590013
30
0
10
0.49968799371540495
20
-1.2196370295344936
30
0
10
0.45390100160389568
20
-1.1223518757834836
30
0
0
SPLINE
5
223
100
AcDbEntity
8
0
100
AcDbSpline
70
0
71
2
72
6
73
3
74
0
42
0.000000001
43
0.0000000001
44
0.0000000001
40
-1
40
-1
40
-1
40
0
40
0
40
0
10
0.45390100160389568
20
-1.1223518757834836
30
0
10
0.40811403299773263
20
-1.0250666281766376
30
0
10
0.41190625274646925
20
-0.9016149571218689
30
0
0
SPLINE
5
224
100
AcDbEntity
8
0
100
AcDbSpline
70
0
71
2
72
6
73
3
74
0
42
0.000000001
43
0.0000000001
44
0.0000000001
40
-1
40
-1
40
-1
40
0
40
0
40
0
10
0.41190625274646925
20
-0.9016149571218689
30
0
10
0.41756589729340277
20
-0.78564608722432505
30
0
10
0.46530293509609638
20
-0.69120538667479392
30
0
0
SPLINE
5
225
100
AcDbEntity
8
0
100
AcDbSpline
70
0
71
2
72
6
73
3
74
0
42
0.000000001
43
0.0000000001
44
0.0000000001
40
-1
40
-1
40
-1
40
0
40
0
40
0
10
0.46530293509609638
20
-0.69120538667479392
30
0
10
0.5130400197926247
20
-0.5967647800103133
30
0
10
0.60097657045631381
20
-0.54162135217482055
30
0
0
SPLINE
5
226
100
AcDbEntity
8
0
100
AcDbSpline
70
0
71
2
72
6
73
3
74
0
42
0.000000001
43
0.0000000001
44
0.0000000001
40
-1
40
-1
40
-1
40
0
40
0
40
0
10
0.60097657045631381
20
-0.54162135217482055
30
0
10
0.6889131680138374
20
-0.48647801822437814
30
0
10
0.80114335412416449
20
-0.48652459162979372
30
0
0
SPLINE
5
227
100
AcDbEntity
8
0
100
AcDbSpline
70
0
71
2
72
6
73
3
74
0
42
0.000000001
43
0.0000000001
44
0.0000000001
40
-1
40
-1
40
-1
40
0
40
0
40
0
10
0.80114335412416449
20
-0.48652459162979372
30
0
10
0.89653907802384469
20
-0.48656417905166394
30
0
10
0.9685378791852155
20
-0.52400409438354556
30
0
0
SPLINE
5
228
100
AcDbEntity
8
0
100
AcDbSpline
70
0
71
2
72
6
73
3
74
0
42
0.000000001
43
0.0000000001
44
0.0000000001
40
-1
40
-1
40
-1
40
0
40
0
40
0
10
0.9685378791852155
20
-0.52400409438354556
30
0
10
1.0405367741732083
20
-0.56144410361995378
30
0
10
1.0807289598418697
20
-0.61851116207864165
30
0
0
SPLINE
5
229
100
AcDbEntity
8
0
100
AcDbSpline
70
0
71
2
72
6
73
3
74
0
42
0.000000001
43
0.0000000001
44
0.0000000001
40
-1
40
-1
40
-1
40
0
40
0
40
0
10
1.0807289598418697
20
-0.61851116207864165
30
0
10
1.120921145510531
20
-0.67557822053732963
30
0
10
1.1339898030404312
20
-0.73543975960745334
30
0
0
LINE
5
230
100
AcDbEntity
8
0
100
AcDbLine
10
1.133989803040431
20
-0.73543975960745323
30
0
11
1.4052127840955793
21
-0.735552312016859
31
0
0
SPLINE
5
231
100
AcDbEntity
8
0
100
AcDbSpline
70
0
71
2
72
6
73
3
74
0
42
0.000000001
43
0.0000000001
44
0.0000000001
40
-1
40
-1
40
-1
40
0
40
0
40
0
10
1.4052127840955797
20
-0.735552312016859
30
0
10
1.3884264008459577
20
-0.61957403357655305
30
0
10
1.3155241482580216
20
-0.5054431154625918
30
0
0
SPLINE
5
232
100
AcDbEntity
8
0
100
AcDbSpline
70
0
71
2
72
6
73
3
74
0
42
0.000000001
43
0.0000000001
44
0.0000000001
40
-1
40
-1
40
-1
40
0
40
0
40
0
10
1.3155241482580216
20
-0.5054431154625918
30
0
10
1.2426218018434629
20
-0.39131210344410428
30
0
10
1.1145237263778938
20
-0.31550350017499812
30
0
0
SPLINE
5
233
100
AcDbEntity
8
0
100
AcDbSpline
70
0
71
2
72
6
73
3
74
0
42
0.000000001
43
0.0000000001
44
0.0000000001
40
-1
40
-1
40
-1
40
-0.58400304816994486
40
-0.58400304816994486
40
-0.58400304816994486
10
1.1145237263778938
20
-0.31550350017499812
30
0
10
1.0612353174327165
20
-0.2839673913403486
30
0
10
1.0000108977328537
20
-0.26553771513466212
30
0
0
LINE
5
234
100
AcDbEntity
8
0
100
AcDbLine
10
1.0000108977328537
20
-0.26553771513466212
30
0
11
1.6392787497719337
21
-0.26580297317003143
31
0
0
LINE
5
235
100
AcDbEntity
8
0
100
AcDbLine
10
1.6392787497719337
20
-0.26580297317003143
30
0
11
1.6387505929098984
21
-1.539965917113407
31
0
0
LINE
5
236
100
AcDbEntity
8
0
100
AcDbLine
10
1.6387505929098984
20
-1.539965917113407
30
0
11
1.9174556528070255
21
-1.5400815744440759
31
0
0
LINE
5
237
100
AcDbEntity
8
0
100
AcDbLine
10
1.9174556528070255
20
-1.5400815744440759
30
0
11
1.9179837654090977
21
-0.26591862193817084
31
0
0
LINE
5
238
100
AcDbEntity
8
0
100
AcDbLine
10
1.9179837654090977
20
-0.26591862193817084
30
0
11
2.1536862356905973
21
-0.26601642678130649
31
0
0
LINE
5
239
100
AcDbEntity
8
0
100
AcDbLine
10
2.1536862356905973
20
-0.26601642678130649
30
0
11
2.151326735671597
21
-1.5401786260131762
31
0
0
LINE
5
240
100
AcDbEntity
8
0
100
AcDbLine
10
2.151326735671597
20
-1.5401786260131762
30
0
11
3.0753564950200434
21
-1.540562080791291
31
0
0
LINE
5
241
100
AcDbEntity
8
0
100
AcDbLine
10
3.0753564950200434
20
-1.540562080791291
30
0
11
3.0754519705242638
21
-1.3104901435568448
31
0
0
LINE
5
242
100
AcDbEntity
8
0
100
AcDbLine
10
3.0754519705242638
20
-1.3104901435568448
30
0
11
2.4301282126587336
21
-1.3102223463978
31
0
0
LINE
5
243
100
AcDbEntity
8
0
100
AcDbLine
10
2.4301282126587336
20
-1.3102223463978
30
0
11
2.4302524084584456
21
-1.0109417249494952
31
0
0
LINE
5
244
100
AcDbEntity
8
0
100
AcDbLine
10
2.4302524084584456
20
-1.0109417249494952
30
0
11
2.9764394768956999
21
-1.0111683822567019
31
0
0
LINE
5
245
100
AcDbEntity
8
0
100
AcDbLine
10
2.9764394768956999
20
-1.0111683822567019
30
0
11
2.9765341761559752
21
-0.78296699757466537
31
0
0
LINE
5
246
100
AcDbEntity
8
0
100
AcDbLine
10
2.9765341761559752
20
-0.78296699757466537
30
0
11
2.4303471077187204
21
-0.7827403402674582
31
0
0
LINE
5
247
100
AcDbEntity
8
0
100
AcDbLine
10
2.4303471077187204
20
-0.7827403402674582
30
0
11
2.4304790657909199
21
-0.46475459562371702
31
0
0
LINE
5
248
100
AcDbEntity
8
0
100
AcDbLine
10
2.4304790657909199
20
-0.46475459562371702
30
0
11
3.0533412376291897
21
-0.46501305324802217
31
0
0
LINE
5
249
100
AcDbEntity
8
0
100
AcDbLine
10
3.0533412376291897
20
-0.46501305324802217
30
0
11
3.0550785504225115
21
-0.26639045991655824
31
0
0
LINE
5
250
100
AcDbEntity
8
0
100
AcDbLine
10
3.0550785504225115
20
-0.26639045991655824
30
0
11
3.904635085675257
21
-0.26674298377244293
31
0
0
LINE
5
251
100
AcDbEntity
8
0
100
AcDbLine
10
3.904635085675257
20
-0.26674298377244293
30
0
11
3.9045511094166234
21
-0.46910738164721932
31
0
0
LINE
5
252
100
AcDbEntity
8
0
100
AcDbLine
10
3.9045511094166234
20
-0.46910738164721932
30
0
11
4.6452716095428039
21
-0.46941476665073473
31
0
0
LINE
5
253
100
AcDbEntity
8
0
100
AcDbLine
10
4.6452716095428039
20
-0.46941476665073473
30
0
11
3.8479922922934238
21
-1.5408827106508021
31
0
0
LINE
5
254
100
AcDbEntity
8
0
100
AcDbLine
10
3.8479922922934238
20
-1.5408827106508021
30
0
11
5.0956182248884714
21
-1.5414004518252549
31
0
0
LINE
5
255
100
AcDbEntity
8
0
100
AcDbLine
10
5.0956182248884714
20
-1.5414004518252549
30
0
11
5.0957108377853055
21
-1.3182266679309944
31
0
0
LINE
5
256
100
AcDbEntity
8
0
100
AcDbLine
10
5.0957108377853055
20
-1.3182266679309944
30
0
11
4.3197142705798672
21
-1.3179771099432669
31
0
0
LINE
5
257
100
AcDbEntity
8
0
100
AcDbLine
10
4.3197142705798672
20
-1.3179771099432669
30
0
11
5.1040032580695591
21
-0.26724066212016129
31
0
0
LINE
5
258
100
AcDbEntity
8
0
100
AcDbLine
10
5.1040032580695591
20
-0.26724066212016129
30
0
11
5.7112039952543148
21
-0.26749277669811605
31
0
0
SPLINE
5
259
100
AcDbEntity
8
0
100
AcDbSpline
70
0
71
2
72
6
73
3
74
0
42
0.000000001
43
0.0000000001
44
0.0000000001
40
-0.46906116271453541
40
-0.46906116271453541
40
-0.46906116271453541
40
0
40
0
40
0
10
5.7112039952543148
20
-0.26749277669811605
30
0
10
5.6287820505841575
20
-0.29028451029368252
30
0
10
5.5572576789865185
20
-0.33324647993643353
30
0
0
SPLINE
5
260
100
AcDbEntity
8
0
100
AcDbSpline
70
0
71
2
72
6
73
3
74
0
42
0.000000001
43
0.0000000001
44
0.0000000001
40
-1
40
-1
40
-1
40
0
40
0
40
0
10
5.5572576789865185
20
-0.33324647993643353
30
0
10
5.4047735974297728
20
-0.42483788221474317
30
0
10
5.3205372840313352
20
-0.5781842753364782
30
0
0
SPLINE
5
261
100
AcDbEntity
8
0
100
AcDbSpline
70
0
71
2
72
6
73
3
74
0
42
0.000000001
43
0.0000000001
44
0.0000000001
40
-1
40
-1
40
-1
40
0
40
0
40
0
10
5.3205372840313352
20
-0.5781842753364782
30
0
10
5.2363009648052508
20
-0.73153057459020454
30
0
10
5.2324854407150578
20
-0.9110974325584078
30
0
0
SPLINE
5
262
100
AcDbEntity
8
0
100
AcDbSpline
70
0
71
2
72
6
73
3
74
0
42
0.000000001
43
0.0000000001
44
0.0000000001
40
-1
40
-1
40
-1
40
0
40
0
40
0
10
5.2324854407150578
20
-0.9110974325584078
30
0
10
5.2286660355596837
20
-1.1000166808817051
30
0
10
5.3062294583792431
20
-1.2506244814721734
30
0
0
SPLINE
5
263
100
AcDbEntity
8
0
100
AcDbSpline
70
0
71
2
72
6
73
3
74
0
42
0.000000001
43
0.0000000001
44
0.0000000001
40
-1
40
-1
40
-1
40
0
40
0
40
0
10
5.3062294583792431
20
-1.2506244814721734
30
0
10
5.383792863599008
20
-1.4012322820553378
30
0
10
5.5333966683922142
20
-1.4892079381240091
30
0
0
SPLINE
5
264
100
AcDbEntity
8
0
100
AcDbSpline
70
0
71
2
72
6
73
3
74
0
42
0.000000001
43
0.0000000001
44
0.0000000001
40
-1
40
-1
40
-1
40
0
40
0
40
0
10
5.5333966683922142
20
-1.4892079381240091
30
0
10
5.6830005200403013
20
-1.5771837819433057
30
0
10
5.8831444051275446
20
-1.577266837871703
30
0
0
SPLINE
5
265
100
AcDbEntity
8
0
100
AcDbSpline
70
0
71
2
72
6
73
3
74
0
42
0.000000001
43
0.0000000001
44
0.0000000001
40
-1
40
-1
40
-1
40
0
40
0
40
0
10
5.8831444051275446
20
-1.577266837871703
30
0
10
6.0739358059941164
20
-1.5773460126959671
30
0
10
6.2273535178565362
20
-1.4894959170966118
30
0
0
SPLINE
5
266
100
AcDbEntity
8
0
100
AcDbSpline
70
0
71
2
72
6
73
3
74
0
42
0.000000001
43
0.0000000001
44
0.0000000001
40
-1
40
-1
40
-1
40
0
40
0
40
0
10
6.2273535178565362
20
-1.4894959170966118
30
0
10
6.3807713235066243
20
-1.4016460092673584
30
0
10
6.4687482378169054
20
-1.2492363513014937
30
0
0
SPLINE
5
267
100
AcDbEntity
8
0
100
AcDbSpline
70
0
71
2
72
6
73
3
74
0
42
0.000000001
43
0.0000000001
44
0.0000000001
40
-1
40
-1
40
-1
40
0
40
0
40
0
10
6.4687482378169054
20
-1.2492363513014937
30
0
10
6.5567252459148557
20
-1.0968268811057309
30
0
10
6.5605431045263352
20
-0.91164855138067569
30
0
0
SPLINE
5
268
100
AcDbEntity
8
0
100
AcDbSpline
70
0
71
2
72
6
73
3
74
0
42
0.000000001
43
0.0000000001
44
0.0000000001
40
-1
40
-1
40
-1
40
0
40
0
40
0
10
6.5605431045263352
20
-0.91164855138067569
30
0
10
6.5643624217216869
20
-0.7227292091552856
30
0
10
6.485864609991002
20
-0.57025056119107032
30
0
0
SPLINE
5
269
100
AcDbEntity
8
0
100
AcDbSpline
70
0
71
2
72
6
73
3
74
0
42
0.000000001
43
0.0000000001
44
0.0000000001
40
-1
40
-1
40
-1
40
0
40
0
40
0
10
6.485864609991002
20
-0.57025056119107032
30
0
10
6.4073667043947449
20
-0.4177719131879028
30
0
10
6.2586981527558363
20
-0.32979655136601799
30
0
0
SPLINE
5
270
100
AcDbEntity
8
0
100
AcDbSpline
70
0
71
2
72
6
73
3
74
0
42
0.000000001
43
0.0000000001
44
0.0000000001
40
-1
40
-1
40
-1
40
-0.54211698054551427
40
-0.54211698054551427
40
-0.54211698054551427
10
6.2586981527558363
20
-0.32979655136601799
30
0
10
6.190625347433488
20
-0.28951412705741264
30
0
10
6.1121525399806336
20
-0.26765909031382129
30
0
0
LINE
5
271
100
AcDbEntity
8
0
100
AcDbLine
10
6.1121525399806336
20
-0.26765909031382129
30
0
11
6.7628815126095567
21
-0.26792905052875648
31
0
0
LINE
5
272
100
AcDbEntity
8
0
100
AcDbLine
10
6.7628815126095567
20
-0.26792905052875648
30
0
11
6.7623541750635088
21
-1.5420921157333245
31
0
0
LINE
5
273
100
AcDbEntity
8
0
100
AcDbLine
10
6.7623541750635088
20
-1.5420921157333245
30
0
11
7.0335777274650164
21
-1.5422046683798274
31
0
0
LINE
5
274
100
AcDbEntity
8
0
100
AcDbLine
10
7.0335777274650164
20
-1.5422046683798274
30
0
11
7.033944881271621
21
-0.65745639458253935
31
0
0
LINE
5
275
100
AcDbEntity
8
0
100
AcDbLine
10
7.033944881271621
20
-0.65745639458253935
30
0
11
7.6508439388029652
21
-1.5424608221875189
31
0
0
LINE
5
276
100
AcDbEntity
8
0
100
AcDbLine
10
7.6508439388029652
20
-1.5424608221875189
30
0
11
7.9314194040787838
21
-1.5425772557010573
31
0
0
LINE
5
277
100
AcDbEntity
8
0
100
AcDbLine
10
7.9314194040787838
20
-1.5425772557010573
30
0
11
7.9319481576838244
21
-0.26841413684370696
31
0
0
LINE
5
278
100
AcDbEntity
8
0
100
AcDbLine
10
7.9319481576838244
20
-0.26841413684370696
30
0
11
8.1583008568830966
21
-0.26850805843251996
31
0
0
LINE
5
279
100
AcDbEntity
8
0
100
AcDbLine
10
8.1583008568830966
20
-0.26850805843251996
30
0
11
8.1559387725771995
21
-1.5426704269941982
31
0
0
LINE
5
280
100
AcDbEntity
8
0
100
AcDbLine
10
8.1559387725771995
20
-1.5426704269941982
30
0
11
9.079967565800894
21
-1.5430538814737595
31
0
0
LINE
5
281
100
AcDbEntity
8
0
100
AcDbLine
10
9.079967565800894
20
-1.5430538814737595
30
0
11
9.0800630413053671
21
-1.3129819436282444
31
0
0
LINE
5
282
100
AcDbEntity
8
0
100
AcDbLine
10
9.0800630413053671
20
-1.3129819436282444
30
0
11
8.4347392834398374
21
-1.3127141464691996
31
0
0
LINE
5
283
100
AcDbEntity
8
0
100
AcDbLine
10
8.4347392834398374
20
-1.3127141464691996
30
0
11
8.4348634792395476
21
-1.0134335250208948
31
0
0
LINE
5
284
100
AcDbEntity
8
0
100
AcDbLine
10
8.4348634792395476
20
-1.0134335250208948
30
0
11
8.9810505476768014
21
-1.0136601823281015
31
0
0
LINE
5
285
100
AcDbEntity
8
0
100
AcDbLine
10
8.9810505476768014
20
-1.0136601823281015
30
0
11
8.9811452469370785
21
-0.78545879764606497
31
0
0
LINE
5
286
100
AcDbEntity
8
0
100
AcDbLine
10
8.9811452469370785
20
-0.78545879764606497
30
0
11
8.4349581784998247
21
-0.7852321403388578
31
0
0
LINE
5
287
100
AcDbEntity
8
0
100
AcDbLine
10
8.4349581784998247
20
-0.7852321403388578
30
0
11
8.43509013655774
21
-0.46724643010467176
31
0
0
LINE
5
288
100
AcDbEntity
8
0
100
AcDbLine
10
8.43509013655774
20
-0.46724643010467176
30
0
11
9.0579678212308909
21
-0.46750490623321017
31
0
0
LINE
5
289
100
AcDbEntity
8
0
100
AcDbLine
10
9.0579678212308909
20
-0.46750490623321017
30
0
11
9.0597054035165048
21
-0.26888208245557149
31
0
0
SPLINE
5
290
100
AcDbEntity
8
0
100
AcDbSpline
70
0
71
2
72
6
73
3
74
0
42
0.000000001
43
0.0000000001
44
0.0000000001
40
-1
40
-1
40
-1
40
0
40
0
40
0
10
-3.3032450818841919
20
-1.272303527304935
30
0
10
-3.368730559241941
20
-1.315297955851729
30
0
10
-3.4865722640443426
20
-1.3152490537721473
30
0
0
LINE
5
291
100
AcDbEntity
8
0
100
AcDbLine
10
-3.4865722640443426
20
-1.3152490537721473
30
0
11
-3.8195219272459076
21
-1.3151108859566538
31
0
0
LINE
5
292
100
AcDbEntity
8
0
100
AcDbLine
10
-3.8195219272459076
20
-1.3151108859566538
30
0
11
-3.8119002055343385
21
-0.97842333864924802
31
0
0
LINE
5
293
100
AcDbEntity
8
0
100
AcDbLine
10
-3.8119002055343385
20
-0.97842333864924802
30
0
11
-3.4434109943488176
21
-0.97857625470524523
31
0
0
SPLINE
5
294
100
AcDbEntity
8
0
100
AcDbSpline
70
0
71
2
72
6
73
3
74
0
42
0.000000001
43
0.0000000001
44
0.0000000001
40
-1
40
-1
40
-1
40
0
40
0
40
0
10
-3.4434109943488171
20
-0.97857625470524523
30
0
10
-3.333051267536395
20
-0.97862205190541529
30
0
10
-3.2797609278373496
20
-1.0244715065335332
30
0
0
SPLINE
5
295
100
AcDbEntity
8
0
100
AcDbSpline
70
0
71
2
72
6
73
3
74
0
42
0.000000001
43
0.0000000001
44
0.0000000001
40
-1
40
-1
40
-1
40
0
40
0
40
0
10
-3.2797609278373496
20
-1.0244715065335332
30
0
10
-3.2264705881383038
20
-1.0703209611616513
30
0
10
-3.2302418733443683
20
-1.1432691047763797
30
0
0
SPLINE
5
296
100
AcDbEntity
8
0
100
AcDbSpline
70
0
71
2
72
6
73
3
74
0
42
0.000000001
43
0.0000000001
44
0.0000000001
40
-1
40
-1
40
-1
40
0
40
0
40
0
10
-3.2302418733443683
20
-1.1432691047763797
30
0
10
-3.237759604526441
20
-1.2293090987581412
30
0
10
-3.3032450818841919
20
-1.272303527304935
30
0
0
LINE
5
297
100
AcDbEntity
8
0
100
AcDbLine
10
-3.8191633118917689
20
-0.45093813376418213
30
0
11
-3.476861164469534
21
-0.45108018268380962
31
0
0
SPLINE
5
298
100
AcDbEntity
8
0
100
AcDbSpline
70
0
71
2
72
6
73
3
74
0
42
0.000000001
43
0.0000000001
44
0.0000000001
40
-1
40
-1
40
-1
40
0
40
0
40
0
10
-3.4768611644695331
20
-0.45108018268380962
30
0
10
-3.3739834625798757
20
-0.4511228749850914
30
0
10
-3.3188226166501393
20
-0.49697310583793142
30
0
0
SPLINE
5
299
100
AcDbEntity
8
0
100
AcDbSpline
70
0
71
2
72
6
73
3
74
0
42
0.000000001
43
0.0000000001
44
0.0000000001
40
-1
40
-1
40
-1
40
0
40
0
40
0
10
-3.3188226166501393
20
-0.49697310583793142
30
0
10
-3.2636617238265688
20
-0.54282343057582205
30
0
10
-3.2711779025591969
20
-0.6251224120962009
30
0
0
SPLINE
5
300
100
AcDbEntity
8
0
100
AcDbSpline
70
0
71
2
72
6
73
3
74
0
42
0.000000001
43
0.0000000001
44
0.0000000001
40
-1
40
-1
40
-1
40
0
40
0
40
0
10
-3.2711779025591969
20
-0.6251224120962009
30
0
10
-3.2749515164199514
20
-0.70368202747021591
30
0
10
-3.3329546276656239
20
-0.74574428431468254
30
0
0
SPLINE
5
301
100
AcDbEntity
8
0
100
AcDbSpline
70
0
71
2
72
6
73
3
74
0
42
0.000000001
43
0.0000000001
44
0.0000000001
40
-1
40
-1
40
-1
40
0
40
0
40
0
10
-3.3329546276656239
20
-0.74574428431468254
30
0
10
-3.3909576920174622
20
-0.78780663504419968
30
0
10
-3.4938353939071205
20
-0.78776394274291772
30
0
0
LINE
5
302
100
AcDbEntity
8
0
100
AcDbLine
10
-3.4938353939071205
20
-0.78776394274291772
30
0
11
-3.8080800182681682
21
-0.78763353716490614
31
0
0
LINE
5
303
100
AcDbEntity
8
0
100
AcDbLine
10
-3.8080800182681682
20
-0.78763353716490614
30
0
11
-3.8191633118917689
21
-0.45093813376418213
31
0
0
SPLINE
5
304
100
AcDbEntity
8
0
100
AcDbSpline
70
0
71
2
72
6
73
3
74
0
42
0.000000001
43
0.0000000001
44
0.0000000001
40
-1
40
-1
40
-1
40
0
40
0
40
0
10
-1.9430264942333846
20
-0.54150091574261316
30
0
10
-1.857006588189869
20
-0.59765171509603654
30
0
10
-1.8130897846250849
20
-0.69400090987694529
30
0
0
SPLINE
5
305
100
AcDbEntity
8
0
100
AcDbSpline
70
0
71
2
72
6
73
3
74
0
42
0.000000001
43
0.0000000001
44
0.0000000001
40
-1
40
-1
40
-1
40
0
40
0
40
0
10
-1.8130897846250849
20
-0.69400090987694529
30
0
10
-1.7691728871947265
20
-0.79035010469680655
30
0
10
-1.7710922485916891
20
-0.90819108022674899
30
0
0
SPLINE
5
306
100
AcDbEntity
8
0
100
AcDbSpline
70
0
71
2
72
6
73
3
74
0
42
0.000000001
43
0.0000000001
44
0.0000000001
40
-1
40
-1
40
-1
40
0
40
0
40
0
10
-1.7710922485916891
20
-0.90819108022674899
30
0
10
-1.7748798344584871
20
-1.0204197138876321
30
0
10
-1.8235529719809527
20
-1.1167304855934921
30
0
0
SPLINE
5
307
100
AcDbEntity
8
0
100
AcDbSpline
70
0
71
2
72
6
73
3
74
0
42
0.000000001
43
0.0000000001
44
0.0000000001
40
-1
40
-1
40
-1
40
0
40
0
40
0
10
-1.8235529719809527
20
-1.1167304855934921
30
0
10
-1.8722260156378441
20
-1.2130412573383045
30
0
10
-1.9601633425067797
20
-1.2700551444717014
30
0
0
SPLINE
5
308
100
AcDbEntity
8
0
100
AcDbSpline
70
0
71
2
72
6
73
3
74
0
42
0.000000001
43
0.0000000001
44
0.0000000001
40
-1
40
-1
40
-1
40
0
40
0
40
0
10
-1.9601633425067797
20
-1.2700551444717014
30
0
10
-2.0481007632412882
20
-1.327069031566146
30
0
10
-2.165942421110902
20
-1.3270201295060404
30
0
0
SPLINE
5
309
100
AcDbEntity
8
0
100
AcDbSpline
70
0
71
2
72
6
73
3
74
0
42
0.000000001
43
0.0000000001
44
0.0000000001
40
-1
40
-1
40
-1
40
0
40
0
40
0
10
-2.165942421110902
20
-1.3270201295060404
30
0
10
-2.2819136666153987
20
-1.3269720036317043
30
0
10
-2.367934690053473
20
-1.2736269401774003
30
0
0
SPLINE
5
310
100
AcDbEntity
8
0
100
AcDbSpline
70
0
71
2
72
6
73
3
74
0
42
0.000000001
43
0.0000000001
44
0.0000000001
40
-1
40
-1
40
-1
40
0
40
0
40
0
10
-2.367934690053473
20
-1.2736269401774003
30
0
10
-2.4539557604243334
20
-1.2202818767036201
30
0
10
-2.4978730224714445
20
-1.1248678646096617
30
0
0
SPLINE
5
311
100
AcDbEntity
8
0
100
AcDbSpline
70
0
71
2
72
6
73
3
74
0
42
0.000000001
43
0.0000000001
44
0.0000000001
40
-1
40
-1
40
-1
40
0
40
0
40
0
10
-2.4978730224714445
20
-1.1248678646096617
30
0
10
-2.5417902611300671
20
-1.0294540402565906
30
0
10
-2.5379988175865762
20
-0.90787282849972584
30
0
0
SPLINE
5
312
100
AcDbEntity
8
0
100
AcDbSpline
70
0
71
2
72
6
73
3
74
0
42
0.000000001
43
0.0000000001
44
0.0000000001
40
-1
40
-1
40
-1
40
0
40
0
40
0
10
-2.5379988175865762
20
-0.90787282849972584
30
0
10
-2.5342120079250239
20
-0.7975146541367466
30
0
10
-2.4855385526796399
20
-0.70026860581993333
30
0
0
SPLINE
5
313
100
AcDbEntity
8
0
100
AcDbSpline
70
0
71
2
72
6
73
3
74
0
42
0.000000001
43
0.0000000001
44
0.0000000001
40
-1
40
-1
40
-1
40
0
40
0
40
0
10
-2.4855385526796399
20
-0.70026860581993333
30
0
10
-2.4368650974732073
20
-0.60302265136869426
30
0
10
-2.3489269474272878
20
-0.54413821109129523
30
0
0
SPLINE
5
314
100
AcDbEntity
8
0
100
AcDbSpline
70
0
71
2
72
6
73
3
74
0
42
0.000000001
43
0.0000000001
44
0.0000000001
40
-1
40
-1
40
-1
40
0
40
0
40
0
10
-2.3489269474272878
20
-0.54413821109129523
30
0
10
-2.2609887974203202
20
-0.48525386467947018
30
0
10
-2.1487586113099928
20
-0.48530043808488582
30
0
0
SPLINE
5
315
100
AcDbEntity
8
0
100
AcDbSpline
70
0
71
2
72
6
73
3
74
0
42
0.000000001
43
0.0000000001
44
0.0000000001
40
-1
40
-1
40
-1
40
0
40
0
40
0
10
-2.1487586113099928
20
-0.48530043808488582
30
0
10
-2.0290464002769006
20
-0.48535011638918957
30
0
10
-1.9430264942333846
20
-0.54150091574261316
30
0
0
SPLINE
5
316
100
AcDbEntity
8
0
100
AcDbSpline
70
0
71
2
72
6
73
3
74
0
42
0.000000001
43
0.0000000001
44
0.0000000001
40
-1
40
-1
40
-1
40
0
40
0
40
0
10
-1.0219867866390204
20
-1.1254803294944773
30
0
10
-1.0659040252976433
20
-1.0300665051414055
30
0
10
-1.0621125817541519
20
-0.90848529338454076
30
0
0
SPLINE
5
317
100
AcDbEntity
8
0
100
AcDbSpline
70
0
71
2
72
6
73
3
74
0
42
0.000000001
43
0.0000000001
44
0.0000000001
40
-1
40
-1
40
-1
40
0
40
0
40
0
10
-1.0621125817541519
20
-0.90848529338454076
30
0
10
-1.0583257720925998
20
-0.79812711902156164
30
0
10
-1.0096523168472156
20
-0.70088107070474825
30
0
0
SPLINE
5
318
100
AcDbEntity
8
0
100
AcDbSpline
70
0
71
2
72
6
73
3
74
0
42
0.000000001
43
0.0000000001
44
0.0000000001
40
-1
40
-1
40
-1
40
0
40
0
40
0
10
-1.0096523168472156
20
-0.70088107070474825
30
0
10
-0.96097886164078394
20
-0.60363511625350919
30
0
10
-0.87304071159486363
20
-0.54475067597611004
30
0
0
SPLINE
5
319
100
AcDbEntity
8
0
100
AcDbSpline
70
0
71
2
72
6
73
3
74
0
42
0.000000001
43
0.0000000001
44
0.0000000001
40
-1
40
-1
40
-1
40
0
40
0
40
0
10
-0.87304071159486363
20
-0.54475067597611004
30
0
10
-0.78510256158789582
20
-0.48586632956428533
30
0
10
-0.67287237547756884
20
-0.48591290296970086
30
0
0
SPLINE
5
320
100
AcDbEntity
8
0
100
AcDbSpline
70
0
71
2
72
6
73
3
74
0
42
0.000000001
43
0.0000000001
44
0.0000000001
40
-1
40
-1
40
-1
40
0
40
0
40
0
10
-0.67287237547756884
20
-0.48591290296970086
30
0
10
-0.55316016444447647
20
-0.48596258127400471
30
0
10
-0.4671402584009608
20
-0.5421133806274282
30
0
0
SPLINE
5
321
100
AcDbEntity
8
0
100
AcDbSpline
70
0
71
2
72
6
73
3
74
0
42
0.000000001
43
0.0000000001
44
0.0000000001
40
-1
40
-1
40
-1
40
0
40
0
40
0
10
-0.4671402584009608
20
-0.5421133806274282
30
0
10
-0.38112035235744463
20
-0.5982641799808518
30
0
10
-0.33720354879266079
20
-0.69461337476176055
30
0
0
SPLINE
5
322
100
AcDbEntity
8
0
100
AcDbSpline
70
0
71
2
72
6
73
3
74
0
42
0.000000001
43
0.0000000001
44
0.0000000001
40
-1
40
-1
40
-1
40
0
40
0
40
0
10
-0.33720354879266079
20
-0.69461337476176055
30
0
10
-0.29328665136230292
20
-0.79096256958162181
30
0
10
-0.29520601275926478
20
-0.90880354511156392
30
0
0
SPLINE
5
323
100
AcDbEntity
8
0
100
AcDbSpline
70
0
71
2
72
6
73
3
74
0
42
0.000000001
43
0.0000000001
44
0.0000000001
40
-1
40
-1
40
-1
40
0
40
0
40
0
10
-0.29520601275926478
20
-0.90880354511156392
30
0
10
-0.2989935986260629
20
-1.021032178772447
30
0
10
-0.34766673614852872
20
-1.1173429504783072
30
0
0
SPLINE
5
324
100
AcDbEntity
8
0
100
AcDbSpline
70
0
71
2
72
6
73
3
74
0
42
0.000000001
43
0.0000000001
44
0.0000000001
40
-1
40
-1
40
-1
40
0
40
0
40
0
10
-0.34766673614852872
20
-1.1173429504783072
30
0
10
-0.39633977980542007
20
-1.2136537222231192
30
0
10
-0.48427710667435492
20
-1.2706676093565163
30
0
0
SPLINE
5
325
100
AcDbEntity
8
0
100
AcDbSpline
70
0
71
2
72
6
73
3
74
0
42
0.000000001
43
0.0000000001
44
0.0000000001
40
-1
40
-1
40
-1
40
0
40
0
40
0
10
-0.48427710667435492
20
-1.2706676093565163
30
0
10
-0.57221452740886403
20
-1.3276814964509611
30
0
10
-0.6900561852784779
20
-1.3276325943908553
30
0
0
SPLINE
5
326
100
AcDbEntity
8
0
100
AcDbSpline
70
0
71
2
72
6
73
3
74
0
42
0.000000001
43
0.0000000001
44
0.0000000001
40
-1
40
-1
40
-1
40
0
40
0
40
0
10
-0.6900561852784779
20
-1.3276325943908553
30
0
10
-0.80602743078297445
20
-1.3275844685165195
30
0
10
-0.89204845422104839
20
-1.2742394050622154
30
0
0
SPLINE
5
327
100
AcDbEntity
8
0
100
AcDbSpline
70
0
71
2
72
6
73
3
74
0
42
0.000000001
43
0.0000000001
44
0.0000000001
40
-1
40
-1
40
-1
40
0
40
0
40
0
10
-0.89204845422104839
20
-1.2742394050622154
30
0
10
-0.97806952459190921
20
-1.2208943415884357
30
0
10
-1.0219867866390204
20
-1.1254803294944773
30
0
0
SPLINE
5
328
100
AcDbEntity
8
0
100
AcDbSpline
70
0
71
2
72
6
73
3
74
0
42
0.000000001
43
0.0000000001
44
0.0000000001
40
-1
40
-1
40
-1
40
0
40
0
40
0
10
6.1080332997432469
20
-0.54484195334404817
30
0
10
6.194053205786763
20
-0.60099275269747188
30
0
10
6.2379700093515469
20
-0.69734194747838063
30
0
0
SPLINE
5
329
100
AcDbEntity
8
0
100
AcDbSpline
70
0
71
2
72
6
73
3
74
0
42
0.000000001
43
0.0000000001
44
0.0000000001
40
-1
40
-1
40
-1
40
0
40
0
40
0
10
6.2379700093515469
20
-0.69734194747838063
30
0
10
6.2818869067819056
20
-0.79369114229824178
30
0
10
6.2799675453849435
20
-0.91153211782818422
30
0
0
SPLINE
5
330
100
AcDbEntity
8
0
100
AcDbSpline
70
0
71
2
72
6
73
3
74
0
42
0.000000001
43
0.0000000001
44
0.0000000001
40
-1
40
-1
40
-1
40
0
40
0
40
0
10
6.2799675453849435
20
-0.91153211782818422
30
0
10
6.2761799595181467
20
-1.0237607514890672
30
0
10
6.2275068219956795
20
-1.1200715231949272
30
0
0
SPLINE
5
331
100
AcDbEntity
8
0
100
AcDbSpline
70
0
71
2
72
6
73
3
74
0
42
0.000000001
43
0.0000000001
44
0.0000000001
40
-1
40
-1
40
-1
40
0
40
0
40
0
10
6.2275068219956795
20
-1.1200715231949272
30
0
10
6.1788337783387881
20
-1.2163822949397392
30
0
10
6.0908964514698525
20
-1.2733961820731361
30
0
0
SPLINE
5
332
100
AcDbEntity
8
0
100
AcDbSpline
70
0
71
2
72
6
73
3
74
0
42
0.000000001
43
0.0000000001
44
0.0000000001
40
-1
40
-1
40
-1
40
0
40
0
40
0
10
6.0908964514698525
20
-1.2733961820731361
30
0
10
6.0029590307353455
20
-1.3304100691675811
30
0
10
5.8851173728657313
20
-1.3303611671074758
30
0
0
SPLINE
5
333
100
AcDbEntity
8
0
100
AcDbSpline
70
0
71
2
72
6
73
3
74
0
42
0.000000001
43
0.0000000001
44
0.0000000001
40
-1
40
-1
40
-1
40
0
40
0
40
0
10
5.8851173728657313
20
-1.3303611671074758
30
0
10
5.7691461273612346
20
-1.3303130412331401
30
0
10
5.6831251039231594
20
-1.2769679777788361
30
0
0
SPLINE
5
334
100
AcDbEntity
8
0
100
AcDbSpline
70
0
71
2
72
6
73
3
74
0
42
0.000000001
43
0.0000000001
44
0.0000000001
40
-1
40
-1
40
-1
40
0
40
0
40
0
10
5.6831251039231594
20
-1.2769679777788361
30
0
10
5.5971040335523004
20
-1.2236229143050554
30
0
10
5.5531867715051888
20
-1.1282089022110973
30
0
0
SPLINE
5
335
100
AcDbEntity
8
0
100
AcDbSpline
70
0
71
2
72
6
73
3
74
0
42
0.000000001
43
0.0000000001
44
0.0000000001
40
-1
40
-1
40
-1
40
0
40
0
40
0
10
5.5531867715051888
20
-1.1282089022110973
30
0
10
5.5092695328465657
20
-1.0327950778580253
30
0
10
5.5130609763900562
20
-0.91121386610116084
30
0
0
SPLINE
5
336
100
AcDbEntity
8
0
100
AcDbSpline
70
0
71
2
72
6
73
3
74
0
42
0.000000001
43
0.0000000001
44
0.0000000001
40
-1
40
-1
40
-1
40
0
40
0
40
0
10
5.5130609763900562
20
-0.91121386610116084
30
0
10
5.5168477860516099
20
-0.80085569173818194
30
0
10
5.5655212412969925
20
-0.70360964342136845
30
0
0
SPLINE
5
337
100
AcDbEntity
8
0
100
AcDbSpline
70
0
71
2
72
6
73
3
74
0
42
0.000000001
43
0.0000000001
44
0.0000000001
40
-1
40
-1
40
-1
40
0
40
0
40
0
10
5.5655212412969925
20
-0.70360964342136845
30
0
10
5.6141946965034242
20
-0.60636368897012938
30
0
10
5.7021328465493442
20
-0.54747924869273024
30
0
0
SPLINE
5
338
100
AcDbEntity
8
0
100
AcDbSpline
70
0
71
2
72
6
73
3
74
0
42
0.000000001
43
0.0000000001
44
0.0000000001
40
-1
40
-1
40
-1
40
0
40
0
40
0
10
5.7021328465493442
20
-0.54747924869273024
30
0
10
5.7900709965563131
20
-0.48859490228090535
30
0
10
5.9023011826666405
20
-0.48864147568632099
30
0
0
SPLINE
5
339
100
AcDbEntity
8
0
100
AcDbSpline
70
0
71
2
72
6
73
3
74
0
42
0.000000001
43
0.0000000001
44
0.0000000001
40
-1
40
-1
40
-1
40
0
40
0
40
0
10
5.9023011826666405
20
-0.48864147568632099
30
0
10
6.0220133936997318
20
-0.48869115399062474
30
0
10
6.1080332997432469
20
-0.54484195334404817
30
0
0
LWPOLYLINE
5
340
100
AcDbEntity
8
0
100
AcDbPolyline
90
3
70
1
43
0.0
10
7.6641020595174734
20
-1.1459194457096209
10
7.0521335710722575
20
-0.2680490712441902
10
7.6644662027401971
20
-0.26830314929959548
0
ENDSEC
0
SECTION
2
OBJECTS
0
DICTIONARY
5
C
100
AcDbDictionary
3
ACAD_GROUP
350
D
3
ACAD_MLINESTYLE
350
17
0
DICTIONARY
5
D
100
AcDbDictionary
0
DICTIONARY
5
1A
330
C
100
AcDbDictionary
0
DICTIONARY
5
17
100
AcDbDictionary
0
ENDSEC
0
EOF
