0
SECTION
2
HEADER
9
$ACADVER
1
AC1006
9
$EXTMIN
10
-77.939464001541
20
39.594899134351
9
$EXTMAX
10
-61.013942906108
20
57.100678535243
9
$VERSIONGUID
2
KP5RMCKE8VPPV36D9JF6ZRZ5NP5NM2M4
0
ENDSEC
0
SECTION
2
TABLES
0
TABLE
2
LTYPE
70
1
0
LTYPE
2
0
70
0
3
Solid Line
72
65
73
0
40
0.0
0
ENDTAB
0
TABLE
2
LAYER
70
1
0
LAYER
2
1
70
0
62
7
6
0
0
ENDTAB
0
ENDSEC
0
SECTION
2
BLOCKS
0
ENDSEC
0
SECTION
2
ENTITIES
0
POLYLINE
8
1
66
1
0
VERTEX
8
1
10
-71.485525129415
20
49.40033725516
0
VERTEX
8
1
10
-71.493880171622
20
49.388666313777
0
VERTEX
8
1
10
-71.586871755428
20
49.263880158086
0
VERTEX
8
1
10
-71.666262159443
20
49.160898124142
0
VERTEX
8
1
10
-71.724154952161
20
49.088444147336
0
VERTEX
8
1
10
-71.784981629943
20
49.01687355552
0
VERTEX
8
1
10
-71.848847977954
20
48.944616194389
0
VERTEX
8
1
10
-71.900730706135
20
48.888901221359
0
VERTEX
8
1
10
-71.943960935139
20
48.845410714182
0
VERTEX
8
1
10
-71.981869785616
20
48.809826750613
0
VERTEX
8
1
10
-72.017788378219
20
48.777831408405
0
VERTEX
8
1
10
-72.055047833598
20
48.745106765313
0
VERTEX
8
1
10
-72.133694174705
20
48.724751048285
42
-0.581663238338
0
VERTEX
8
1
10
-72.190139602656
20
48.744539298719
0
VERTEX
8
1
10
-72.192868330811
20
48.757428820099
0
VERTEX
8
1
10
-72.193571569708
20
48.762471389209
42
0.073696893689
0
VERTEX
8
1
10
-72.195392124475
20
48.778228110389
42
0.077038688488
0
VERTEX
8
1
10
-72.197259661606
20
48.794695036926
42
0.066874073583
0
VERTEX
8
1
10
-72.200081522674
20
48.808822812125
0
VERTEX
8
1
10
-72.200942854047
20
48.814673250816
0
VERTEX
8
1
10
-72.202669555503
20
48.824449453362
0
VERTEX
8
1
10
-72.203495212239
20
48.831025973397
42
0.071697595782
0
VERTEX
8
1
10
-72.206232446376
20
48.84621704363
0
VERTEX
8
1
10
-72.207422291377
20
48.855139907703
0
VERTEX
8
1
10
-72.208002524202
20
48.85804870367
42
0.059703037937
0
VERTEX
8
1
10
-72.20997588028
20
48.870770156327
0
VERTEX
8
1
10
-72.212414362467
20
48.882790307271
0
VERTEX
8
1
10
-72.213125987809
20
48.886161214612
42
0.07302302261
0
VERTEX
8
1
10
-72.217781174541
20
48.901174095002
0
VERTEX
8
1
10
-72.221911813625
20
48.912156810581
0
VERTEX
8
1
10
-72.224219026046
20
48.917307325517
0
VERTEX
8
1
10
-72.22524398405
20
48.920145225826
0
VERTEX
8
1
10
-72.229944762808
20
48.931746635122
0
VERTEX
8
1
10
-72.231271437123
20
48.934399983752
0
VERTEX
8
1
10
-72.232688642952
20
48.939084913258
42
0.071557432509
0
VERTEX
8
1
10
-72.23812244365
20
48.953500658271
42
0.033334656654
0
VERTEX
8
1
10
-72.2406127309
20
48.9602621144
0
VERTEX
8
1
10
-72.248239415508
20
48.996698668538
0
VERTEX
8
1
10
-72.25979340738
20
49.043821503039
0
VERTEX
8
1
10
-72.273549129792
20
49.092866801401
0
VERTEX
8
1
10
-72.289319910126
20
49.142422875315
0
VERTEX
8
1
10
-72.306919075767
20
49.191078036468
0
VERTEX
8
1
10
-72.326159954099
20
49.237420596551
0
VERTEX
8
1
10
-72.346855872504
20
49.280038867253
0
VERTEX
8
1
10
-72.349113821519
20
49.283892081834
0
VERTEX
8
1
10
-72.349126721775
20
49.288115949455
0
VERTEX
8
1
10
-72.349243125947
20
49.295090490252
0
VERTEX
8
1
10
-72.349126721775
20
49.302065031049
0
SEQEND
0
POLYLINE
8
1
66
1
0
VERTEX
8
1
10
-72.417179784708
20
48.503267960575
0
VERTEX
8
1
10
-72.4218529269
20
48.520989116433
0
VERTEX
8
1
10
-72.426274511647
20
48.539902754643
0
VERTEX
8
1
10
-72.430505061225
20
48.559795926457
0
VERTEX
8
1
10
-72.434605097908
20
48.580455683127
0
VERTEX
8
1
10
-72.438635143974
20
48.601669075903
0
VERTEX
8
1
10
-72.442655721697
20
48.623223156038
0
VERTEX
8
1
10
-72.446727353354
20
48.644904974784
0
VERTEX
8
1
10
-72.45091056122
20
48.666501583391
0
VERTEX
8
1
10
-72.455265867572
20
48.687800033112
0
VERTEX
8
1
10
-72.459853794685
20
48.708587375198
0
VERTEX
8
1
10
-72.467728730066
20
48.73967042266
0
VERTEX
8
1
10
-72.48281432945
20
48.788000178425
0
VERTEX
8
1
10
-72.502112482239
20
48.840250988175
0
VERTEX
8
1
10
-72.525052585412
20
48.894941176935
0
VERTEX
8
1
10
-72.55106403595
20
48.950589069729
0
VERTEX
8
1
10
-72.579576230831
20
49.005712991582
0
VERTEX
8
1
10
-72.610018567036
20
49.058831267519
0
VERTEX
8
1
10
-72.641820441543
20
49.108462222564
0
VERTEX
8
1
10
-72.674411251333
20
49.153124181743
0
VERTEX
8
1
10
-72.707220393384
20
49.191335470078
0
VERTEX
8
1
10
-72.739677264677
20
49.221614412596
0
VERTEX
8
1
10
-72.733566379889
20
49.174128680921
0
VERTEX
8
1
10
-72.709546080259
20
49.099634381621
0
VERTEX
8
1
10
-72.685112610047
20
49.029517908703
0
VERTEX
8
1
10
-72.660930219911
20
48.961816148676
0
VERTEX
8
1
10
-72.637663160506
20
48.89456598805
0
VERTEX
8
1
10
-72.615975682491
20
48.825804313334
0
VERTEX
8
1
10
-72.596532036523
20
48.753568011037
0
VERTEX
8
1
10
-72.579996473258
20
48.675893967668
0
VERTEX
8
1
10
-72.567033243354
20
48.590819069738
0
VERTEX
8
1
10
-72.558306597468
20
48.496380203754
0
VERTEX
8
1
10
-72.554480786257
20
48.390614256228
0
VERTEX
8
1
10
-72.566565939431
20
48.392937056594
0
VERTEX
8
1
10
-72.577704238446
20
48.404532724178
0
VERTEX
8
1
10
-72.587222237259
20
48.417413612473
0
VERTEX
8
1
10
-72.595398014556
20
48.431322937668
0
VERTEX
8
1
10
-72.602509649025
20
48.44600391595
0
VERTEX
8
1
10
-72.608835219353
20
48.461199763506
0
VERTEX
8
1
10
-72.614652804227
20
48.476653696525
0
VERTEX
8
1
10
-72.620240482335
20
48.492108931193
0
VERTEX
8
1
10
-72.625876332363
20
48.507308683699
0
VERTEX
8
1
10
-72.631838432999
20
48.521996170231
0
VERTEX
8
1
10
-72.640795865211
20
48.540719480505
0
VERTEX
8
1
10
-72.660768285554
20
48.579323827416
0
VERTEX
8
1
10
-72.680879324206
20
48.615974430344
0
VERTEX
8
1
10
-72.701339065692
20
48.650911510422
0
VERTEX
8
1
10
-72.722357594537
20
48.68437528878
0
VERTEX
8
1
10
-72.744144995268
20
48.716605986551
0
VERTEX
8
1
10
-72.766911352409
20
48.747843824866
0
VERTEX
8
1
10
-72.790866750486
20
48.778329024859
0
VERTEX
8
1
10
-72.816221274024
20
48.808301807659
0
VERTEX
8
1
10
-72.843185007549
20
48.838002394401
0
VERTEX
8
1
10
-72.871968035586
20
48.867671006214
0
VERTEX
8
1
10
-72.88702755237
20
48.877641311156
0
VERTEX
8
1
10
-72.879764322524
20
48.85794415189
0
VERTEX
8
1
10
-72.870153022882
20
48.834189546083
0
VERTEX
8
1
10
-72.858631132363
20
48.806935519079
0
VERTEX
8
1
10
-72.845636129887
20
48.776740096226
0
VERTEX
8
1
10
-72.831605494374
20
48.744161302868
0
VERTEX
8
1
10
-72.816976704743
20
48.709757164352
0
VERTEX
8
1
10
-72.802187239916
20
48.674085706024
0
VERTEX
8
1
10
-72.787674578811
20
48.637704953229
0
VERTEX
8
1
10
-72.773876200348
20
48.601172931313
0
VERTEX
8
1
10
-72.761229583448
20
48.565047665622
0
VERTEX
8
1
10
-72.749919281788
20
48.529766197806
0
VERTEX
8
1
10
-72.739147541968
20
48.494437933384
0
VERTEX
8
1
10
-72.736216444307
20
48.484270142784
0
SEQEND
0
POLYLINE
8
1
66
1
0
VERTEX
8
1
10
-73.097660845404
20
48.55846875825
0
VERTEX
8
1
10
-73.187725998337
20
48.635140723416
0
VERTEX
8
1
10
-73.284938720699
20
48.706104106246
0
VERTEX
8
1
10
-73.389736651583
20
48.767850654909
0
VERTEX
8
1
10
-73.503837951153
20
48.817962218064
0
VERTEX
8
1
10
-73.628960779573
20
48.854020644368
0
VERTEX
8
1
10
-73.736582905625
20
48.868735754818
0
VERTEX
8
1
10
-73.692742473894
20
48.845963374658
0
VERTEX
8
1
10
-73.640038533319
20
48.81462277834
0
VERTEX
8
1
10
-73.580455243203
20
48.776257906556
0
VERTEX
8
1
10
-73.515976762848
20
48.732412699998
0
VERTEX
8
1
10
-73.448587251557
20
48.684631099357
0
VERTEX
8
1
10
-73.380270868634
20
48.634457045324
0
VERTEX
8
1
10
-73.313011773379
20
48.583434478591
0
VERTEX
8
1
10
-73.248794125097
20
48.533107339848
0
VERTEX
8
1
10
-73.189602083089
20
48.485019569786
0
VERTEX
8
1
10
-73.137419806659
20
48.440715109098
0
VERTEX
8
1
10
-73.105975509725
20
48.412644624048
0
VERTEX
8
1
10
-73.094537483265
20
48.402071482576
0
VERTEX
8
1
10
-73.083478620424
20
48.391752161859
0
VERTEX
8
1
10
-73.072664427253
20
48.381699488635
0
VERTEX
8
1
10
-73.061960409808
20
48.37192628964
0
VERTEX
8
1
10
-73.051232074141
20
48.362445391613
0
VERTEX
8
1
10
-73.040344926307
20
48.35326962129
0
VERTEX
8
1
10
-73.029164472359
20
48.34441180541
0
VERTEX
8
1
10
-73.017556218351
20
48.335884770709
0
VERTEX
8
1
10
-73.005385670336
20
48.327701343926
0
VERTEX
8
1
10
-72.992518334368
20
48.319874351798
0
VERTEX
8
1
10
-72.986408567015
20
48.315538027691
0
VERTEX
8
1
10
-72.978839477971
20
48.306913553683
0
VERTEX
8
1
10
-72.966169545902
20
48.292477007991
0
VERTEX
8
1
10
-72.949770609058
20
48.273791509148
0
VERTEX
8
1
10
-72.931014505694
20
48.252420175685
0
VERTEX
8
1
10
-72.911273074061
20
48.229926126133
0
VERTEX
8
1
10
-72.891918152411
20
48.207872479025
0
VERTEX
8
1
10
-72.874321578998
20
48.187822352892
0
VERTEX
8
1
10
-72.859855192075
20
48.171338866266
0
VERTEX
8
1
10
-72.849890829892
20
48.15998513768
0
VERTEX
8
1
10
-72.845800330704
20
48.155324285663
0
VERTEX
8
1
10
-72.84563151932
20
48.154663456476
0
VERTEX
8
1
10
-72.845205731436
20
48.15270678238
0
VERTEX
8
1
10
-72.84455336553
20
48.149708887147
0
VERTEX
8
1
10
-72.843739676072
20
48.145969642463
0
VERTEX
8
1
10
-72.842829917533
20
48.141788920017
0
VERTEX
8
1
10
-72.841889344383
20
48.137466591496
0
VERTEX
8
1
10
-72.840983211092
20
48.133302528588
0
VERTEX
8
1
10
-72.840176772131
20
48.129596602981
0
VERTEX
8
1
10
-72.83953528197
20
48.126648686362
0
VERTEX
8
1
10
-72.839123995079
20
48.124758650419
0
VERTEX
8
1
10
-72.839016176153
20
48.12420937181
0
VERTEX
8
1
10
-72.839661300693
20
48.124290214484
0
VERTEX
8
1
10
-72.841146389741
20
48.124476315869
0
VERTEX
8
1
10
-72.84327269113
20
48.124742769677
0
VERTEX
8
1
10
-72.845841452697
20
48.125064669623
0
VERTEX
8
1
10
-72.848653922276
20
48.12541710942
0
VERTEX
8
1
10
-72.851511347702
20
48.125775182781
0
VERTEX
8
1
10
-72.854214976809
20
48.126113983421
0
VERTEX
8
1
10
-72.856566057433
20
48.126408605053
0
VERTEX
8
1
10
-72.858365837409
20
48.126634141391
0
VERTEX
8
1
10
-72.859415564571
20
48.126765686148
0
VERTEX
8
1
10
-72.865725411808
20
48.129402004853
0
VERTEX
8
1
10
-72.881064977555
20
48.136513706663
0
VERTEX
8
1
10
-72.896324707783
20
48.144281472671
0
VERTEX
8
1
10
-72.911565373829
20
48.152581518633
0
VERTEX
8
1
10
-72.926847747034
20
48.161290060308
0
VERTEX
8
1
10
-72.942232598735
20
48.170283313451
0
VERTEX
8
1
10
-72.957780700272
20
48.179437493818
0
VERTEX
8
1
10
-72.973552822982
20
48.188628817169
0
VERTEX
8
1
10
-72.989609738205
20
48.197733499257
0
VERTEX
8
1
10
-73.00601221728
20
48.206627755842
0
VERTEX
8
1
10
-73.022821031545
20
48.215187802679
0
VERTEX
8
1
10
-73.039425163243
20
48.223121350334
0
VERTEX
8
1
10
-73.055594694736
20
48.230748715298
0
VERTEX
8
1
10
-73.071639133418
20
48.238244835994
0
VERTEX
8
1
10
-73.087623360163
20
48.245627644946
0
VERTEX
8
1
10
-73.103612255849
20
48.252915074682
0
VERTEX
8
1
10
-73.119670701352
20
48.260125057728
0
VERTEX
8
1
10
-73.135863577546
20
48.26727552661
0
VERTEX
8
1
10
-73.152255765309
20
48.274384413853
0
VERTEX
8
1
10
-73.168912145516
20
48.281469651985
0
VERTEX
8
1
10
-73.185897599043
20
48.28854917353
0
VERTEX
8
1
10
-73.203277006767
20
48.295640911017
0
VERTEX
8
1
10
-73.230470426947
20
48.306394494511
0
VERTEX
8
1
10
-73.263381685533
20
48.318914776956
0
VERTEX
8
1
10
-73.30008880547
20
48.332351089882
0
VERTEX
8
1
10
-73.339561911817
20
48.346213526636
0
VERTEX
8
1
10
-73.380771129634
20
48.360012180564
0
VERTEX
8
1
10
-73.422686583978
20
48.373257145015
0
VERTEX
8
1
10
-73.46427839991
20
48.385458513335
0
VERTEX
8
1
10
-73.504516702488
20
48.396126378873
0
VERTEX
8
1
10
-73.542371616772
20
48.404770834975
0
VERTEX
8
1
10
-73.57681326782
20
48.410901974989
0
VERTEX
8
1
10
-73.60467864877
20
48.414933970192
0
VERTEX
8
1
10
-73.616404756196
20
48.422415100664
0
VERTEX
8
1
10
-73.627798364699
20
48.428405573095
0
VERTEX
8
1
10
-73.639044403456
20
48.433081101336
0
VERTEX
8
1
10
-73.650327801643
20
48.436617399237
0
VERTEX
8
1
10
-73.661833488435
20
48.439190180649
0
VERTEX
8
1
10
-73.673746393009
20
48.440975159422
0
VERTEX
8
1
10
-73.686251444541
20
48.442148049405
0
VERTEX
8
1
10
-73.699533572207
20
48.442884564449
0
VERTEX
8
1
10
-73.713777705184
20
48.443360418405
0
VERTEX
8
1
10
-73.729168772648
20
48.443751325123
0
VERTEX
8
1
10
-73.73839095935
20
48.443028914396
0
VERTEX
8
1
10
-73.736252723012
20
48.440691638508
0
VERTEX
8
1
10
-73.734553790078
20
48.438698244308
0
VERTEX
8
1
10
-73.733144847361
20
48.436963178704
0
VERTEX
8
1
10
-73.731876581675
20
48.435400888601
0
VERTEX
8
1
10
-73.730599679833
20
48.433925820906
0
VERTEX
8
1
10
-73.729164828649
20
48.432452422525
0
VERTEX
8
1
10
-73.727422714935
20
48.430895140365
0
VERTEX
8
1
10
-73.725224025505
20
48.429168421332
0
VERTEX
8
1
10
-73.722419447172
20
48.427186712332
0
VERTEX
8
1
10
-73.71885966675
20
48.424864460271
0
VERTEX
8
1
10
-73.690464190771
20
48.408104470354
0
SEQEND
0
POLYLINE
8
1
66
1
0
VERTEX
8
1
10
-71.213141197178
20
48.207047639236
0
VERTEX
8
1
10
-71.194959042017
20
48.210703093012
0
VERTEX
8
1
10
-71.161573045932
20
48.216563618847
0
VERTEX
8
1
10
-71.126326218109
20
48.22137227246
0
VERTEX
8
1
10
-71.086823133267
20
48.225854962084
0
VERTEX
8
1
10
-71.044381956611
20
48.230201722686
0
VERTEX
8
1
10
-71.000320853347
20
48.23460258923
0
VERTEX
8
1
10
-70.955957988681
20
48.239247596681
0
VERTEX
8
1
10
-70.912611527817
20
48.244326780004
0
VERTEX
8
1
10
-70.871599635961
20
48.250030174164
0
VERTEX
8
1
10
-70.834240478318
20
48.256547814125
0
VERTEX
8
1
10
-70.801852220095
20
48.264069734853
0
VERTEX
8
1
10
-70.775753026496
20
48.272785971312
0
VERTEX
8
1
10
-70.822542301569
20
48.284105755857
0
VERTEX
8
1
10
-70.892301307859
20
48.293699722965
0
VERTEX
8
1
10
-70.959937029517
20
48.300607094428
0
VERTEX
8
1
10
-71.025983955448
20
48.304891256744
0
VERTEX
8
1
10
-71.090976574557
20
48.306615596412
0
VERTEX
8
1
10
-71.15544937575
20
48.30584349993
0
VERTEX
8
1
10
-71.219936847931
20
48.302638353799
0
VERTEX
8
1
10
-71.284973480006
20
48.297063544516
0
VERTEX
8
1
10
-71.351093760881
20
48.28918245858
0
VERTEX
8
1
10
-71.418832179459
20
48.27905848249
0
VERTEX
8
1
10
-71.488723224648
20
48.266755002745
0
VERTEX
8
1
10
-71.511062807036
20
48.260809452906
0
VERTEX
8
1
10
-71.529754266366
20
48.255454684964
0
VERTEX
8
1
10
-71.546571079928
20
48.250480273572
0
VERTEX
8
1
10
-71.562130051903
20
48.24585234618
0
VERTEX
8
1
10
-71.577047986473
20
48.241537030239
0
VERTEX
8
1
10
-71.591941687819
20
48.2375004532
0
VERTEX
8
1
10
-71.607427960123
20
48.233708742513
0
VERTEX
8
1
10
-71.624123607567
20
48.230128025628
0
VERTEX
8
1
10
-71.642645434332
20
48.226724429996
0
VERTEX
8
1
10
-71.6636102446
20
48.223464083068
0
VERTEX
8
1
10
-71.66834011986
20
48.228148017518
0
VERTEX
8
1
10
-71.661703690043
20
48.23390275038
0
VERTEX
8
1
10
-71.632131790072
20
48.25820243088
0
VERTEX
8
1
10
-71.601364420235
20
48.282251398151
0
VERTEX
8
1
10
-71.570065273788
20
48.305800069833
0
VERTEX
8
1
10
-71.538898043986
20
48.328598863565
0
VERTEX
8
1
10
-71.508526424084
20
48.350398196986
0
VERTEX
8
1
10
-71.479614107338
20
48.370948487735
0
VERTEX
8
1
10
-71.452824787001
20
48.390000153451
0
VERTEX
8
1
10
-71.428822156331
20
48.407303611775
0
VERTEX
8
1
10
-71.408269908582
20
48.422609280344
0
VERTEX
8
1
10
-71.39183173701
20
48.435667576798
0
VERTEX
8
1
10
-71.409879184221
20
48.434970672538
0
VERTEX
8
1
10
-71.44988570321
20
48.424570303877
0
VERTEX
8
1
10
-71.48835424631
20
48.413197574645
0
VERTEX
8
1
10
-71.525589114131
20
48.400756345164
0
VERTEX
8
1
10
-71.561894607285
20
48.387150475754
0
VERTEX
8
1
10
-71.597575026385
20
48.372283826736
0
VERTEX
8
1
10
-71.63293467204
20
48.356060258432
0
VERTEX
8
1
10
-71.668277844864
20
48.338383631163
0
VERTEX
8
1
10
-71.703908845467
20
48.319157805251
0
VERTEX
8
1
10
-71.738439815689
20
48.299261634746
0
SEQEND
0
POLYLINE
8
1
66
1
0
VERTEX
8
1
10
-71.534415971346
20
48.734387369181
0
VERTEX
8
1
10
-71.588021366349
20
48.704811218339
0
VERTEX
8
1
10
-71.641019296327
20
48.672518627307
0
VERTEX
8
1
10
-71.750497450607
20
48.61121084631
0
VERTEX
8
1
10
-71.806467600097
20
48.586791544758
0
VERTEX
8
1
10
-71.739806551637
20
48.676134706941
0
VERTEX
8
1
10
-71.683001856254
20
48.75863038
0
VERTEX
8
1
10
-71.637880225564
20
48.824243985477
0
VERTEX
8
1
10
-71.596029537283
20
48.878899691061
0
VERTEX
8
1
10
-71.552476850242
20
48.941278032148
0
VERTEX
8
1
10
-71.507947262657
20
49.009405956116
0
VERTEX
8
1
10
-71.463165872742
20
49.081310410346
0
VERTEX
8
1
10
-71.418857778712
20
49.155018342215
0
VERTEX
8
1
10
-71.375748078782
20
49.228556699104
0
VERTEX
8
1
10
-71.334561871165
20
49.29995242839
0
VERTEX
8
1
10
-71.298851711874
20
49.362296222603
0
SEQEND
0
POLYLINE
8
1
66
1
0
VERTEX
8
1
10
-72.292244043599
20
48.347429997436
0
VERTEX
8
1
10
-72.289722659485
20
48.360984797594
42
-0.125975722386
0
VERTEX
8
1
10
-72.547761107436
20
48.166697025019
42
0.565036737578
0
VERTEX
8
1
10
-72.60544028992
20
47.744728268958
42
0.407601256766
0
VERTEX
8
1
10
-72.222936237662
20
47.893479844836
42
0.087668311406
0
VERTEX
8
1
10
-72.049898690213
20
48.190513836302
0
SEQEND
0
POLYLINE
8
1
66
1
0
VERTEX
8
1
10
-69.755362758096
20
48.078795487318
0
VERTEX
8
1
10
-69.759044196498
20
48.042227957199
0
VERTEX
8
1
10
-69.783986182979
20
47.961784127357
0
VERTEX
8
1
10
-69.822462795975
20
47.886743355595
0
VERTEX
8
1
10
-69.873163466696
20
47.817893303217
0
VERTEX
8
1
10
-69.934777626356
20
47.756021631531
0
VERTEX
8
1
10
-70.005994706166
20
47.701916001842
0
VERTEX
8
1
10
-70.085504137338
20
47.656364075457
0
VERTEX
8
1
10
-70.171995351084
20
47.620153513682
0
VERTEX
8
1
10
-70.264157778615
20
47.594071977821
0
VERTEX
8
1
10
-70.360680851144
20
47.578907129183
0
VERTEX
8
1
10
-70.460253999882
20
47.575446629072
0
VERTEX
8
1
10
-70.55856884255
20
47.583774190715
0
VERTEX
8
1
10
-70.656916026877
20
47.600928829515
0
VERTEX
8
1
10
-70.758568292206
20
47.624954441635
0
VERTEX
8
1
10
-70.861891661619
20
47.653900491258
0
VERTEX
8
1
10
-70.965252158201
20
47.685816442569
0
VERTEX
8
1
10
-71.067015805036
20
47.718751759752
0
VERTEX
8
1
10
-71.165548625206
20
47.750755906991
0
VERTEX
8
1
10
-71.259216641795
20
47.779878348469
0
VERTEX
8
1
10
-71.346385877886
20
47.80416854837
0
VERTEX
8
1
10
-71.425422356565
20
47.82167597088
0
VERTEX
8
1
10
-71.495450997017
20
47.824947674774
0
VERTEX
8
1
10
-71.499489720149
20
47.803253139165
0
VERTEX
8
1
10
-71.466640970967
20
47.774667681247
0
VERTEX
8
1
10
-71.423195085206
20
47.743126582014
0
VERTEX
8
1
10
-71.371505552333
20
47.709662628587
0
VERTEX
8
1
10
-71.313925861817
20
47.675308608085
0
VERTEX
8
1
10
-71.252809503124
20
47.641097307629
0
VERTEX
8
1
10
-71.190509965721
20
47.608061514341
0
VERTEX
8
1
10
-71.129380739077
20
47.57723401534
0
VERTEX
8
1
10
-71.071775312658
20
47.549647597748
0
VERTEX
8
1
10
-71.020047175932
20
47.526335048684
0
VERTEX
8
1
10
-70.976549818367
20
47.508329155269
0
VERTEX
8
1
10
-70.943987163491
20
47.496199952049
0
VERTEX
8
1
10
-70.912302468413
20
47.485356609367
0
VERTEX
8
1
10
-70.88097629454
20
47.475560093194
0
VERTEX
8
1
10
-70.849807666778
20
47.466696023453
0
VERTEX
8
1
10
-70.818595610033
20
47.45865002007
0
VERTEX
8
1
10
-70.787139149212
20
47.451307702971
0
VERTEX
8
1
10
-70.755237309221
20
47.444554692082
0
VERTEX
8
1
10
-70.722689114967
20
47.438276607326
0
VERTEX
8
1
10
-70.689293591356
20
47.43235906863
0
VERTEX
8
1
10
-70.654849763294
20
47.42668769592
0
VERTEX
8
1
10
-70.607455085609
20
47.419175445109
0
VERTEX
8
1
10
-70.512084711006
20
47.397836023471
0
VERTEX
8
1
10
-70.421487991006
20
47.367416197937
0
VERTEX
8
1
10
-70.336886130325
20
47.328062679751
0
VERTEX
8
1
10
-70.259500333676
20
47.279922180157
0
VERTEX
8
1
10
-70.190551805776
20
47.223141410398
0
VERTEX
8
1
10
-70.131261751339
20
47.157867081719
0
VERTEX
8
1
10
-70.082851375081
20
47.084245905364
0
VERTEX
8
1
10
-70.046541881715
20
47.002424592575
0
VERTEX
8
1
10
-70.023554475958
20
46.912549854598
0
VERTEX
8
1
10
-70.015110362524
20
46.814768402676
0
VERTEX
8
1
10
-70.01719834668
20
46.756041271223
0
VERTEX
8
1
10
-70.017016150602
20
46.75421038676
0
VERTEX
8
1
10
-70.016676352644
20
46.750795764388
0
VERTEX
8
1
10
-70.016218948448
20
46.746199319469
0
VERTEX
8
1
10
-70.015683933659
20
46.740822967361
0
VERTEX
8
1
10
-70.015111303919
20
46.735068623427
0
VERTEX
8
1
10
-70.014541054872
20
46.729338203027
0
VERTEX
8
1
10
-70.014013182162
20
46.724033621519
0
VERTEX
8
1
10
-70.013567681432
20
46.719556794267
0
VERTEX
8
1
10
-70.013244548325
20
46.716309636629
0
VERTEX
8
1
10
-70.013083778485
20
46.714694063965
0
VERTEX
8
1
10
-70.023901972833
20
46.654407692977
0
VERTEX
8
1
10
-70.038346981742
20
46.570103015019
0
VERTEX
8
1
10
-70.049070004669
20
46.509714968061
0
SEQEND
0
POLYLINE
8
1
66
1
0
VERTEX
8
1
10
-73.035274369673
20
47.649485226997
0
VERTEX
8
1
10
-73.05651990867
20
47.64154098237
0
VERTEX
8
1
10
-73.101465247899
20
47.617526035905
0
VERTEX
8
1
10
-73.156194845797
20
47.582613761915
0
VERTEX
8
1
10
-73.217368520303
20
47.539652443307
0
VERTEX
8
1
10
-73.281646089351
20
47.491490362988
0
VERTEX
8
1
10
-73.34568737088
20
47.440975803868
0
VERTEX
8
1
10
-73.406152182825
20
47.390957048853
0
VERTEX
8
1
10
-73.459700343123
20
47.344282380851
0
VERTEX
8
1
10
-73.502991669712
20
47.30380008277
0
VERTEX
8
1
10
-73.532685980527
20
47.272358437518
0
VERTEX
8
1
10
-73.546391756859
20
47.253462732839
0
VERTEX
8
1
10
-73.559079809303
20
47.246363664055
0
VERTEX
8
1
10
-73.570554018301
20
47.239120324619
0
VERTEX
8
1
10
-73.58094987405
20
47.231663848649
0
VERTEX
8
1
10
-73.590402866749
20
47.223925370263
0
VERTEX
8
1
10
-73.599048486596
20
47.21583602358
0
VERTEX
8
1
10
-73.607022223788
20
47.207326942718
0
VERTEX
8
1
10
-73.614459568522
20
47.198329261795
0
VERTEX
8
1
10
-73.621496010998
20
47.188774114929
0
VERTEX
8
1
10
-73.628267041411
20
47.178592636239
0
VERTEX
8
1
10
-73.634908149961
20
47.167715959842
0
VERTEX
8
1
10
-73.635090232195
20
47.161736428329
0
VERTEX
8
1
10
-73.62375317774
20
47.166218652365
0
VERTEX
8
1
10
-73.613105632079
20
47.171003838643
0
VERTEX
8
1
10
-73.603076985891
20
47.1761527585
0
VERTEX
8
1
10
-73.593596629853
20
47.181726183277
0
VERTEX
8
1
10
-73.584593954643
20
47.187784884312
0
VERTEX
8
1
10
-73.575998350941
20
47.194389632943
0
VERTEX
8
1
10
-73.567739209424
20
47.201601200509
0
VERTEX
8
1
10
-73.55974592077
20
47.209480358349
0
VERTEX
8
1
10
-73.551947875657
20
47.218087877802
0
VERTEX
8
1
10
-73.544274464765
20
47.227484530206
0
VERTEX
8
1
10
-73.534838506423
20
47.234365072033
0
VERTEX
8
1
10
-73.523728737719
20
47.24014903313
0
VERTEX
8
1
10
-73.512158208647
20
47.247017405041
0
VERTEX
8
1
10
-73.500236008742
20
47.254753378541
0
VERTEX
8
1
10
-73.488071227539
20
47.263140144409
0
VERTEX
8
1
10
-73.47577295457
20
47.271960893421
0
VERTEX
8
1
10
-73.46345027937
20
47.280998816356
0
VERTEX
8
1
10
-73.451212291475
20
47.290037103989
0
VERTEX
8
1
10
-73.439168080417
20
47.2988589471
0
VERTEX
8
1
10
-73.427426735732
20
47.307247536463
0
VERTEX
8
1
10
-73.416097346952
20
47.314986062858
0
VERTEX
8
1
10
-73.402460389371
20
47.323917706709
0
VERTEX
8
1
10
-73.38909903104
20
47.332643871495
0
VERTEX
8
1
10
-73.376415218579
20
47.340892117261
0
VERTEX
8
1
10
-73.364247434721
20
47.348752729295
0
VERTEX
8
1
10
-73.352434162199
20
47.356315992886
0
VERTEX
8
1
10
-73.340813883746
20
47.36367219332
0
VERTEX
8
1
10
-73.329225082095
20
47.370911615888
0
VERTEX
8
1
10
-73.317506239979
20
47.378124545875
0
VERTEX
8
1
10
-73.30549584013
20
47.385401268571
0
VERTEX
8
1
10
-73.293032365283
20
47.392832069264
0
VERTEX
8
1
10
-73.278814832221
20
47.401171200234
0
VERTEX
8
1
10
-73.252660711573
20
47.416338210896
0
VERTEX
8
1
10
-73.226935877456
20
47.431049332742
0
VERTEX
8
1
10
-73.201455027099
20
47.445313905628
0
VERTEX
8
1
10
-73.176032857732
20
47.459141269413
0
VERTEX
8
1
10
-73.150484066584
20
47.472540763954
0
VERTEX
8
1
10
-73.124623350885
20
47.485521729107
0
VERTEX
8
1
10
-73.098265407864
20
47.498093504731
0
VERTEX
8
1
10
-73.07122493475
20
47.510265430683
0
VERTEX
8
1
10
-73.043316628774
20
47.52204684682
0
VERTEX
8
1
10
-73.014355187164
20
47.533447092999
0
VERTEX
8
1
10
-72.99050530352
20
47.541866767512
0
VERTEX
8
1
10
-72.979241188629
20
47.54496494385
0
VERTEX
8
1
10
-72.968404948912
20
47.548083638224
0
VERTEX
8
1
10
-72.957904680174
20
47.551214133433
0
VERTEX
8
1
10
-72.947648478216
20
47.554347712278
0
VERTEX
8
1
10
-72.937544438843
20
47.557475657558
0
VERTEX
8
1
10
-72.927500657857
20
47.560589252073
0
VERTEX
8
1
10
-72.917425231063
20
47.563679778623
0
VERTEX
8
1
10
-72.907226254263
20
47.566738520007
0
VERTEX
8
1
10
-72.896811823261
20
47.569756759026
0
VERTEX
8
1
10
-72.886090033861
20
47.572725778479
0
VERTEX
8
1
10
-72.880591635445
20
47.574175037263
0
VERTEX
8
1
10
-72.877452375665
20
47.574919841963
0
VERTEX
8
1
10
-72.872637527681
20
47.576043153031
0
VERTEX
8
1
10
-72.866598891526
20
47.577440364064
0
VERTEX
8
1
10
-72.859788267235
20
47.579006868661
0
VERTEX
8
1
10
-72.852657454843
20
47.580638060418
0
VERTEX
8
1
10
-72.845658254385
20
47.582229332933
0
VERTEX
8
1
10
-72.839242465894
20
47.583676079803
0
VERTEX
8
1
10
-72.833861889405
20
47.584873694625
0
VERTEX
8
1
10
-72.829968324953
20
47.585717570997
0
VERTEX
8
1
10
-72.828013572572
20
47.586103102516
0
VERTEX
8
1
10
-72.806706146582
20
47.587142332394
0
VERTEX
8
1
10
-72.787984032345
20
47.588299446615
0
VERTEX
8
1
10
-72.775746205518
20
47.589167395887
0
VERTEX
8
1
10
-72.768779854488
20
47.58954008069
0
VERTEX
8
1
10
-72.76587216764
20
47.589211401503
0
VERTEX
8
1
10
-72.76581033336
20
47.587975258809
0
VERTEX
8
1
10
-72.767381540034
20
47.585625553086
0
VERTEX
8
1
10
-72.769372976048
20
47.581956184815
0
VERTEX
8
1
10
-72.770571829788
20
47.576761054478
0
VERTEX
8
1
10
-72.769765289639
20
47.569834062553
0
VERTEX
8
1
10
-72.767530986542
20
47.561355399232
0
VERTEX
8
1
10
-72.792749664278
20
47.547733792391
0
VERTEX
8
1
10
-72.827501648106
20
47.519019247813
0
VERTEX
8
1
10
-72.869282859995
20
47.478234018816
0
VERTEX
8
1
10
-72.915589221914
20
47.428400358717
0
VERTEX
8
1
10
-72.963916655834
20
47.372540520834
0
VERTEX
8
1
10
-73.011761083723
20
47.313676758486
0
VERTEX
8
1
10
-73.056618427553
20
47.25483132499
0
VERTEX
8
1
10
-73.095984609291
20
47.199026473665
0
VERTEX
8
1
10
-73.127355550909
20
47.149284457828
0
VERTEX
8
1
10
-73.148227174376
20
47.108627530798
0
VERTEX
8
1
10
-73.158209033985
20
47.085342667781
0
VERTEX
8
1
10
-73.166456201954
20
47.078927226156
0
VERTEX
8
1
10
-73.172952745599
20
47.073441615268
0
VERTEX
8
1
10
-73.178109120522
20
47.068438891808
0
VERTEX
8
1
10
-73.18233578232
20
47.063472112469
0
VERTEX
8
1
10
-73.186043186592
20
47.058094333941
0
VERTEX
8
1
10
-73.18964178894
20
47.051858612915
0
VERTEX
8
1
10
-73.19354204496
20
47.044318006084
0
VERTEX
8
1
10
-73.198154410252
20
47.035025570137
0
VERTEX
8
1
10
-73.203889340416
20
47.023534361767
0
VERTEX
8
1
10
-73.211157291051
20
47.009397437665
0
VERTEX
8
1
10
-73.224083949698
20
46.985145511288
0
VERTEX
8
1
10
-73.239084169596
20
46.957400545514
0
VERTEX
8
1
10
-73.252695942109
20
46.932361983789
0
VERTEX
8
1
10
-73.265197844049
20
46.909202314751
0
VERTEX
8
1
10
-73.27686845223
20
46.887094027034
0
VERTEX
8
1
10
-73.287986343464
20
46.865209609274
0
VERTEX
8
1
10
-73.298830094565
20
46.842721550107
0
VERTEX
8
1
10
-73.309678282346
20
46.818802338169
0
VERTEX
8
1
10
-73.320809483618
20
46.792624462095
0
VERTEX
8
1
10
-73.332502275196
20
46.763360410522
0
VERTEX
8
1
10
-73.345035233892
20
46.730182672085
0
VERTEX
8
1
10
-73.311182804213
20
46.779035284259
0
VERTEX
8
1
10
-73.263107681328
20
46.847757674192
0
VERTEX
8
1
10
-73.211997207581
20
46.916229459443
0
VERTEX
8
1
10
-73.158342410408
20
46.984258861608
0
VERTEX
8
1
10
-73.102634317244
20
47.051654102282
0
VERTEX
8
1
10
-73.045363955525
20
47.118223403059
0
VERTEX
8
1
10
-72.987022352686
20
47.183774985536
0
VERTEX
8
1
10
-72.928100536163
20
47.248117071306
0
VERTEX
8
1
10
-72.869089533391
20
47.311057881965
0
SEQEND
0
POLYLINE
8
1
66
1
0
VERTEX
8
1
10
-72.706326635706
20
46.952244381791
0
VERTEX
8
1
10
-72.707075848263
20
46.910323537871
0
VERTEX
8
1
10
-72.706430424314
20
46.856928077672
0
VERTEX
8
1
10
-72.705587885083
20
46.83071816029
0
VERTEX
8
1
10
-72.705055197699
20
46.810139401621
0
VERTEX
8
1
10
-72.704473615914
20
46.789275443242
0
VERTEX
8
1
10
-72.703664312593
20
46.76833387905
0
VERTEX
8
1
10
-72.702448460599
20
46.747522302939
0
VERTEX
8
1
10
-72.700647232797
20
46.727048308809
0
VERTEX
8
1
10
-72.69808180205
20
46.707119490555
0
VERTEX
8
1
10
-72.694573341222
20
46.687943442074
0
VERTEX
8
1
10
-72.689943023177
20
46.669727757264
0
VERTEX
8
1
10
-72.68401202078
20
46.65268003002
0
VERTEX
8
1
10
-72.676907146126
20
46.637637879641
0
VERTEX
8
1
10
-72.676441446023
20
46.638595937012
0
VERTEX
8
1
10
-72.675994061924
20
46.639598159555
0
VERTEX
8
1
10
-72.67556586555
20
46.640630350685
0
VERTEX
8
1
10
-72.675157728619
20
46.641678313821
0
VERTEX
8
1
10
-72.674770522852
20
46.642727852377
0
VERTEX
8
1
10
-72.674405119969
20
46.643764769772
0
VERTEX
8
1
10
-72.674062391691
20
46.644774869422
0
VERTEX
8
1
10
-72.673743209736
20
46.645743954744
0
VERTEX
8
1
10
-72.673448445826
20
46.646657829154
0
VERTEX
8
1
10
-72.673178971679
20
46.64750229607
0
VERTEX
8
1
10
-72.672960897908
20
46.6483101717
0
VERTEX
8
1
10
-72.672214005397
20
46.65289381437
0
VERTEX
8
1
10
-72.670678419748
20
46.662317628106
0
VERTEX
8
1
10
-72.668546915618
20
46.675398564306
0
VERTEX
8
1
10
-72.666012267663
20
46.690953574368
0
VERTEX
8
1
10
-72.663267250539
20
46.70779960969
0
VERTEX
8
1
10
-72.660504638902
20
46.724753621671
0
VERTEX
8
1
10
-72.65791720741
20
46.740632561707
0
VERTEX
8
1
10
-72.655697730718
20
46.754253381197
0
VERTEX
8
1
10
-72.654038983483
20
46.76443303154
0
VERTEX
8
1
10
-72.653133740362
20
46.769988464133
0
VERTEX
8
1
10
-72.649824951745
20
46.800502309055
0
VERTEX
8
1
10
-72.640352972893
20
46.865989801763
0
VERTEX
8
1
10
-72.626709818676
20
46.941027494338
0
VERTEX
8
1
10
-72.60930146156
20
47.022424393372
0
VERTEX
8
1
10
-72.588533874013
20
47.106989505457
0
VERTEX
8
1
10
-72.564813028503
20
47.191531837186
0
VERTEX
8
1
10
-72.538544897498
20
47.272860395149
0
VERTEX
8
1
10
-72.510135453465
20
47.347784185939
0
VERTEX
8
1
10
-72.479990668872
20
47.413112216148
0
VERTEX
8
1
10
-72.448516516186
20
47.465653492369
0
VERTEX
8
1
10
-72.416118967875
20
47.502217021192
0
VERTEX
8
1
10
-72.339061028717
20
47.467055553937
0
VERTEX
8
1
10
-72.256838905537
20
47.40635261761
0
VERTEX
8
1
10
-72.182315877837
20
47.338617190695
0
VERTEX
8
1
10
-72.114710012759
20
47.266279255023
0
VERTEX
8
1
10
-72.053239377441
20
47.19176879242
0
VERTEX
8
1
10
-71.997122039024
20
47.117515784716
0
VERTEX
8
1
10
-71.945576064647
20
47.045950213738
0
VERTEX
8
1
10
-71.89781952145
20
46.979502061316
0
VERTEX
8
1
10
-71.853070476574
20
46.920601309278
0
VERTEX
8
1
10
-71.810546997157
20
46.871677939451
0
VERTEX
8
1
10
-71.770357802482
20
46.837514908594
0
VERTEX
8
1
10
-71.768903536933
20
46.901960966627
0
VERTEX
8
1
10
-71.771806605427
20
46.95886796294
0
VERTEX
8
1
10
-71.780415185244
20
47.010670860619
0
VERTEX
8
1
10
-71.796077453665
20
47.05980462275
0
VERTEX
8
1
10
-71.820141587971
20
47.108704212419
0
VERTEX
8
1
10
-71.853955765441
20
47.159804592711
0
VERTEX
8
1
10
-71.898868163357
20
47.215540726712
0
VERTEX
8
1
10
-71.956226958998
20
47.278347577508
0
VERTEX
8
1
10
-72.027380329646
20
47.350660108184
0
VERTEX
8
1
10
-72.113676452581
20
47.434913281827
0
VERTEX
8
1
10
-72.172958345063
20
47.504992049859
0
VERTEX
8
1
10
-72.113891416975
20
47.494393927272
0
VERTEX
8
1
10
-72.046220192219
20
47.471544857066
0
VERTEX
8
1
10
-71.973005279793
20
47.4393725732
0
VERTEX
8
1
10
-71.897307288696
20
47.400804809636
0
VERTEX
8
1
10
-71.822186827928
20
47.358769300336
0
VERTEX
8
1
10
-71.750704506487
20
47.316193779261
0
VERTEX
8
1
10
-71.685920933373
20
47.276005980371
0
VERTEX
8
1
10
-71.630896717584
20
47.241133637628
0
VERTEX
8
1
10
-71.588692468119
20
47.214504484994
0
VERTEX
8
1
10
-71.562368793978
20
47.199046256429
0
VERTEX
8
1
10
-71.554707911921
20
47.195131840615
0
VERTEX
8
1
10
-71.543855479483
20
47.185821030164
0
VERTEX
8
1
10
-71.524459665025
20
47.169180451843
0
VERTEX
8
1
10
-71.498733143026
20
47.147108462799
0
VERTEX
8
1
10
-71.468888587968
20
47.121503420177
0
VERTEX
8
1
10
-71.437138674331
20
47.094263681124
0
VERTEX
8
1
10
-71.405696076593
20
47.067287602786
0
VERTEX
8
1
10
-71.376773469235
20
47.042473542308
0
VERTEX
8
1
10
-71.352583526737
20
47.021719856837
0
VERTEX
8
1
10
-71.335338923578
20
47.00692490352
0
VERTEX
8
1
10
-71.32725233424
20
46.999987039502
0
VERTEX
8
1
10
-71.348282647415
20
47.051192117102
0
VERTEX
8
1
10
-71.3873316408
20
47.119439088597
0
VERTEX
8
1
10
-71.436997119612
20
47.18758147741
0
VERTEX
8
1
10
-71.495234775866
20
47.254684301551
0
VERTEX
8
1
10
-71.540351748418
20
47.300018893539
42
0.113759890887
0
VERTEX
8
1
10
-71.866470537735
20
47.660363705564
0
SEQEND
0
POLYLINE
8
1
66
1
70
1
0
VERTEX
8
1
10
-69.476668419341
20
56.712993505034
0
VERTEX
8
1
10
-69.465945867584
20
56.712993505034
0
VERTEX
8
1
10
-69.433553763086
20
56.708810587603
0
VERTEX
8
1
10
-69.393326340083
20
56.696159812933
0
VERTEX
8
1
10
-69.35694516067
20
56.676469494294
0
VERTEX
8
1
10
-69.325236606094
20
56.650351765943
0
VERTEX
8
1
10
-69.299108675505
20
56.618622806891
0
VERTEX
8
1
10
-69.27935714344
20
56.582200818527
0
VERTEX
8
1
10
-69.266849200097
20
56.542004002237
0
VERTEX
8
1
10
-69.262462237913
20
56.509662908927
0
VERTEX
8
1
10
-69.262462237913
20
56.498746514656
0
VERTEX
8
1
10
-69.262462237913
20
56.488034165137
0
VERTEX
8
1
10
-69.266849200097
20
56.455591049451
0
VERTEX
8
1
10
-69.27935714344
20
56.415496255537
0
VERTEX
8
1
10
-69.299108675505
20
56.379074267173
0
VERTEX
8
1
10
-69.325236606094
20
56.347243285745
0
VERTEX
8
1
10
-69.35694516067
20
56.321227579771
0
VERTEX
8
1
10
-69.393326340083
20
56.301333216379
0
VERTEX
8
1
10
-69.433553763086
20
56.288886486461
0
VERTEX
8
1
10
-69.465945867584
20
56.284499524278
0
VERTEX
8
1
10
-69.476668419341
20
56.284499524278
0
VERTEX
8
1
10
-69.487523600186
20
56.284499524278
0
VERTEX
8
1
10
-69.519905502447
20
56.288886486461
0
VERTEX
8
1
10
-69.560092116499
20
56.301333216379
0
VERTEX
8
1
10
-69.596503902626
20
56.321227579771
0
VERTEX
8
1
10
-69.628232861677
20
56.347243285745
0
VERTEX
8
1
10
-69.654350590028
20
56.379074267173
0
VERTEX
8
1
10
-69.674112324331
20
56.415496255537
0
VERTEX
8
1
10
-69.686620267674
20
56.455591049451
0
VERTEX
8
1
10
-69.690946016432
20
56.488034165137
0
VERTEX
8
1
10
-69.690946016432
20
56.498746514656
0
VERTEX
8
1
10
-69.690946016432
20
56.509662908927
0
VERTEX
8
1
10
-69.686620267674
20
56.542004002237
0
VERTEX
8
1
10
-69.674112324331
20
56.582200818527
0
VERTEX
8
1
10
-69.654350590028
20
56.618622806891
0
VERTEX
8
1
10
-69.628232861677
20
56.650351765943
0
VERTEX
8
1
10
-69.596503902626
20
56.676469494294
0
VERTEX
8
1
10
-69.560092116499
20
56.696159812933
0
VERTEX
8
1
10
-69.519905502447
20
56.708810587603
0
VERTEX
8
1
10
-69.487523600186
20
56.712993505034
0
SEQEND
0
POLYLINE
8
1
66
1
0
VERTEX
8
1
10
-69.680753981032
20
56.068416131124
0
VERTEX
8
1
10
-69.778328181793
20
56.065865571715
0
VERTEX
8
1
10
-70.070693705759
20
56.048929857238
0
VERTEX
8
1
10
-70.457603365907
20
56.010569443722
0
VERTEX
8
1
10
-70.840850422743
20
55.953947024837
0
VERTEX
8
1
10
-71.219781933059
20
55.878858555828
0
VERTEX
8
1
10
-71.593836773784
20
55.785916170954
0
VERTEX
8
1
10
-71.96236200171
20
55.675221892592
0
VERTEX
8
1
10
-72.324796493767
20
55.54708178787
0
VERTEX
8
1
10
-72.68042609332
20
55.401903946295
0
VERTEX
8
1
10
-73.028689677299
20
55.239688367866
0
VERTEX
8
1
10
-73.368934302495
20
55.060843142088
0
VERTEX
8
1
10
-73.700598845838
20
54.865674336091
0
VERTEX
8
1
10
-74.023009959645
20
54.654385994627
0
VERTEX
8
1
10
-74.335524902943
20
54.427386207203
0
VERTEX
8
1
10
-74.637633563852
20
54.18487901857
0
VERTEX
8
1
10
-74.928601381261
20
53.926966451105
0
VERTEX
8
1
10
-75.139777498111
20
53.724043944503
0
VERTEX
8
1
10
-75.207846827625
20
53.654158616689
0
VERTEX
8
1
10
-75.275987572803
20
53.584375311252
0
VERTEX
8
1
10
-75.47353350017
20
53.36798585097
0
VERTEX
8
1
10
-75.723886209546
20
53.070590623849
0
VERTEX
8
1
10
-75.958690708763
20
52.76248304721
0
VERTEX
8
1
10
-76.177651132929
20
52.444173232934
0
VERTEX
8
1
10
-76.380624650719
20
52.116477360031
0
VERTEX
8
1
10
-76.567213374863
20
51.780007562761
0
VERTEX
8
1
10
-76.737305080748
20
51.435273953004
0
VERTEX
8
1
10
-76.890512083344
20
51.082990687396
0
VERTEX
8
1
10
-77.02673134005
20
50.723769900195
0
VERTEX
8
1
10
-77.145569044494
20
50.358223725659
0
VERTEX
8
1
10
-77.246805848567
20
49.986964298047
0
VERTEX
8
1
10
-77.330218323264
20
49.610705773992
0
VERTEX
8
1
10
-77.395533048616
20
49.229958265376
0
VERTEX
8
1
10
-77.442525575396
20
48.845374715409
0
VERTEX
8
1
10
-77.470920443188
20
48.457648876251
0
VERTEX
8
1
10
-77.480386079268
20
48.164905869493
0
VERTEX
8
1
10
-77.480386079268
20
48.067311264256
0
VERTEX
8
1
10
-77.480386079268
20
47.969788074684
0
VERTEX
8
1
10
-77.470865351105
20
47.677034865688
0
VERTEX
8
1
10
-77.442525575396
20
47.289309026529
0
VERTEX
8
1
10
-77.395533048616
20
46.904725476562
0
VERTEX
8
1
10
-77.330218323264
20
46.52396776571
0
VERTEX
8
1
10
-77.24674973626
20
46.147637825991
0
VERTEX
8
1
10
-77.145513952411
20
45.776398802854
0
VERTEX
8
1
10
-77.026676247967
20
45.410862830555
0
VERTEX
8
1
10
-76.890512083344
20
45.051642043354
0
VERTEX
8
1
10
-76.737243867322
20
44.699389384459
0
VERTEX
8
1
10
-76.567152161437
20
44.35466597694
0
VERTEX
8
1
10
-76.380563437293
20
44.018134966244
0
VERTEX
8
1
10
-76.177600121741
20
43.690459497817
0
VERTEX
8
1
10
-75.958629495337
20
43.372241503679
0
VERTEX
8
1
10
-75.72382499612
20
43.064113522565
0
VERTEX
8
1
10
-75.473472286744
20
42.766657082018
0
VERTEX
8
1
10
-75.275936561615
20
42.550400250825
0
VERTEX
8
1
10
-75.207795816437
20
42.480494518536
0
VERTEX
8
1
10
-75.139716284685
20
42.410639797435
0
VERTEX
8
1
10
-74.928550370073
20
42.207676481884
0
VERTEX
8
1
10
-74.637572350426
20
41.949835330082
0
VERTEX
8
1
10
-74.335524902943
20
41.70723632131
0
VERTEX
8
1
10
-74.022958948457
20
41.480195724935
0
VERTEX
8
1
10
-73.700537632412
20
41.268978799135
0
VERTEX
8
1
10
-73.368934302495
20
41.073809993138
0
VERTEX
8
1
10
-73.028638666111
20
40.895025980786
0
VERTEX
8
1
10
-72.68042609332
20
40.732851211307
0
VERTEX
8
1
10
-72.324796493767
20
40.587561145118
0
VERTEX
8
1
10
-71.96236200171
20
40.459421040396
0
VERTEX
8
1
10
-71.593836773784
20
40.348767570984
0
VERTEX
8
1
10
-71.219781933059
20
40.25578437716
0
VERTEX
8
1
10
-70.840850422743
20
40.180726514864
0
VERTEX
8
1
10
-70.457603365907
20
40.123991871365
0
VERTEX
8
1
10
-70.070693705759
20
40.085743682463
0
VERTEX
8
1
10
-69.778328181793
20
40.06874675456
0
VERTEX
8
1
10
-69.680753981032
20
40.066257408577
0
SEQEND
0
POLYLINE
8
1
66
1
0
VERTEX
8
1
10
-69.272654273312
20
40.066257408577
0
VERTEX
8
1
10
-69.175120881502
20
40.06874675456
0
VERTEX
8
1
10
-68.882755357537
20
40.085743682463
0
VERTEX
8
1
10
-68.495866101864
20
40.123991871365
0
VERTEX
8
1
10
-68.112619045027
20
40.180726514864
0
VERTEX
8
1
10
-67.733646725761
20
40.25578437716
0
VERTEX
8
1
10
-67.359632693986
20
40.348767570984
0
VERTEX
8
1
10
-66.991127870536
20
40.459421040396
0
VERTEX
8
1
10
-66.62864236729
20
40.587561145118
0
VERTEX
8
1
10
-66.272992363263
20
40.732851211307
0
VERTEX
8
1
10
-65.92478999271
20
40.895025980786
0
VERTEX
8
1
10
-65.584545367513
20
41.073809993138
0
VERTEX
8
1
10
-65.252870621932
20
41.268978799135
0
VERTEX
8
1
10
-64.930479912601
20
41.480195724935
0
VERTEX
8
1
10
-64.617985373778
20
41.70723632131
0
VERTEX
8
1
10
-64.315795094968
20
41.949835330082
0
VERTEX
8
1
10
-64.024827277559
20
42.207676481884
0
VERTEX
8
1
10
-63.813640958472
20
42.410639797435
0
VERTEX
8
1
10
-63.745592033433
20
42.480494518536
0
VERTEX
8
1
10
-63.677441086017
20
42.550400250825
0
VERTEX
8
1
10
-63.479925765363
20
42.766657082018
0
VERTEX
8
1
10
-63.22956285375
20
43.064113522565
0
VERTEX
8
1
10
-62.994707343344
20
43.372241503679
0
VERTEX
8
1
10
-62.775767323653
20
43.690459497817
0
VERTEX
8
1
10
-62.572946839428
20
44.018134966244
0
VERTEX
8
1
10
-62.38624589067
20
44.35466597694
0
VERTEX
8
1
10
-62.216072566884
20
44.699389384459
0
VERTEX
8
1
10
-62.062936979951
20
45.051642043354
0
VERTEX
8
1
10
-61.926737107496
20
45.410862830555
0
VERTEX
8
1
10
-61.807881039025
20
45.776398802854
0
VERTEX
8
1
10
-61.706674841665
20
46.147637825991
0
VERTEX
8
1
10
-61.623220537794
20
46.52396776571
0
VERTEX
8
1
10
-61.557926216917
20
46.904725476562
0
VERTEX
8
1
10
-61.51089390141
20
47.289309026529
0
VERTEX
8
1
10
-61.482531680779
20
47.677034865688
0
VERTEX
8
1
10
-61.473043599776
20
47.969788074684
0
VERTEX
8
1
10
-61.473043599776
20
48.067311264256
0
VERTEX
8
1
10
-61.473043599776
20
48.164905869493
0
VERTEX
8
1
10
-61.482531680779
20
48.457648876251
0
VERTEX
8
1
10
-61.51089390141
20
48.845374715409
0
VERTEX
8
1
10
-61.557926216917
20
49.229958265376
0
VERTEX
8
1
10
-61.623220537794
20
49.610705773992
0
VERTEX
8
1
10
-61.706674841665
20
49.986964298047
0
VERTEX
8
1
10
-61.807881039025
20
50.358223725659
0
VERTEX
8
1
10
-61.926737107496
20
50.723769900195
0
VERTEX
8
1
10
-62.062936979951
20
51.082990687396
0
VERTEX
8
1
10
-62.216072566884
20
51.435273953004
0
VERTEX
8
1
10
-62.38624589067
20
51.780007562761
0
VERTEX
8
1
10
-62.572946839428
20
52.116477360031
0
VERTEX
8
1
10
-62.775767323653
20
52.444173232934
0
VERTEX
8
1
10
-62.994707343344
20
52.76248304721
0
VERTEX
8
1
10
-63.22956285375
20
53.070590623849
0
VERTEX
8
1
10
-63.479925765363
20
53.36798585097
0
VERTEX
8
1
10
-63.677441086017
20
53.584375311252
0
VERTEX
8
1
10
-63.745592033433
20
53.654158616689
0
VERTEX
8
1
10
-63.813640958472
20
53.724043944503
0
VERTEX
8
1
10
-64.024827277559
20
53.926966451105
0
VERTEX
8
1
10
-64.315795094968
20
54.18487901857
0
VERTEX
8
1
10
-64.617883351402
20
54.427386207203
0
VERTEX
8
1
10
-64.930479912601
20
54.654385994627
0
VERTEX
8
1
10
-65.252870621932
20
54.865674336091
0
VERTEX
8
1
10
-65.584545367513
20
55.060843142088
0
VERTEX
8
1
10
-65.92478999271
20
55.239688367866
0
VERTEX
8
1
10
-66.272992363263
20
55.401903946295
0
VERTEX
8
1
10
-66.62864236729
20
55.54708178787
0
VERTEX
8
1
10
-66.991025848159
20
55.675221892592
0
VERTEX
8
1
10
-67.359632693986
20
55.785916170954
0
VERTEX
8
1
10
-67.733646725761
20
55.878858555828
0
VERTEX
8
1
10
-68.112619045027
20
55.953947024837
0
VERTEX
8
1
10
-68.495866101864
20
56.010569443722
0
VERTEX
8
1
10
-68.882755357537
20
56.048929857238
0
VERTEX
8
1
10
-69.175120881502
20
56.065865571715
0
VERTEX
8
1
10
-69.272654273312
20
56.068416131124
0
SEQEND
0
POLYLINE
8
1
66
1
0
VERTEX
8
1
10
-69.272654273312
20
40.525511135809
0
VERTEX
8
1
10
-69.180834134579
20
40.528000481792
0
VERTEX
8
1
10
-68.905516549705
20
40.544436286626
0
VERTEX
8
1
10
-68.541255857111
20
40.580970499604
0
VERTEX
8
1
10
-68.180423116363
20
40.634930134467
0
VERTEX
8
1
10
-67.823681472908
20
40.706060135272
0
VERTEX
8
1
10
-67.471551240865
20
40.794125850555
0
VERTEX
8
1
10
-67.124573138828
20
40.898800808712
0
VERTEX
8
1
10
-66.783512334621
20
41.019850358275
0
VERTEX
8
1
10
-66.448776917749
20
41.157060252256
0
VERTEX
8
1
10
-66.12097902247
20
41.310155030238
0
VERTEX
8
1
10
-65.800730783043
20
41.478869434042
0
VERTEX
8
1
10
-65.488644333725
20
41.662958609965
0
VERTEX
8
1
10
-65.185229786399
20
41.862228715493
0
VERTEX
8
1
10
-64.891099275322
20
42.07626145888
0
VERTEX
8
1
10
-64.606864934754
20
42.304975222228
0
VERTEX
8
1
10
-64.333036876575
20
42.548012927218
0
VERTEX
8
1
10
-64.134297287405
20
42.739304882913
0
VERTEX
8
1
10
-64.070227235044
20
42.805129720148
0
VERTEX
8
1
10
-64.006157182683
20
42.870985164095
0
VERTEX
8
1
10
-63.820374435312
20
43.074795265371
0
VERTEX
8
1
10
-63.584804768272
20
43.355030328786
0
VERTEX
8
1
10
-63.363824301054
20
43.645406416412
0
VERTEX
8
1
10
-63.157841123161
20
43.945188967139
0
VERTEX
8
1
10
-62.966855234595
20
44.253878071324
0
VERTEX
8
1
10
-62.791274724861
20
44.570861594707
0
VERTEX
8
1
10
-62.631303638712
20
44.895547807507
0
VERTEX
8
1
10
-62.487043998524
20
45.227324575464
0
VERTEX
8
1
10
-62.359107938555
20
45.565681786698
0
VERTEX
8
1
10
-62.247291414053
20
45.909966497998
0
VERTEX
8
1
10
-62.151900492147
20
46.259566575107
0
VERTEX
8
1
10
-62.073445284718
20
46.613971906144
0
VERTEX
8
1
10
-62.012027814143
20
46.972529547898
0
VERTEX
8
1
10
-61.967852125174
20
47.334637568351
0
VERTEX
8
1
10
-61.941020240188
20
47.699775653381
0
VERTEX
8
1
10
-61.932144293444
20
47.975440114335
0
VERTEX
8
1
10
-61.932144293444
20
48.067311264256
0
VERTEX
8
1
10
-61.932144293444
20
48.159243627604
0
VERTEX
8
1
10
-61.941020240188
20
48.434887684082
0
VERTEX
8
1
10
-61.967852125174
20
48.7999951624
0
VERTEX
8
1
10
-62.012027814143
20
49.16215419404
0
VERTEX
8
1
10
-62.073445284718
20
49.520722038033
0
VERTEX
8
1
10
-62.151900492147
20
49.875045751168
0
VERTEX
8
1
10
-62.247291414053
20
50.22467643499
0
VERTEX
8
1
10
-62.359107938555
20
50.568899932865
0
VERTEX
8
1
10
-62.487043998524
20
50.907308155286
0
VERTEX
8
1
10
-62.631303638712
20
51.239084923243
0
VERTEX
8
1
10
-62.791274724861
20
51.563720124855
0
VERTEX
8
1
10
-62.966855234595
20
51.880805670615
0
VERTEX
8
1
10
-63.157841123161
20
52.189423359136
0
VERTEX
8
1
10
-63.363824301054
20
52.489267123289
0
VERTEX
8
1
10
-63.584804768272
20
52.77962280644
0
VERTEX
8
1
10
-63.820374435312
20
53.05987827433
0
VERTEX
8
1
10
-64.006157182683
20
53.263616959943
0
VERTEX
8
1
10
-64.070227235044
20
53.329421392702
0
VERTEX
8
1
10
-64.134297287405
20
53.395327847837
0
VERTEX
8
1
10
-64.333036876575
20
53.586619803532
0
VERTEX
8
1
10
-64.606864934754
20
53.829637104047
0
VERTEX
8
1
10
-64.891099275322
20
54.058269249494
0
VERTEX
8
1
10
-65.185229786399
20
54.272414217496
0
VERTEX
8
1
10
-65.488644333725
20
54.471663918547
0
VERTEX
8
1
10
-65.800730783043
20
54.65571228552
0
VERTEX
8
1
10
-66.12097902247
20
54.824457296037
0
VERTEX
8
1
10
-66.448776917749
20
54.977490860593
0
VERTEX
8
1
10
-66.783512334621
20
55.114812979188
0
VERTEX
8
1
10
-67.124573138828
20
55.235811517564
0
VERTEX
8
1
10
-67.471551240865
20
55.34048647572
0
VERTEX
8
1
10
-67.823681472908
20
55.428531786528
0
VERTEX
8
1
10
-68.180423116363
20
55.499641382858
0
VERTEX
8
1
10
-68.541255857111
20
55.553611219958
0
VERTEX
8
1
10
-68.905516549705
20
55.590237253075
0
VERTEX
8
1
10
-69.180834134579
20
55.606662855671
0
VERTEX
8
1
10
-69.272654273312
20
55.609009370327
0
SEQEND
0
POLYLINE
8
1
66
1
0
VERTEX
8
1
10
-69.680753981032
20
55.609009370327
0
VERTEX
8
1
10
-69.772635333192
20
55.606662855671
0
VERTEX
8
1
10
-70.047952918066
20
55.590237253075
0
VERTEX
8
1
10
-70.412213610659
20
55.553611219958
0
VERTEX
8
1
10
-70.773046351407
20
55.499641382858
0
VERTEX
8
1
10
-71.129777792625
20
55.428531786528
0
VERTEX
8
1
10
-71.481918226906
20
55.34048647572
0
VERTEX
8
1
10
-71.828855519992
20
55.235811517564
0
VERTEX
8
1
10
-72.169987739862
20
55.114812979188
0
VERTEX
8
1
10
-72.504692550022
20
54.977490860593
0
VERTEX
8
1
10
-72.832480243063
20
54.824457296037
0
VERTEX
8
1
10
-73.152738684728
20
54.65571228552
0
VERTEX
8
1
10
-73.464855740759
20
54.471663918547
0
VERTEX
8
1
10
-73.768239681372
20
54.272414217496
0
VERTEX
8
1
10
-74.062359990211
20
54.058269249494
0
VERTEX
8
1
10
-74.34659433078
20
53.829637104047
0
VERTEX
8
1
10
-74.620412186721
20
53.586619803532
0
VERTEX
8
1
10
-74.819131371415
20
53.395327847837
0
VERTEX
8
1
10
-74.883160614826
20
53.329421392702
0
VERTEX
8
1
10
-74.947271476137
20
53.263616959943
0
VERTEX
8
1
10
-75.133135841409
20
53.05987827433
0
VERTEX
8
1
10
-75.368705508449
20
52.77962280644
0
VERTEX
8
1
10
-75.589614560004
20
52.489267123289
0
VERTEX
8
1
10
-75.795679355798
20
52.189423359136
0
VERTEX
8
1
10
-75.986573424225
20
51.880805670615
0
VERTEX
8
1
10
-76.162153933959
20
51.563720124855
0
VERTEX
8
1
10
-76.322176031296
20
51.239084923243
0
VERTEX
8
1
10
-76.466364255821
20
50.907308155286
0
VERTEX
8
1
10
-76.594443147116
20
50.568899932865
0
VERTEX
8
1
10
-76.706249469381
20
50.22467643499
0
VERTEX
8
1
10
-76.801507762198
20
49.875045751168
0
VERTEX
8
1
10
-76.87999357634
20
49.520722038033
0
VERTEX
8
1
10
-76.941435532286
20
49.16215419404
0
VERTEX
8
1
10
-76.985661212219
20
48.7999951624
0
VERTEX
8
1
10
-77.012339043416
20
48.434887684082
0
VERTEX
8
1
10
-77.021250697992
20
48.159243627604
0
VERTEX
8
1
10
-77.021250697992
20
48.067311264256
0
VERTEX
8
1
10
-77.021250697992
20
47.975440114335
0
VERTEX
8
1
10
-77.012339043416
20
47.699775653381
0
VERTEX
8
1
10
-76.985661212219
20
47.334637568351
0
VERTEX
8
1
10
-76.941435532286
20
46.972529547898
0
VERTEX
8
1
10
-76.87999357634
20
46.613971906144
0
VERTEX
8
1
10
-76.801507762198
20
46.259566575107
0
VERTEX
8
1
10
-76.706249469381
20
45.909966497998
0
VERTEX
8
1
10
-76.594443147116
20
45.565681786698
0
VERTEX
8
1
10
-76.466364255821
20
45.227324575464
0
VERTEX
8
1
10
-76.322176031296
20
44.895547807507
0
VERTEX
8
1
10
-76.162153933959
20
44.570861594707
0
VERTEX
8
1
10
-75.986573424225
20
44.253878071324
0
VERTEX
8
1
10
-75.795679355798
20
43.945188967139
0
VERTEX
8
1
10
-75.589614560004
20
43.645406416412
0
VERTEX
8
1
10
-75.368705508449
20
43.355030328786
0
VERTEX
8
1
10
-75.133135841409
20
43.074795265371
0
VERTEX
8
1
10
-74.947271476137
20
42.870985164095
0
VERTEX
8
1
10
-74.883160614826
20
42.805129720148
0
VERTEX
8
1
10
-74.819131371415
20
42.739304882913
0
VERTEX
8
1
10
-74.620412186721
20
42.548012927218
0
VERTEX
8
1
10
-74.34659433078
20
42.304975222228
0
VERTEX
8
1
10
-74.062359990211
20
42.07626145888
0
VERTEX
8
1
10
-73.768239681372
20
41.862228715493
0
VERTEX
8
1
10
-73.464855740759
20
41.662958609965
0
VERTEX
8
1
10
-73.152738684728
20
41.478869434042
0
VERTEX
8
1
10
-72.832480243063
20
41.310155030238
0
VERTEX
8
1
10
-72.504692550022
20
41.157060252256
0
VERTEX
8
1
10
-72.169987739862
20
41.019850358275
0
VERTEX
8
1
10
-71.828855519992
20
40.898800808712
0
VERTEX
8
1
10
-71.481918226906
20
40.794125850555
0
VERTEX
8
1
10
-71.129777792625
20
40.706060135272
0
VERTEX
8
1
10
-70.773046351407
20
40.634930134467
0
VERTEX
8
1
10
-70.412213610659
20
40.580970499604
0
VERTEX
8
1
10
-70.047952918066
20
40.544436286626
0
VERTEX
8
1
10
-69.772635333192
20
40.528000481792
0
VERTEX
8
1
10
-69.680753981032
20
40.525511135809
0
SEQEND
0
POLYLINE
8
1
66
1
0
VERTEX
8
1
10
-69.272654273312
20
40.984805671992
0
VERTEX
8
1
10
-69.100960816118
20
40.989784363959
0
VERTEX
8
1
10
-68.586635410121
20
41.038000139032
0
VERTEX
8
1
10
-67.913685613342
20
41.156386904572
0
VERTEX
8
1
10
-67.258120429498
20
41.338160172552
0
VERTEX
8
1
10
-66.624459449859
20
41.581330506631
0
VERTEX
8
1
10
-66.017018220949
20
41.883979886135
0
VERTEX
8
1
10
-65.439979660196
20
42.24426170605
0
VERTEX
8
1
10
-64.897832752163
20
42.660155923325
0
VERTEX
8
1
10
-64.514636706514
20
43.006593306767
0
VERTEX
8
1
10
-64.394964459032
20
43.129815932947
0
VERTEX
8
1
10
-64.275190189173
20
43.253079368078
0
VERTEX
8
1
10
-63.939944660419
20
43.64605935962
0
VERTEX
8
1
10
-63.539812900293
20
44.199959245412
0
VERTEX
8
1
10
-63.196405581429
20
44.787067414712
0
VERTEX
8
1
10
-62.911253039473
20
45.403058118763
0
VERTEX
8
1
10
-62.686497744329
20
46.043472979717
0
VERTEX
8
1
10
-62.523568009265
20
46.70396584434
0
VERTEX
8
1
10
-62.424708326562
20
47.380027323598
0
VERTEX
8
1
10
-62.391244987112
20
47.895505582448
0
VERTEX
8
1
10
-62.391244987112
20
48.067311264256
0
VERTEX
8
1
10
-62.391244987112
20
48.23917815949
0
VERTEX
8
1
10
-62.424708326562
20
48.754666620578
0
VERTEX
8
1
10
-62.523568009265
20
49.430738302074
0
VERTEX
8
1
10
-62.686395721952
20
50.091231166697
0
VERTEX
8
1
10
-62.911253039473
20
50.731625623176
0
VERTEX
8
1
10
-63.196405581429
20
51.347636731702
0
VERTEX
8
1
10
-63.539710877917
20
51.934775507715
0
VERTEX
8
1
10
-63.939842638042
20
52.488654989031
0
VERTEX
8
1
10
-64.275190189173
20
52.881645182811
0
VERTEX
8
1
10
-64.394862436655
20
53.00478619109
0
VERTEX
8
1
10
-64.514636706514
20
53.128029221746
0
VERTEX
8
1
10
-64.897832752163
20
53.474497211901
0
VERTEX
8
1
10
-65.439979660196
20
53.890442440364
0
VERTEX
8
1
10
-66.017018220949
20
54.250581428952
0
VERTEX
8
1
10
-66.624459449859
20
54.553281819644
0
VERTEX
8
1
10
-67.258120429498
20
54.796605187288
0
VERTEX
8
1
10
-67.913685613342
20
54.978205017228
0
VERTEX
8
1
10
-68.586635410121
20
55.096652996194
0
VERTEX
8
1
10
-69.100960816118
20
55.144807557841
0
VERTEX
8
1
10
-69.272654273312
20
55.149806654283
0
SEQEND
0
POLYLINE
8
1
66
1
0
VERTEX
8
1
10
-69.680753981032
20
55.149806654283
0
VERTEX
8
1
10
-69.852508651653
20
55.144807557841
0
VERTEX
8
1
10
-70.36683405765
20
55.096652996194
0
VERTEX
8
1
10
-71.039783854428
20
54.978205017228
0
VERTEX
8
1
10
-71.695298027085
20
54.796605187288
0
VERTEX
8
1
10
-72.328948804485
20
54.553281819644
0
VERTEX
8
1
10
-72.936471651297
20
54.250581428952
0
VERTEX
8
1
10
-73.51351021205
20
53.890442440364
0
VERTEX
8
1
10
-74.055616311133
20
53.474497211901
0
VERTEX
8
1
10
-74.438751143355
20
53.128029221746
0
VERTEX
8
1
10
-74.558474402026
20
53.00478619109
0
VERTEX
8
1
10
-74.678248671885
20
52.881645182811
0
VERTEX
8
1
10
-75.013514605114
20
52.488654989031
0
VERTEX
8
1
10
-75.41364636524
20
51.934775507715
0
VERTEX
8
1
10
-75.75715570648
20
51.347636731702
0
VERTEX
8
1
10
-76.04220622606
20
50.731625623176
0
VERTEX
8
1
10
-76.266981925679
20
50.091231166697
0
VERTEX
8
1
10
-76.42984024508
20
49.430738302074
0
VERTEX
8
1
10
-76.528791747922
20
48.754666620578
0
VERTEX
8
1
10
-76.56217346947
20
48.23917815949
0
VERTEX
8
1
10
-76.56217346947
20
48.067311264256
0
VERTEX
8
1
10
-76.56217346947
20
47.895505582448
0
VERTEX
8
1
10
-76.528791747922
20
47.380027323598
0
VERTEX
8
1
10
-76.42984024508
20
46.703914833152
0
VERTEX
8
1
10
-76.266981925679
20
46.043472979717
0
VERTEX
8
1
10
-76.04220622606
20
45.403058118763
0
VERTEX
8
1
10
-75.75715570648
20
44.787067414712
0
VERTEX
8
1
10
-75.41364636524
20
44.199898031986
0
VERTEX
8
1
10
-75.013514605114
20
43.64605935962
0
VERTEX
8
1
10
-74.678248671885
20
43.253079368078
0
VERTEX
8
1
10
-74.558474402026
20
43.129815932947
0
VERTEX
8
1
10
-74.438751143355
20
43.006593306767
0
VERTEX
8
1
10
-74.055616311133
20
42.660155923325
0
VERTEX
8
1
10
-73.51351021205
20
42.24426170605
0
VERTEX
8
1
10
-72.936471651297
20
41.883979886135
0
VERTEX
8
1
10
-72.328948804485
20
41.581330506631
0
VERTEX
8
1
10
-71.695298027085
20
41.338160172552
0
VERTEX
8
1
10
-71.039783854428
20
41.156386904572
0
VERTEX
8
1
10
-70.36683405765
20
41.037938925606
0
VERTEX
8
1
10
-69.852508651653
20
40.989743555008
0
VERTEX
8
1
10
-69.680753981032
20
40.984754660804
0
SEQEND
0
POLYLINE
8
1
66
1
0
VERTEX
8
1
10
-69.272654273312
20
41.444110410413
0
VERTEX
8
1
10
-69.11230570437
20
41.449099304617
0
VERTEX
8
1
10
-68.632025165368
20
41.495029778459
0
VERTEX
8
1
10
-68.003679551539
20
41.606774887298
0
VERTEX
8
1
10
-67.391769742543
20
41.777539940867
0
VERTEX
8
1
10
-66.800244004346
20
42.005580356531
0
VERTEX
8
1
10
-66.233203636478
20
42.289090338227
0
VERTEX
8
1
10
-65.694729533994
20
42.626294696608
0
VERTEX
8
1
10
-65.188800569572
20
43.015346826659
0
VERTEX
8
1
10
-64.831314162769
20
43.339257669399
0
VERTEX
8
1
10
-64.719599660643
20
43.454440932321
0
VERTEX
8
1
10
-64.607885158517
20
43.569685408669
0
VERTEX
8
1
10
-64.295084552565
20
43.936996570317
0
VERTEX
8
1
10
-63.921784677425
20
44.454627501308
0
VERTEX
8
1
10
-63.601332393244
20
45.003212021291
0
VERTEX
8
1
10
-63.335564102799
20
45.578750853111
0
VERTEX
8
1
10
-63.125806096981
20
46.176979461435
0
VERTEX
8
1
10
-62.973894778565
20
46.793918973586
0
VERTEX
8
1
10
-62.88156452795
20
47.425406876608
0
VERTEX
8
1
10
-62.85034568078
20
47.906850470701
0
VERTEX
8
1
10
-62.85034568078
20
48.067311264256
0
VERTEX
8
1
10
-62.85034568078
20
48.227833271238
0
VERTEX
8
1
10
-62.88156452795
20
48.709276865331
0
VERTEX
8
1
10
-62.973894778565
20
49.340754566115
0
VERTEX
8
1
10
-63.125806096981
20
49.957683876028
0
VERTEX
8
1
10
-63.335564102799
20
50.555841068689
0
VERTEX
8
1
10
-63.601332393244
20
51.131451316172
0
VERTEX
8
1
10
-63.921784677425
20
51.680025633917
0
VERTEX
8
1
10
-64.295084552565
20
52.197585149246
0
VERTEX
8
1
10
-64.607885158517
20
52.564967726556
0
VERTEX
8
1
10
-64.719599660643
20
52.680150989479
0
VERTEX
8
1
10
-64.831314162769
20
52.795334252401
0
VERTEX
8
1
10
-65.188800569572
20
53.119357319755
0
VERTEX
8
1
10
-65.694627511617
20
53.508368640856
0
VERTEX
8
1
10
-66.233203636478
20
53.845654617137
0
VERTEX
8
1
10
-66.800244004346
20
54.129174801071
0
VERTEX
8
1
10
-67.391769742543
20
54.35719481226
0
VERTEX
8
1
10
-68.003679551539
20
54.527878247928
0
VERTEX
8
1
10
-68.632025165368
20
54.63969477243
0
VERTEX
8
1
10
-69.11230570437
20
54.685604841797
0
VERTEX
8
1
10
-69.272654273312
20
54.690603938239
0
SEQEND
0
POLYLINE
8
1
66
1
0
VERTEX
8
1
10
-69.680753981032
20
54.690603938239
0
VERTEX
8
1
10
-69.8411637634
20
54.685604841797
0
VERTEX
8
1
10
-70.321444302402
20
54.63969477243
0
VERTEX
8
1
10
-70.949779713994
20
54.527878247928
0
VERTEX
8
1
10
-71.561740534178
20
54.35719481226
0
VERTEX
8
1
10
-72.153215261187
20
54.129174801071
0
VERTEX
8
1
10
-72.720286235768
20
53.845654617137
0
VERTEX
8
1
10
-73.258739933777
20
53.508368640856
0
VERTEX
8
1
10
-73.764638291486
20
53.119357319755
0
VERTEX
8
1
10
-74.122145102764
20
52.795334252401
0
VERTEX
8
1
10
-74.233849402652
20
52.680150989479
0
VERTEX
8
1
10
-74.345604713729
20
52.564967726556
0
VERTEX
8
1
10
-74.658384915206
20
52.197585149246
0
VERTEX
8
1
10
-75.031674588108
20
51.680025633917
0
VERTEX
8
1
10
-75.352096265576
20
51.131451316172
0
VERTEX
8
1
10
-75.618007387348
20
50.555841068689
0
VERTEX
8
1
10
-75.827714381978
20
49.957683876028
0
VERTEX
8
1
10
-75.979605295919
20
49.340754566115
0
VERTEX
8
1
10
-76.071935546534
20
48.709276865331
0
VERTEX
8
1
10
-76.10304216909
20
48.227833271238
0
VERTEX
8
1
10
-76.10304216909
20
48.067311264256
0
VERTEX
8
1
10
-76.10304216909
20
47.906850470701
0
VERTEX
8
1
10
-76.071935546534
20
47.425406876608
0
VERTEX
8
1
10
-75.979605295919
20
46.793918973586
0
VERTEX
8
1
10
-75.827714381978
20
46.176979461435
0
VERTEX
8
1
10
-75.618007387348
20
45.578750853111
0
VERTEX
8
1
10
-75.352096265576
20
45.003273234717
0
VERTEX
8
1
10
-75.031674588108
20
44.454627501308
0
VERTEX
8
1
10
-74.658384915206
20
43.937047581505
0
VERTEX
8
1
10
-74.345604713729
20
43.569746622095
0
VERTEX
8
1
10
-74.233849402652
20
43.454502145747
0
VERTEX
8
1
10
-74.122145102764
20
43.339318882824
0
VERTEX
8
1
10
-73.764638291486
20
43.015346826659
0
VERTEX
8
1
10
-73.258739933777
20
42.626294696608
0
VERTEX
8
1
10
-72.720286235768
20
42.289090338227
0
VERTEX
8
1
10
-72.153215261187
20
42.005580356531
0
VERTEX
8
1
10
-71.561740534178
20
41.777539940867
0
VERTEX
8
1
10
-70.949779713994
20
41.606774887298
0
VERTEX
8
1
10
-70.321444302402
20
41.495029778459
0
VERTEX
8
1
10
-69.8411637634
20
41.449099304617
0
VERTEX
8
1
10
-69.680753981032
20
41.444110410413
0
SEQEND
0
POLYLINE
8
1
66
1
0
VERTEX
8
1
10
-69.272654273312
20
41.903466160022
0
VERTEX
8
1
10
-69.123640390385
20
41.9083938408
0
VERTEX
8
1
10
-68.677414920615
20
41.952120631313
0
VERTEX
8
1
10
-68.093683691973
20
42.057173072261
0
VERTEX
8
1
10
-67.525317033212
20
42.216970720371
0
VERTEX
8
1
10
-66.975926536456
20
42.429840408668
0
VERTEX
8
1
10
-66.449389052007
20
42.694210992558
0
VERTEX
8
1
10
-65.949479407791
20
43.008317484927
0
VERTEX
8
1
10
-65.479870409357
20
43.370527527756
0
VERTEX
8
1
10
-65.147991619023
20
43.671973043219
0
VERTEX
8
1
10
-65.044234862254
20
43.779127145121
0
VERTEX
8
1
10
-64.940580127862
20
43.886342460448
0
VERTEX
8
1
10
-64.650224444711
20
44.228025601151
0
VERTEX
8
1
10
-64.303756454556
20
44.709346768393
0
VERTEX
8
1
10
-64.006361227436
20
45.219458650246
0
VERTEX
8
1
10
-63.759569098995
20
45.754423182983
0
VERTEX
8
1
10
-63.565114449633
20
46.310526752104
0
VERTEX
8
1
10
-63.424119525489
20
46.883912911783
0
VERTEX
8
1
10
-63.338318706961
20
47.470796631855
0
VERTEX
8
1
10
-63.309446374448
20
47.918195358953
0
VERTEX
8
1
10
-63.309446374448
20
48.067311264256
0
VERTEX
8
1
10
-63.309446374448
20
48.216478180748
0
VERTEX
8
1
10
-63.338318706961
20
48.663876907846
0
VERTEX
8
1
10
-63.424119525489
20
49.250770830156
0
VERTEX
8
1
10
-63.56491040488
20
49.824034562983
0
VERTEX
8
1
10
-63.759569098995
20
50.380158536579
0
VERTEX
8
1
10
-64.006361227436
20
50.915163878267
0
VERTEX
8
1
10
-64.303756454556
20
51.42527576012
0
VERTEX
8
1
10
-64.650224444711
20
51.906617331837
0
VERTEX
8
1
10
-64.940580127862
20
52.248290270302
0
VERTEX
8
1
10
-65.044234862254
20
52.355413765491
0
VERTEX
8
1
10
-65.147991619023
20
52.462639283057
0
VERTEX
8
1
10
-65.479870409357
20
52.764115405232
0
VERTEX
8
1
10
-65.949479407791
20
53.126294841348
0
VERTEX
8
1
10
-66.449389052007
20
53.440319715817
0
VERTEX
8
1
10
-66.975926536456
20
53.704761715369
0
VERTEX
8
1
10
-67.525317033212
20
53.917784437231
0
VERTEX
8
1
10
-68.093683691973
20
54.077551478628
0
VERTEX
8
1
10
-68.677414920615
20
54.182532503913
0
VERTEX
8
1
10
-69.123640390385
20
54.226198081
0
VERTEX
8
1
10
-69.272654273312
20
54.231197177442
0
SEQEND
0
POLYLINE
8
1
66
1
0
VERTEX
8
1
10
-69.680753981032
20
54.231197177442
0
VERTEX
8
1
10
-69.82980867291
20
54.226198081
0
VERTEX
8
1
10
-70.276044344918
20
54.182532503913
0
VERTEX
8
1
10
-70.859785775798
20
54.077551478628
0
VERTEX
8
1
10
-71.428172839034
20
53.917784437231
0
VERTEX
8
1
10
-71.977532729077
20
53.704761715369
0
VERTEX
8
1
10
-72.504029404575
20
53.440319715817
0
VERTEX
8
1
10
-73.004010464455
20
53.126294841348
0
VERTEX
8
1
10
-73.473609260651
20
52.764115405232
0
VERTEX
8
1
10
-73.805498253223
20
52.462639283057
0
VERTEX
8
1
10
-73.909163189853
20
52.355413765491
0
VERTEX
8
1
10
-74.012879137671
20
52.248290270302
0
VERTEX
8
1
10
-74.303204214109
20
51.906617331837
0
VERTEX
8
1
10
-74.649702810977
20
51.42527576012
0
VERTEX
8
1
10
-74.947098038097
20
50.915163878267
0
VERTEX
8
1
10
-75.193849357587
20
50.380158536579
0
VERTEX
8
1
10
-75.388457040514
20
49.824034562983
0
VERTEX
8
1
10
-75.529390751233
20
49.250770830156
0
VERTEX
8
1
10
-75.615069142909
20
48.663876907846
0
VERTEX
8
1
10
-75.643961879897
20
48.216478180748
0
VERTEX
8
1
10
-75.643961879897
20
48.067311264256
0
VERTEX
8
1
10
-75.643961879897
20
47.918195358953
0
VERTEX
8
1
10
-75.615069142909
20
47.470796631855
0
VERTEX
8
1
10
-75.529390751233
20
46.883912911783
0
VERTEX
8
1
10
-75.388457040514
20
46.310526752104
0
VERTEX
8
1
10
-75.193849357587
20
45.754423182983
0
VERTEX
8
1
10
-74.947098038097
20
45.219458650246
0
VERTEX
8
1
10
-74.649702810977
20
44.709346768393
0
VERTEX
8
1
10
-74.303204214109
20
44.228025601151
0
VERTEX
8
1
10
-74.012879137671
20
43.886342460448
0
VERTEX
8
1
10
-73.909163189853
20
43.779127145121
0
VERTEX
8
1
10
-73.805498253223
20
43.671973043219
0
VERTEX
8
1
10
-73.473609260651
20
43.370527527756
0
VERTEX
8
1
10
-73.004010464455
20
43.008317484927
0
VERTEX
8
1
10
-72.504029404575
20
42.694210992558
0
VERTEX
8
1
10
-71.977481717889
20
42.429840408668
0
VERTEX
8
1
10
-71.428172839034
20
42.216970720371
0
VERTEX
8
1
10
-70.859724562372
20
42.057173072261
0
VERTEX
8
1
10
-70.276044344918
20
41.952120631313
0
VERTEX
8
1
10
-69.82980867291
20
41.9083938408
0
VERTEX
8
1
10
-69.680753981032
20
41.903466160022
0
SEQEND
0
POLYLINE
8
1
66
1
0
VERTEX
8
1
10
-69.272654273312
20
42.36282190963
0
VERTEX
8
1
10
-69.134995480875
20
42.367749590409
0
VERTEX
8
1
10
-68.722794473625
20
42.409191079691
0
VERTEX
8
1
10
-68.183738843596
20
42.507561054987
0
VERTEX
8
1
10
-67.658864323881
20
42.656401499875
0
VERTEX
8
1
10
-67.151711090943
20
42.854171876469
0
VERTEX
8
1
10
-66.665676489913
20
43.099311242413
0
VERTEX
8
1
10
-66.204229281589
20
43.390350475485
0
VERTEX
8
1
10
-65.770838226766
20
43.725708228853
0
VERTEX
8
1
10
-65.464669075278
20
44.004688417039
0
VERTEX
8
1
10
-65.368972086242
20
44.10381335792
0
VERTEX
8
1
10
-65.273275097207
20
44.202999512228
0
VERTEX
8
1
10
-65.005466359234
20
44.519003620798
0
VERTEX
8
1
10
-64.685830254064
20
44.964076237715
0
VERTEX
8
1
10
-64.411390061627
20
45.435664470251
0
VERTEX
8
1
10
-64.183778139944
20
45.930115917331
0
VERTEX
8
1
10
-64.004218757532
20
46.444043436061
0
VERTEX
8
1
10
-63.874242250036
20
46.973917052217
0
VERTEX
8
1
10
-63.795174908349
20
47.516176184865
0
VERTEX
8
1
10
-63.768547068116
20
47.929540247206
0
VERTEX
8
1
10
-63.768547068116
20
48.067311264256
0
VERTEX
8
1
10
-63.768547068116
20
48.205133292496
0
VERTEX
8
1
10
-63.795174908349
20
48.618487152599
0
VERTEX
8
1
10
-63.874242250036
20
49.160766689722
0
VERTEX
8
1
10
-64.004218757532
20
49.69058929469
0
VERTEX
8
1
10
-64.183778139944
20
50.204476004469
0
VERTEX
8
1
10
-64.411390061627
20
50.698978462737
0
VERTEX
8
1
10
-64.685830254064
20
51.170525886322
0
VERTEX
8
1
10
-65.005466359234
20
51.615649514427
0
VERTEX
8
1
10
-65.273275097207
20
51.931612814047
0
VERTEX
8
1
10
-65.368972086242
20
52.03077856388
0
VERTEX
8
1
10
-65.464669075278
20
52.129944313712
0
VERTEX
8
1
10
-65.770838226766
20
52.408873490709
0
VERTEX
8
1
10
-66.204229281589
20
52.744323064216
0
VERTEX
8
1
10
-66.665676489913
20
53.035290881625
0
VERTEX
8
1
10
-67.151711090943
20
53.28055267442
0
VERTEX
8
1
10
-67.658864323881
20
53.478374062203
0
VERTEX
8
1
10
-68.183738843596
20
53.627122686951
0
VERTEX
8
1
10
-68.722794473625
20
53.725472257772
0
VERTEX
8
1
10
-69.134995480875
20
53.766995364955
0
VERTEX
8
1
10
-69.272654273312
20
53.771790416645
0
SEQEND
0
POLYLINE
8
1
66
1
0
VERTEX
8
1
10
-69.680753981032
20
53.771790416645
0
VERTEX
8
1
10
-69.818473986895
20
53.766791320203
0
VERTEX
8
1
10
-70.23065458967
20
53.725472257772
0
VERTEX
8
1
10
-70.769720421937
20
53.627122686951
0
VERTEX
8
1
10
-71.294615346127
20
53.478374062203
0
VERTEX
8
1
10
-71.801727770115
20
53.28055267442
0
VERTEX
8
1
10
-72.287772573382
20
53.035290881625
0
VERTEX
8
1
10
-72.749240186182
20
52.744323064216
0
VERTEX
8
1
10
-73.182621038767
20
52.408873490709
0
VERTEX
8
1
10
-73.488830999206
20
52.129944313712
0
VERTEX
8
1
10
-73.584476977053
20
52.03077856388
0
VERTEX
8
1
10
-73.680173966089
20
51.931612814047
0
VERTEX
8
1
10
-73.948013310775
20
51.615649514427
0
VERTEX
8
1
10
-74.267669820419
20
51.170525886322
0
VERTEX
8
1
10
-74.542038597193
20
50.698978462737
0
VERTEX
8
1
10
-74.769691327826
20
50.204476004469
0
VERTEX
8
1
10
-74.949250710239
20
49.69058929469
0
VERTEX
8
1
10
-75.079217015497
20
49.160766689722
0
VERTEX
8
1
10
-75.158253750472
20
48.618487152599
0
VERTEX
8
1
10
-75.184881590704
20
48.205133292496
0
VERTEX
8
1
10
-75.184881590704
20
48.067311264256
0
VERTEX
8
1
10
-75.184881590704
20
47.929540247206
0
VERTEX
8
1
10
-75.158253750472
20
47.516176184865
0
VERTEX
8
1
10
-75.079217015497
20
46.973917052217
0
VERTEX
8
1
10
-74.949189496813
20
46.444043436061
0
VERTEX
8
1
10
-74.769691327826
20
45.930115917331
0
VERTEX
8
1
10
-74.542038597193
20
45.435664470251
0
VERTEX
8
1
10
-74.267669820419
20
44.964076237715
0
VERTEX
8
1
10
-73.948013310775
20
44.519003620798
0
VERTEX
8
1
10
-73.680173966089
20
44.202999512228
0
VERTEX
8
1
10
-73.584476977053
20
44.10381335792
0
VERTEX
8
1
10
-73.488830999206
20
44.004688417039
0
VERTEX
8
1
10
-73.182621038767
20
43.725708228853
0
VERTEX
8
1
10
-72.749240186182
20
43.390350475485
0
VERTEX
8
1
10
-72.287772573382
20
43.099311242413
0
VERTEX
8
1
10
-71.801727770115
20
42.854171876469
0
VERTEX
8
1
10
-71.294554132701
20
42.656401499875
0
VERTEX
8
1
10
-70.769720421937
20
42.507561054987
0
VERTEX
8
1
10
-70.23065458967
20
42.409191079691
0
VERTEX
8
1
10
-69.818473986895
20
42.367749590409
0
VERTEX
8
1
10
-69.680753981032
20
42.36282190963
0
SEQEND
0
POLYLINE
8
1
66
1
70
1
0
VERTEX
8
1
10
-70.126666114213
20
49.334989693745
0
VERTEX
8
1
10
-70.095361743446
20
49.250687235903
0
VERTEX
8
1
10
-70.065919350834
20
49.177216544729
0
VERTEX
8
1
10
-70.033118329693
20
49.123401792948
0
VERTEX
8
1
10
-70.017646886356
20
49.101883934879
0
VERTEX
8
1
10
-70.010882846175
20
49.088356425537
0
VERTEX
8
1
10
-70.00384634407
20
49.076657306443
0
VERTEX
8
1
10
-69.996379225122
20
49.066415722994
0
VERTEX
8
1
10
-69.988323334413
20
49.057260820585
0
VERTEX
8
1
10
-69.979520517024
20
49.048821744613
0
VERTEX
8
1
10
-69.977683262544
20
49.048537050952
0
VERTEX
8
1
10
-69.908479684728
20
49.062957877598
0
VERTEX
8
1
10
-69.790390625815
20
49.086710988753
0
VERTEX
8
1
10
-69.681609764116
20
49.107906084627
0
VERTEX
8
1
10
-69.585839424484
20
49.126007919413
0
VERTEX
8
1
10
-69.50678193177
20
49.140481247304
0
VERTEX
8
1
10
-69.445408145961
20
49.151933712877
0
VERTEX
8
1
10
-69.394855839578
20
49.163595751963
0
VERTEX
8
1
10
-69.352299217981
20
49.176346343149
0
VERTEX
8
1
10
-69.315265721556
20
49.190898610941
0
VERTEX
8
1
10
-69.281282790689
20
49.207965679846
0
VERTEX
8
1
10
-69.247877865766
20
49.228260674372
0
VERTEX
8
1
10
-69.212578387175
20
49.252496719025
0
VERTEX
8
1
10
-69.1729117953
20
49.281386938312
0
VERTEX
8
1
10
-69.126405530528
20
49.315644456741
0
VERTEX
8
1
10
-69.070587033246
20
49.355982398819
0
VERTEX
8
1
10
-69.002983743839
20
49.403113889052
0
VERTEX
8
1
10
-68.921123102695
20
49.457752051948
0
VERTEX
8
1
10
-68.822532550199
20
49.520610012013
0
VERTEX
8
1
10
-68.736336357637
20
49.573282708583
0
VERTEX
8
1
10
-68.72171360209
20
49.581300796868
0
VERTEX
8
1
10
-68.706995143596
20
49.58899951482
0
VERTEX
8
1
10
-68.692169727595
20
49.596357834574
0
VERTEX
8
1
10
-68.677226099529
20
49.603354728265
0
VERTEX
8
1
10
-68.662153004835
20
49.609969168028
0
VERTEX
8
1
10
-68.646939188956
20
49.616180126001
0
VERTEX
8
1
10
-68.631573397331
20
49.621966574318
0
VERTEX
8
1
10
-68.616044375401
20
49.627307485115
0
VERTEX
8
1
10
-68.600340868604
20
49.632181830527
0
VERTEX
8
1
10
-68.584451622382
20
49.636568582691
0
VERTEX
8
1
10
-68.568365382175
20
49.640446713742
0
VERTEX
8
1
10
-68.552070893424
20
49.643795195816
0
VERTEX
8
1
10
-68.535556901566
20
49.646593001048
0
VERTEX
8
1
10
-68.512019551527
20
49.649581213353
0
VERTEX
8
1
10
-68.487312756158
20
49.651529734771
0
VERTEX
8
1
10
-68.462610173001
20
49.652303852694
0
VERTEX
8
1
10
-68.437939469313
20
49.651942899514
0
VERTEX
8
1
10
-68.413328312356
20
49.650486207627
0
VERTEX
8
1
10
-68.388804369388
20
49.647973109425
0
VERTEX
8
1
10
-68.36439530767
20
49.644442937302
0
VERTEX
8
1
10
-68.340128794462
20
49.639935023651
0
VERTEX
8
1
10
-68.316032497022
20
49.634488700867
0
VERTEX
8
1
10
-68.292134082611
20
49.628143301342
0
VERTEX
8
1
10
-68.268461218488
20
49.62093815747
0
VERTEX
8
1
10
-68.245041571913
20
49.612912601644
0
VERTEX
8
1
10
-68.221902810147
20
49.604105966259
0
VERTEX
8
1
10
-68.199233998799
20
49.594633699808
0
VERTEX
8
1
10
-68.177081501116
20
49.584609868137
0
VERTEX
8
1
10
-68.155220110066
20
49.573982925474
0
VERTEX
8
1
10
-68.133648296609
20
49.562780920298
0
VERTEX
8
1
10
-68.112364531705
20
49.551031901084
0
VERTEX
8
1
10
-68.091367286312
20
49.538763916309
0
VERTEX
8
1
10
-68.07065503139
20
49.52600501445
0
VERTEX
8
1
10
-68.050226237899
20
49.512783243984
0
VERTEX
8
1
10
-68.030079376797
20
49.499126653389
0
VERTEX
8
1
10
-68.010212919044
20
49.485063291139
0
VERTEX
8
1
10
-67.990625335599
20
49.470621205714
0
VERTEX
8
1
10
-67.971315097421
20
49.455828445588
0
VERTEX
8
1
10
-67.952280675471
20
49.44071305924
0
VERTEX
8
1
10
-67.933520540706
20
49.425303095146
0
VERTEX
8
1
10
-67.91290442582
20
49.407727716145
0
VERTEX
8
1
10
-67.892707945173
20
49.389803590673
0
VERTEX
8
1
10
-67.872902600673
20
49.37154820428
0
VERTEX
8
1
10
-67.85345989423
20
49.352979042516
0
VERTEX
8
1
10
-67.834351327753
20
49.334113590932
0
VERTEX
8
1
10
-67.815548403152
20
49.314969335078
0
VERTEX
8
1
10
-67.797022622336
20
49.295563760506
0
VERTEX
8
1
10
-67.778745487213
20
49.275914352765
0
VERTEX
8
1
10
-67.760688499695
20
49.256038597405
0
VERTEX
8
1
10
-67.742823161689
20
49.235953979978
0
VERTEX
8
1
10
-67.725120975106
20
49.215677986034
0
VERTEX
8
1
10
-67.707553441854
20
49.195228101124
0
VERTEX
8
1
10
-67.690092063844
20
49.174621810797
0
VERTEX
8
1
10
-67.681530755719
20
49.164485848096
0
VERTEX
8
1
10
-67.679339234137
20
49.162195356081
0
VERTEX
8
1
10
-67.676881096468
20
49.159805123639
0
VERTEX
8
1
10
-67.674232473553
20
49.157322743023
0
VERTEX
8
1
10
-67.671469496231
20
49.15475580649
0
VERTEX
8
1
10
-67.668668295341
20
49.152111906293
0
VERTEX
8
1
10
-67.665905001725
20
49.149398634686
0
VERTEX
8
1
10
-67.663255746221
20
49.146623583925
0
VERTEX
8
1
10
-67.660796659669
20
49.143794346263
0
VERTEX
8
1
10
-67.658603872909
20
49.140918513955
0
VERTEX
8
1
10
-67.656753516781
20
49.138003679256
0
VERTEX
8
1
10
-67.655321722125
20
49.13505743442
0
VERTEX
8
1
10
-67.65438461978
20
49.132087371702
0
VERTEX
8
1
10
-67.654021604729
20
49.12905338905
0
VERTEX
8
1
10
-67.654617958535
20
49.126261706169
0
VERTEX
8
1
10
-67.656274657365
20
49.124325569627
0
VERTEX
8
1
10
-67.658822562795
20
49.123135901631
0
VERTEX
8
1
10
-67.662092536408
20
49.122583624386
0
VERTEX
8
1
10
-67.665915439781
20
49.122559660099
0
VERTEX
8
1
10
-67.670122134494
20
49.122954930975
0
VERTEX
8
1
10
-67.674543482127
20
49.123660359222
0
VERTEX
8
1
10
-67.679010344259
20
49.124566867044
0
VERTEX
8
1
10
-67.683353582469
20
49.125565376647
0
VERTEX
8
1
10
-67.687404058338
20
49.126546810238
0
VERTEX
8
1
10
-67.690992633444
20
49.127402090023
0
VERTEX
8
1
10
-67.693950169367
20
49.128022138208
0
VERTEX
8
1
10
-67.696107527686
20
49.128297876998
0
VERTEX
8
1
10
-67.696992890683
20
49.124953123966
0
VERTEX
8
1
10
-67.697457666616
20
49.120172241807
0
VERTEX
8
1
10
-67.697749050127
20
49.115296830632
0
VERTEX
8
1
10
-67.697869702869
20
49.110348572387
0
VERTEX
8
1
10
-67.697822286494
20
49.105349149019
0
VERTEX
8
1
10
-67.697609462655
20
49.100320242475
0
VERTEX
8
1
10
-67.697233893003
20
49.095283534702
0
VERTEX
8
1
10
-67.696698239192
20
49.090260707648
0
VERTEX
8
1
10
-67.696005162874
20
49.085273443259
0
VERTEX
8
1
10
-67.6951573257
20
49.080343423483
0
VERTEX
8
1
10
-67.694157389324
20
49.075492330265
0
VERTEX
8
1
10
-67.693008015397
20
49.070741845553
0
VERTEX
8
1
10
-67.691711865573
20
49.066113651295
0
VERTEX
8
1
10
-67.690344165661
20
49.06183691917
0
VERTEX
8
1
10
-67.689055508978
20
49.058150801165
0
VERTEX
8
1
10
-67.687700123389
20
49.054485463591
0
VERTEX
8
1
10
-67.686295452557
20
49.050835419794
0
VERTEX
8
1
10
-67.684858940142
20
49.047195183121
0
VERTEX
8
1
10
-67.683408029806
20
49.04355926692
0
VERTEX
8
1
10
-67.68196016521
20
49.039922184537
0
VERTEX
8
1
10
-67.680532790016
20
49.03627844932
0
VERTEX
8
1
10
-67.679143347884
20
49.032622574615
0
VERTEX
8
1
10
-67.677809282477
20
49.02894907377
0
VERTEX
8
1
10
-67.676548037455
20
49.025252460131
0
VERTEX
8
1
10
-67.67537705648
20
49.021527247046
0
VERTEX
8
1
10
-67.674313783213
20
49.017767947862
0
VERTEX
8
1
10
-67.673375661316
20
49.013969075925
0
VERTEX
8
1
10
-67.672616681304
20
49.010334694832
0
VERTEX
8
1
10
-67.671986125389
20
49.006715650411
0
VERTEX
8
1
10
-67.671461448223
20
49.003081333811
0
VERTEX
8
1
10
-67.67102754617
20
48.999434050933
0
VERTEX
8
1
10
-67.670669315593
20
48.995776107679
0
VERTEX
8
1
10
-67.670371652856
20
48.992109809951
0
VERTEX
8
1
10
-67.670119454323
20
48.988437463651
0
VERTEX
8
1
10
-67.669897616357
20
48.98476137468
0
VERTEX
8
1
10
-67.669691035323
20
48.981083848942
0
VERTEX
8
1
10
-67.669484607584
20
48.977407192337
0
VERTEX
8
1
10
-67.669263229503
20
48.973733710768
0
VERTEX
8
1
10
-67.669011797445
20
48.970065710137
0
VERTEX
8
1
10
-67.668715207773
20
48.966405496345
0
VERTEX
8
1
10
-67.667610432137
20
48.957378476274
0
VERTEX
8
1
10
-67.663919665536
20
48.942086934428
0
VERTEX
8
1
10
-67.658208525053
20
48.927992039547
0
VERTEX
8
1
10
-67.650695186195
20
48.9150130275
0
VERTEX
8
1
10
-67.641597824466
20
48.90306913416
0
VERTEX
8
1
10
-67.631134615372
20
48.892079595398
0
VERTEX
8
1
10
-67.619523734419
20
48.881963647086
0
VERTEX
8
1
10
-67.606983357111
20
48.872640525093
0
VERTEX
8
1
10
-67.593731658953
20
48.864029465293
0
VERTEX
8
1
10
-67.579986815452
20
48.856049703555
0
VERTEX
8
1
10
-67.565967002112
20
48.848620475752
0
VERTEX
8
1
10
-67.551890394439
20
48.841661017754
0
VERTEX
8
1
10
-67.537975167937
20
48.835090565434
0
VERTEX
8
1
10
-67.524439498113
20
48.828828354662
0
VERTEX
8
1
10
-67.50684356673
20
48.820944422736
0
VERTEX
8
1
10
-67.489127608977
20
48.813459507194
0
VERTEX
8
1
10
-67.471308145711
20
48.806317013749
0
VERTEX
8
1
10
-67.45340169779
20
48.799460348113
0
VERTEX
8
1
10
-67.435424786073
20
48.792832916001
0
VERTEX
8
1
10
-67.417393931416
20
48.786378123125
0
VERTEX
8
1
10
-67.399325654679
20
48.780039375199
0
VERTEX
8
1
10
-67.381236476717
20
48.773760077935
0
VERTEX
8
1
10
-67.363142918391
20
48.767483637048
0
VERTEX
8
1
10
-67.345061500556
20
48.76115345825
0
VERTEX
8
1
10
-67.327008744072
20
48.754712947254
0
VERTEX
8
1
10
-67.309001169795
20
48.748105509774
0
VERTEX
8
1
10
-67.291055298584
20
48.741274551523
0
VERTEX
8
1
10
-67.280220624209
20
48.737174797837
0
VERTEX
8
1
10
-67.274602232711
20
48.735135523595
0
VERTEX
8
1
10
-67.268896933533
20
48.732966055623
0
VERTEX
8
1
10
-67.263117511627
20
48.730710814076
0
VERTEX
8
1
10
-67.257276751943
20
48.72841421911
0
VERTEX
8
1
10
-67.251387439431
20
48.726120690879
0
VERTEX
8
1
10
-67.245462359043
20
48.723874649541
0
VERTEX
8
1
10
-67.239514295729
20
48.72172051525
0
VERTEX
8
1
10
-67.233556034441
20
48.719702708163
0
VERTEX
8
1
10
-67.227600360128
20
48.717865648435
0
VERTEX
8
1
10
-67.221660057743
20
48.716253756221
0
VERTEX
8
1
10
-67.215747912234
20
48.714911451678
0
VERTEX
8
1
10
-67.209876708554
20
48.713883154961
0
VERTEX
8
1
10
-67.203735468472
20
48.713188191587
0
VERTEX
8
1
10
-67.195593140835
20
48.71297203024
0
VERTEX
8
1
10
-67.187328226972
20
48.713510198385
0
VERTEX
8
1
10
-67.178977175253
20
48.714722023631
0
VERTEX
8
1
10
-67.170576434048
20
48.716526833586
0
VERTEX
8
1
10
-67.162162451726
20
48.718843955858
0
VERTEX
8
1
10
-67.153771676657
20
48.721592718055
0
VERTEX
8
1
10
-67.145440557212
20
48.724692447786
0
VERTEX
8
1
10
-67.137205541759
20
48.728062472659
0
VERTEX
8
1
10
-67.129103078668
20
48.731622120282
0
VERTEX
8
1
10
-67.12116961631
20
48.735290718262
0
VERTEX
8
1
10
-67.113441603054
20
48.738987594209
0
VERTEX
8
1
10
-67.105955487269
20
48.74263207573
0
VERTEX
8
1
10
-67.098747717325
20
48.746143490434
0
VERTEX
8
1
10
-67.08832710428
20
48.751214385271
0
VERTEX
8
1
10
-67.076606005026
20
48.757090613781
0
VERTEX
8
1
10
-67.064956061184
20
48.763111923787
0
VERTEX
8
1
10
-67.053374208677
20
48.769269077932
0
VERTEX
8
1
10
-67.041857383423
20
48.775552838859
0
VERTEX
8
1
10
-67.030402521344
20
48.78195396921
0
VERTEX
8
1
10
-67.019006558357
20
48.788463231626
0
VERTEX
8
1
10
-67.007666430385
20
48.795071388751
0
VERTEX
8
1
10
-66.996379073347
20
48.801769203227
0
VERTEX
8
1
10
-66.985141423163
20
48.808547437696
0
VERTEX
8
1
10
-66.973950415752
20
48.815396854801
0
VERTEX
8
1
10
-66.962802987036
20
48.822308217183
0
VERTEX
8
1
10
-66.951696072934
20
48.829272287486
0
VERTEX
8
1
10
-66.938034730618
20
48.837925518118
0
VERTEX
8
1
10
-66.917889443384
20
48.850791014767
0
VERTEX
8
1
10
-66.897742613604
20
48.863801068541
0
VERTEX
8
1
10
-66.87762692077
20
48.876973090782
0
VERTEX
8
1
10
-66.85757504437
20
48.890324492835
0
VERTEX
8
1
10
-66.837619663896
20
48.903872686043
0
VERTEX
8
1
10
-66.817793458837
20
48.91763508175
0
VERTEX
8
1
10
-66.798129108683
20
48.931629091301
0
VERTEX
8
1
10
-66.778659292925
20
48.945872126039
0
VERTEX
8
1
10
-66.759416691053
20
48.960381597308
0
VERTEX
8
1
10
-66.740433982557
20
48.975174916451
0
VERTEX
8
1
10
-66.721743846928
20
48.990269494814
0
VERTEX
8
1
10
-66.703378963654
20
49.005682743739
0
VERTEX
8
1
10
-66.685372012228
20
49.02143207457
0
VERTEX
8
1
10
-66.662267996908
20
49.040567643958
0
VERTEX
8
1
10
-66.633894760801
20
49.060293937119
0
VERTEX
8
1
10
-66.601207344014
20
49.080140895554
0
VERTEX
8
1
10
-66.564632468755
20
49.10016788849
0
VERTEX
8
1
10
-66.52459685723
20
49.120434285153
0
VERTEX
8
1
10
-66.481527231647
20
49.14099945477
0
VERTEX
8
1
10
-66.435850314214
20
49.161922766568
0
VERTEX
8
1
10
-66.387992827136
20
49.183263589773
0
VERTEX
8
1
10
-66.338381492622
20
49.205081293613
0
VERTEX
8
1
10
-66.287443032879
20
49.227435247315
0
VERTEX
8
1
10
-66.235604170114
20
49.250384820104
0
VERTEX
8
1
10
-66.183291626534
20
49.273989381209
0
VERTEX
8
1
10
-66.130932124346
20
49.298308299855
0
VERTEX
8
1
10
-66.077130921269
20
49.324196390308
0
VERTEX
8
1
10
-66.008316119821
20
49.357644311669
0
VERTEX
8
1
10
-65.923827067863
20
49.398678745422
0
VERTEX
8
1
10
-65.826364160417
20
49.44582908606
0
VERTEX
8
1
10
-65.718627792508
20
49.497624728076
0
VERTEX
8
1
10
-65.603318359161
20
49.552595065964
0
VERTEX
8
1
10
-65.483136255398
20
49.609269494219
0
VERTEX
8
1
10
-65.360781876244
20
49.666177407332
0
VERTEX
8
1
10
-65.238955616724
20
49.721848199799
0
VERTEX
8
1
10
-65.12035787186
20
49.774811266112
0
VERTEX
8
1
10
-65.007689036677
20
49.823596000765
0
VERTEX
8
1
10
-64.9036495062
20
49.866731798252
0
VERTEX
8
1
10
-64.810939675451
20
49.902748053067
0
VERTEX
8
1
10
-64.732259939456
20
49.930174159702
0
VERTEX
8
1
10
-64.660592529654
20
49.951365533122
0
VERTEX
8
1
10
-64.600272387838
20
49.966614961368
0
VERTEX
8
1
10
-64.636507459826
20
50.070886767978
0
VERTEX
8
1
10
-64.843854894014
20
50.523677258692
0
VERTEX
8
1
10
-65.09387836261
20
50.955576601673
0
VERTEX
8
1
10
-65.385125539836
20
51.363568427997
0
VERTEX
8
1
10
-65.629339705318
20
51.653363279444
0
VERTEX
8
1
10
-65.716479252014
20
51.744412934004
0
VERTEX
8
1
10
-65.80361879871
20
51.835462588564
0
VERTEX
8
1
10
-66.082800500238
20
52.091630512376
0
VERTEX
8
1
10
-66.47805654666
20
52.399970446837
0
VERTEX
8
1
10
-66.899007587621
20
52.668203846345
0
VERTEX
8
1
10
-67.34241381946
20
52.894654950386
0
VERTEX
8
1
10
-67.80544879278
20
53.078094867917
0
VERTEX
8
1
10
-68.2848056735
20
53.216959555793
0
VERTEX
8
1
10
-68.777389890539
20
53.310020122969
0
VERTEX
8
1
10
-69.15415671263
20
53.350350092657
0
VERTEX
8
1
10
-69.280039842395
20
53.3557125263
42
0.03802122497
0
VERTEX
8
1
10
-69.726920484366
20
53.3557125263
0
VERTEX
8
1
10
-69.856993015414
20
53.35023837529
0
VERTEX
8
1
10
-70.245992889253
20
53.308009210353
0
VERTEX
8
1
10
-70.748754558476
20
53.211485404782
0
VERTEX
8
1
10
-71.232848255581
20
53.068487174307
0
VERTEX
8
1
10
-71.695972602794
20
52.881584018382
0
VERTEX
8
1
10
-72.135647474558
20
52.653233719092
0
VERTEX
8
1
10
-72.549560321362
20
52.385894058525
0
VERTEX
8
1
10
-72.935342735015
20
52.082134536133
0
VERTEX
8
1
10
-73.290581620377
20
51.744412934004
0
VERTEX
8
1
10
-73.612908569257
20
51.375075316856
0
VERTEX
8
1
10
-73.899955173462
20
50.97680290151
0
VERTEX
8
1
10
-74.149431226957
20
50.551830035317
0
VERTEX
8
1
10
-74.358778402024
20
50.1028379351
0
VERTEX
8
1
10
-74.396443691787
20
49.996709078914
0
VERTEX
8
1
10
-74.394000790701
20
49.998480125554
0
VERTEX
8
1
10
-74.385234601689
20
50.00468794624
0
VERTEX
8
1
10
-74.376214419949
20
50.010883989811
0
VERTEX
8
1
10
-74.366841118463
20
50.017091668175
0
VERTEX
8
1
10
-74.357015570211
20
50.023334393243
0
VERTEX
8
1
10
-74.346725861572
20
50.029566347873
0
VERTEX
8
1
10
-74.336590006202
20
50.035122228151
0
VERTEX
8
1
10
-74.326667057082
20
50.039964352574
0
VERTEX
8
1
10
-74.316914548994
20
50.044240789015
0
VERTEX
8
1
10
-74.307290016718
20
50.048099605346
0
VERTEX
8
1
10
-74.297750995037
20
50.05168886944
0
VERTEX
8
1
10
-74.288255018733
20
50.055156649168
0
VERTEX
8
1
10
-74.278759622587
20
50.058651012404
0
VERTEX
8
1
10
-74.269222341381
20
50.06232002702
0
VERTEX
8
1
10
-74.259600709897
20
50.066311760888
0
VERTEX
8
1
10
-74.249852262917
20
50.07077428188
0
VERTEX
8
1
10
-74.232317504539
20
50.073404606992
0
VERTEX
8
1
10
-74.211098325251
20
50.07378659002
0
VERTEX
8
1
10
-74.192991164701
20
50.073737076578
0
VERTEX
8
1
10
-74.177289556074
20
50.073232405696
0
VERTEX
8
1
10
-74.163287032559
20
50.072248916399
0
VERTEX
8
1
10
-74.150277127343
20
50.070762947717
0
VERTEX
8
1
10
-74.137553373614
20
50.068750838677
0
VERTEX
8
1
10
-74.124409304559
20
50.066188928308
0
VERTEX
8
1
10
-74.110138453366
20
50.063053555637
0
VERTEX
8
1
10
-74.094034353221
20
50.059321059693
0
VERTEX
8
1
10
-74.075390537314
20
50.054967779503
0
VERTEX
8
1
10
-74.004654358338
20
50.014185065592
0
VERTEX
8
1
10
-73.927821700811
20
49.950737354469
0
VERTEX
8
1
10
-73.858058751967
20
49.875668473909
0
VERTEX
8
1
10
-73.793807872657
20
49.791944762615
0
VERTEX
8
1
10
-73.733511423733
20
49.702532559294
0
VERTEX
8
1
10
-73.675611766045
20
49.610398202651
0
VERTEX
8
1
10
-73.618551260446
20
49.518508031389
0
VERTEX
8
1
10
-73.560772267786
20
49.429828384216
0
VERTEX
8
1
10
-73.500717148916
20
49.347325599835
0
VERTEX
8
1
10
-73.436828264688
20
49.273966016952
0
VERTEX
8
1
10
-73.369921614806
20
49.215731954177
0
VERTEX
8
1
10
-73.376984994271
20
49.260074061981
0
VERTEX
8
1
10
-73.392098960171
20
49.310682635908
0
VERTEX
8
1
10
-73.413758425622
20
49.365979613655
0
VERTEX
8
1
10
-73.44045830374
20
49.424386932917
0
VERTEX
8
1
10
-73.47069350764
20
49.484326531392
0
VERTEX
8
1
10
-73.502958950438
20
49.544220346775
0
VERTEX
8
1
10
-73.535749545248
20
49.602490316763
0
VERTEX
8
1
10
-73.567560205187
20
49.657558379053
0
VERTEX
8
1
10
-73.596885843369
20
49.70784647134
0
VERTEX
8
1
10
-73.62222137291
20
49.751776531322
0
VERTEX
8
1
10
-73.643827181637
20
49.790886266552
0
VERTEX
8
1
10
-73.669408206494
20
49.838191514181
0
VERTEX
8
1
10
-73.696675990816
20
49.890127142879
0
VERTEX
8
1
10
-73.724385967474
20
49.946014580871
0
VERTEX
8
1
10
-73.751293569339
20
50.005175256387
0
VERTEX
8
1
10
-73.77615422928
20
50.066930597655
0
VERTEX
8
1
10
-73.79772338017
20
50.130602032903
0
VERTEX
8
1
10
-73.814756454878
20
50.19551099036
0
VERTEX
8
1
10
-73.826008886276
20
50.260978898252
0
VERTEX
8
1
10
-73.830236107234
20
50.32632718481
0
VERTEX
8
1
10
-73.826193550623
20
50.39087727826
0
VERTEX
8
1
10
-73.820782926097
20
50.422167410193
0
VERTEX
8
1
10
-73.819274721456
20
50.429291401285
0
VERTEX
8
1
10
-73.816589945823
20
50.441972914895
0
VERTEX
8
1
10
-73.813033950271
20
50.458769627981
0
VERTEX
8
1
10
-73.808912085869
20
50.4782392175
0
VERTEX
8
1
10
-73.804529703689
20
50.498939360409
0
VERTEX
8
1
10
-73.800192154801
20
50.519427733664
0
VERTEX
8
1
10
-73.796204790276
20
50.538262014223
0
VERTEX
8
1
10
-73.792872961184
20
50.553999879044
0
VERTEX
8
1
10
-73.790502018597
20
50.565199005082
0
VERTEX
8
1
10
-73.789397313584
20
50.570417069296
0
VERTEX
8
1
10
-73.780946488025
20
50.585988423076
0
VERTEX
8
1
10
-73.770945209305
20
50.604707426851
0
VERTEX
8
1
10
-73.761641735545
20
50.622178663237
0
VERTEX
8
1
10
-73.752665336671
20
50.638574110141
0
VERTEX
8
1
10
-73.743645282613
20
50.65406574547
0
VERTEX
8
1
10
-73.734210843297
20
50.668825547132
0
VERTEX
8
1
10
-73.723991288651
20
50.683025493034
0
VERTEX
8
1
10
-73.712615888602
20
50.696837561082
0
VERTEX
8
1
10
-73.699713913078
20
50.710433729185
0
VERTEX
8
1
10
-73.684914632007
20
50.72398597525
0
VERTEX
8
1
10
-73.667850657427
20
50.737663898348
0
VERTEX
8
1
10
-73.650330138966
20
50.750229497025
0
VERTEX
8
1
10
-73.633770684911
20
50.760898648038
0
VERTEX
8
1
10
-73.617923979588
20
50.770024522528
0
VERTEX
8
1
10
-73.602541707321
20
50.777960291635
0
VERTEX
8
1
10
-73.587375552436
20
50.785059126498
0
VERTEX
8
1
10
-73.572177199257
20
50.79167419826
0
VERTEX
8
1
10
-73.55669833211
20
50.798158678061
0
VERTEX
8
1
10
-73.540690635319
20
50.804865737041
0
VERTEX
8
1
10
-73.52390579321
20
50.81214854634
0
VERTEX
8
1
10
-73.506095490108
20
50.820360277099
0
VERTEX
8
1
10
-73.488030523548
20
50.827995481652
0
VERTEX
8
1
10
-73.472998535185
20
50.830942897455
0
VERTEX
8
1
10
-73.458877093965
20
50.833886166163
0
VERTEX
8
1
10
-73.445435816741
20
50.836816695108
0
VERTEX
8
1
10
-73.432444320363
20
50.839725891622
0
VERTEX
8
1
10
-73.419672221682
20
50.842605163034
0
VERTEX
8
1
10
-73.40688913755
20
50.845445916677
0
VERTEX
8
1
10
-73.393864684818
20
50.848239559882
0
VERTEX
8
1
10
-73.380368480338
20
50.850977499979
0
VERTEX
8
1
10
-73.366170140959
20
50.853651144301
0
VERTEX
8
1
10
-73.351039283534
20
50.856251900178
0
VERTEX
8
1
10
-73.335880499067
20
50.858588330724
0
VERTEX
8
1
10
-73.321882923052
20
50.860470609988
0
VERTEX
8
1
10
-73.308321375068
20
50.862159307119
0
VERTEX
8
1
10
-73.295120887191
20
50.863828890651
0
VERTEX
8
1
10
-73.282206491501
20
50.865653829121
0
VERTEX
8
1
10
-73.269503220074
20
50.867808591065
0
VERTEX
8
1
10
-73.256936104989
20
50.870467645019
0
VERTEX
8
1
10
-73.244430178325
20
50.873805459518
0
VERTEX
8
1
10
-73.231910472159
20
50.877996503099
0
VERTEX
8
1
10
-73.219302018569
20
50.883215244298
0
VERTEX
8
1
10
-73.206529849634
20
50.889636151649
0
VERTEX
8
1
10
-73.192433601607
20
50.892499573595
0
VERTEX
8
1
10
-73.174827589459
20
50.896045669546
0
VERTEX
8
1
10
-73.15450007432
20
50.901625496216
0
VERTEX
8
1
10
-73.132364867834
20
50.908827975349
0
VERTEX
8
1
10
-73.10933578165
20
50.917242028688
0
VERTEX
8
1
10
-73.086326627414
20
50.926456577978
0
VERTEX
8
1
10
-73.064251216771
20
50.936060544961
0
VERTEX
8
1
10
-73.044023361369
20
50.945642851382
0
VERTEX
8
1
10
-73.026556872854
20
50.954792418985
0
VERTEX
8
1
10
-73.012765562871
20
50.963098169512
0
VERTEX
8
1
10
-73.003563243069
20
50.970149024708
0
VERTEX
8
1
10
-72.994773233655
20
50.972386551592
0
VERTEX
8
1
10
-72.986046715257
20
50.974810125717
0
VERTEX
8
1
10
-72.977374861711
20
50.977402234851
0
VERTEX
8
1
10
-72.96874884685
20
50.98014536676
0
VERTEX
8
1
10
-72.96015984451
20
50.983022009213
0
VERTEX
8
1
10
-72.951599028525
20
50.986014649977
0
VERTEX
8
1
10
-72.94305757273
20
50.989105776819
0
VERTEX
8
1
10
-72.93452665096
20
50.992277877506
0
VERTEX
8
1
10
-72.92599743705
20
50.995513439806
0
VERTEX
8
1
10
-72.917461104834
20
50.998794951487
0
VERTEX
8
1
10
-72.908908828147
20
51.002104900316
0
VERTEX
8
1
10
-72.900331780825
20
51.005425774059
0
VERTEX
8
1
10
-72.8917211367
20
51.008740060485
0
VERTEX
8
1
10
-72.88306806961
20
51.012030247362
0
VERTEX
8
1
10
-72.874363753388
20
51.015278822455
0
VERTEX
8
1
10
-72.865599361868
20
51.018468273534
0
VERTEX
8
1
10
-72.856766068887
20
51.021581088365
0
VERTEX
8
1
10
-72.847855048278
20
51.024599754715
0
VERTEX
8
1
10
-72.838857473877
20
51.027506760352
0
VERTEX
8
1
10
-72.829764519517
20
51.030284593044
0
VERTEX
8
1
10
-72.820567359035
20
51.032915740558
0
VERTEX
8
1
10
-72.774481911357
20
51.042709556307
0
VERTEX
8
1
10
-72.687569703387
20
51.046757154217
0
VERTEX
8
1
10
-72.597738358077
20
51.035035793535
0
VERTEX
8
1
10
-72.506049007759
20
51.009968108736
0
VERTEX
8
1
10
-72.413562784763
20
50.973976734294
0
VERTEX
8
1
10
-72.321340821418
20
50.929484304681
0
VERTEX
8
1
10
-72.230444250054
20
50.878913454372
0
VERTEX
8
1
10
-72.141934203003
20
50.824686817842
0
VERTEX
8
1
10
-72.056871812595
20
50.769227029564
0
VERTEX
8
1
10
-71.976318211159
20
50.714956724011
0
VERTEX
8
1
10
-71.901334531025
20
50.664298535659
42
-0.233504723861
0
VERTEX
8
1
10
-71.423540282049
20
49.589175705301
42
-0.018921787148
0
VERTEX
8
1
10
-71.340628078486
20
49.622313880691
0
VERTEX
8
1
10
-71.263878625742
20
49.744747497091
0
VERTEX
8
1
10
-71.181984734422
20
49.894054152107
0
VERTEX
8
1
10
-71.131063112698
20
50.017253707765
0
VERTEX
8
1
10
-71.120563573783
20
50.103906060852
0
VERTEX
8
1
10
-71.153287962248
20
50.111115210707
0
VERTEX
8
1
10
-71.183936708193
20
50.111138541125
0
VERTEX
8
1
10
-71.212024404753
20
50.108682753337
0
VERTEX
8
1
10
-71.238133278316
20
50.105619493244
0
VERTEX
8
1
10
-71.262845555272
20
50.103820406748
0
VERTEX
8
1
10
-71.286743462009
20
50.10515713975
0
VERTEX
8
1
10
-71.310409224916
20
50.111501338153
0
VERTEX
8
1
10
-71.334425070382
20
50.124724647857
0
VERTEX
8
1
10
-71.359373224796
20
50.146698714765
0
VERTEX
8
1
10
-71.391189959484
20
50.189208079499
0
VERTEX
8
1
10
-71.410763759121
20
50.246479981688
0
VERTEX
8
1
10
-71.409285561505
20
50.303444683137
0
VERTEX
8
1
10
-71.390370397326
20
50.356597405004
0
VERTEX
8
1
10
-71.357633297274
20
50.402433368445
0
VERTEX
8
1
10
-71.31468929204
20
50.437447794617
0
VERTEX
8
1
10
-71.265153412314
20
50.458135904678
0
VERTEX
8
1
10
-71.212640688786
20
50.460992919785
0
VERTEX
8
1
10
-71.160766152146
20
50.442514061094
0
VERTEX
8
1
10
-71.114553254848
20
50.400984907371
0
VERTEX
8
1
10
-71.099464317887
20
50.37968450652
0
VERTEX
8
1
10
-71.086557148583
20
50.356815520572
0
VERTEX
8
1
10
-71.075602897484
20
50.332609654107
0
VERTEX
8
1
10
-71.066372715137
20
50.307298611704
0
VERTEX
8
1
10
-71.058637752091
20
50.281114097943
0
VERTEX
8
1
10
-71.052169158893
20
50.254287817403
0
VERTEX
8
1
10
-71.046738086093
20
50.227051474663
0
VERTEX
8
1
10
-71.042115684238
20
50.199636774304
0
VERTEX
8
1
10
-71.038073103875
20
50.172275420904
0
VERTEX
8
1
10
-71.027962448628
20
50.172359945655
0
VERTEX
8
1
10
-71.011461352602
20
50.195687554488
0
VERTEX
8
1
10
-70.993312957809
20
50.224237477067
0
VERTEX
8
1
10
-70.974731791572
20
50.256741377899
0
VERTEX
8
1
10
-70.956932381212
20
50.291930921487
0
VERTEX
8
1
10
-70.941129254052
20
50.328537772339
0
VERTEX
8
1
10
-70.928536937412
20
50.36529359496
0
VERTEX
8
1
10
-70.920369958615
20
50.400930053855
0
VERTEX
8
1
10
-70.917842844983
20
50.434178813531
0
VERTEX
8
1
10
-70.923619274393
20
50.460014764915
0
VERTEX
8
1
10
-70.945651798664
20
50.460050620192
0
VERTEX
8
1
10
-70.974605591294
20
50.457401315887
0
VERTEX
8
1
10
-71.008459002372
20
50.454691373066
0
VERTEX
8
1
10
-71.04519038199
20
50.454545312795
0
VERTEX
8
1
10
-71.082778080238
20
50.45958765614
0
VERTEX
8
1
10
-71.119200447208
20
50.472442924168
0
VERTEX
8
1
10
-71.152435832991
20
50.495735637943
0
VERTEX
8
1
10
-71.180462587677
20
50.532090318534
0
VERTEX
8
1
10
-71.201259061358
20
50.584131487004
0
VERTEX
8
1
10
-71.205076751452
20
50.626919083311
0
VERTEX
8
1
10
-71.203599217012
20
50.654945432239
0
VERTEX
8
1
10
-71.201254580345
20
50.677260999028
0
VERTEX
8
1
10
-71.197686609386
20
50.695187268469
0
VERTEX
8
1
10
-71.19253907207
20
50.710045725352
0
VERTEX
8
1
10
-71.185455736334
20
50.723157854469
0
VERTEX
8
1
10
-71.176080370112
20
50.735845140612
0
VERTEX
8
1
10
-71.16405674134
20
50.74942906857
0
VERTEX
8
1
10
-71.149028617955
20
50.765231123136
0
VERTEX
8
1
10
-71.122344240387
20
50.792386494116
0
VERTEX
8
1
10
-71.072425086879
20
50.824204725458
0
VERTEX
8
1
10
-71.027187321245
20
50.827735758937
0
VERTEX
8
1
10
-70.986494116991
20
50.808771989415
0
VERTEX
8
1
10
-70.95020864762
20
50.773105811753
0
VERTEX
8
1
10
-70.918194086637
20
50.726529620814
0
VERTEX
8
1
10
-70.890313607546
20
50.674835811458
0
VERTEX
8
1
10
-70.866430383851
20
50.623816778548
0
VERTEX
8
1
10
-70.846407589057
20
50.579264916945
0
VERTEX
8
1
10
-70.830108396667
20
50.546972621511
0
VERTEX
8
1
10
-70.816669029214
20
50.566698404325
0
VERTEX
8
1
10
-70.801204025563
20
50.597657279071
0
VERTEX
8
1
10
-70.784609280897
20
50.62885878475
0
VERTEX
8
1
10
-70.768289957204
20
50.659723989351
0
VERTEX
8
1
10
-70.753651216476
20
50.689673960863
0
VERTEX
8
1
10
-70.742098220703
20
50.718129767274
0
VERTEX
8
1
10
-70.735036131873
20
50.744512476576
0
VERTEX
8
1
10
-70.733870111978
20
50.768243156755
0
VERTEX
8
1
10
-70.740005323008
20
50.788742875802
0
VERTEX
8
1
10
-70.748651716287
20
50.800097184437
0
VERTEX
8
1
10
-70.749645277237
20
50.800562221751
0
VERTEX
8
1
10
-70.751566864444
20
50.801461622792
0
VERTEX
8
1
10
-70.754141507164
20
50.802666687196
0
VERTEX
8
1
10
-70.757094234656
20
50.8040487146
0
VERTEX
8
1
10
-70.760150076176
20
50.805479004641
0
VERTEX
8
1
10
-70.763034060982
20
50.806828856954
0
VERTEX
8
1
10
-70.765471218331
20
50.807969571176
0
VERTEX
8
1
10
-70.76718657748
20
50.808772446945
0
VERTEX
8
1
10
-70.767905167688
20
50.809108783895
0
VERTEX
8
1
10
-70.772821618916
20
50.809987653713
0
VERTEX
8
1
10
-70.77649204576
20
50.810783491226
0
VERTEX
8
1
10
-70.778830709354
20
50.811399247061
0
VERTEX
8
1
10
-70.780403803448
20
50.8118417296
0
VERTEX
8
1
10
-70.781777521791
20
50.812117747222
0
VERTEX
8
1
10
-70.783518058132
20
50.812234108311
0
VERTEX
8
1
10
-70.786191606221
20
50.812197621245
0
VERTEX
8
1
10
-70.790364359809
20
50.812015094407
0
VERTEX
8
1
10
-70.796602512644
20
50.811693336177
0
VERTEX
8
1
10
-70.809261728797
20
50.811002230278
0
VERTEX
8
1
10
-70.825150318709
20
50.80983783808
0
VERTEX
8
1
10
-70.838289300026
20
50.808537102563
0
VERTEX
8
1
10
-70.84903819919
20
50.807183481298
0
VERTEX
8
1
10
-70.857756542644
20
50.80586043186
0
VERTEX
8
1
10
-70.864803856829
20
50.804651411823
0
VERTEX
8
1
10
-70.870539668187
20
50.80363987876
0
VERTEX
8
1
10
-70.875323503162
20
50.802909290245
0
VERTEX
8
1
10
-70.879514888196
20
50.802543103852
0
VERTEX
8
1
10
-70.88347334973
20
50.802624777154
0
VERTEX
8
1
10
-70.909329782709
20
50.807190461947
0
VERTEX
8
1
10
-70.932954346035
20
50.81608055308
0
VERTEX
8
1
10
-70.954245627774
20
50.828806988466
0
VERTEX
8
1
10
-70.973102215992
20
50.844881706017
0
VERTEX
8
1
10
-70.989422698756
20
50.863816643647
0
VERTEX
8
1
10
-71.003105664133
20
50.885123739268
0
VERTEX
8
1
10
-71.014049700191
20
50.908314930795
0
VERTEX
8
1
10
-71.022153394994
20
50.93290215614
0
VERTEX
8
1
10
-71.027315336611
20
50.958397353215
0
VERTEX
8
1
10
-71.029434113109
20
50.984312459934
0
VERTEX
8
1
10
-71.028408312553
20
51.010159414211
0
VERTEX
8
1
10
-71.02413652301
20
51.035450153958
0
VERTEX
8
1
10
-71.016517332549
20
51.059696617087
0
VERTEX
8
1
10
-71.005449329234
20
51.082410741513
0
VERTEX
8
1
10
-70.990831101133
20
51.103104465148
0
VERTEX
8
1
10
-70.972561236312
20
51.121289725906
0
VERTEX
8
1
10
-70.95053832284
20
51.136478461699
0
VERTEX
8
1
10
-70.924660948781
20
51.14818261044
0
VERTEX
8
1
10
-70.891959466527
20
51.156425067077
0
VERTEX
8
1
10
-70.838446456211
20
51.159400140791
0
VERTEX
8
1
10
-70.796051597968
20
51.149603581216
0
VERTEX
8
1
10
-70.762965399827
20
51.129411513324
0
VERTEX
8
1
10
-70.737378369817
20
51.101200062085
0
VERTEX
8
1
10
-70.717481015966
20
51.067345352473
0
VERTEX
8
1
10
-70.7014638463
20
51.030223509459
0
VERTEX
8
1
10
-70.68751736885
20
50.992210658015
0
VERTEX
8
1
10
-70.673832091643
20
50.955682923113
0
VERTEX
8
1
10
-70.669750651983
20
50.94693078353
42
-0.021900376533
0
VERTEX
8
1
10
-70.66867127132
20
50.948932865975
42
-0.05611722004
0
VERTEX
8
1
10
-70.665878618152
20
50.954030723209
42
-0.098935967576
0
VERTEX
8
1
10
-70.660897646008
20
50.96290947133
0
VERTEX
8
1
10
-70.657434081305
20
50.968104818384
0
VERTEX
8
1
10
-70.653970516601
20
50.973300165439
0
VERTEX
8
1
10
-70.650506951899
20
50.978495512493
0
VERTEX
8
1
10
-70.645210939466
20
50.985619940112
42
-0.090817088194
0
VERTEX
8
1
10
-70.639493371949
20
50.993029833899
0
VERTEX
8
1
10
-70.637499188995
20
50.997422771815
0
VERTEX
8
1
10
-70.635767406644
20
51.000886336518
42
-0.123313523496
0
VERTEX
8
1
10
-70.628286570796
20
51.011051573278
0
VERTEX
8
1
10
-70.628141418471
20
51.011225543782
0
VERTEX
8
1
10
-70.625376712535
20
51.018204160032
42
-0.064721583867
0
VERTEX
8
1
10
-70.622058973289
20
51.024021547741
42
-0.007548808948
0
VERTEX
8
1
10
-70.621992330803
20
51.024803040345
42
-0.085438607114
0
VERTEX
8
1
10
-70.621373300743
20
51.033594602933
0
VERTEX
8
1
10
-70.629531748482
20
51.045363355261
0
VERTEX
8
1
10
-70.646832668401
20
51.071753884225
0
VERTEX
8
1
10
-70.66265432479
20
51.099531346289
0
VERTEX
8
1
10
-70.675505462583
20
51.12863183052
0
VERTEX
8
1
10
-70.683894826713
20
51.158991425988
0
VERTEX
8
1
10
-70.686331162115
20
51.19054622176
0
VERTEX
8
1
10
-70.681323213722
20
51.223232306905
0
VERTEX
8
1
10
-70.667379726469
20
51.256985770493
0
VERTEX
8
1
10
-70.64300944529
20
51.29174270159
0
VERTEX
8
1
10
-70.626740210417
20
51.308979852603
0
VERTEX
8
1
10
-70.61440726921
20
51.319522582094
0
VERTEX
8
1
10
-70.600749647665
20
51.329088155172
0
VERTEX
8
1
10
-70.585780084043
20
51.337427736494
0
VERTEX
8
1
10
-70.569511316606
20
51.344292490714
0
VERTEX
8
1
10
-70.551956083615
20
51.349433582487
0
VERTEX
8
1
10
-70.533127123331
20
51.352602176471
0
VERTEX
8
1
10
-70.513037174016
20
51.353549437319
0
VERTEX
8
1
10
-70.491698973931
20
51.352026529687
0
VERTEX
8
1
10
-70.463824387219
20
51.346268932936
0
VERTEX
8
1
10
-70.427775060778
20
51.329924006162
0
VERTEX
8
1
10
-70.398766303101
20
51.305598130452
0
VERTEX
8
1
10
-70.376702796852
20
51.275021293456
0
VERTEX
8
1
10
-70.361489224698
20
51.239923482827
0
VERTEX
8
1
10
-70.353030269306
20
51.202034686216
0
VERTEX
8
1
10
-70.35123061334
20
51.163084891275
0
VERTEX
8
1
10
-70.355994939466
20
51.124804085656
0
VERTEX
8
1
10
-70.367227930351
20
51.08892225701
0
VERTEX
8
1
10
-70.384834268661
20
51.057169392988
0
VERTEX
8
1
10
-70.408288588652
20
51.030592696303
0
VERTEX
8
1
10
-70.430957378824
20
51.014520472642
0
VERTEX
8
1
10
-70.452286158819
20
51.006469422271
0
VERTEX
8
1
10
-70.472204648575
20
51.003348540214
0
VERTEX
8
1
10
-70.490642568032
20
51.002066821493
0
VERTEX
8
1
10
-70.492759428284
20
51.001749229778
0
VERTEX
8
1
10
-70.548055230714
20
50.837013818371
0
VERTEX
8
1
10
-70.532093775296
20
50.843441677553
0
VERTEX
8
1
10
-70.517056397546
20
50.849906961181
0
VERTEX
8
1
10
-70.502466220615
20
50.856176097549
0
VERTEX
8
1
10
-70.487681938938
20
50.862081732259
0
VERTEX
8
1
10
-70.472062246949
20
50.867456510913
0
VERTEX
8
1
10
-70.454965839082
20
50.872133079113
0
VERTEX
8
1
10
-70.43575140977
20
50.875944082462
0
VERTEX
8
1
10
-70.395069715524
20
50.87922059482
0
VERTEX
8
1
10
-70.340550129268
20
50.870657068918
0
VERTEX
8
1
10
-70.294358269148
20
50.848408367751
0
VERTEX
8
1
10
-70.257463341146
20
50.815347188855
0
VERTEX
8
1
10
-70.23083455124
20
50.774346229765
0
VERTEX
8
1
10
-70.215441105412
20
50.728278188016
0
VERTEX
8
1
10
-70.212252209643
20
50.680015761142
0
VERTEX
8
1
10
-70.22223706991
20
50.63243164668
0
VERTEX
8
1
10
-70.246364892197
20
50.588398542164
0
VERTEX
8
1
10
-70.284212180012
20
50.551820711089
0
VERTEX
8
1
10
-70.303185477058
20
50.540086464225
0
VERTEX
8
1
10
-70.322347871396
20
50.530878741666
0
VERTEX
8
1
10
-70.34166993325
20
50.524255524462
0
VERTEX
8
1
10
-70.361122232844
20
50.520274793666
0
VERTEX
8
1
10
-70.380675340401
20
50.518994530327
0
VERTEX
8
1
10
-70.400299826147
20
50.520472715498
0
VERTEX
8
1
10
-70.419966260305
20
50.524767330229
0
VERTEX
8
1
10
-70.439645213098
20
50.531936355572
0
VERTEX
8
1
10
-70.459307254752
20
50.542037772577
0
VERTEX
8
1
10
-70.482078714211
20
50.557885492913
0
VERTEX
8
1
10
-70.501040765532
20
50.577158217706
0
VERTEX
8
1
10
-70.514217724529
20
50.597167675211
0
VERTEX
8
1
10
-70.523445877447
20
50.617344377301
0
VERTEX
8
1
10
-70.530561510533
20
50.637118835849
0
VERTEX
8
1
10
-70.537400910031
20
50.655921562727
0
VERTEX
8
1
10
-70.545800362187
20
50.673183069808
0
VERTEX
8
1
10
-70.557596153246
20
50.688333868963
0
VERTEX
8
1
10
-70.574624569454
20
50.700804472065
0
VERTEX
8
1
10
-70.59758062193
20
50.706632491538
0
VERTEX
8
1
10
-70.616971688007
20
50.689836462944
0
VERTEX
8
1
10
-70.635201452927
20
50.670158051343
0
VERTEX
8
1
10
-70.652065006386
20
50.648106567561
0
VERTEX
8
1
10
-70.667357438076
20
50.624191322421
0
VERTEX
8
1
10
-70.680873837694
20
50.598921626749
0
VERTEX
8
1
10
-70.692409294931
20
50.572806791368
0
VERTEX
8
1
10
-70.701758899484
20
50.546356127104
0
VERTEX
8
1
10
-70.708717741045
20
50.52007894478
0
VERTEX
8
1
10
-70.71308090931
20
50.494484555221
0
VERTEX
8
1
10
-70.701641943184
20
50.49249427393
0
VERTEX
8
1
10
-70.684357304446
20
50.49992879392
0
VERTEX
8
1
10
-70.667063628132
20
50.506786589133
0
VERTEX
8
1
10
-70.649541947922
20
50.51293961808
0
VERTEX
8
1
10
-70.631573297499
20
50.518259839273
0
VERTEX
8
1
10
-70.612938710545
20
50.522619211225
0
VERTEX
8
1
10
-70.593419220742
20
50.525889692447
0
VERTEX
8
1
10
-70.57279586177
20
50.527943241451
0
VERTEX
8
1
10
-70.550849667312
20
50.52865181675
0
VERTEX
8
1
10
-70.522887375755
20
50.526833511928
0
VERTEX
8
1
10
-70.483720983794
20
50.516638760346
0
VERTEX
8
1
10
-70.449533319276
20
50.49966155451
0
VERTEX
8
1
10
-70.420893650705
20
50.47674547479
0
VERTEX
8
1
10
-70.398371246582
20
50.448734101554
0
VERTEX
8
1
10
-70.38253537541
20
50.416471015172
0
VERTEX
8
1
10
-70.373955305691
20
50.380799796015
0
VERTEX
8
1
10
-70.373200305927
20
50.34256402445
0
VERTEX
8
1
10
-70.380839644621
20
50.302607280847
0
VERTEX
8
1
10
-70.397442590276
20
50.261773145577
0
VERTEX
8
1
10
-70.462282525685
20
50.203538812735
0
VERTEX
8
1
10
-70.524830357347
20
50.169101869322
0
VERTEX
8
1
10
-70.575101755624
20
50.160704907807
0
VERTEX
8
1
10
-70.615353149759
20
50.172785261282
0
VERTEX
8
1
10
-70.647840968993
20
50.199780262837
0
VERTEX
8
1
10
-70.674821642567
20
50.236127245564
0
VERTEX
8
1
10
-70.698551599722
20
50.276263542554
0
VERTEX
8
1
10
-70.7212872697
20
50.314626486898
0
VERTEX
8
1
10
-70.745285081741
20
50.345653411686
0
VERTEX
8
1
10
-70.767940539039
20
50.354085614626
0
VERTEX
8
1
10
-70.783345029726
20
50.335628983652
0
VERTEX
8
1
10
-70.798859816186
20
50.312529849444
0
VERTEX
8
1
10
-70.814191479159
20
50.285850758689
0
VERTEX
8
1
10
-70.829046599386
20
50.256654258075
0
VERTEX
8
1
10
-70.84313175761
20
50.226002894289
0
VERTEX
8
1
10
-70.856153534569
20
50.19495921402
0
VERTEX
8
1
10
-70.867818511007
20
50.164585763955
0
VERTEX
8
1
10
-70.877833267663
20
50.135945090781
0
VERTEX
8
1
10
-70.885904385278
20
50.110099741187
0
VERTEX
8
1
10
-70.825073155891
20
50.124205797297
0
VERTEX
8
1
10
-70.772045320505
20
50.138573066094
0
VERTEX
8
1
10
-70.731919125542
20
50.148258200291
0
VERTEX
8
1
10
-70.70135011855
20
50.15273146392
0
VERTEX
8
1
10
-70.676993847079
20
50.151463121014
0
VERTEX
8
1
10
-70.655505858676
20
50.143923435604
0
VERTEX
8
1
10
-70.633541700891
20
50.129582671724
0
VERTEX
8
1
10
-70.607756921271
20
50.107911093405
0
VERTEX
8
1
10
-70.574807067366
20
50.078378964682
0
VERTEX
8
1
10
-70.549046242239
20
50.054115831533
0
VERTEX
8
1
10
-70.543018092177
20
50.035235265094
0
VERTEX
8
1
10
-70.539870469289
20
50.006552760367
0
VERTEX
8
1
10
-70.540653840876
20
49.97114746257
0
VERTEX
8
1
10
-70.546418674239
20
49.932098516921
0
VERTEX
8
1
10
-70.558215436683
20
49.892485068635
0
VERTEX
8
1
10
-70.577094595507
20
49.855386262931
0
VERTEX
8
1
10
-70.604106618015
20
49.823881245026
0
VERTEX
8
1
10
-70.640301971509
20
49.801049160138
0
VERTEX
8
1
10
-70.686731123289
20
49.789969153482
0
VERTEX
8
1
10
-70.732404948065
20
49.790530962323
0
VERTEX
8
1
10
-70.768517950072
20
49.799412865325
0
VERTEX
8
1
10
-70.796718855641
20
49.815082757137
0
VERTEX
8
1
10
-70.818656391101
20
49.836008532405
0
VERTEX
8
1
10
-70.835979282782
20
49.860658085778
0
VERTEX
8
1
10
-70.850336257015
20
49.887499311904
0
VERTEX
8
1
10
-70.863376040129
20
49.915000105431
0
VERTEX
8
1
10
-70.876747358455
20
49.941628361006
0
VERTEX
8
1
10
-70.892098938321
20
49.965851973279
0
VERTEX
8
1
10
-70.912918414305
20
49.973205698074
0
VERTEX
8
1
10
-70.933314592336
20
49.965861284078
0
VERTEX
8
1
10
-70.950420477488
20
49.955009367887
0
VERTEX
8
1
10
-70.964803361637
20
49.941174853713
0
VERTEX
8
1
10
-70.977030536658
20
49.924882645771
0
VERTEX
8
1
10
-70.987669294428
20
49.906657648273
0
VERTEX
8
1
10
-70.997286926822
20
49.887024765433
0
VERTEX
8
1
10
-71.006450725715
20
49.866508901463
0
VERTEX
8
1
10
-71.015727982984
20
49.845634960577
0
VERTEX
8
1
10
-71.025733600715
20
49.824822751987
0
VERTEX
8
1
10
-71.036409038363
20
49.804007737547
0
VERTEX
8
1
10
-71.046739192263
20
49.784303927757
0
VERTEX
8
1
10
-71.056819599373
20
49.765432837871
0
VERTEX
8
1
10
-71.066745796654
20
49.747115983142
0
VERTEX
8
1
10
-71.076613321064
20
49.729074878825
0
VERTEX
8
1
10
-71.086517709563
20
49.711031040175
0
VERTEX
8
1
10
-71.09655449911
20
49.692705982445
0
VERTEX
8
1
10
-71.100877993835
20
49.684751736554
42
-0.114421909554
0
VERTEX
8
1
10
-70.509070933949
20
49.647355914879
42
-0.290748923971
0
SEQEND
0
POLYLINE
8
1
66
1
70
1
0
VERTEX
8
1
10
-74.694297638008
20
47.403774041173
0
VERTEX
8
1
10
-74.693414698722
20
47.405134644796
0
VERTEX
8
1
10
-74.672315806471
20
47.437458602549
0
VERTEX
8
1
10
-74.648758787424
20
47.47364944296
0
VERTEX
8
1
10
-74.639743174124
20
47.4813382619
0
VERTEX
8
1
10
-74.628569899586
20
47.491078133287
0
VERTEX
8
1
10
-74.615748670961
20
47.502433197113
0
VERTEX
8
1
10
-74.6017891954
20
47.514967593364
0
VERTEX
8
1
10
-74.587201180051
20
47.528245462029
0
VERTEX
8
1
10
-74.572494332067
20
47.541830943098
0
VERTEX
8
1
10
-74.558178358597
20
47.555288176559
0
VERTEX
8
1
10
-74.544762966791
20
47.568181302402
0
VERTEX
8
1
10
-74.532757863799
20
47.580074460613
0
VERTEX
8
1
10
-74.522672756772
20
47.590531791183
0
VERTEX
8
1
10
-74.516966428633
20
47.596676408932
0
VERTEX
8
1
10
-74.512135285006
20
47.600064069764
0
VERTEX
8
1
10
-74.502580957709
20
47.606763688501
0
VERTEX
8
1
10
-74.489473793139
20
47.615954603005
0
VERTEX
8
1
10
-74.473984137692
20
47.626816151143
0
VERTEX
8
1
10
-74.457282337763
20
47.638527670778
0
VERTEX
8
1
10
-74.440538739748
20
47.650268499775
0
VERTEX
8
1
10
-74.424923690044
20
47.661217975999
0
VERTEX
8
1
10
-74.411607535047
20
47.670555437313
0
VERTEX
8
1
10
-74.401760621151
20
47.677460221584
0
VERTEX
8
1
10
-74.396553294753
20
47.681111666674
0
VERTEX
8
1
10
-74.388932339913
20
47.682612520013
0
VERTEX
8
1
10
-74.373139987578
20
47.687031176185
0
VERTEX
8
1
10
-74.353485026035
20
47.694081962303
0
VERTEX
8
1
10
-74.330902063676
20
47.703183939237
0
VERTEX
8
1
10
-74.306325708899
20
47.713756167859
0
VERTEX
8
1
10
-74.280690570099
20
47.725217709039
0
VERTEX
8
1
10
-74.254931255671
20
47.736987623648
0
VERTEX
8
1
10
-74.229982374011
20
47.748484972556
0
VERTEX
8
1
10
-74.206778533514
20
47.759128816635
0
VERTEX
8
1
10
-74.186254342577
20
47.768338216754
0
VERTEX
8
1
10
-74.169344409593
20
47.775532233786
0
VERTEX
8
1
10
-74.121123453678
20
47.793588976016
0
VERTEX
8
1
10
-74.054433558167
20
47.816422803344
0
VERTEX
8
1
10
-73.978170556912
20
47.841327354144
0
VERTEX
8
1
10
-73.895719961418
20
47.867814838798
0
VERTEX
8
1
10
-73.810467283189
20
47.895397467689
0
VERTEX
8
1
10
-73.725798033729
20
47.923587451198
0
VERTEX
8
1
10
-73.645097724544
20
47.951896999707
0
VERTEX
8
1
10
-73.571751867137
20
47.979838323597
0
VERTEX
8
1
10
-73.509145973013
20
48.00692363325
0
VERTEX
8
1
10
-73.460665553677
20
48.032665139048
0
VERTEX
8
1
10
-73.437459214334
20
48.054990479128
0
VERTEX
8
1
10
-73.516555676593
20
48.05328650391
0
VERTEX
8
1
10
-73.600765862975
20
48.043888290925
0
VERTEX
8
1
10
-73.688932751947
20
48.028156470598
0
VERTEX
8
1
10
-73.779899321976
20
48.00745167335
0
VERTEX
8
1
10
-73.87250855153
20
47.983134529607
0
VERTEX
8
1
10
-73.965603419075
20
47.956565669792
0
VERTEX
8
1
10
-74.05802690308
20
47.929105724328
0
VERTEX
8
1
10
-74.148621982012
20
47.90211532364
0
VERTEX
8
1
10
-74.236231634337
20
47.87695509815
0
VERTEX
8
1
10
-74.319698838523
20
47.854985678283
0
VERTEX
8
1
10
-74.385093537035
20
47.841879463644
0
VERTEX
8
1
10
-74.419659394138
20
47.83934308718
0
VERTEX
8
1
10
-74.451277106973
20
47.836755035113
0
VERTEX
8
1
10
-74.48070407571
20
47.834361257022
0
VERTEX
8
1
10
-74.508697700514
20
47.832407702483
0
VERTEX
8
1
10
-74.536015381556
20
47.831140321076
0
VERTEX
8
1
10
-74.563414519002
20
47.830805062377
0
VERTEX
8
1
10
-74.591652513022
20
47.831647875964
0
VERTEX
8
1
10
-74.621486763782
20
47.833914711416
0
VERTEX
8
1
10
-74.653674671452
20
47.837851518309
0
VERTEX
8
1
10
-74.688973636199
20
47.843704246223
0
VERTEX
8
1
10
-74.740072689341
20
47.856056174408
0
VERTEX
8
1
10
-74.724384659096
20
47.611239001653
0
SEQEND
0
POLYLINE
8
1
66
1
70
1
0
VERTEX
8
1
10
-64.382926187199
20
46.9989985366
0
VERTEX
8
1
10
-64.401222306598
20
47.002636023571
0
VERTEX
8
1
10
-64.414565321597
20
47.005361031942
0
VERTEX
8
1
10
-64.435844850018
20
47.000541328094
0
VERTEX
8
1
10
-64.479121802642
20
46.992804211882
0
VERTEX
8
1
10
-64.52116113669
20
46.99053494194
0
VERTEX
8
1
10
-64.562736093667
20
46.992605436023
0
VERTEX
8
1
10
-64.604619915082
20
46.997887611884
0
VERTEX
8
1
10
-64.647585842439
20
47.005253387278
0
VERTEX
8
1
10
-64.692407117246
20
47.013574679958
0
VERTEX
8
1
10
-64.739856981009
20
47.021723407677
0
VERTEX
8
1
10
-64.790708675235
20
47.028571488191
0
VERTEX
8
1
10
-64.845735441429
20
47.032990839252
0
VERTEX
8
1
10
-64.905710521099
20
47.033853378615
0
VERTEX
8
1
10
-64.97140715575
20
47.030031024033
0
VERTEX
8
1
10
-65.04359858689
20
47.02039569326
0
VERTEX
8
1
10
-65.123058056025
20
47.00381930405
0
VERTEX
8
1
10
-65.2042980876
20
46.987762020412
0
VERTEX
8
1
10
-65.281612918585
20
46.979420540108
0
VERTEX
8
1
10
-65.355448359271
20
46.977271581522
0
VERTEX
8
1
10
-65.42625021995
20
46.979791863036
0
VERTEX
8
1
10
-65.494464310914
20
46.985458103033
0
VERTEX
8
1
10
-65.560536442453
20
46.992747019896
0
VERTEX
8
1
10
-65.62491242486
20
47.000135332008
0
VERTEX
8
1
10
-65.688038068425
20
47.006099757753
0
VERTEX
8
1
10
-65.750359183441
20
47.009117015513
0
VERTEX
8
1
10
-65.812321580198
20
47.007663823671
0
VERTEX
8
1
10
-65.874371068988
20
47.000216900611
0
VERTEX
8
1
10
-65.936953460103
20
46.985252964715
0
VERTEX
8
1
10
-66.000514563834
20
46.961248734366
0
VERTEX
8
1
10
-66.064782124875
20
46.929238187629
0
VERTEX
8
1
10
-66.127330680446
20
46.900175504867
0
VERTEX
8
1
10
-66.189157462154
20
46.875883489371
0
VERTEX
8
1
10
-66.251694003498
20
46.856806707552
0
VERTEX
8
1
10
-66.316371837978
20
46.843389725819
0
VERTEX
8
1
10
-66.384622499094
20
46.836077110582
0
VERTEX
8
1
10
-66.457877520345
20
46.835313428253
0
VERTEX
8
1
10
-66.53756843523
20
46.841543245239
0
VERTEX
8
1
10
-66.62512677725
20
46.855211127951
0
VERTEX
8
1
10
-66.721984079903
20
46.8767616428
0
VERTEX
8
1
10
-66.82957187669
20
46.906639356195
0
VERTEX
8
1
10
-66.94932170111
20
46.945288834546
0
VERTEX
8
1
10
-67.082665086662
20
46.993154644263
0
VERTEX
8
1
10
-67.21005209175
20
47.042326736661
0
VERTEX
8
1
10
-67.218355931391
20
47.045663105328
0
VERTEX
8
1
10
-67.226635910877
20
47.049058320945
0
VERTEX
8
1
10
-67.23489154355
20
47.052512361315
0
VERTEX
8
1
10
-67.243122342752
20
47.05602520424
0
VERTEX
8
1
10
-67.251327821824
20
47.059596827522
0
VERTEX
8
1
10
-67.259507494108
20
47.063227208963
0
VERTEX
8
1
10
-67.267660872947
20
47.066916326366
0
VERTEX
8
1
10
-67.275787471681
20
47.070664157533
0
VERTEX
8
1
10
-67.283886803654
20
47.074470680267
0
VERTEX
8
1
10
-67.291958382205
20
47.078335872369
0
VERTEX
8
1
10
-67.300001720679
20
47.082259711642
0
VERTEX
8
1
10
-67.308016332415
20
47.086242175888
0
VERTEX
8
1
10
-67.316001730757
20
47.090283242909
0
VERTEX
8
1
10
-67.371455229732
20
47.12056310448
0
VERTEX
8
1
10
-67.441893161795
20
47.165102854935
0
VERTEX
8
1
10
-67.507988662232
20
47.21373640091
0
VERTEX
8
1
10
-67.570113525343
20
47.266114980505
0
VERTEX
8
1
10
-67.628639545429
20
47.321889831817
0
VERTEX
8
1
10
-67.683938516793
20
47.380712192947
0
VERTEX
8
1
10
-67.736382233736
20
47.442233301994
0
VERTEX
8
1
10
-67.786342490558
20
47.506104397057
0
VERTEX
8
1
10
-67.834191081562
20
47.571976716235
0
VERTEX
8
1
10
-67.880299801048
20
47.639501497627
0
VERTEX
8
1
10
-67.925040443318
20
47.708329979333
0
VERTEX
8
1
10
-67.968784802674
20
47.778113399451
0
VERTEX
8
1
10
-68.011904673417
20
47.848502996081
0
VERTEX
8
1
10
-68.045334012176
20
47.903592345838
0
VERTEX
8
1
10
-68.055147163
20
47.919849264699
0
VERTEX
8
1
10
-68.064982497697
20
47.936138746119
0
VERTEX
8
1
10
-68.074883877882
20
47.952419891737
0
VERTEX
8
1
10
-68.084895165171
20
47.968651803192
0
VERTEX
8
1
10
-68.095060221178
20
47.984793582125
0
VERTEX
8
1
10
-68.105422907516
20
48.000804330173
0
VERTEX
8
1
10
-68.116027085802
20
48.016643148976
0
VERTEX
8
1
10
-68.126916617649
20
48.032269140173
0
VERTEX
8
1
10
-68.138135364672
20
48.047641405403
0
VERTEX
8
1
10
-68.149727188486
20
48.062719046306
0
VERTEX
8
1
10
-68.161735950704
20
48.077461164521
0
VERTEX
8
1
10
-68.174205512943
20
48.091826861687
0
VERTEX
8
1
10
-68.187179736816
20
48.105775239443
0
VERTEX
8
1
10
-68.2009730075
20
48.119386873176
0
VERTEX
8
1
10
-68.215417588971
20
48.132292641867
0
VERTEX
8
1
10
-68.230395591515
20
48.144545416298
0
VERTEX
8
1
10
-68.245827261739
20
48.15624234779
0
VERTEX
8
1
10
-68.261632846249
20
48.167480587663
0
VERTEX
8
1
10
-68.277732591652
20
48.178357287238
0
VERTEX
8
1
10
-68.294046744554
20
48.188969597833
0
VERTEX
8
1
10
-68.310495551562
20
48.19941467077
0
VERTEX
8
1
10
-68.326999259283
20
48.209789657368
0
VERTEX
8
1
10
-68.343478114321
20
48.220191708948
0
VERTEX
8
1
10
-68.359852363286
20
48.23071797683
0
VERTEX
8
1
10
-68.376042252781
20
48.241465612334
0
VERTEX
8
1
10
-68.391968029415
20
48.252531766779
0
VERTEX
8
1
10
-68.417328170347
20
48.271329803171
0
VERTEX
8
1
10
-68.455047393573
20
48.300724674784
0
VERTEX
8
1
10
-68.492035888452
20
48.331025797494
0
VERTEX
8
1
10
-68.528373945075
20
48.362127224925
0
VERTEX
8
1
10
-68.564141853535
20
48.393923010701
0
VERTEX
8
1
10
-68.59941990392
20
48.426307208445
0
VERTEX
8
1
10
-68.634288386322
20
48.459173871781
0
VERTEX
8
1
10
-68.668827590833
20
48.492417054332
0
VERTEX
8
1
10
-68.703117807542
20
48.525930809722
0
VERTEX
8
1
10
-68.737239326541
20
48.559609191574
0
VERTEX
8
1
10
-68.771272437921
20
48.593346253513
0
VERTEX
8
1
10
-68.805297431773
20
48.62703604916
0
VERTEX
8
1
10
-68.839394598187
20
48.660572632141
0
VERTEX
8
1
10
-68.873644227254
20
48.693850056077
0
VERTEX
8
1
10
-68.903337286855
20
48.722315006429
0
VERTEX
8
1
10
-68.933606431086
20
48.750789597739
0
VERTEX
8
1
10
-68.964515811664
20
48.778983385224
0
VERTEX
8
1
10
-68.996129580311
20
48.8066059241
0
VERTEX
8
1
10
-69.028511888746
20
48.833366769584
0
VERTEX
8
1
10
-69.061726888689
20
48.858975476893
0
VERTEX
8
1
10
-69.09583873186
20
48.883141601241
0
VERTEX
8
1
10
-69.130911569978
20
48.905574697847
0
VERTEX
8
1
10
-69.167009554763
20
48.925984321927
0
VERTEX
8
1
10
-69.204196837935
20
48.944080028697
0
VERTEX
8
1
10
-69.242537571214
20
48.959571373373
0
VERTEX
8
1
10
-69.282095906321
20
48.972167911172
0
VERTEX
8
1
10
-69.322935994973
20
48.98157919731
0
VERTEX
8
1
10
-69.405903558785
20
48.989768800558
0
VERTEX
8
1
10
-69.529803560377
20
48.992517163862
0
VERTEX
8
1
10
-69.663501911624
20
48.988206888181
0
VERTEX
8
1
10
-69.803505353977
20
48.978042552847
0
VERTEX
8
1
10
-69.877993173936
20
48.97031614659
0
VERTEX
8
1
10
-69.81745123892
20
48.923224835469
0
VERTEX
8
1
10
-69.743270001607
20
48.843945523699
0
VERTEX
8
1
10
-69.696015414009
20
48.767636715519
0
VERTEX
8
1
10
-69.671264991387
20
48.692374026713
0
VERTEX
8
1
10
-69.664596249006
20
48.616233073066
0
VERTEX
8
1
10
-69.671586702128
20
48.537289470362
0
VERTEX
8
1
10
-69.687813866016
20
48.453618834387
0
VERTEX
8
1
10
-69.693652469051
20
48.428556107184
0
VERTEX
8
1
10
-69.682932927711
20
48.438103986067
0
VERTEX
8
1
10
-69.684342019107
20
48.438876630394
0
VERTEX
8
1
10
-69.604738072407
20
48.449337086904
0
VERTEX
8
1
10
-69.531839693861
20
48.455478650636
0
VERTEX
8
1
10
-69.464343451964
20
48.457317181192
0
VERTEX
8
1
10
-69.400945915212
20
48.454868538174
0
VERTEX
8
1
10
-69.340343652102
20
48.448148581182
0
VERTEX
8
1
10
-69.281233231128
20
48.437173169818
0
VERTEX
8
1
10
-69.222311220787
20
48.421958163684
0
VERTEX
8
1
10
-69.162274189575
20
48.402519422381
0
VERTEX
8
1
10
-69.099818705987
20
48.378872805511
0
VERTEX
8
1
10
-69.042060296032
20
48.35453843303
0
VERTEX
8
1
10
-68.995456928358
20
48.331627207227
0
VERTEX
8
1
10
-68.944032141209
20
48.303338257472
0
VERTEX
8
1
10
-68.889688641816
20
48.270839956762
0
VERTEX
8
1
10
-68.834329137409
20
48.235300678093
0
VERTEX
8
1
10
-68.779856335219
20
48.197888794462
0
VERTEX
8
1
10
-68.728172942476
20
48.159772678865
0
VERTEX
8
1
10
-68.68118166641
20
48.1221207043
0
VERTEX
8
1
10
-68.640785214251
20
48.086101243762
0
VERTEX
8
1
10
-68.60888629323
20
48.052882670249
0
VERTEX
8
1
10
-68.597538864059
20
48.039144827739
0
VERTEX
8
1
10
-68.593024498321
20
48.035238996623
0
VERTEX
8
1
10
-68.585272036114
20
48.028531563091
0
VERTEX
8
1
10
-68.575259895074
20
48.019869054493
0
VERTEX
8
1
10
-68.563966492842
20
48.010097998177
0
VERTEX
8
1
10
-68.552370247054
20
48.00006492149
0
VERTEX
8
1
10
-68.54144957535
20
47.990616351783
0
VERTEX
8
1
10
-68.532182895368
20
47.982598816402
0
VERTEX
8
1
10
-68.525548624748
20
47.976858842697
0
VERTEX
8
1
10
-68.522525181127
20
47.974242958017
0
VERTEX
8
1
10
-68.500732170628
20
47.943671141678
0
VERTEX
8
1
10
-68.472717087539
20
47.906289279817
0
VERTEX
8
1
10
-68.443763267185
20
47.869231661298
0
VERTEX
8
1
10
-68.414284481748
20
47.832499969382
0
VERTEX
8
1
10
-68.384694503412
20
47.796095887331
0
VERTEX
8
1
10
-68.35540710436
20
47.760021098408
0
VERTEX
8
1
10
-68.326836056776
20
47.724277285873
0
VERTEX
8
1
10
-68.299395132841
20
47.688866132989
0
VERTEX
8
1
10
-68.27349810474
20
47.653789323017
0
VERTEX
8
1
10
-68.249543225442
20
47.619028748165
0
VERTEX
8
1
10
-68.225729560001
20
47.582886392678
0
VERTEX
8
1
10
-68.200970775419
20
47.544802605515
0
VERTEX
8
1
10
-68.175585149794
20
47.505139752281
0
VERTEX
8
1
10
-68.149890961228
20
47.464260198579
0
VERTEX
8
1
10
-68.124206487822
20
47.422526310013
0
VERTEX
8
1
10
-68.098850007676
20
47.380300452188
0
VERTEX
8
1
10
-68.074139798891
20
47.337944990707
0
VERTEX
8
1
10
-68.050394139567
20
47.295822291175
0
VERTEX
8
1
10
-68.027931307807
20
47.254294719196
0
VERTEX
8
1
10
-68.012768039757
20
47.225179914404
0
VERTEX
8
1
10
-68.011339118321
20
47.224870496494
0
VERTEX
8
1
10
-68.008435946072
20
47.224241845074
0
VERTEX
8
1
10
-68.004468579528
20
47.223382753571
0
VERTEX
8
1
10
-67.999847075205
20
47.222382015412
0
VERTEX
8
1
10
-67.994981489622
20
47.221328424022
0
VERTEX
8
1
10
-67.990281879296
20
47.220310772829
0
VERTEX
8
1
10
-67.986158300745
20
47.219417855258
0
VERTEX
8
1
10
-67.983020810486
20
47.218738464738
0
VERTEX
8
1
10
-67.981279465036
20
47.218361394693
0
VERTEX
8
1
10
-67.981048009329
20
47.218183945307
0
VERTEX
8
1
10
-67.980962619319
20
47.217252679957
0
VERTEX
8
1
10
-67.980802620865
20
47.215507733267
0
VERTEX
8
1
10
-67.980577070484
20
47.213047875802
0
VERTEX
8
1
10
-67.980295024692
20
47.209971878132
0
VERTEX
8
1
10
-67.979965540005
20
47.206378510823
0
VERTEX
8
1
10
-67.97959767294
20
47.202366544442
0
VERTEX
8
1
10
-67.979200480013
20
47.198034749558
0
VERTEX
8
1
10
-67.97878301774
20
47.193481896737
0
VERTEX
8
1
10
-67.978354342637
20
47.188806756546
0
VERTEX
8
1
10
-67.977923511221
20
47.184108099554
0
VERTEX
8
1
10
-67.977499580008
20
47.179484696328
0
VERTEX
8
1
10
-67.977091605514
20
47.175035317435
0
VERTEX
8
1
10
-67.976708644255
20
47.170858733442
0
VERTEX
8
1
10
-67.976359752748
20
47.167053714917
0
VERTEX
8
1
10
-67.976053987509
20
47.163719032427
0
VERTEX
8
1
10
-67.975800405054
20
47.16095345654
0
VERTEX
8
1
10
-67.975608061899
20
47.158855757823
0
VERTEX
8
1
10
-67.975486014561
20
47.157524706843
0
VERTEX
8
1
10
-67.975443319555
20
47.157059074168
0
VERTEX
8
1
10
-67.977031892622
20
47.157684355807
0
VERTEX
8
1
10
-67.981331852177
20
47.159376872077
0
VERTEX
8
1
10
-67.987644558759
20
47.161861630005
0
VERTEX
8
1
10
-67.995271372904
20
47.164863636618
0
VERTEX
8
1
10
-68.003513655147
20
47.168107898946
0
VERTEX
8
1
10
-68.011672766026
20
47.171319424014
0
VERTEX
8
1
10
-68.019050066076
20
47.174223218852
0
VERTEX
8
1
10
-68.024946915835
20
47.176544290487
0
VERTEX
8
1
10
-68.028664675837
20
47.178007645946
0
VERTEX
8
1
10
-68.070906205707
20
47.186090282185
0
VERTEX
8
1
10
-68.23426752005
20
47.206921672976
0
VERTEX
8
1
10
-68.383646292766
20
47.211621873374
0
VERTEX
8
1
10
-68.52219643101
20
47.203609040527
0
VERTEX
8
1
10
-68.653071841938
20
47.186301331583
0
VERTEX
8
1
10
-68.779426432706
20
47.163116903689
0
VERTEX
8
1
10
-68.904414110469
20
47.137473913994
0
VERTEX
8
1
10
-69.031188782384
20
47.112790519646
0
VERTEX
8
1
10
-69.162904355606
20
47.092484877793
0
VERTEX
8
1
10
-69.302714737292
20
47.079975145583
0
VERTEX
8
1
10
-69.312442969471
20
47.080513684372
0
VERTEX
8
1
10
-69.414097375914
20
47.067184563133
0
VERTEX
8
1
10
-69.408910735225
20
47.064210027557
0
VERTEX
8
1
10
-69.40141902263
20
47.059913534513
0
VERTEX
8
1
10
-69.394940054546
20
47.056197849888
0
VERTEX
8
1
10
-69.389629637819
20
47.053152328822
0
VERTEX
8
1
10
-69.385643579299
20
47.050866326457
0
VERTEX
8
1
10
-69.383137685831
20
47.049429197935
0
VERTEX
8
1
10
-69.382267764265
20
47.048930298396
0
VERTEX
8
1
10
-69.34375912082
20
46.996683046685
0
VERTEX
8
1
10
-69.30750173675
20
46.948298333941
0
VERTEX
8
1
10
-69.273364563441
20
46.902421663502
0
VERTEX
8
1
10
-69.241216552281
20
46.857698538706
0
VERTEX
8
1
10
-69.210926654656
20
46.812774462891
0
VERTEX
8
1
10
-69.182363821955
20
46.766294939396
0
VERTEX
8
1
10
-69.155397005563
20
46.716905471558
0
VERTEX
8
1
10
-69.129895156869
20
46.663251562715
0
VERTEX
8
1
10
-69.105727227259
20
46.603978716206
0
VERTEX
8
1
10
-69.082762168121
20
46.537732435368
0
VERTEX
8
1
10
-69.060868930842
20
46.463158223541
0
VERTEX
8
1
10
-69.042885965773
20
46.391075125623
0
VERTEX
8
1
10
-69.029316895886
20
46.324604482765
0
VERTEX
8
1
10
-69.017450759264
20
46.253695466119
0
VERTEX
8
1
10
-69.007370141458
20
46.179375895146
0
VERTEX
8
1
10
-68.999157628013
20
46.102673589309
0
VERTEX
8
1
10
-68.99289580448
20
46.024616368071
0
VERTEX
8
1
10
-68.988667256406
20
45.946232050893
0
VERTEX
8
1
10
-68.988560447227
20
45.909895914806
0
VERTEX
8
1
10
-69.022748115934
20
45.581492102551
0
VERTEX
8
1
10
-69.089339419212
20
45.675829782195
0
VERTEX
8
1
10
-69.180902461219
20
45.778491374748
0
VERTEX
8
1
10
-69.294662604319
20
45.820110939297
0
VERTEX
8
1
10
-69.433394486147
20
45.881152967301
0
VERTEX
8
1
10
-69.540847900823
20
45.916188982181
0
VERTEX
8
1
10
-69.556356169631
20
45.919806439957
0
VERTEX
8
1
10
-69.678653080719
20
45.970775439225
0
VERTEX
8
1
10
-69.796137656016
20
46.01701364225
0
VERTEX
8
1
10
-69.909716446786
20
46.062683287701
0
VERTEX
8
1
10
-70.020296004294
20
46.111946614246
0
VERTEX
8
1
10
-70.128782879802
20
46.168965860554
0
VERTEX
8
1
10
-70.129297622566
20
46.174841720605
0
VERTEX
8
1
10
-70.146340095557
20
46.150344081533
0
VERTEX
8
1
10
-70.20163554653
20
46.088382759853
0
VERTEX
8
1
10
-70.269734968458
20
46.02743814342
0
VERTEX
8
1
10
-70.300477330501
20
46.018681328319
0
VERTEX
8
1
10
-70.323924442252
20
46.014110498914
0
VERTEX
8
1
10
-70.344396545538
20
46.009849442435
0
VERTEX
8
1
10
-70.362934225002
20
46.006001146374
0
VERTEX
8
1
10
-70.380578065291
20
46.002668598226
0
VERTEX
8
1
10
-70.398368651046
20
45.999954785485
0
VERTEX
8
1
10
-70.417346566913
20
45.997962695646
0
VERTEX
8
1
10
-70.438552397534
20
45.996795316202
0
VERTEX
8
1
10
-70.463026727555
20
45.996555634648
0
VERTEX
8
1
10
-70.491810141619
20
45.997346638477
0
VERTEX
8
1
10
-70.52234078963
20
45.999465702676
0
VERTEX
8
1
10
-70.540430404987
20
46.003396275695
0
VERTEX
8
1
10
-70.561360263069
20
46.007514113349
0
VERTEX
8
1
10
-70.584069854201
20
46.011140643866
0
VERTEX
8
1
10
-70.60749866871
20
46.013597295474
0
VERTEX
8
1
10
-70.630586196924
20
46.014205496401
0
VERTEX
8
1
10
-70.652271929169
20
46.012286674876
0
VERTEX
8
1
10
-70.671495355773
20
46.007162259127
0
VERTEX
8
1
10
-70.687195967062
20
45.998153677381
0
VERTEX
8
1
10
-70.698313253363
20
45.984582357868
0
VERTEX
8
1
10
-70.703786705003
20
45.965769728815
0
VERTEX
8
1
10
-70.716331391379
20
45.925090294146
0
VERTEX
8
1
10
-70.762445914067
20
45.833984127479
0
VERTEX
8
1
10
-70.795741565706
20
45.786815287658
0
VERTEX
8
1
10
-70.887304607713
20
45.722998622017
0
VERTEX
8
1
10
-71.003839388449
20
45.692477608014
0
VERTEX
8
1
10
-71.181416197189
20
45.650858043466
0
VERTEX
8
1
10
-71.275753876833
20
45.6231116671
0
VERTEX
8
1
10
-71.386739382296
20
45.595365290734
0
VERTEX
8
1
10
-71.508823438305
20
45.628660942373
0
VERTEX
8
1
10
-71.738874407283
20
45.941801904783
0
VERTEX
8
1
10
-71.748557158158
20
45.95765563179
0
VERTEX
8
1
10
-71.787058340626
20
46.009961562882
0
VERTEX
8
1
10
-71.844282336115
20
46.094257379362
0
VERTEX
8
1
10
-71.892700945334
20
46.173875915843
0
VERTEX
8
1
10
-71.933736815362
20
46.249785030611
0
VERTEX
8
1
10
-71.968812593275
20
46.322952581955
0
VERTEX
8
1
10
-71.999350926148
20
46.394346428163
0
VERTEX
8
1
10
-72.02677446106
20
46.464934427523
0
VERTEX
8
1
10
-72.052505845087
20
46.535684438322
0
VERTEX
8
1
10
-72.077967725304
20
46.607564318848
0
VERTEX
8
1
10
-72.10458274879
20
46.681541927389
0
VERTEX
8
1
10
-72.133773562621
20
46.758585122233
0
VERTEX
8
1
10
-72.143650010994
20
46.760430979752
0
VERTEX
8
1
10
-72.16847795215
20
46.765071194548
0
VERTEX
8
1
10
-72.192789096331
20
46.64768245291
0
VERTEX
8
1
10
-72.201924071303
20
46.512603921564
0
VERTEX
8
1
10
-72.201881058008
20
46.365361931858
0
VERTEX
8
1
10
-72.198658237391
20
46.211482815141
0
VERTEX
8
1
10
-72.198253790394
20
46.056492902761
0
VERTEX
8
1
10
-72.205845019885
20
45.908803665204
0
VERTEX
8
1
10
-72.244102411998
20
45.76045623011
0
VERTEX
8
1
10
-72.291271251819
20
45.67999173865
0
VERTEX
8
1
10
-72.413355307829
20
45.521837393365
0
VERTEX
8
1
10
-72.610354580026
20
45.419175800812
0
VERTEX
8
1
10
-72.96273355987
20
45.341485946987
0
VERTEX
8
1
10
-73.262394424621
20
45.341485946987
0
VERTEX
8
1
10
-73.514886449549
20
45.394204062082
0
VERTEX
8
1
10
-73.720209634655
20
45.510738842818
0
VERTEX
8
1
10
-73.935853086582
20
45.93710093883
0
VERTEX
8
1
10
-73.948127754427
20
45.954588907038
0
VERTEX
8
1
10
-73.96126774345
20
45.980661780669
0
VERTEX
8
1
10
-73.975485233768
20
46.006351286264
0
VERTEX
8
1
10
-73.990873250361
20
46.030545856262
0
VERTEX
8
1
10
-74.007524818208
20
46.052133923105
0
VERTEX
8
1
10
-74.025532962288
20
46.070003919231
0
VERTEX
8
1
10
-74.044990707582
20
46.08304427708
0
VERTEX
8
1
10
-74.065991079069
20
46.090143429093
0
VERTEX
8
1
10
-74.0856875446
20
46.090621802621
0
VERTEX
8
1
10
-74.087781168687
20
46.091239823596
0
VERTEX
8
1
10
-74.09271479434
20
46.09269619017
0
VERTEX
8
1
10
-74.099820185899
20
46.094793644555
0
VERTEX
8
1
10
-74.108429107699
20
46.097334928963
0
VERTEX
8
1
10
-74.117873324078
20
46.100122785605
0
VERTEX
8
1
10
-74.127484599372
20
46.102959956695
0
VERTEX
8
1
10
-74.136594697919
20
46.105649184443
0
VERTEX
8
1
10
-74.144535384056
20
46.107993211063
0
VERTEX
8
1
10
-74.15063842212
20
46.109794778766
0
VERTEX
8
1
10
-74.154235576448
20
46.110856629764
0
VERTEX
8
1
10
-74.166327701346
20
46.112355273914
0
VERTEX
8
1
10
-74.192409143251
20
46.115097702755
0
VERTEX
8
1
10
-74.213013434828
20
46.117153172732
0
VERTEX
8
1
10
-74.229532588421
20
46.119012337685
0
VERTEX
8
1
10
-74.243358616376
20
46.121165851455
0
VERTEX
8
1
10
-74.255883531036
20
46.124104367885
0
VERTEX
8
1
10
-74.268499344746
20
46.128318540814
0
VERTEX
8
1
10
-74.282598069851
20
46.134299024085
0
VERTEX
8
1
10
-74.299571718695
20
46.142536471538
0
VERTEX
8
1
10
-74.320812303623
20
46.153521537015
0
VERTEX
8
1
10
-74.347711836979
20
46.167744874356
0
VERTEX
8
1
10
-74.364602102093
20
46.178538683731
0
VERTEX
8
1
10
-74.371824847273
20
46.185269505195
0
VERTEX
8
1
10
-74.378424546874
20
46.191619181412
0
VERTEX
8
1
10
-74.383112754037
20
46.196272015392
0
VERTEX
8
1
10
-74.370475210408
20
46.1599186797
0
VERTEX
8
1
10
-74.163127776219
20
45.707150532459
0
VERTEX
8
1
10
-73.91311547936
20
45.275172987321
0
VERTEX
8
1
10
-73.621868302135
20
44.867203504471
0
VERTEX
8
1
10
-73.377743510546
20
44.577419824761
0
VERTEX
8
1
10
-73.290525761693
20
44.486392513674
0
VERTEX
8
1
10
-73.203363871524
20
44.395421061271
0
VERTEX
8
1
10
-72.924182169996
20
44.139208450512
0
VERTEX
8
1
10
-72.529015497468
20
43.83076797042
0
VERTEX
8
1
10
-72.108075628244
20
43.562623944806
0
VERTEX
8
1
10
-71.66458002251
20
43.336116982081
0
VERTEX
8
1
10
-71.201578564401
20
43.152721751497
0
VERTEX
8
1
10
-70.722199340207
20
43.013801204938
0
VERTEX
8
1
10
-70.229626294905
20
42.920762981236
0
VERTEX
8
1
10
-69.852870644551
20
42.8803883246
0
VERTEX
8
1
10
-69.726920484366
20
42.875003547484
42
-0.002092711358
0
VERTEX
8
1
10
-69.280039842395
20
42.875003547484
0
VERTEX
8
1
10
-69.15415671263
20
42.8803883246
0
VERTEX
8
1
10
-68.777389890539
20
42.920762981236
0
VERTEX
8
1
10
-68.2848056735
20
43.013801204938
0
VERTEX
8
1
10
-67.80544879278
20
43.152721751497
0
VERTEX
8
1
10
-67.34241381946
20
43.336116982081
0
VERTEX
8
1
10
-66.899007587621
20
43.562623944806
0
VERTEX
8
1
10
-66.47805654666
20
43.83076797042
0
VERTEX
8
1
10
-66.082800500238
20
44.139152591829
0
VERTEX
8
1
10
-65.80361879871
20
44.395354030851
0
VERTEX
8
1
10
-65.716479252014
20
44.486325483253
0
VERTEX
8
1
10
-65.629339705318
20
44.577363966077
0
VERTEX
8
1
10
-65.385125539836
20
44.867203504471
0
VERTEX
8
1
10
-65.09387836261
20
45.275172987321
0
VERTEX
8
1
10
-64.843854894014
20
45.707150532459
0
VERTEX
8
1
10
-64.636507459826
20
46.1599186797
0
VERTEX
8
1
10
-64.473064951088
20
46.630304655805
0
SEQEND
0
POLYLINE
8
1
66
1
70
1
0
VERTEX
8
1
10
-64.334279266491
20
47.255056850292
0
VERTEX
8
1
10
-64.282698556768
20
47.611239001653
0
VERTEX
8
1
10
-64.25834417064
20
47.989379947365
0
VERTEX
8
1
10
-64.25834417064
20
48.115385966234
0
VERTEX
8
1
10
-64.25834417064
20
48.241459015524
0
VERTEX
8
1
10
-64.282698556768
20
48.619611132972
0
VERTEX
8
1
10
-64.354532824108
20
49.115647416669
0
VERTEX
8
1
10
-64.423176057592
20
49.396463585316
0
VERTEX
8
1
10
-64.442660082181
20
49.376488992205
0
VERTEX
8
1
10
-64.471811247673
20
49.350643970586
0
VERTEX
8
1
10
-64.502574230002
20
49.326042332809
0
VERTEX
8
1
10
-64.533056441476
20
49.303479989551
0
VERTEX
8
1
10
-64.561365294407
20
49.283752851487
0
VERTEX
8
1
10
-64.585608201106
20
49.267656829293
0
VERTEX
8
1
10
-64.603892573882
20
49.255987833646
0
VERTEX
8
1
10
-64.614325825046
20
49.24954177522
0
VERTEX
8
1
10
-64.612665785226
20
49.235197878356
0
VERTEX
8
1
10
-64.613182924731
20
49.205047884299
0
VERTEX
8
1
10
-64.623974811746
20
49.176313260809
0
VERTEX
8
1
10
-64.643246298009
20
49.149167435198
0
VERTEX
8
1
10
-64.66920223526
20
49.123783834781
0
VERTEX
8
1
10
-64.70004747524
20
49.100335886869
0
VERTEX
8
1
10
-64.733986869687
20
49.078997018775
0
VERTEX
8
1
10
-64.769225270341
20
49.059940657812
0
VERTEX
8
1
10
-64.803967528942
20
49.043340231293
0
VERTEX
8
1
10
-64.83641849723
20
49.029369166531
0
VERTEX
8
1
10
-64.864783026944
20
49.018200890838
0
VERTEX
8
1
10
-64.887265969824
20
49.010008831527
0
VERTEX
8
1
10
-64.90207217761
20
49.004966415911
0
VERTEX
8
1
10
-64.907406502041
20
49.003247071303
0
VERTEX
8
1
10
-64.900583309247
20
48.979676518032
0
VERTEX
8
1
10
-64.904544658508
20
48.956496556501
0
VERTEX
8
1
10
-64.917569920217
20
48.933947503749
0
VERTEX
8
1
10
-64.937938464764
20
48.912269676814
0
VERTEX
8
1
10
-64.963929662541
20
48.891703392735
0
VERTEX
8
1
10
-64.993822883938
20
48.87248896855
0
VERTEX
8
1
10
-65.025897499349
20
48.854866721297
0
VERTEX
8
1
10
-65.058432879163
20
48.839076968015
0
VERTEX
8
1
10
-65.089708393773
20
48.825360025742
0
VERTEX
8
1
10
-65.118003413569
20
48.813956211518
0
VERTEX
8
1
10
-65.141597308943
20
48.805105842379
0
VERTEX
8
1
10
-65.158769450287
20
48.799049235365
0
VERTEX
8
1
10
-65.167799207992
20
48.796026707514
0
VERTEX
8
1
10
-65.151524230881
20
48.779987491327
0
VERTEX
8
1
10
-65.133015895456
20
48.754800351657
0
VERTEX
8
1
10
-65.127571437574
20
48.732472719185
0
VERTEX
8
1
10
-65.133152850809
20
48.712859886831
0
VERTEX
8
1
10
-65.147722128733
20
48.695817147515
0
VERTEX
8
1
10
-65.169241264921
20
48.681199794155
0
VERTEX
8
1
10
-65.195672252946
20
48.668863119671
0
VERTEX
8
1
10
-65.224977086383
20
48.658662416983
0
VERTEX
8
1
10
-65.255117758804
20
48.650452979008
0
VERTEX
8
1
10
-65.284056263783
20
48.644090098668
0
VERTEX
8
1
10
-65.309754594895
20
48.639429068881
0
VERTEX
8
1
10
-65.330174745713
20
48.636325182566
0
VERTEX
8
1
10
-65.34327870981
20
48.634633732643
0
VERTEX
8
1
10
-65.343767618847
20
48.630516277219
0
VERTEX
8
1
10
-65.327218395759
20
48.606313165638
0
VERTEX
8
1
10
-65.321853861695
20
48.58476798698
0
VERTEX
8
1
10
-65.325994727866
20
48.565750859361
0
VERTEX
8
1
10
-65.337961705487
20
48.549131900896
0
VERTEX
8
1
10
-65.35607550577
20
48.534781229698
0
VERTEX
8
1
10
-65.37865683993
20
48.522568963884
0
VERTEX
8
1
10
-65.404026419178
20
48.512365221568
0
VERTEX
8
1
10
-65.43050495473
20
48.504040120864
0
VERTEX
8
1
10
-65.456413157797
20
48.497463779888
0
VERTEX
8
1
10
-65.480071739593
20
48.492506316755
0
VERTEX
8
1
10
-65.499801411331
20
48.489037849579
0
VERTEX
8
1
10
-65.513922884226
20
48.486928496475
0
VERTEX
8
1
10
-65.520756869489
20
48.486048375558
0
VERTEX
8
1
10
-65.519769521152
20
48.467797791093
0
VERTEX
8
1
10
-65.523299510486
20
48.445527070993
0
VERTEX
8
1
10
-65.532256680625
20
48.426742946086
0
VERTEX
8
1
10
-65.545620963829
20
48.41114860319
0
VERTEX
8
1
10
-65.562372292357
20
48.398447229126
0
VERTEX
8
1
10
-65.58149059847
20
48.388342010714
0
VERTEX
8
1
10
-65.601955814427
20
48.380536134773
0
VERTEX
8
1
10
-65.622747872489
20
48.374732788123
0
VERTEX
8
1
10
-65.642846704915
20
48.370635157584
0
VERTEX
8
1
10
-65.661232243964
20
48.367946429975
0
VERTEX
8
1
10
-65.676884421898
20
48.366369792116
0
VERTEX
8
1
10
-65.688783170975
20
48.365608430828
0
VERTEX
8
1
10
-65.695908423456
20
48.365365532929
0
VERTEX
8
1
10
-65.696911395515
20
48.359109685252
0
VERTEX
8
1
10
-65.697505341875
20
48.338413374304
0
VERTEX
8
1
10
-65.701793873416
20
48.319457348488
0
VERTEX
8
1
10
-65.709133903422
20
48.302223854895
0
VERTEX
8
1
10
-65.718882345174
20
48.286695140616
0
VERTEX
8
1
10
-65.730396111956
20
48.272853452742
0
VERTEX
8
1
10
-65.743032117049
20
48.260681038362
0
VERTEX
8
1
10
-65.756147273738
20
48.250160144567
0
VERTEX
8
1
10
-65.769098495304
20
48.241273018449
0
VERTEX
8
1
10
-65.78124269503
20
48.234001907097
0
VERTEX
8
1
10
-65.791936786198
20
48.228329057603
0
VERTEX
8
1
10
-65.800537682092
20
48.224236717057
0
VERTEX
8
1
10
-65.806402295994
20
48.221707132549
0
VERTEX
8
1
10
-65.808887541187
20
48.22072255117
0
VERTEX
8
1
10
-65.808226249882
20
48.203971323979
0
VERTEX
8
1
10
-65.81089219032
20
48.186364837821
0
VERTEX
8
1
10
-65.816728545023
20
48.17073515406
0
VERTEX
8
1
10
-65.825122316808
20
48.156988590065
0
VERTEX
8
1
10
-65.83546050849
20
48.145031463204
0
VERTEX
8
1
10
-65.847130122884
20
48.134770090847
0
VERTEX
8
1
10
-65.859518162806
20
48.126110790363
0
VERTEX
8
1
10
-65.872011631073
20
48.118959879121
0
VERTEX
8
1
10
-65.883997530499
20
48.11322367449
0
VERTEX
8
1
10
-65.8948628639
20
48.108808493839
0
VERTEX
8
1
10
-65.903994634092
20
48.105620654538
0
VERTEX
8
1
10
-65.91077984389
20
48.103566473955
0
VERTEX
8
1
10
-65.914605496111
20
48.10255226946
0
VERTEX
8
1
10
-65.913675394274
20
48.093858200874
0
VERTEX
8
1
10
-65.911964354551
20
48.075092333619
0
VERTEX
8
1
10
-65.912612980098
20
48.057951750571
0
VERTEX
8
1
10
-65.915234475887
20
48.042414871425
0
VERTEX
8
1
10
-65.919442046892
20
48.028460115875
0
VERTEX
8
1
10
-65.924848898083
20
48.016065903613
0
VERTEX
8
1
10
-65.931068234434
20
48.005210654333
0
VERTEX
8
1
10
-65.937713260917
20
47.995872787729
0
VERTEX
8
1
10
-65.944397182504
20
47.988030723495
0
VERTEX
8
1
10
-65.950733204167
20
47.981662881324
0
VERTEX
8
1
10
-65.95633453088
20
47.976747680909
0
VERTEX
8
1
10
-65.960814367613
20
47.973263541944
0
VERTEX
8
1
10
-65.96378591934
20
47.971188884124
0
VERTEX
8
1
10
-65.964862391033
20
47.970502127141
0
VERTEX
8
1
10
-65.945252784386
20
47.959670170687
0
VERTEX
8
1
10
-65.929264590725
20
47.949745569441
0
VERTEX
8
1
10
-65.916238994585
20
47.94052862743
0
VERTEX
8
1
10
-65.905517180501
20
47.931819648679
0
VERTEX
8
1
10
-65.896440333008
20
47.923418937217
0
VERTEX
8
1
10
-65.888349636642
20
47.915126797069
0
VERTEX
8
1
10
-65.880586275936
20
47.906743532264
0
VERTEX
8
1
10
-65.872491435427
20
47.898069446828
0
VERTEX
8
1
10
-65.86340629965
20
47.888904844789
0
VERTEX
8
1
10
-65.852672053138
20
47.879050030172
0
VERTEX
8
1
10
-65.839629880428
20
47.868305307006
0
VERTEX
8
1
10
-65.823620966054
20
47.856470979317
0
VERTEX
8
1
10
-65.803986494552
20
47.843347351133
0
VERTEX
8
1
10
-65.772443574396
20
47.825921126722
0
VERTEX
8
1
10
-65.697173824252
20
47.792495962101
0
VERTEX
8
1
10
-65.581765519112
20
47.744443919136
0
VERTEX
8
1
10
-65.434364583744
20
47.684818952983
0
VERTEX
8
1
10
-65.263116942913
20
47.616675018801
0
VERTEX
8
1
10
-65.076168521387
20
47.543066071745
0
VERTEX
8
1
10
-64.881665243933
20
47.467046066972
0
VERTEX
8
1
10
-64.687753035317
20
47.391668959638
0
VERTEX
8
1
10
-64.502577820306
20
47.319988704902
0
SEQEND
0
POLYLINE
8
1
66
1
70
1
0
VERTEX
8
1
10
-68.874848623368
20
39.626001268048
0
VERTEX
8
1
10
-68.775050334802
20
39.633142834394
0
VERTEX
8
1
10
-68.476267603363
20
39.663916864003
0
VERTEX
8
1
10
-68.081502220234
20
39.720375026862
0
VERTEX
8
1
10
-67.691103394814
20
39.79509723554
0
VERTEX
8
1
10
-67.305662856886
20
39.887810070067
0
VERTEX
8
1
10
-66.925833549658
20
39.998179917272
0
VERTEX
8
1
10
-66.552125585013
20
40.125981307704
0
VERTEX
8
1
10
-66.185151097207
20
40.270893891101
0
VERTEX
8
1
10
-65.825522220501
20
40.432680975549
0
VERTEX
8
1
10
-65.473851089151
20
40.611077302871
0
VERTEX
8
1
10
-65.130749837417
20
40.805746199224
0
VERTEX
8
1
10
-64.796626554803
20
41.016402001954
0
VERTEX
8
1
10
-64.472297420321
20
41.242799857358
0
VERTEX
8
1
10
-64.158170523475
20
41.484613293832
0
VERTEX
8
1
10
-63.854960020902
20
41.741617862147
0
VERTEX
8
1
10
-63.563176024482
20
42.013507495175
0
VERTEX
8
1
10
-63.351683638265
20
42.226703655077
0
VERTEX
8
1
10
-63.28353269085
20
42.299935316836
0
VERTEX
8
1
10
-63.215381743434
20
42.373156776357
0
VERTEX
8
1
10
-63.017662378028
20
42.599330182533
0
VERTEX
8
1
10
-62.767197444038
20
42.909682251452
0
VERTEX
8
1
10
-62.532341933633
20
43.230430400524
0
VERTEX
8
1
10
-62.313605958694
20
43.560942091014
0
VERTEX
8
1
10
-62.110785474469
20
43.900564379715
0
VERTEX
8
1
10
-61.92439059284
20
44.248787154743
0
VERTEX
8
1
10
-61.754625358559
20
44.604906461702
0
VERTEX
8
1
10
-61.60169381638
20
44.968401986473
0
VERTEX
8
1
10
-61.466004055807
20
45.338641190322
0
VERTEX
8
1
10
-61.347454054464
20
45.714960927803
0
VERTEX
8
1
10
-61.24665594661
20
46.09677967137
0
VERTEX
8
1
10
-61.163405687491
20
46.483505691241
0
VERTEX
8
1
10
-61.098417433743
20
46.87455745987
0
VERTEX
8
1
10
-61.051589162989
20
47.26927183181
0
VERTEX
8
1
10
-61.023430987111
20
47.667077481754
0
VERTEX
8
1
10
-61.013942906108
20
47.967288526463
0
VERTEX
8
1
10
-61.013942906108
20
48.067311264256
0
VERTEX
8
1
10
-61.013942906108
20
48.167385013238
0
VERTEX
8
1
10
-61.023430987111
20
48.467606260184
0
VERTEX
8
1
10
-61.051589162989
20
48.865411910129
0
VERTEX
8
1
10
-61.098417433743
20
49.260156888782
0
VERTEX
8
1
10
-61.163405687491
20
49.651208657411
0
VERTEX
8
1
10
-61.24665594661
20
50.037873463855
0
VERTEX
8
1
10
-61.347454054464
20
50.419743218611
0
VERTEX
8
1
10
-61.466004055807
20
50.796001742666
0
VERTEX
8
1
10
-61.60169381638
20
51.166240946515
0
VERTEX
8
1
10
-61.754625358559
20
51.529746673523
0
VERTEX
8
1
10
-61.92439059284
20
51.885906789433
0
VERTEX
8
1
10
-62.110785474469
20
52.234109159986
0
VERTEX
8
1
10
-62.313605958694
20
52.573741650924
0
VERTEX
8
1
10
-62.532341933633
20
52.904192127989
0
VERTEX
8
1
10
-62.767197444038
20
53.224950479298
0
VERTEX
8
1
10
-63.017662378028
20
53.535302548218
0
VERTEX
8
1
10
-63.215381743434
20
53.761486156631
0
VERTEX
8
1
10
-63.28353269085
20
53.834738222866
0
VERTEX
8
1
10
-63.351683638265
20
53.9079902891
0
VERTEX
8
1
10
-63.563176024482
20
54.121217055714
0
VERTEX
8
1
10
-63.854960020902
20
54.393004666366
0
VERTEX
8
1
10
-64.158170523475
20
54.649999032443
0
VERTEX
8
1
10
-64.472297420321
20
54.891894086818
0
VERTEX
8
1
10
-64.796626554803
20
55.118179717608
0
VERTEX
8
1
10
-65.130749837417
20
55.32895794719
0
VERTEX
8
1
10
-65.473851089151
20
55.523616641305
0
VERTEX
8
1
10
-65.825522220501
20
55.702053777577
0
VERTEX
8
1
10
-66.185151097207
20
55.863657221749
0
VERTEX
8
1
10
-66.552125585013
20
56.008631018571
0
VERTEX
8
1
10
-66.925833549658
20
56.136465056164
0
VERTEX
8
1
10
-67.305662856886
20
56.246853267397
0
VERTEX
8
1
10
-67.691103394814
20
56.339693629894
0
VERTEX
8
1
10
-68.081502220234
20
56.414271987021
0
VERTEX
8
1
10
-68.476267603363
20
56.470690361154
0
VERTEX
8
1
10
-68.775050334802
20
56.501603141194
0
VERTEX
8
1
10
-68.874848623368
20
56.508642685164
0
VERTEX
8
1
10
-68.875348533012
20
56.53853524144
0
VERTEX
8
1
10
-68.888795082218
20
56.628416955023
0
VERTEX
8
1
10
-68.925002823592
20
56.73982539002
0
VERTEX
8
1
10
-68.981013108219
20
56.840419453121
0
VERTEX
8
1
10
-69.054571241582
20
56.927954652047
0
VERTEX
8
1
10
-69.143300102312
20
57.000084472141
0
VERTEX
8
1
10
-69.244812366801
20
57.054462398747
0
VERTEX
8
1
10
-69.356741115917
20
57.088843939584
0
VERTEX
8
1
10
-69.446724851876
20
57.100678535243
0
VERTEX
8
1
10
-69.476668419341
20
57.100678535243
0
VERTEX
8
1
10
-69.506683402469
20
57.100678535243
0
VERTEX
8
1
10
-69.596677340665
20
57.088843939584
0
VERTEX
8
1
10
-69.708606089782
20
57.054462398747
0
VERTEX
8
1
10
-69.81011835427
20
57.000084472141
0
VERTEX
8
1
10
-69.898826810525
20
56.927954652047
0
VERTEX
8
1
10
-69.972395146126
20
56.840419453121
0
VERTEX
8
1
10
-70.028466644179
20
56.73982539002
0
VERTEX
8
1
10
-70.064613172127
20
56.628416955023
0
VERTEX
8
1
10
-70.078059721333
20
56.53853524144
0
VERTEX
8
1
10
-70.078498417551
20
56.508642685164
0
VERTEX
8
1
10
-70.178357919543
20
56.501603141194
0
VERTEX
8
1
10
-70.477140650982
20
56.470690361154
0
VERTEX
8
1
10
-70.871895831873
20
56.414271987021
0
VERTEX
8
1
10
-71.262284455055
20
56.339693629894
0
VERTEX
8
1
10
-71.647745397459
20
56.246853267397
0
VERTEX
8
1
10
-72.027574704687
20
56.136465056164
0
VERTEX
8
1
10
-72.40129287157
20
56.008631018571
0
VERTEX
8
1
10
-72.768206145949
20
55.863657221749
0
VERTEX
8
1
10
-73.127824820418
20
55.702053777577
0
VERTEX
8
1
10
-73.479536760718
20
55.523616641305
0
VERTEX
8
1
10
-73.822699225879
20
55.32895794719
0
VERTEX
8
1
10
-74.15679190178
20
55.118179717608
0
VERTEX
8
1
10
-74.481151642975
20
54.891894086818
0
VERTEX
8
1
10
-74.795268337582
20
54.649999032443
0
VERTEX
8
1
10
-75.098489042394
20
54.393004666366
0
VERTEX
8
1
10
-75.390232229863
20
54.121217055714
0
VERTEX
8
1
10
-75.601724616079
20
53.9079902891
0
VERTEX
8
1
10
-75.669926574683
20
53.834738222866
0
VERTEX
8
1
10
-75.738108128812
20
53.761486156631
0
VERTEX
8
1
10
-75.93581729198
20
53.535302548218
0
VERTEX
8
1
10
-76.186231214782
20
53.224950479298
0
VERTEX
8
1
10
-76.421025511762
20
52.904192127989
0
VERTEX
8
1
10
-76.639883913552
20
52.573741650924
0
VERTEX
8
1
10
-76.842632982113
20
52.234109159986
0
VERTEX
8
1
10
-77.029055409784
20
51.885906789433
0
VERTEX
8
1
10
-77.19881656317
20
51.529746673523
0
VERTEX
8
1
10
-77.351696073937
20
51.166240946515
0
VERTEX
8
1
10
-77.487525605166
20
50.796001742666
0
VERTEX
8
1
10
-77.605976644804
20
50.419743218611
0
VERTEX
8
1
10
-77.706880855929
20
50.037873463855
0
VERTEX
8
1
10
-77.790016849986
20
49.651208657411
0
VERTEX
8
1
10
-77.855054176497
20
49.260156888782
0
VERTEX
8
1
10
-77.901770222637
20
48.865411910129
0
VERTEX
8
1
10
-77.93005439615
20
48.467606260184
0
VERTEX
8
1
10
-77.939464001541
20
48.167385013238
0
VERTEX
8
1
10
-77.939464001541
20
48.067311264256
0
VERTEX
8
1
10
-77.939464001541
20
47.967288526463
0
VERTEX
8
1
10
-77.93005439615
20
47.667077481754
0
VERTEX
8
1
10
-77.901770222637
20
47.26927183181
0
VERTEX
8
1
10
-77.855054176497
20
46.87455745987
0
VERTEX
8
1
10
-77.790016849986
20
46.483505691241
0
VERTEX
8
1
10
-77.706880855929
20
46.09677967137
0
VERTEX
8
1
10
-77.605976644804
20
45.714909916615
0
VERTEX
8
1
10
-77.487525605166
20
45.338579976896
0
VERTEX
8
1
10
-77.351696073937
20
44.968401986473
0
VERTEX
8
1
10
-77.19881656317
20
44.604906461702
0
VERTEX
8
1
10
-77.029055409784
20
44.248787154743
0
VERTEX
8
1
10
-76.842632982113
20
43.900564379715
0
VERTEX
8
1
10
-76.639883913552
20
43.560891079826
0
VERTEX
8
1
10
-76.421025511762
20
43.230379389336
0
VERTEX
8
1
10
-76.186231214782
20
42.909682251452
0
VERTEX
8
1
10
-75.93581729198
20
42.599330182533
0
VERTEX
8
1
10
-75.738108128812
20
42.373156776357
0
VERTEX
8
1
10
-75.669926574683
20
42.299935316836
0
VERTEX
8
1
10
-75.601785829505
20
42.226764868502
0
VERTEX
8
1
10
-75.390232229863
20
42.013507495175
0
VERTEX
8
1
10
-75.098489042394
20
41.741617862147
0
VERTEX
8
1
10
-74.795268337582
20
41.484613293832
0
VERTEX
8
1
10
-74.481151642975
20
41.242799857358
0
VERTEX
8
1
10
-74.15679190178
20
41.016350990766
0
VERTEX
8
1
10
-73.822699225879
20
40.805684985798
0
VERTEX
8
1
10
-73.479587771906
20
40.611077302871
0
VERTEX
8
1
10
-73.127886033844
20
40.432680975549
0
VERTEX
8
1
10
-72.768267359375
20
40.270893891101
0
VERTEX
8
1
10
-72.40129287157
20
40.125930296516
0
VERTEX
8
1
10
-72.027625715875
20
39.998124825189
0
VERTEX
8
1
10
-71.647745397459
20
39.887754977983
0
VERTEX
8
1
10
-71.262345668481
20
39.795042143457
0
VERTEX
8
1
10
-70.871957045299
20
39.720318914555
0
VERTEX
8
1
10
-70.477201864408
20
39.663861771919
0
VERTEX
8
1
10
-70.178419132969
20
39.633085701863
0
VERTEX
8
1
10
-70.078559630977
20
39.625946175965
42
0.052057755374
0
SEQEND
0
ENDSEC
0
EOF
