0
SECTION
2
HEADER
9
$INSUNITS
70
1
9
$ACADVER
1
AC1014
9
$HANDSEED
5
FFFF
0
ENDSEC
0
SECTION
2
TABLES
0
TABLE
2
VPORT
5
8
100
AcDbSymbolTable
0
ENDTAB
0
TABLE
2
LTYPE
5
5
100
AcDbSymbolTable
0
LTYPE
5
14
100
AcDbSymbolTableRecord
100
AcDbLinetypeTableRecord
2
BYBLOCK
70
0
0
LTYPE
5
15
100
AcDbSymbolTableRecord
100
AcDbLinetypeTableRecord
2
BYLAYER
70
0
0
ENDTAB
0
TABLE
2
LAYER
5
2
100
AcDbSymbolTable
70
2
0
LAYER
5
50
100
AcDbSymbolTableRecord
100
AcDbLayerTableRecord
2
0
70
0
6
CONTINUOUS
0
ENDTAB
0
TABLE
2
STYLE
5
3
100
AcDbSymbolTable
70
1
0
STYLE
5
11
100
AcDbSymbolTableRecord
100
AcDbTextStyleTableRecord
2
STANDARD
70
0
0
ENDTAB
0
TABLE
2
VIEW
5
6
100
AcDbSymbolTable
70
0
0
ENDTAB
0
TABLE
2
UCS
5
7
100
AcDbSymbolTable
70
0
0
ENDTAB
0
TABLE
2
APPID
5
9
100
AcDbSymbolTable
70
2
0
APPID
5
12
100
AcDbSymbolTableRecord
100
AcDbRegAppTableRecord
2
ACAD
70
0
0
ENDTAB
0
TABLE
2
DIMSTYLE
5
A
100
AcDbSymbolTable
70
1
0
ENDTAB
0
TABLE
2
BLOCK_RECORD
5
1
100
AcDbSymbolTable
70
1
0
BLOCK_RECORD
5
1F
100
AcDbSymbolTableRecord
100
AcDbBlockTableRecord
2
*MODEL_SPACE
0
BLOCK_RECORD
5
1B
100
AcDbSymbolTableRecord
100
AcDbBlockTableRecord
2
*PAPER_SPACE
0
ENDTAB
0
ENDSEC
0
SECTION
2
BLOCKS
0
BLOCK
5
20
100
AcDbEntity
100
AcDbBlockBegin
2
*MODEL_SPACE
0
ENDBLK
5
21
100
AcDbEntity
100
AcDbBlockEnd
0
BLOCK
5
1C
100
AcDbEntity
100
AcDbBlockBegin
2
*PAPER_SPACE
0
ENDBLK
5
1D
100
AcDbEntity
100
AcDbBlockEnd
0
ENDSEC
0
SECTION
2
ENTITIES
0
CIRCLE
5
100
100
AcDbEntity
8
0
100
AcDbCircle
10
0
20
0
30
0
40
11.401754079754211
210
0
220
0
230
1
0
CIRCLE
5
101
100
AcDbEntity
8
0
100
AcDbCircle
10
0
20
0
30
0
40
12.426088362008006
210
0
220
0
230
1
0
CIRCLE
5
102
100
AcDbEntity
8
0
100
AcDbCircle
10
0
20
0
30
0
40
12.426088362008004
210
0
220
0
230
1
0
CIRCLE
5
103
100
AcDbEntity
8
0
100
AcDbCircle
10
0
20
0
30
0
40
17.999999999999993
210
-0
220
0
230
1
0
LINE
5
104
100
AcDbEntity
8
0
100
AcDbLine
10
4.6000001468057707
20
-7.3000002329743747
30
0
11
3.7000001180829023
21
-8.2000002616972427
31
0
0
SPLINE
5
105
100
AcDbEntity
8
0
100
AcDbSpline
70
4
71
5
72
41
73
35
74
0
42
0.000000001
43
0.0000000001
44
0.0000000001
40
0
40
0
40
0
40
0
40
0
40
0
40
0.033333333333333333
40
0.066666666666666666
40
0.10000000000000001
40
0.13333333333333333
40
0.16666666666666666
40
0.19999999999999998
40
0.23333333333333331
40
0.26666666666666666
40
0.29999999999999999
40
0.33333333333333331
40
0.36666666666666664
40
0.39999999999999997
40
0.43333333333333329
40
0.46666666666666662
40
0.49999999999999994
40
0.53333333333333333
40
0.56666666666666665
40
0.59999999999999998
40
0.6333333333333333
40
0.66666666666666663
40
0.69999999999999996
40
0.73333333333333328
40
0.76666666666666661
40
0.79999999999999993
40
0.83333333333333326
40
0.86666666666666659
40
0.89999999999999991
40
0.93333333333333324
40
0.96666666666666656
40
1
40
1
40
1
40
1
40
1
40
1
41
1
41
1
41
1
41
1
41
1
41
1
41
1
41
1
41
1
41
1
41
1
41
1
41
1
41
1
41
1
41
1
41
1
41
1
41
1
41
1
41
1
41
1
41
1
41
1
41
1
41
1
41
1
41
1
41
1
41
1
41
1
41
1
41
1
41
1
41
1
10
-5.8946273516166903
20
-9.1481404185760002
30
0
10
-5.8955268291677259
20
-9.1052914886292733
30
0
10
-5.8966980869391818
20
-9.0187063331192832
30
0
10
-5.8965716783238422
20
-8.8861664707297088
30
0
10
-5.8926314880811672
20
-8.7041148622483799
30
0
10
-5.8812761234640165
20
-8.4673185582045427
30
0
10
-5.8631600920687692
20
-8.2203896053993901
30
0
10
-5.8376131969877196
20
-7.9615243589081972
30
0
10
-5.8037489847993839
20
-7.6879988550231975
30
0
10
-5.7613475446807643
20
-7.3970980800424631
30
0
10
-5.7116806824238724
20
-7.0869308897429946
30
0
10
-5.6582246533471743
20
-6.7571957102563776
30
0
10
-5.607801400000735
20
-6.4102358363656897
30
0
10
-5.5697886997522312
20
-6.0507556680205612
30
0
10
-5.5542250032100933
20
-5.6847711730967685
30
0
10
-5.5702709085633346
20
-5.3188137778046745
30
0
10
-5.624492060367869
20
-4.9590287987014561
30
0
10
-5.71925076874511
20
-4.6103373007304551
30
0
10
-5.8508666100303506
20
-4.2755115466282083
30
0
10
-6.0111731483780853
20
-3.9554448473067283
30
0
10
-6.189217463124133
20
-3.6494759999472568
30
0
10
-6.3729195544286821
20
-3.3556782321117242
30
0
10
-6.5506371499858975
20
-3.0711513105392538
30
0
10
-6.7129967041051097
20
-2.7922972128861536
30
0
10
-6.8538719645925967
20
-2.5151071910223979
30
0
10
-6.9694756724680049
20
-2.2354663038375389
30
0
10
-7.0578463226817325
20
-1.9494650641040234
30
0
10
-7.1182209731224608
20
-1.6536840385581448
30
0
10
-7.1504169584049322
20
-1.3455550909213085
30
0
10
-7.1544164958667125
20
-1.0234871355365283
30
0
10
-7.1303508702715881
20
-0.68658649366803404
30
0
10
-7.088788122994254
20
-0.40489905540676702
30
0
10
-7.0451397288922744
20
-0.18675761215484904
30
0
10
-7.0105056891205013
20
-0.038279678591786374
30
0
10
-6.9918048971432629
20
0.036721870773854172
30
0
0
SPLINE
5
106
100
AcDbEntity
8
0
100
AcDbSpline
70
4
71
5
72
26
73
20
74
0
42
0.000000001
43
0.0000000001
44
0.0000000001
40
0
40
0
40
0
40
0
40
0
40
0
40
0.066666666666666666
40
0.13333333333333333
40
0.20000000000000001
40
0.26666666666666666
40
0.33333333333333331
40
0.39999999999999997
40
0.46666666666666662
40
0.53333333333333333
40
0.59999999999999998
40
0.66666666666666663
40
0.73333333333333328
40
0.79999999999999993
40
0.86666666666666659
40
0.93333333333333324
40
1
40
1
40
1
40
1
40
1
40
1
41
1
41
1
41
1
41
1
41
1
41
1
41
1
41
1
41
1
41
1
41
1
41
1
41
1
41
1
41
1
41
1
41
1
41
1
41
1
41
1
10
1.5002182534470496
20
-4.0392360341108979
30
0
10
1.5489897459002382
20
-4.102166138130503
30
0
10
1.6458133296894146
20
-4.2264417799919984
30
0
10
1.7888905288944772
20
-4.4081015974999627
30
0
10
1.9753121629442727
20
-4.6407378230797125
30
0
10
2.2009534198849567
20
-4.9152135453774735
30
0
10
2.4191203282198797
20
-5.1730198084502659
30
0
10
2.6299116573096804
20
-5.4140596264856562
30
0
10
2.8337584002969347
20
-5.6387549218553774
30
0
10
3.0316275319488923
20
-5.8484243751440417
30
0
10
3.2251591328314309
20
-6.0455521452916097
30
0
10
3.4163187460174083
20
-6.2331995855783484
30
0
10
3.60711505667674
20
-6.4145514559295345
30
0
10
3.7993351035238514
20
-6.5924929188454149
30
0
10
3.9942002451240821
20
-6.7690966764717233
30
0
10
4.1923250888365917
20
-6.9455357451432791
30
0
10
4.353631985262032
20
-7.0870227897497244
30
0
10
4.4762020615503744
20
-7.1934073110555472
30
0
10
4.5586171719266453
20
-7.264449421371431
30
0
10
4.6000001468057707
20
-7.3000002329743747
30
0
0
LINE
5
107
100
AcDbEntity
8
0
100
AcDbLine
10
-1.5199999816305054
20
-0.99999998791480615
30
0
11
-0.10000000319142979
21
-2.6000000829771746
31
0
0
SPLINE
5
108
100
AcDbEntity
8
0
100
AcDbSpline
70
4
71
5
72
21
73
15
74
0
42
0.000000001
43
0.0000000001
44
0.0000000001
40
0
40
0
40
0
40
0
40
0
40
0
40
0.10000000000000001
40
0.20000000000000001
40
0.30000000000000004
40
0.40000000000000002
40
0.5
40
0.59999999999999998
40
0.69999999999999996
40
0.79999999999999993
40
0.89999999999999991
40
1
40
1
40
1
40
1
40
1
40
1
41
1
41
1
41
1
41
1
41
1
41
1
41
1
41
1
41
1
41
1
41
1
41
1
41
1
41
1
41
1
10
-1.5500000494671617
20
-0.95000003031858304
30
0
10
-1.5497907999911171
20
-0.95135634158989912
30
0
10
-1.5493383573099953
20
-0.95403801210740447
30
0
10
-1.5485578660789534
20
-0.95796766543542955
30
0
10
-1.5473101717878006
20
-0.96301841174722069
30
0
10
-1.5453819128520578
20
-0.96899569454256085
30
0
10
-1.5430514638666484
20
-0.9746062351772693
30
0
10
-1.540285047563495
20
-0.97981923341575106
30
0
10
-1.5370625101390836
20
-0.98461631175349573
30
0
10
-1.5333996930386942
20
-0.98901191541576783
30
0
10
-1.5293289125852083
20
-0.99303551245650512
30
0
10
-1.525772231356362
20
-0.99598077938322116
30
0
10
-1.5229465979410639
20
-0.99804554355221009
30
0
10
-1.5209937094604373
20
-0.9993590133026774
30
0
10
-1.5199999816305054
20
-0.99999998791480615
30
0
0
LINE
5
109
100
AcDbEntity
8
0
100
AcDbLine
10
-5.8946273516166903
20
-9.1481404185760002
30
0
11
6.5490044602758708
21
-9.1481404185760002
31
0
0
LINE
5
110
100
AcDbEntity
8
0
100
AcDbLine
10
3.8000001212743322
20
1.0000000319142979
30
0
11
4.5189692853321803
21
0.46457591432738748
31
0
0
SPLINE
5
111
100
AcDbEntity
8
0
100
AcDbSpline
70
4
71
5
72
91
73
85
74
0
42
0.000000001
43
0.0000000001
44
0.0000000001
40
0
40
0
40
0
40
0
40
0
40
0
40
0.012500000000000001
40
0.025000000000000001
40
0.037500000000000006
40
0.050000000000000003
40
0.0625
40
0.074999999999999997
40
0.087499999999999994
40
0.099999999999999992
40
0.11249999999999999
40
0.12499999999999999
40
0.13749999999999998
40
0.14999999999999999
40
0.16250000000000001
40
0.17500000000000002
40
0.18750000000000003
40
0.20000000000000004
40
0.21250000000000005
40
0.22500000000000006
40
0.23750000000000007
40
0.25000000000000006
40
0.26250000000000007
40
0.27500000000000008
40
0.28750000000000009
40
0.3000000000000001
40
0.31250000000000011
40
0.32500000000000012
40
0.33750000000000013
40
0.35000000000000014
40
0.36250000000000016
40
0.37500000000000017
40
0.38750000000000018
40
0.40000000000000019
40
0.4125000000000002
40
0.42500000000000021
40
0.43750000000000022
40
0.45000000000000023
40
0.46250000000000024
40
0.47500000000000026
40
0.48750000000000027
40
0.50000000000000022
40
0.51250000000000018
40
0.52500000000000013
40
0.53750000000000009
40
0.55000000000000004
40
0.5625
40
0.57499999999999996
40
0.58749999999999991
40
0.59999999999999987
40
0.61249999999999982
40
0.62499999999999978
40
0.63749999999999973
40
0.64999999999999969
40
0.66249999999999964
40
0.6749999999999996
40
0.68749999999999956
40
0.69999999999999951
40
0.71249999999999947
40
0.72499999999999942
40
0.73749999999999938
40
0.74999999999999933
40
0.76249999999999929
40
0.77499999999999925
40
0.7874999999999992
40
0.79999999999999916
40
0.81249999999999911
40
0.82499999999999907
40
0.83749999999999902
40
0.84999999999999898
40
0.86249999999999893
40
0.87499999999999889
40
0.88749999999999885
40
0.8999999999999988
40
0.91249999999999876
40
0.92499999999999871
40
0.93749999999999867
40
0.94999999999999862
40
0.96249999999999858
40
0.97499999999999853
40
0.98749999999999849
40
1
40
1
40
1
40
1
40
1
40
1
41
1
41
1
41
1
41
1
41
1
41
1
41
1
41
1
41
1
41
1
41
1
41
1
41
1
41
1
41
1
41
1
41
1
41
1
41
1
41
1
41
1
41
1
41
1
41
1
41
1
41
1
41
1
41
1
41
1
41
1
41
1
41
1
41
1
41
1
41
1
41
1
41
1
41
1
41
1
41
1
41
1
41
1
41
1
41
1
41
1
41
1
41
1
41
1
41
1
41
1
41
1
41
1
41
1
41
1
41
1
41
1
41
1
41
1
41
1
41
1
41
1
41
1
41
1
41
1
41
1
41
1
41
1
41
1
41
1
41
1
41
1
41
1
41
1
41
1
41
1
41
1
41
1
41
1
41
1
41
1
41
1
41
1
41
1
41
1
41
1
10
5.9000001882943574
20
-4.0000001276571915
30
0
10
5.8856641809779076
20
-4.0020003656586791
30
0
10
5.8580341695790752
20
-4.0068072912593324
30
0
10
5.819715152947901
20
-4.0164370687926638
30
0
10
5.774876802139981
20
-4.0341164312599211
30
0
10
5.7292178516538463
20
-4.0643411679178456
30
0
10
5.6938320239348492
20
-4.1028509166202278
30
0
10
5.6684728016141506
20
-4.1499673145949663
30
0
10
5.6527260652901301
20
-4.2061849019440336
30
0
10
5.6460664134508534
20
-4.27177640049503
30
0
10
5.6479050470438361
20
-4.3464323365357336
30
0
10
5.6576400837408691
20
-4.4288931700366714
30
0
10
5.6747075865402907
20
-4.5165670750287914
30
0
10
5.6985199964520294
20
-4.6061846956070225
30
0
10
5.728402650031696
20
-4.6944700954336103
30
0
10
5.7635298414249654
20
-4.7788138807646945
30
0
10
5.8028633379996704
20
-4.8579268800264108
30
0
10
5.8450838429481315
20
-4.9325485250276122
30
0
10
5.8885416782039837
20
-5.0060045704040892
30
0
10
5.931421453827241
20
-5.0830844933143116
30
0
10
5.971893167682861
20
-5.1690273954787367
30
0
10
6.0082645124146765
20
-5.268494281079553
30
0
10
6.039141616032544
20
-5.3844847924837929
30
0
10
6.0635658336501264
20
-5.5174185816335477
30
0
10
6.0812124080769765
20
-5.6637904620565243
30
0
10
6.0923549766608724
20
-5.8164422333369581
30
0
10
6.0976149612014776
20
-5.9663211147630149
30
0
10
6.0977725725089451
20
-6.1038114775280174
30
0
10
6.0935496097873028
20
-6.2202659246240986
30
0
10
6.085411778451145
20
-6.3093927737186464
30
0
10
6.0733452150334708
20
-6.3688441041375485
30
0
10
6.0566840512616142
20
-6.4014003678271347
30
0
10
6.0338116969457518
20
-6.4171683279259693
30
0
10
6.0025160748246007
20
-6.4301900775502485
30
0
10
5.9606660996708101
20
-6.4515149311208555
30
0
10
5.9066573869912125
20
-6.4865676132551764
30
0
10
5.8396871561715127
20
-6.536892144540805
30
0
10
5.7600898609878755
20
-6.6008819890509978
30
0
10
5.6695967006273085
20
-6.6748922853007011
30
0
10
5.5717565009991876
20
-6.7542369726430556
30
0
10
5.4718609115131907
20
-6.8340606425589838
30
0
10
5.3759376701778674
20
-6.9097738395009491
30
0
10
5.289923570892344
20
-6.9776112843617222
30
0
10
5.2188132943727057
20
-7.035095860492997
30
0
10
5.1657085533050413
20
-7.0816479917614039
30
0
10
5.1311630040274654
20
-7.1188923068982346
30
0
10
5.1117725910547538
20
-7.1516897800189518
30
0
10
5.101418287868861
20
-7.1866693070865955
30
0
10
5.0947662902534727
20
-7.2287736932911928
30
0
10
5.0910576897180757
20
-7.2772839791679997
30
0
10
5.0931233446432724
20
-7.3274968930382016
30
0
10
5.1045621875683667
20
-7.374415538651796
30
0
10
5.1269973389345109
20
-7.4165849690142309
30
0
10
5.1593305452012261
20
-7.4567734424160337
30
0
10
5.1993111530412728
20
-7.4991763464694543
30
0
10
5.2444554949395616
20
-7.547585747810448
30
0
10
5.2932184489012615
20
-7.6031931317779868
30
0
10
5.3447508565408413
20
-7.665301596156838
30
0
10
5.3987261657257672
20
-7.7319197347262865
30
0
10
5.4551340449040495
20
-7.8004179452027671
30
0
10
5.5140998518057769
20
-7.8681214322775492
30
0
10
5.5756641303076551
20
-7.9330218513237041
30
0
10
5.6397616963988906
20
-7.9938629494147921
30
0
10
5.7062669099595711
20
-8.0500167834898058
30
0
10
5.7750169083550498
20
-8.1014293563471664
30
0
10
5.8458444167847388
20
-8.1485385058877071
30
0
10
5.9186054021762526
20
-8.1922029159697178
30
0
10
5.9932117231780602
20
-8.2336305528680001
30
0
10
6.0695879991060906
20
-8.2742109148287213
30
0
10
6.1476254394900511
20
-8.3153425433540491
30
0
10
6.2271360999463106
20
-8.3582605638192629
30
0
10
6.3078083060661587
20
-8.4038682107003453
30
0
10
6.3891580678043756
20
-8.4525565516890495
30
0
10
6.4704917874057717
20
-8.5040569751719328
30
0
10
6.550982536999876
20
-8.5576228801599719
30
0
10
6.629737586746546
20
-8.612185619515957
30
0
10
6.7058684591357807
20
-8.6665184072993302
30
0
10
6.7785615412235902
20
-8.7193999199087067
30
0
10
6.8471446646728626
20
-8.7697702052352078
30
0
10
6.9111658040732058
20
-8.8169106461771758
30
0
10
6.9703591588559393
20
-8.8603971440287435
30
0
10
7.0137469692229741
20
-8.8920940784853162
30
0
10
7.0440381330826431
20
-8.914096869404057
30
0
10
7.0632326157486274
20
-8.9279789360035675
30
0
10
7.0725799514133323
20
-8.9347233561025554
30
0
0
LINE
5
112
100
AcDbEntity
8
0
100
AcDbLine
10
1.9000000606371661
20
-6.200000197868647
30
0
11
0.80000002553143834
21
-5.1000001627629192
31
0
0
SPLINE
5
113
100
AcDbEntity
8
0
100
AcDbSpline
70
4
71
5
72
141
73
135
74
0
42
0.000000001
43
0.0000000001
44
0.0000000001
40
0
40
0
40
0
40
0
40
0
40
0
40
0.0076923076923076927
40
0.015384615384615385
40
0.023076923076923078
40
0.030769230769230771
40
0.038461538461538464
40
0.046153846153846156
40
0.053846153846153849
40
0.061538461538461542
40
0.069230769230769235
40
0.076923076923076927
40
0.08461538461538462
40
0.092307692307692313
40
0.10000000000000001
40
0.1076923076923077
40
0.11538461538461539
40
0.12307692307692308
40
0.13076923076923078
40
0.13846153846153847
40
0.14615384615384616
40
0.15384615384615385
40
0.16153846153846155
40
0.16923076923076924
40
0.17692307692307693
40
0.18461538461538463
40
0.19230769230769232
40
0.20000000000000001
40
0.2076923076923077
40
0.2153846153846154
40
0.22307692307692309
40
0.23076923076923078
40
0.23846153846153847
40
0.24615384615384617
40
0.25384615384615383
40
0.2615384615384615
40
0.26923076923076916
40
0.27692307692307683
40
0.28461538461538449
40
0.29230769230769216
40
0.29999999999999982
40
0.30769230769230749
40
0.31538461538461515
40
0.32307692307692282
40
0.33076923076923048
40
0.33846153846153815
40
0.34615384615384581
40
0.35384615384615348
40
0.36153846153846114
40
0.36923076923076881
40
0.37692307692307647
40
0.38461538461538414
40
0.3923076923076918
40
0.39999999999999947
40
0.40769230769230713
40
0.4153846153846148
40
0.42307692307692246
40
0.43076923076923013
40
0.43846153846153779
40
0.44615384615384546
40
0.45384615384615312
40
0.46153846153846079
40
0.46923076923076845
40
0.47692307692307612
40
0.48461538461538378
40
0.49230769230769145
40
0.49999999999999911
40
0.50769230769230678
40
0.51538461538461444
40
0.52307692307692211
40
0.53076923076922977
40
0.53846153846153744
40
0.5461538461538451
40
0.55384615384615277
40
0.56153846153846043
40
0.5692307692307681
40
0.57692307692307576
40
0.58461538461538343
40
0.59230769230769109
40
0.59999999999999876
40
0.60769230769230642
40
0.61538461538461409
40
0.62307692307692175
40
0.63076923076922942
40
0.63846153846153708
40
0.64615384615384475
40
0.65384615384615241
40
0.66153846153846008
40
0.66923076923076774
40
0.67692307692307541
40
0.68461538461538307
40
0.69230769230769074
40
0.6999999999999984
40
0.70769230769230607
40
0.71538461538461373
40
0.7230769230769214
40
0.73076923076922906
40
0.73846153846153673
40
0.74615384615384439
40
0.75384615384615206
40
0.76153846153845972
40
0.76923076923076739
40
0.77692307692307505
40
0.78461538461538272
40
0.79230769230769038
40
0.79999999999999805
40
0.80769230769230571
40
0.81538461538461338
40
0.82307692307692104
40
0.83076923076922871
40
0.83846153846153637
40
0.84615384615384404
40
0.8538461538461517
40
0.86153846153845937
40
0.86923076923076703
40
0.8769230769230747
40
0.88461538461538236
40
0.89230769230769003
40
0.89999999999999769
40
0.90769230769230536
40
0.91538461538461302
40
0.92307692307692069
40
0.93076923076922835
40
0.93846153846153602
40
0.94615384615384368
40
0.95384615384615135
40
0.96153846153845901
40
0.96923076923076668
40
0.97692307692307434
40
0.98461538461538201
40
0.99230769230768967
40
1
40
1
40
1
40
1
40
1
40
1
41
1
41
1
41
1
41
1
41
1
41
1
41
1
41
1
41
1
41
1
41
1
41
1
41
1
41
1
41
1
41
1
41
1
41
1
41
1
41
1
41
1
41
1
41
1
41
1
41
1
41
1
41
1
41
1
41
1
41
1
41
1
41
1
41
1
41
1
41
1
41
1
41
1
41
1
41
1
41
1
41
1
41
1
41
1
41
1
41
1
41
1
41
1
41
1
41
1
41
1
41
1
41
1
41
1
41
1
41
1
41
1
41
1
41
1
41
1
41
1
41
1
41
1
41
1
41
1
41
1
41
1
41
1
41
1
41
1
41
1
41
1
41
1
41
1
41
1
41
1
41
1
41
1
41
1
41
1
41
1
41
1
41
1
41
1
41
1
41
1
41
1
41
1
41
1
41
1
41
1
41
1
41
1
41
1
41
1
41
1
41
1
41
1
41
1
41
1
41
1
41
1
41
1
41
1
41
1
41
1
41
1
41
1
41
1
41
1
41
1
41
1
41
1
41
1
41
1
41
1
41
1
41
1
41
1
41
1
41
1
41
1
41
1
41
1
41
1
41
1
41
1
41
1
41
1
41
1
41
1
41
1
41
1
41
1
41
1
41
1
10
-1.2212343883080408
20
-6.6651361681798917
30
0
10
-1.2318941430537922
20
-6.6596844012000673
30
0
10
-1.2521631097814916
20
-6.650665895790052
30
0
10
-1.2794149303544684
20
-6.6427933652454776
30
0
10
-1.3094468355016633
20
-6.6436069706454299
30
0
10
-1.3366207573170745
20
-6.6630409814405711
30
0
10
-1.3538564383083909
20
-6.6995568789374698
30
0
10
-1.362013565295076
20
-6.7505293307266223
30
0
10
-1.3625224611073723
20
-6.8126144519234142
30
0
10
-1.35752269137277
20
-6.8822580831098179
30
0
10
-1.3500032708124772
20
-6.9562298747091678
30
0
10
-1.3439385049512074
20
-7.0321411214614633
30
0
10
-1.3436512182824774
20
-7.1082960658869236
30
0
10
-1.3531993107046016
20
-7.1835497577809733
30
0
10
-1.3757227597660531
20
-7.257160461314589
30
0
10
-1.4128771484061062
20
-7.328652177126747
30
0
10
-1.4640590019556583
20
-7.3976543913744228
30
0
10
-1.5263208440231781
20
-7.4638171673074858
30
0
10
-1.5953548232967925
20
-7.526843255191352
30
0
10
-1.6662285321492263
20
-7.5864924355826711
30
0
10
-1.7342113273730486
20
-7.6425976208430342
30
0
10
-1.7955828010930854
20
-7.6950747253903851
30
0
10
-1.8484000634617299
20
-7.7439381721553726
30
0
10
-1.8934155190974848
20
-7.7893058376508737
30
0
10
-1.9332083105628077
20
-7.8315379654584474
30
0
10
-1.971064729065938
20
-7.871409569472962
30
0
10
-2.0100124524489229
20
-7.9102382971965781
30
0
10
-2.0516407989756318
20
-7.9501075382601556
30
0
10
-2.0954826704802501
20
-7.9938098986487685
30
0
10
-2.1399470801403333
20
-8.0440237592787884
30
0
10
-2.1829989495560667
20
-8.1025913621465211
30
0
10
-2.222888705554134
20
-8.1698312346309727
30
0
10
-2.2589788383566152
20
-8.2436576953706506
30
0
10
-2.2921431882626968
20
-8.3193639284896985
30
0
10
-2.3241024505278287
20
-8.3910143556343222
30
0
10
-2.3569764678602323
20
-8.4524945094931745
30
0
10
-2.39274258325448
20
-8.4987437189363213
30
0
10
-2.4327522370690167
20
-8.5268018571187074
30
0
10
-2.4771736664193655
20
-8.5372187855137085
30
0
10
-2.5249705978295856
20
-8.5328137450583306
30
0
10
-2.574022740948946
20
-8.5171134102484967
30
0
10
-2.621101357369648
20
-8.4926123567007803
30
0
10
-2.6622354096138618
20
-8.4600943555139434
30
0
10
-2.6937650208015813
20
-8.4199074383088348
30
0
10
-2.7131337623017733
20
-8.3726591387932991
30
0
10
-2.7200240564475089
20
-8.3204247833305445
30
0
10
-2.7162694141604415
20
-8.2664622289321148
30
0
10
-2.7049538911778828
20
-8.2139506783459169
30
0
10
-2.6897968186564301
20
-8.1651232632581134
30
0
10
-2.6743146409260667
20
-8.1199790473389974
30
0
10
-2.6616744210059879
20
-8.0766298366121241
30
0
10
-2.6547870341275872
20
-8.0322508538704742
30
0
10
-2.6563343106360353
20
-7.9838685678860797
30
0
10
-2.6687965004762613
20
-7.929130769736334
30
0
10
-2.6942217158060924
20
-7.8662912181434672
30
0
10
-2.7340282971950298
20
-7.7942815921717976
30
0
10
-2.7887874149654341
20
-7.7127523978396733
30
0
10
-2.8580290283245069
20
-7.6221207315610089
30
0
10
-2.9399967634856874
20
-7.5236331756517858
30
0
10
-3.0319163850500872
20
-7.4192073186655128
30
0
10
-3.1303287997425451
20
-7.3112437890315842
30
0
10
-3.2314001945106785
20
-7.2024488787143062
30
0
10
-3.3312409436123209
20
-7.0956532277215025
30
0
10
-3.426222227521742
20
-6.9936314020084414
30
0
10
-3.5132901203970004
20
-6.8989231145101888
30
0
10
-3.5902892959310293
20
-6.813648947742502
30
0
10
-3.6562635363023719
20
-6.739339264519697
30
0
10
-3.7118129011338361
20
-6.6767310792413799
30
0
10
-3.759292511437792
20
-6.6256540751671915
30
0
10
-3.801979544899567
20
-6.5854776167509117
30
0
10
-3.8433181153029889
20
-6.5555270172257938
30
0
10
-3.8861966175254459
20
-6.5354540720338852
30
0
10
-3.9320633501663562
20
-6.5257637335645802
30
0
10
-3.9806020877320618
20
-6.5278162466274052
30
0
10
-4.0307993986492683
20
-6.5424817851014154
30
0
10
-4.0816320605252425
20
-6.5692152019671957
30
0
10
-4.1331346224744951
20
-6.6046192561638151
30
0
10
-4.1861197518652817
20
-6.6430066643899979
30
0
10
-4.2413019519730053
20
-6.6778741309102099
30
0
10
-4.2985982751380067
20
-6.7030962014351125
30
0
10
-4.3563759324341111
20
-6.7142216492974667
30
0
10
-4.4106689784321542
20
-6.7097634665730501
30
0
10
-4.4566363058295231
20
-6.6904715592537061
30
0
10
-4.4899643390086643
20
-6.6585745591246486
30
0
10
-4.5085081109544767
20
-6.6169925531430458
30
0
10
-4.5131567861505424
20
-6.5686886247808793
30
0
10
-4.506162385224485
20
-6.5164461973491647
30
0
10
-4.4900259325519931
20
-6.4625990170249823
30
0
10
-4.4658972933857726
20
-6.4087169670848869
30
0
10
-4.4336612473328332
20
-6.3556583702766565
30
0
10
-4.3926613972664992
20
-6.3037851048287363
30
0
10
-4.342224049896358
20
-6.2531250302509136
30
0
10
-4.2822598456147718
20
-6.2035549300916548
30
0
10
-4.2138467879862835
20
-6.154978173607498
30
0
10
-4.1389118423678042
20
-6.1072716913519773
30
0
10
-4.0598843192710934
20
-6.0602247502878202
30
0
10
-3.979365961482249
20
-6.0134839332514511
30
0
10
-3.8997812698104521
20
-5.9664884241307474
30
0
10
-3.8230660344918359
20
-5.9184256889085933
30
0
10
-3.7502667275210335
20
-5.8681385222639051
30
0
10
-3.6814330782249254
20
-5.8141924320446474
30
0
10
-3.6159677732523301
20
-5.7551903088944885
30
0
10
-3.5528718981469298
20
-5.6900344720631875
30
0
10
-3.4910254306021882
20
-5.6181985585692287
30
0
10
-3.4294682260559273
20
-5.5400217147916688
30
0
10
-3.3676444677886406
20
-5.4569320887882409
30
0
10
-3.3057531431111622
20
-5.3718535286037348
30
0
10
-3.2446854399365499
20
-5.2889128027079817
30
0
10
-3.1855877492012898
20
-5.2125157035483447
30
0
10
-3.1295268450336233
20
-5.1465942935936582
30
0
10
-3.0771179579461685
20
-5.0937939975062072
30
0
10
-3.0281576405959902
20
-5.0546628079673059
30
0
10
-2.981280105128389
20
-5.0268935237092771
30
0
10
-2.9335338244795248
20
-5.0043953912430537
30
0
10
-2.8811332250186332
20
-4.9788661840261828
30
0
10
-2.820288629858231
20
-4.9415346669334355
30
0
10
-2.7480456103471766
20
-4.8849133087074188
30
0
10
-2.6630349611063813
20
-4.804383383236674
30
0
10
-2.5664789205098555
20
-4.7002681185868687
30
0
10
-2.461911682615066
20
-4.5774503230283532
30
0
10
-2.3543202371264078
20
-4.4438819470144768
30
0
10
-2.2494687526912234
20
-4.3094454527075943
30
0
10
-2.1531512770852062
20
-4.1846760900015294
30
0
10
-2.0704654576262507
20
-4.0795297044305094
30
0
10
-2.0050998518107042
20
-4.0021646922808616
30
0
10
-1.9585618254255603
20
-3.9576386575166498
30
0
10
-1.9295539033582019
20
-3.94682389384025
30
0
10
-1.9129872190977801
20
-3.9647857749051303
30
0
10
-1.9000916801606653
20
-4.0007844404546971
30
0
10
-1.8824321216413618
20
-4.0440388331586883
30
0
10
-1.8550069461350351
20
-4.0881571728027861
30
0
10
-1.8232440840867135
20
-4.1215711370509567
30
0
10
-1.7935234038707921
20
-4.1450951258850877
30
0
10
-1.7710880030594784
20
-4.1600945775624316
30
0
10
-1.7592149162336375
20
-4.1674235241013404
30
0
0
LINE
5
114
100
AcDbEntity
8
0
100
AcDbLine
10
4.5189692853321803
20
0.46457591432738748
30
0
11
1.5002182534470496
21
-4.0392360341108979
31
0
0
LINE
5
115
100
AcDbEntity
8
0
100
AcDbLine
10
-0.10000000319142979
20
-2.6000000829771746
30
0
11
3.8000001212743322
21
1.0000000319142979
31
0
0
SPLINE
5
116
100
AcDbEntity
8
0
100
AcDbSpline
70
4
71
5
72
122
73
116
74
0
42
0.000000001
43
0.0000000001
44
0.0000000001
40
0.99997082259267533
40
0.99997082259267533
40
0.99997082259267533
40
0.99997082259267533
40
0.99997082259267533
40
0.99997082259267533
40
1
40
1
40
1
40
1
40
1
40
1.008
40
1.016
40
1.024
40
1.032
40
1.04
40
1.048
40
1.056
40
1.0640000000000001
40
1.0720000000000001
40
1.0800000000000001
40
1.0880000000000001
40
1.0960000000000001
40
1.1040000000000001
40
1.1120000000000001
40
1.1200000000000001
40
1.1280000000000001
40
1.1360000000000001
40
1.1440000000000001
40
1.1520000000000001
40
1.1600000000000001
40
1.1680000000000001
40
1.1760000000000002
40
1.1840000000000002
40
1.1920000000000002
40
1.2000000000000002
40
1.2080000000000002
40
1.2160000000000002
40
1.2240000000000002
40
1.2320000000000002
40
1.2400000000000002
40
1.2480000000000002
40
1.2560000000000002
40
1.2640000000000002
40
1.2720000000000002
40
1.2800000000000002
40
1.2880000000000003
40
1.2960000000000003
40
1.3040000000000003
40
1.3120000000000003
40
1.3200000000000003
40
1.3280000000000003
40
1.3360000000000003
40
1.3440000000000003
40
1.3520000000000003
40
1.3600000000000003
40
1.3680000000000003
40
1.3760000000000003
40
1.3840000000000003
40
1.3920000000000003
40
1.4000000000000004
40
1.4080000000000004
40
1.4160000000000004
40
1.4240000000000004
40
1.4320000000000004
40
1.4400000000000004
40
1.4480000000000004
40
1.4560000000000004
40
1.4640000000000004
40
1.4720000000000004
40
1.4800000000000004
40
1.4880000000000004
40
1.4960000000000004
40
1.5040000000000004
40
1.5120000000000005
40
1.5200000000000005
40
1.5280000000000005
40
1.5360000000000005
40
1.5440000000000005
40
1.5520000000000005
40
1.5600000000000005
40
1.5680000000000005
40
1.5760000000000005
40
1.5840000000000005
40
1.5920000000000005
40
1.6000000000000005
40
1.6080000000000005
40
1.6160000000000005
40
1.6240000000000006
40
1.6320000000000006
40
1.6400000000000006
40
1.6480000000000006
40
1.6560000000000006
40
1.6640000000000006
40
1.6720000000000006
40
1.6800000000000006
40
1.6880000000000006
40
1.6960000000000006
40
1.7040000000000006
40
1.7120000000000006
40
1.7200000000000006
40
1.7280000000000006
40
1.7360000000000007
40
1.7440000000000007
40
1.7520000000000007
40
1.7600000000000007
40
1.7680000000000007
40
1.7760000000000007
40
1.7840000000000007
40
1.7920000000000007
40
1.8000000000000007
40
1.8080000000000007
40
1.8160000000000007
40
1.8240000000000007
40
1.8320000000000007
40
1.8400000000000007
40
1.8470222876299833
40
1.8470222876299833
40
1.8470222876299833
40
1.8470222876299833
40
1.8470222876299833
40
1.8470222876299833
41
1
41
1
41
1
41
1
41
1
41
1
41
1
41
1
41
1
41
1
41
1
41
1
41
1
41
1
41
1
41
1
41
1
41
1
41
1
41
1
41
1
41
1
41
1
41
1
41
1
41
1
41
1
41
1
41
1
41
1
41
1
41
1
41
1
41
1
41
1
41
1
41
1
41
1
41
1
41
1
41
1
41
1
41
1
41
1
41
1
41
1
41
1
41
1
41
1
41
1
41
1
41
1
41
1
41
1
41
1
41
1
41
1
41
1
41
1
41
1
41
1
41
1
41
1
41
1
41
1
41
1
41
1
41
1
41
1
41
1
41
1
41
1
41
1
41
1
41
1
41
1
41
1
41
1
41
1
41
1
41
1
41
1
41
1
41
1
41
1
41
1
41
1
41
1
41
1
41
1
41
1
41
1
41
1
41
1
41
1
41
1
41
1
41
1
41
1
41
1
41
1
41
1
41
1
41
1
41
1
41
1
41
1
41
1
41
1
41
1
41
1
41
1
41
1
41
1
41
1
41
1
10
-2.2939996488759848
20
-1.6437486557707917
30
0
10
-2.2940009181418866
20
-1.6437532043836396
30
0
10
-2.2940022026449722
20
-1.643757747119694
30
0
10
-2.2940035023807783
20
-1.6437622839860635
30
0
10
-2.2940048173448333
20
-1.6437668149898517
30
0
10
-2.2940061475326567
20
-1.6437713401381571
30
0
10
-2.2943708647424166
20
-1.6450120667743409
30
0
10
-2.2973892620233602
20
-1.6466131215402748
30
0
10
-2.308229674047265
20
-1.647251387426578
30
0
10
-2.3319760576151398
20
-1.6473736454653276
30
0
10
-2.3654563774617863
20
-1.643531882269359
30
0
10
-2.3953328273115644
20
-1.6327509480617426
30
0
10
-2.4215084823190884
20
-1.6139271305471488
30
0
10
-2.4475788852586531
20
-1.5873882193190958
30
0
10
-2.4784748470269906
20
-1.5544085179872416
30
0
10
-2.517350301000338
20
-1.516763690775941
30
0
10
-2.5636015391815383
20
-1.4763420311688709
30
0
10
-2.6143395523993576
20
-1.4350965482570555
30
0
10
-2.6653657379278402
20
-1.3949410908208424
30
0
10
-2.7123046636688675
20
-1.3576675688047151
30
0
10
-2.7517504910989485
20
-1.3248564976142241
30
0
10
-2.7822189251137095
20
-1.2977848107884309
30
0
10
-2.8056606159653499
20
-1.2773481272823715
30
0
10
-2.8263330955754551
20
-1.2639257356899196
30
0
10
-2.8485357373143905
20
-1.2572683707924945
30
0
10
-2.8743917324209023
20
-1.2562897675332441
30
0
10
-2.9025218726208211
20
-1.2591556861473798
30
0
10
-2.9302998974076662
20
-1.264304047454714
30
0
10
-2.9556045190422497
20
-1.2713987837296603
30
0
10
-2.9785064144660769
20
-1.2820871175260453
30
0
10
-3.0002102993433746
20
-1.2985132314561605
30
0
10
-3.0222711330684517
20
-1.3220283268230906
30
0
10
-3.0457123373512274
20
-1.3518500614282818
30
0
10
-3.071094259766229
20
-1.3858010915260348
30
0
10
-3.0985467741493435
20
-1.4210309246433301
30
0
10
-3.1278263124858308
20
-1.4546997218569353
30
0
10
-3.1583380777434287
20
-1.4847852951075922
30
0
10
-3.1892645935522266
20
-1.5104317109243079
30
0
10
-3.2198123730741655
20
-1.5317635930878006
30
0
10
-3.2494294933034902
20
-1.5498408179965455
30
0
10
-3.2780318250016558
20
-1.566554536407667
30
0
10
-3.3062357220622935
20
-1.5845551257419259
30
0
10
-3.3348186144819025
20
-1.6065692190880656
30
0
10
-3.3641161403230755
20
-1.6346633907070582
30
0
10
-3.3935250935846142
20
-1.6696093162024042
30
0
10
-3.4207536809512566
20
-1.7099982702403704
30
0
10
-3.4426047195935725
20
-1.7528924864337512
30
0
10
-3.4561575531283135
20
-1.7948881912759098
30
0
10
-3.4598750866626067
20
-1.8330787287113053
30
0
10
-3.4546091285024709
20
-1.8659719120727327
30
0
10
-3.4449968972355154
20
-1.8946556932687602
30
0
10
-3.4376575875496358
20
-1.9218339074731545
30
0
10
-3.4389767963154485
20
-1.9505559461262572
30
0
10
-3.4526877355911809
20
-1.9828788398304895
30
0
10
-3.4786518450094284
20
-2.0191185714467377
30
0
10
-3.514377147342886
20
-2.0584838882216285
30
0
10
-3.5559445923545643
20
-2.0994118027322237
30
0
10
-3.5991948763830051
20
-2.1400302752781859
30
0
10
-3.6407472417355939
20
-2.1785475338490059
30
0
10
-3.6792399960430555
20
-2.2137226785741482
30
0
10
-3.7149091200307871
20
-2.2447787858971617
30
0
10
-3.7489398328983801
20
-2.271241368083504
30
0
10
-3.7828712220861154
20
-2.2927945534389442
30
0
10
-3.8180388871525643
20
-2.3091487812422984
30
0
10
-3.8548528686762911
20
-2.3198569721602564
30
0
10
-3.8927499902019815
20
-2.3243431633155947
30
0
10
-3.930797408363421
20
-2.3221397933687284
30
0
10
-3.9680904096646716
20
-2.3130543309435474
30
0
10
-4.004290701306374
20
-2.2973937828856981
30
0
10
-4.0399337924591565
20
-2.2760770275860285
30
0
10
-4.075994115226961
20
-2.2503647256041712
30
0
10
-4.1135528313476346
20
-2.2216425159817752
30
0
10
-4.1534412928483704
20
-2.1911923512259111
30
0
10
-4.1958582771240192
20
-2.159948085484737
30
0
10
-4.2401090582302334
20
-2.1283207274422273
30
0
10
-4.2849170488198256
20
-2.0963483836493682
30
0
10
-4.3286517578770862
20
-2.0637994061670253
30
0
10
-4.3695923479139251
20
-2.0302941452322414
30
0
10
-4.4061688377231958
20
-1.9954176232152301
30
0
10
-4.4372298858536778
20
-1.9588386335530013
30
0
10
-4.4622494420346186
20
-1.9204184612262543
30
0
10
-4.4811492856780006
20
-1.8802562679660011
30
0
10
-4.4941618260222542
20
-1.8387440027053288
30
0
10
-4.5016793788886105
20
-1.796612022930012
30
0
10
-4.5041051013182818
20
-1.7549921692282673
30
0
10
-4.5017151856585649
20
-1.7154363449103853
30
0
10
-4.4947034342431467
20
-1.6794425367871801
30
0
10
-4.4832141774667598
20
-1.647985566095064
30
0
10
-4.4673786066974666
20
-1.6210999744123844
30
0
10
-4.44735223235958
20
-1.5973016243682741
30
0
10
-4.4233303558078019
20
-1.5742474874971011
30
0
10
-4.3955583671493672
20
-1.5496753145646451
30
0
10
-4.3643437882891281
20
-1.5222200708313938
30
0
10
-4.3300678876860905
20
-1.4923516671593067
30
0
10
-4.2931862891821204
20
-1.461732436340448
30
0
10
-4.2542271981981123
20
-1.4325090157925562
30
0
10
-4.2137935891077571
20
-1.4065917008522575
30
0
10
-4.1725568150504264
20
-1.3850212856434132
30
0
10
-4.1312714148277392
20
-1.3670903109006207
30
0
10
-4.0906916104627982
20
-1.350650094910961
30
0
10
-4.0514471553345839
20
-1.3329675183683636
30
0
10
-4.013920881430491
20
-1.3114461751629107
30
0
10
-3.9781501115354589
20
-1.2843187309672803
30
0
10
-3.9436561424640111
20
-1.2515642681956147
30
0
10
-3.9095901038357899
20
-1.2147452624327066
30
0
10
-3.8750848946494072
20
-1.1761348381361461
30
0
10
-3.8395408604933889
20
-1.1380656452284974
30
0
10
-3.8029482188180621
20
-1.1021714240582448
30
0
10
-3.7661722220011598
20
-1.0687113745462018
30
0
10
-3.7313128668582185
20
-1.0357591668723618
30
0
10
-3.701042010155847
20
-1.0001544720971958
30
0
10
-3.678445868925714
20
-0.95958081858341182
30
0
10
-3.6670524302973067
20
-0.92099461368822655
30
0
10
-3.6622514106903097
20
-0.88864181239437701
30
0
10
-3.6604328854368315
20
-0.86620909552301617
30
0
10
-3.6598329139244972
20
-0.85547671045839979
30
0
0
SPLINE
5
117
100
AcDbEntity
8
0
100
AcDbSpline
70
4
71
5
72
306
73
300
74
0
42
0.000000001
43
0.0000000001
44
0.0000000001
40
0
40
0
40
0
40
0
40
0
40
0
40
0.0033898305084745762
40
0.0067796610169491523
40
0.010169491525423728
40
0.013559322033898305
40
0.016949152542372881
40
0.020338983050847456
40
0.023728813559322031
40
0.027118644067796606
40
0.030508474576271181
40
0.033898305084745756
40
0.037288135593220334
40
0.040677966101694912
40
0.044067796610169491
40
0.047457627118644069
40
0.050847457627118647
40
0.054237288135593226
40
0.057627118644067804
40
0.061016949152542382
40
0.064406779661016961
40
0.067796610169491539
40
0.071186440677966117
40
0.074576271186440696
40
0.077966101694915274
40
0.081355932203389852
40
0.084745762711864431
40
0.088135593220339009
40
0.091525423728813587
40
0.094915254237288166
40
0.098305084745762744
40
0.10169491525423732
40
0.1050847457627119
40
0.10847457627118648
40
0.11186440677966106
40
0.11525423728813564
40
0.11864406779661021
40
0.12203389830508479
40
0.12542372881355937
40
0.12881355932203395
40
0.13220338983050853
40
0.13559322033898311
40
0.13898305084745768
40
0.14237288135593226
40
0.14576271186440684
40
0.14915254237288142
40
0.152542372881356
40
0.15593220338983058
40
0.15932203389830515
40
0.16271186440677973
40
0.16610169491525431
40
0.16949152542372889
40
0.17288135593220347
40
0.17627118644067805
40
0.17966101694915262
40
0.1830508474576272
40
0.18644067796610178
40
0.18983050847457636
40
0.19322033898305094
40
0.19661016949152552
40
0.20000000000000009
40
0.20338983050847467
40
0.20677966101694925
40
0.21016949152542383
40
0.21355932203389841
40
0.21694915254237299
40
0.22033898305084756
40
0.22372881355932214
40
0.22711864406779672
40
0.2305084745762713
40
0.23389830508474588
40
0.23728813559322046
40
0.24067796610169503
40
0.24406779661016961
40
0.24745762711864419
40
0.25084745762711874
40
0.25423728813559332
40
0.2576271186440679
40
0.26101694915254248
40
0.26440677966101706
40
0.26779661016949163
40
0.27118644067796621
40
0.27457627118644079
40
0.27796610169491537
40
0.28135593220338995
40
0.28474576271186453
40
0.2881355932203391
40
0.29152542372881368
40
0.29491525423728826
40
0.29830508474576284
40
0.30169491525423742
40
0.305084745762712
40
0.30847457627118657
40
0.31186440677966115
40
0.31525423728813573
40
0.31864406779661031
40
0.32203389830508489
40
0.32542372881355947
40
0.32881355932203404
40
0.33220338983050862
40
0.3355932203389832
40
0.33898305084745778
40
0.34237288135593236
40
0.34576271186440694
40
0.34915254237288151
40
0.35254237288135609
40
0.35593220338983067
40
0.35932203389830525
40
0.36271186440677983
40
0.36610169491525441
40
0.36949152542372898
40
0.37288135593220356
40
0.37627118644067814
40
0.37966101694915272
40
0.3830508474576273
40
0.38644067796610188
40
0.38983050847457645
40
0.39322033898305103
40
0.39661016949152561
40
0.40000000000000019
40
0.40338983050847477
40
0.40677966101694935
40
0.41016949152542392
40
0.4135593220338985
40
0.41694915254237308
40
0.42033898305084766
40
0.42372881355932224
40
0.42711864406779682
40
0.43050847457627139
40
0.43389830508474597
40
0.43728813559322055
40
0.44067796610169513
40
0.44406779661016971
40
0.44745762711864429
40
0.45084745762711886
40
0.45423728813559344
40
0.45762711864406802
40
0.4610169491525426
40
0.46440677966101718
40
0.46779661016949176
40
0.47118644067796633
40
0.47457627118644091
40
0.47796610169491549
40
0.48135593220339007
40
0.48474576271186465
40
0.48813559322033923
40
0.4915254237288138
40
0.49491525423728838
40
0.49830508474576296
40
0.50169491525423748
40
0.50508474576271201
40
0.50847457627118653
40
0.51186440677966105
40
0.51525423728813557
40
0.5186440677966101
40
0.52203389830508462
40
0.52542372881355914
40
0.52881355932203367
40
0.53220338983050819
40
0.53559322033898271
40
0.53898305084745723
40
0.54237288135593176
40
0.54576271186440628
40
0.5491525423728808
40
0.55254237288135533
40
0.55593220338982985
40
0.55932203389830437
40
0.56271186440677889
40
0.56610169491525342
40
0.56949152542372794
40
0.57288135593220246
40
0.57627118644067699
40
0.57966101694915151
40
0.58305084745762603
40
0.58644067796610055
40
0.58983050847457508
40
0.5932203389830496
40
0.59661016949152412
40
0.59999999999999865
40
0.60338983050847317
40
0.60677966101694769
40
0.61016949152542221
40
0.61355932203389674
40
0.61694915254237126
40
0.62033898305084578
40
0.62372881355932031
40
0.62711864406779483
40
0.63050847457626935
40
0.63389830508474387
40
0.6372881355932184
40
0.64067796610169292
40
0.64406779661016744
40
0.64745762711864197
40
0.65084745762711649
40
0.65423728813559101
40
0.65762711864406553
40
0.66101694915254006
40
0.66440677966101458
40
0.6677966101694891
40
0.67118644067796362
40
0.67457627118643815
40
0.67796610169491267
40
0.68135593220338719
40
0.68474576271186172
40
0.68813559322033624
40
0.69152542372881076
40
0.69491525423728528
40
0.69830508474575981
40
0.70169491525423433
40
0.70508474576270885
40
0.70847457627118338
40
0.7118644067796579
40
0.71525423728813242
40
0.71864406779660694
40
0.72203389830508147
40
0.72542372881355599
40
0.72881355932203051
40
0.73220338983050504
40
0.73559322033897956
40
0.73898305084745408
40
0.7423728813559286
40
0.74576271186440313
40
0.74915254237287765
40
0.75254237288135217
40
0.7559322033898267
40
0.75932203389830122
40
0.76271186440677574
40
0.76610169491525026
40
0.76949152542372479
40
0.77288135593219931
40
0.77627118644067383
40
0.77966101694914836
40
0.78305084745762288
40
0.7864406779660974
40
0.78983050847457192
40
0.79322033898304645
40
0.79661016949152097
40
0.79999999999999549
40
0.80338983050847002
40
0.80677966101694454
40
0.81016949152541906
40
0.81355932203389358
40
0.81694915254236811
40
0.82033898305084263
40
0.82372881355931715
40
0.82711864406779168
40
0.8305084745762662
40
0.83389830508474072
40
0.83728813559321524
40
0.84067796610168977
40
0.84406779661016429
40
0.84745762711863881
40
0.85084745762711333
40
0.85423728813558786
40
0.85762711864406238
40
0.8610169491525369
40
0.86440677966101143
40
0.86779661016948595
40
0.87118644067796047
40
0.87457627118643499
40
0.87796610169490952
40
0.88135593220338404
40
0.88474576271185856
40
0.88813559322033309
40
0.89152542372880761
40
0.89491525423728213
40
0.89830508474575665
40
0.90169491525423118
40
0.9050847457627057
40
0.90847457627118022
40
0.91186440677965475
40
0.91525423728812927
40
0.91864406779660379
40
0.92203389830507831
40
0.92542372881355284
40
0.92881355932202736
40
0.93220338983050188
40
0.93559322033897641
40
0.93898305084745093
40
0.94237288135592545
40
0.94576271186439997
40
0.9491525423728745
40
0.95254237288134902
40
0.95593220338982354
40
0.95932203389829807
40
0.96271186440677259
40
0.96610169491524711
40
0.96949152542372163
40
0.97288135593219616
40
0.97627118644067068
40
0.9796610169491452
40
0.98305084745761973
40
0.98644067796609425
40
0.98983050847456877
40
0.99322033898304329
40
0.99661016949151782
40
1
40
1
40
1
40
1
40
1
40
1
41
1
41
1
41
1
41
1
41
1
41
1
41
1
41
1
41
1
41
1
41
1
41
1
41
1
41
1
41
1
41
1
41
1
41
1
41
1
41
1
41
1
41
1
41
1
41
1
41
1
41
1
41
1
41
1
41
1
41
1
41
1
41
1
41
1
41
1
41
1
41
1
41
1
41
1
41
1
41
1
41
1
41
1
41
1
41
1
41
1
41
1
41
1
41
1
41
1
41
1
41
1
41
1
41
1
41
1
41
1
41
1
41
1
41
1
41
1
41
1
41
1
41
1
41
1
41
1
41
1
41
1
41
1
41
1
41
1
41
1
41
1
41
1
41
1
41
1
41
1
41
1
41
1
41
1
41
1
41
1
41
1
41
1
41
1
41
1
41
1
41
1
41
1
41
1
41
1
41
1
41
1
41
1
41
1
41
1
41
1
41
1
41
1
41
1
41
1
41
1
41
1
41
1
41
1
41
1
41
1
41
1
41
1
41
1
41
1
41
1
41
1
41
1
41
1
41
1
41
1
41
1
41
1
41
1
41
1
41
1
41
1
41
1
41
1
41
1
41
1
41
1
41
1
41
1
41
1
41
1
41
1
41
1
41
1
41
1
41
1
41
1
41
1
41
1
41
1
41
1
41
1
41
1
41
1
41
1
41
1
41
1
41
1
41
1
41
1
41
1
41
1
41
1
41
1
41
1
41
1
41
1
41
1
41
1
41
1
41
1
41
1
41
1
41
1
41
1
41
1
41
1
41
1
41
1
41
1
41
1
41
1
41
1
41
1
41
1
41
1
41
1
41
1
41
1
41
1
41
1
41
1
41
1
41
1
41
1
41
1
41
1
41
1
41
1
41
1
41
1
41
1
41
1
41
1
41
1
41
1
41
1
41
1
41
1
41
1
41
1
41
1
41
1
41
1
41
1
41
1
41
1
41
1
41
1
41
1
41
1
41
1
41
1
41
1
41
1
41
1
41
1
41
1
41
1
41
1
41
1
41
1
41
1
41
1
41
1
41
1
41
1
41
1
41
1
41
1
41
1
41
1
41
1
41
1
41
1
41
1
41
1
41
1
41
1
41
1
41
1
41
1
41
1
41
1
41
1
41
1
41
1
41
1
41
1
41
1
41
1
41
1
41
1
41
1
41
1
41
1
41
1
41
1
41
1
41
1
41
1
41
1
41
1
41
1
41
1
41
1
41
1
41
1
41
1
41
1
41
1
41
1
41
1
41
1
41
1
41
1
41
1
41
1
41
1
41
1
41
1
41
1
41
1
41
1
41
1
41
1
41
1
41
1
41
1
41
1
41
1
41
1
41
1
41
1
41
1
41
1
41
1
41
1
41
1
41
1
41
1
10
-6.9918048971432629
20
0.036721870773854172
30
0
10
-6.9846228576262934
20
0.047237891811221622
30
0
10
-6.97049511149274
20
0.071286725723774008
30
0
10
-6.950012490709744
20
0.11641035467626921
30
0
10
-6.9241203554812891
20
0.19467626573835567
30
0
10
-6.8941223490567243
20
0.32246921173853121
30
0
10
-6.8665026447857089
20
0.47959521145284295
30
0
10
-6.8412832429867576
20
0.66479741081166632
30
0
10
-6.8185008056316798
20
0.87597717326936386
30
0
10
-6.7982097827909431
20
1.109987715530395
30
0
10
-6.780487135138439
20
1.3624132372002768
30
0
10
-6.7654326681305141
20
1.627387741841249
30
0
10
-6.753094378028643
20
1.8980937863489094
30
0
10
-6.7433975468821972
20
2.1672269599477048
30
0
10
-6.7360724776396514
20
2.4274730636634421
30
0
10
-6.7305826508844024
20
2.6719802965419572
30
0
10
-6.7260530086987558
20
2.894832664952411
30
0
10
-6.7211973964229053
20
3.0915251343028234
30
0
10
-6.7142481055002232
20
3.2594330109503957
30
0
10
-6.7028803560663714
20
3.3982958666723331
30
0
10
-6.6841486757201869
20
3.51066717115246
30
0
10
-6.6543909196217461
20
3.6024567115948627
30
0
10
-6.609801816857007
20
3.6816415563576901
30
0
10
-6.5470795061193394
20
3.7568043483284654
30
0
10
-6.4639890150323058
20
3.8358375580275887
30
0
10
-6.3600959907197749
20
3.9243311621343997
30
0
10
-6.2369172528951591
20
4.0250268042367665
30
0
10
-6.0973985198550098
20
4.138497974928911
30
0
10
-5.9455673221166094
20
4.263511544003971
30
0
10
-5.7861133483526643
20
4.3975205435637266
30
0
10
-5.6240031058521573
20
4.5370965753204704
30
0
10
-5.4640724492716508
20
4.6783975748819415
30
0
10
-5.3106458804455592
20
4.8175982650623972
30
0
10
-5.1671027295878558
20
4.9513897540501111
30
0
10
-5.0355984792529185
20
5.0772812921051393
30
0
10
-4.9172417857966364
20
5.1933395017261512
30
0
10
-4.8121823492190217
20
5.2980220385601715
30
0
10
-4.7197504169102524
20
5.389986002462825
30
0
10
-4.6385364592203588
20
5.4678797253373919
30
0
10
-4.5665843774221946
20
5.5302055966920562
30
0
10
-4.5013225680465538
20
5.5749964471805891
30
0
10
-4.4403407266315327
20
5.6001281111862955
30
0
10
-4.3827532627626953
20
5.604232132542915
30
0
10
-4.3310469953583608
20
5.5877143695894747
30
0
10
-4.2908558766565479
20
5.552965650300985
30
0
10
-4.2652432194039216
20
5.5023447359902065
30
0
10
-4.2497928715498983
20
5.4364639126266043
30
0
10
-4.2369271966925588
20
5.3564420026002555
30
0
10
-4.2203810136535589
20
5.2660703467450745
30
0
10
-4.2001540031567899
20
5.1745681369421579
30
0
10
-4.1799097548295698
20
5.0921366961320196
30
0
10
-4.1637424611920757
20
5.0252843966749206
30
0
10
-4.1528299508822819
20
4.9712281330988164
30
0
10
-4.143086262807377
20
4.915423082202997
30
0
10
-4.1290214917293477
20
4.8444870744915169
30
0
10
-4.1075144219209765
20
4.7606775852280929
30
0
10
-4.0797787478552738
20
4.6860975715995892
30
0
10
-4.0494451363293811
20
4.6480467144327475
30
0
10
-4.0215614688678318
20
4.6672425261067545
30
0
10
-4.001161235634819
20
4.748878307018165
30
0
10
-3.9920689443790427
20
4.8885304394051046
30
0
10
-3.9953086011953571
20
5.0757136797292413
30
0
10
-4.0092445832044765
20
5.2964507922928288
30
0
10
-4.0304479092306913
20
5.5344764240683872
30
0
10
-4.0543277175828347
20
5.7729257398203124
30
0
10
-4.0758673904274536
20
5.9958284044827987
30
0
10
-4.090299379615514
20
6.1896629276904358
30
0
10
-4.0938443667303677
20
6.3449393319430945
30
0
10
-4.0843344570446547
20
6.457643825307672
30
0
10
-4.0620963251032141
20
6.5310437916946311
30
0
10
-4.0301241484704464
20
6.5764619022169191
30
0
10
-3.9910467827354186
20
6.6086474310529395
30
0
10
-3.9438820959021701
20
6.64139788688514
30
0
10
-3.8825357102603983
20
6.6841427931715458
30
0
10
-3.800495938327896
20
6.7420503686751507
30
0
10
-3.6939826714104358
20
6.8156822806218189
30
0
10
-3.5666923853871411
20
6.9003868297900253
30
0
10
-3.4295329037010847
20
6.9877606518708459
30
0
10
-3.296995368644402
20
7.068784090180845
30
0
10
-3.1845679463403096
20
7.1363181548495733
30
0
10
-3.1055873318578544
20
7.1881684661725531
30
0
10
-3.0686414999333786
20
7.2292010601453258
30
0
10
-3.07394412874689
20
7.2756660885806239
30
0
10
-3.1144939368996747
20
7.348621076045541
30
0
10
-3.1793216677800165
20
7.4623738412274454
30
0
10
-3.2560400914956458
20
7.6149368409631375
30
0
10
-3.3322753674348693
20
7.7930176868724379
30
0
10
-3.3970617389542106
20
7.976894910502387
30
0
10
-3.4421739928532813
20
8.1452358820284214
30
0
10
-3.4636733203538062
20
8.2801318259701429
30
0
10
-3.4629271546683928
20
8.3715936100926349
30
0
10
-3.4488946883615896
20
8.4233472496069872
30
0
10
-3.4367594683765486
20
8.4548564098566406
30
0
10
-3.4319163202187317
20
8.4876279121970164
30
0
10
-3.4148512889808202
20
8.5330953847150077
30
0
10
-3.3587260562162555
20
8.5948958603449253
30
0
10
-3.2514471023397635
20
8.6725755908770665
30
0
10
-3.0943788750657579
20
8.7625913896426848
30
0
10
-2.8982627512727448
20
8.8591982682457662
30
0
10
-2.6801110808351356
20
8.9553582545653896
30
0
10
-2.4596604853546031
20
9.04364919499975
30
0
10
-2.2560889225446852
20
9.117154430216889
30
0
10
-2.0844468594830672
20
9.1704049873588982
30
0
10
-1.9526161455447353
20
9.2001953077661209
30
0
10
-1.8569961690735552
20
9.2067217657952387
30
0
10
-1.7853571639988786
20
9.1928882658039832
30
0
10
-1.722332472267136
20
9.1629446176434737
30
0
10
-1.6537183950088192
20
9.1214117584491436
30
0
10
-1.5720718265354596
20
9.071721586942445
30
0
10
-1.4760208517676092
20
9.0161682651597754
30
0
10
-1.3680126134456316
20
8.9561841454256168
30
0
10
-1.2525501701671684
20
8.8925082270488591
30
0
10
-1.134301704871705
20
8.8253975175579011
30
0
10
-1.0160623329816423
20
8.7548250927923004
30
0
10
-0.89890537644658175
20
8.6806325574408643
30
0
10
-0.78269890846021906
20
8.6026730246673893
30
0
10
-0.66648582754908314
20
8.5209531601988679
30
0
10
-0.54893623419360504
20
8.4357858186299683
30
0
10
-0.42873405893384825
20
8.3479143699193834
30
0
10
-0.30507883516455481
20
8.2587088530954613
30
0
10
-0.17774228367519657
20
8.1700599180206961
30
0
10
-0.046835148605210042
20
8.084073527466078
30
0
10
0.08734209076068869
20
8.0028222282972354
30
0
10
0.22447803733843866
20
7.9280793703259969
30
0
10
0.3644282013321371
20
7.8610460996107818
30
0
10
0.50736589283604927
20
7.8021154653792406
30
0
10
0.65401488482457226
20
7.7505332164814087
30
0
10
0.80543270098213893
20
7.7046186196898159
30
0
10
0.9626253790297401
20
7.6621954667035563
30
0
10
1.1262128976699164
20
7.620958614056204
30
0
10
1.2960830727954218
20
7.5788581977176142
30
0
10
1.4710281294695995
20
7.534497503786147
30
0
10
1.648440425669903
20
7.4874755407290046
30
0
10
1.8238577975221186
20
7.4388727308280371
30
0
10
1.9909716022232777
20
7.3912946682121277
30
0
10
2.1429388735252002
20
7.347668111575631
30
0
10
2.2734533141334432
20
7.3102691483332523
30
0
10
2.3779201751939576
20
7.2796484201434168
30
0
10
2.4545674863528664
20
7.2536255171965101
30
0
10
2.5056297598923227
20
7.2261948141897561
30
0
10
2.5383998010793465
20
7.1866013904802859
30
0
10
2.5615552594394435
20
7.1239790039602395
30
0
10
2.58061414595731
20
7.0331072573268942
30
0
10
2.5962666106688039
20
6.9164643438827866
30
0
10
2.6067620916009844
20
6.7810527289673992
30
0
10
2.6093179320096977
20
6.6364887001813324
30
0
10
2.6019080281264269
20
6.4925959184956303
30
0
10
2.5849254441717497
20
6.3571763678415847
30
0
10
2.5627966347949092
20
6.2338028792981728
30
0
10
2.5421577958719928
20
6.1228871604994639
30
0
10
2.530161183867079
20
6.0226222016500941
30
0
10
2.5327234675519068
20
5.9299757834710753
30
0
10
2.5528184842133097
20
5.8416546936882989
30
0
10
2.5886939463922571
20
5.7551025443761663
30
0
10
2.6356712541869278
20
5.6682314095311446
30
0
10
2.6881206979973173
20
5.5790999108890791
30
0
10
2.7411983511663869
20
5.4856579619067185
30
0
10
2.7931113684186606
20
5.3853474919212276
30
0
10
2.8450127911759249
20
5.2753478749217502
30
0
10
2.8996318930755072
20
5.153171452426502
30
0
10
2.9603210890408445
20
5.0171331880823784
30
0
10
3.0298777480243499
20
4.8669104578133782
30
0
10
3.1095842325754917
20
4.703976323912503
30
0
10
3.19785174934428
20
4.5323057719713846
30
0
10
3.290288706669072
20
4.358058385853032
30
0
10
3.3809667361518572
20
4.1883938071987439
30
0
10
3.4633601899777653
20
4.0305229682230896
30
0
10
3.5313967572487863
20
3.8906813223418832
30
0
10
3.5805128157699211
20
3.773092409030204
30
0
10
3.6085850960108141
20
3.679035565606644
30
0
10
3.6172061939157532
20
3.6056294380542591
30
0
10
3.6119581991686593
20
3.5454477437191736
30
0
10
3.5985642625460827
20
3.4897610887175645
30
0
10
3.5791217256818544
20
3.4315323889205498
30
0
10
3.5495673714643381
20
3.3678611159702005
30
0
10
3.5038462846760257
20
3.2989323737801848
30
0
10
3.4371647069208615
20
3.2274768087466987
30
0
10
3.3495138654251817
20
3.1580170886467629
30
0
10
3.2444624596215026
20
3.0953223789773503
30
0
10
3.1281165861703188
20
3.0428659378958334
30
0
10
3.0080086021481045
20
3.0012422844643596
30
0
10
2.8920275894722995
20
2.9666962426381436
30
0
10
2.78730260455163
20
2.9293449130321791
30
0
10
2.6995837297849548
20
2.8765391831614142
30
0
10
2.6326322653398373
20
2.7967302986700187
30
0
10
2.5876575962197523
20
2.6829410321545719
30
0
10
2.5626181469733043
20
2.5368989503046673
30
0
10
2.5519328333200892
20
2.3713820870282163
30
0
10
2.5479932818790179
20
2.2048772197173578
30
0
10
2.5424002665214269
20
2.0574244322404418
30
0
10
2.5273452913993748
20
1.9458106803475383
30
0
10
2.4968441765690645
20
1.8794722904975973
30
0
10
2.4482399690397147
20
1.8550637259759379
30
0
10
2.3829759292214634
20
1.8546374163149579
30
0
10
2.3046545569644792
20
1.8563590422090128
30
0
10
2.217231985539744
20
1.8454339729062734
30
0
10
2.1240287738695858
20
1.8180851531329341
30
0
10
2.0279022096520367
20
1.7764122044950774
30
0
10
1.931115640914576
20
1.7258158082642372
30
0
10
1.8353041283088276
20
1.6710977371410589
30
0
10
1.7414814840349599
20
1.6139646795350189
30
0
10
1.6504323179773366
20
1.5542474424932378
30
0
10
1.5630624615357862
20
1.4906444224596567
30
0
10
1.4807195038894554
20
1.4215935169527909
30
0
10
1.4056370978099266
20
1.346218688861557
30
0
10
1.3409502246638012
20
1.2648059753789627
30
0
10
1.2899160043051128
20
1.1783314172337129
30
0
10
1.2552934750396234
20
1.0881920174891118
30
0
10
1.2386939609244489
20
0.99587336842419938
30
0
10
1.2398528488166931
20
0.90259542011589688
30
0
10
1.2571487718585637
20
0.80966609399959466
30
0
10
1.2882942676524405
20
0.71896625592771979
30
0
10
1.3309283140899577
20
0.63331084006688843
30
0
10
1.3833419341903894
20
0.55705468175639872
30
0
10
1.4445142201866916
20
0.49524969216808845
30
0
10
1.5139604399276712
20
0.45236970173624663
30
0
10
1.5916389652966256
20
0.43122039806032636
30
0
10
1.6778444138981645
20
0.43166698254366748
30
0
10
1.7728485241312271
20
0.45155988168179068
30
0
10
1.8764981298762571
20
0.48783722477435482
30
0
10
1.9878660996250468
20
0.53749994236108356
30
0
10
2.1047857176444471
20
0.59880300594138425
30
0
10
2.2241753735568244
20
0.67107921338159027
30
0
10
2.3425523469422238
20
0.75424371637027632
30
0
10
2.4564732132617801
20
0.84841598442922783
30
0
10
2.5630245470880002
20
0.95347340239281964
30
0
10
2.6602465697886855
20
1.0686788219545804
30
0
10
2.7476999793079178
20
1.1921641967547374
30
0
10
2.8264401024182622
20
1.3209971571227863
30
0
10
2.8986173059408475
20
1.4516142623393438
30
0
10
2.9671904684710766
20
1.5801423718765344
30
0
10
3.0355924987540508
20
1.7027698474990614
30
0
10
3.107419486827744
20
1.8160879759837307
30
0
10
3.1861025060518715
20
1.9174652671140022
30
0
10
3.2746076942686808
20
2.0053490719190767
30
0
10
3.3753173611908061
20
2.0790240966550741
30
0
10
3.4898992996631883
20
2.1384243997954515
30
0
10
3.6191705993802108
20
2.1839202454080424
30
0
10
3.7629864364685086
20
2.2161265013516052
30
0
10
3.9200624226139587
20
2.2356753025086098
30
0
10
4.0880329058214073
20
2.2431028676155664
30
0
10
4.2638018840755132
20
2.238874602723397
30
0
10
4.4438185580159155
20
2.2233751413445164
30
0
10
4.6243850427733459
20
2.1969125133802891
30
0
10
4.8019466471321959
20
2.1597164918545464
30
0
10
4.9733981356522854
20
2.1119389038902106
30
0
10
5.1363631888072963
20
2.0536543492287604
30
0
10
5.2895379161827085
20
1.9848574286218446
30
0
10
5.4325416923957732
20
1.905490668478536
30
0
10
5.5656730914290131
20
1.8154783548656328
30
0
10
5.68969708907869
20
1.7147586917260245
30
0
10
5.8056228776715955
20
1.6033158115074775
30
0
10
5.9144771639273106
20
1.481213824676427
30
0
10
6.0170994920993692
20
1.3486253796525831
30
0
10
6.1138774906822224
20
1.2058742319135269
30
0
10
6.2047501623795469
20
1.0534160355996367
30
0
10
6.2893702221436527
20
0.8917824433630106
30
0
10
6.3672174232862915
20
0.72153669708450829
30
0
10
6.4377331546857439
20
0.543223824603012
30
0
10
6.5004436002886221
20
0.35732462930938247
30
0
10
6.5550931877797627
20
0.16420460786951427
30
0
10
6.6017611091429567
20
-0.035926939636926718
30
0
10
6.6410155967450324
20
-0.24308170326716683
30
0
10
6.673947356177881
20
-0.45747985599578644
30
0
10
6.7019902882700135
20
-0.67940126301977399
30
0
10
6.7267898019778345
20
-0.90906712682745916
30
0
10
6.7500522205885076
20
-1.1465096439643319
30
0
10
6.7734018546307695
20
-1.3914462317551444
30
0
10
6.798235755808693
20
-1.6431530242976715
30
0
10
6.8255771724290071
20
-1.9003357293588972
30
0
10
6.8559348382630168
20
-2.1610083636824862
30
0
10
6.8891473881920842
20
-2.4223527694842533
30
0
10
6.924263040084047
20
-2.6806233501615333
30
0
10
6.959330125484998
20
-2.9309376527028195
30
0
10
6.991643176692425
20
-3.1676505442235516
30
0
10
7.018182801526029
20
-3.3849775575266876
30
0
10
7.0359871217646797
20
-3.5775287305329977
30
0
10
7.0425650111185512
20
-3.7409002332214709
30
0
10
7.0362607318525026
20
-3.8721939808589791
30
0
10
7.0167108305203705
20
-3.9706781617238787
30
0
10
6.9850947491095754
20
-4.038130505518474
30
0
10
6.9448873518443675
20
-4.0799549085462132
30
0
10
6.9007295681800596
20
-4.1033889814726274
30
0
10
6.8554854574455781
20
-4.1128616560270288
30
0
10
6.807832372157697
20
-4.1062519721033075
30
0
10
6.7557602614625702
20
-4.0827272074571326
30
0
10
6.7007994159566575
20
-4.0523378658526195
30
0
10
6.6457781081793694
20
-4.0286253895060513
30
0
10
6.5910700414635937
20
-4.0169796307820302
30
0
10
6.5328241543594752
20
-4.0089169189876142
30
0
10
6.4665520451342209
20
-3.9928700563538042
30
0
10
6.3906882572372483
20
-3.9647377636580172
30
0
10
6.3074218511403011
20
-3.930603472694048
30
0
10
6.2205315245905313
20
-3.9007704332875486
30
0
10
6.1341747716558928
20
-3.8865457989545562
30
0
10
6.0510389023965603
20
-3.8952297159951859
30
0
10
5.9881421331059581
20
-3.9233174099899193
30
0
10
5.9432033037518348
20
-3.9568232159750263
30
0
10
5.9142358892972382
20
-3.9846866824382503
30
0
10
5.9000001882943574
20
-4.0000001276571915
30
0
0
SPLINE
5
118
100
AcDbEntity
8
0
100
AcDbSpline
70
4
71
5
72
105
73
99
74
0
42
0.000000001
43
0.0000000001
44
0.0000000001
40
0
40
0
40
0
40
0
40
0
40
0
40
0.01
40
0.02
40
0.029999999999999999
40
0.040000000000000001
40
0.050000000000000003
40
0.060000000000000005
40
0.070000000000000007
40
0.080000000000000002
40
0.089999999999999997
40
0.099999999999999992
40
0.10999999999999999
40
0.11999999999999998
40
0.12999999999999998
40
0.13999999999999999
40
0.14999999999999999
40
0.16
40
0.17000000000000001
40
0.18000000000000002
40
0.19000000000000003
40
0.20000000000000004
40
0.21000000000000005
40
0.22000000000000006
40
0.23000000000000007
40
0.24000000000000007
40
0.25000000000000006
40
0.26000000000000006
40
0.27000000000000007
40
0.28000000000000008
40
0.29000000000000009
40
0.3000000000000001
40
0.31000000000000011
40
0.32000000000000012
40
0.33000000000000013
40
0.34000000000000014
40
0.35000000000000014
40
0.36000000000000015
40
0.37000000000000016
40
0.38000000000000017
40
0.39000000000000018
40
0.40000000000000019
40
0.4100000000000002
40
0.42000000000000021
40
0.43000000000000022
40
0.44000000000000022
40
0.45000000000000023
40
0.46000000000000024
40
0.47000000000000025
40
0.48000000000000026
40
0.49000000000000027
40
0.50000000000000022
40
0.51000000000000023
40
0.52000000000000024
40
0.53000000000000025
40
0.54000000000000026
40
0.55000000000000027
40
0.56000000000000028
40
0.57000000000000028
40
0.58000000000000029
40
0.5900000000000003
40
0.60000000000000031
40
0.61000000000000032
40
0.62000000000000033
40
0.63000000000000034
40
0.64000000000000035
40
0.65000000000000036
40
0.66000000000000036
40
0.67000000000000037
40
0.68000000000000038
40
0.69000000000000039
40
0.7000000000000004
40
0.71000000000000041
40
0.72000000000000042
40
0.73000000000000043
40
0.74000000000000044
40
0.75000000000000044
40
0.76000000000000045
40
0.77000000000000046
40
0.78000000000000047
40
0.79000000000000048
40
0.80000000000000049
40
0.8100000000000005
40
0.82000000000000051
40
0.83000000000000052
40
0.84000000000000052
40
0.85000000000000053
40
0.86000000000000054
40
0.87000000000000055
40
0.88000000000000056
40
0.89000000000000057
40
0.90000000000000058
40
0.91000000000000059
40
0.9200000000000006
40
0.9300000000000006
40
0.93774141325580662
40
0.93774141325580662
40
0.93774141325580662
40
0.93774141325580662
40
0.93774141325580662
40
0.93774141325580662
41
1
41
1
41
1
41
1
41
1
41
1
41
1
41
1
41
1
41
1
41
1
41
1
41
1
41
1
41
1
41
1
41
1
41
1
41
1
41
1
41
1
41
1
41
1
41
1
41
1
41
1
41
1
41
1
41
1
41
1
41
1
41
1
41
1
41
1
41
1
41
1
41
1
41
1
41
1
41
1
41
1
41
1
41
1
41
1
41
1
41
1
41
1
41
1
41
1
41
1
41
1
41
1
41
1
41
1
41
1
41
1
41
1
41
1
41
1
41
1
41
1
41
1
41
1
41
1
41
1
41
1
41
1
41
1
41
1
41
1
41
1
41
1
41
1
41
1
41
1
41
1
41
1
41
1
41
1
41
1
41
1
41
1
41
1
41
1
41
1
41
1
41
1
41
1
41
1
41
1
41
1
41
1
41
1
41
1
41
1
41
1
41
1
41
1
41
1
10
-3.6598329139244976
20
-0.85547671045839979
30
0
10
-3.6594785477165708
20
-0.84020718079763579
30
0
10
-3.6582008723560633
20
-0.81046473451329459
30
0
10
-3.6545775983319326
20
-0.76824104693555639
30
0
10
-3.6463319004993715
20
-0.71672230137583059
30
0
10
-3.6302325509388447
20
-0.66000201217592491
30
0
10
-3.6080321659432006
20
-0.61006575724786161
30
0
10
-3.5791366997591534
20
-0.56516012882372957
30
0
10
-3.5425115528734628
20
-0.52225590585895976
30
0
10
-3.4969982689114505
20
-0.477618396179945
30
0
10
-3.4417860552610984
20
-0.42769301533674026
30
0
10
-3.3768080522462038
20
-0.36985060468773545
30
0
10
-3.3032236621630413
20
-0.30327164092550229
30
0
10
-3.2237037109043953
20
-0.22953463725634485
30
0
10
-3.1417545289026658
20
-0.15178535011234506
30
0
10
-3.0611580037825767
20
-0.07408032361063821
30
0
10
-2.9853789033517075
20
-0.00067389269265068154
30
0
10
-2.9169590036616317
20
0.06469359905374561
30
0
10
-2.8569792386346267
20
0.11945449099059946
30
0
10
-2.804340218917678
20
0.16302569874502484
30
0
10
-2.755600104898468
20
0.19714432617141753
30
0
10
-2.706423131699597
20
0.22482164548575445
30
0
10
-2.6527441920268879
20
0.24954295395635268
30
0
10
-2.5920345319786509
20
0.27437615536989374
30
0
10
-2.5245547386355507
20
0.30110463898028489
30
0
10
-2.4524582987224637
20
0.33044639801768183
30
0
10
-2.3788606308913227
20
0.36229740078836004
30
0
10
-2.3069052322632202
20
0.39596662223659879
30
0
10
-2.2388701782218305
20
0.43041032835874204
30
0
10
-2.1751530406331718
20
0.46447658629079069
30
0
10
-2.1146516231557451
20
0.49701552301505586
30
0
10
-2.055311902719434
20
0.5269746867859666
30
0
10
-1.9946099692588057
20
0.55349733958796743
30
0
10
-1.9300745355322397
20
0.57602526186868697
30
0
10
-1.8597542483802438
20
0.59438354383746894
30
0
10
-1.7822744966450159
20
0.6086765815026165
30
0
10
-1.6969200477834352
20
0.61920120829758207
30
0
10
-1.6037207406194665
20
0.62635037141383854
30
0
10
-1.5035080780625427
20
0.63052793402017226
30
0
10
-1.3980558269956382
20
0.63204114404879075
30
0
10
-1.2898557275876468
20
0.63108459051251042
30
0
10
-1.1816674728403072
20
0.62778101291649135
30
0
10
-1.076129594842147
20
0.62220521041563392
30
0
10
-0.9753614821385197
20
0.6144143306227281
30
0
10
-0.88053130813892455
20
0.60447672326728707
30
0
10
-0.79152613281559869
20
0.59249833843450395
30
0
10
-0.70635383280182695
20
0.57865800413392676
30
0
10
-0.62179659052045944
20
0.5631995033209557
30
0
10
-0.53475770913801268
20
0.54640035575072021
30
0
10
-0.44333447738462561
20
0.5285485376162361
30
0
10
-0.3481331376438595
20
0.50991449713606074
30
0
10
-0.25318474932470386
20
0.49072848831979926
30
0
10
-0.16777015362025016
20
0.47114747382840011
30
0
10
-0.10491365175698972
20
0.45125732465443119
30
0
10
-0.075836956155748564
20
0.43110757568169844
30
0
10
-0.086229204456128
20
0.41074385937212649
30
0
10
-0.13006431053594164
20
0.39022655258720423
30
0
10
-0.19136739367594532
20
0.36971515934056987
30
0
10
-0.25295290327730219
20
0.34961613161215388
30
0
10
-0.30321584509495536
20
0.33071052930357675
30
0
10
-0.34375150173786823
20
0.31429537731769808
30
0
10
-0.38336184556198682
20
0.30170367294204831
30
0
10
-0.43272854419545209
20
0.29387500837146147
30
0
10
-0.49782791100345281
20
0.29080630264018881
30
0
10
-0.57935152053015637
20
0.29160251612351368
30
0
10
-0.67463635203008732
20
0.29478061931762295
30
0
10
-0.77877638842441754
20
0.29849034028601623
30
0
10
-0.88609715091117824
20
0.30077234056548541
30
0
10
-0.99141746626229421
20
0.29979298795593773
30
0
10
-1.0915520128848162
20
0.29410833213750692
30
0
10
-1.1850777714867697
20
0.28270982684076007
30
0
10
-1.2718614209373791
20
0.26504233067018268
30
0
10
-1.3526743282662692
20
0.24102766895613842
30
0
10
-1.4287640029735245
20
0.2110961184566863
30
0
10
-1.5014620230979152
20
0.17619168153684034
30
0
10
-1.5717319870444169
20
0.13784801120637719
30
0
10
-1.639999671671827
20
0.097905566796741117
30
0
10
-1.7061048329717909
20
0.058097800968723579
30
0
10
-1.7691983940983937
20
0.019652661398234003
30
0
10
-1.8276955436827305
20
-0.017052440507425173
30
0
10
-1.8791221007323817
20
-0.05300628604218105
30
0
10
-1.9203188110520868
20
-0.090445433588202992
30
0
10
-1.9480811101523761
20
-0.13193526818073412
30
0
10
-1.9596627154530852
20
-0.17972181898503573
30
0
10
-1.9533906110917798
20
-0.23482454462256866
30
0
10
-1.928962514052081
20
-0.29696834862440696
30
0
10
-1.8875989526708399
20
-0.36493912219934249
30
0
10
-1.8322257973208409
20
-0.43680970774427202
30
0
10
-1.7676781306470675
20
-0.51021835173949337
30
0
10
-1.7008015144370952
20
-0.58262638939323796
30
0
10
-1.6390496458720245
20
-0.65165276898072411
30
0
10
-1.589229533957893
20
-0.71538648502676394
30
0
10
-1.556099119041211
20
-0.77273478526486905
30
0
10
-1.5412346709068583
20
-0.82369529358179583
30
0
10
-1.5412692324643102
20
-0.86772850436164717
30
0
10
-1.5462679625970004
20
-0.90116379315029538
30
0
10
-1.5492068596554069
20
-0.92620167419394883
30
0
10
-1.5499527554562971
20
-0.94269195138166961
30
0
10
-1.5500000494671615
20
-0.95000003031858393
30
0
0
LINE
5
119
100
AcDbEntity
8
0
100
AcDbLine
10
-1.7592149162336375
20
-4.1674235241013404
30
0
11
-0.70000002234000858
21
-3.2000001021257534
31
0
0
LINE
5
120
100
AcDbEntity
8
0
100
AcDbLine
10
2.7000000861686044
20
-7.0000002234000851
30
0
11
1.9000000606371661
21
-6.200000197868647
31
0
0
ARC
5
121
100
AcDbEntity
8
0
100
AcDbCircle
10
-2.1922090354195851
20
-1.6736950619385274
30
0
40
0.1061041052973314
210
0
220
0
230
1
100
AcDbArc
50
107.7550447924754
51
163.61906209409918
0
LINE
5
122
100
AcDbEntity
8
0
100
AcDbLine
10
-0.6000000191485787
20
-7.100000226591515
30
0
11
-1.2212343883080408
21
-6.6651361681798917
31
0
0
LINE
5
123
100
AcDbEntity
8
0
100
AcDbLine
10
3.7000001180829023
20
-8.2000002616972427
30
0
11
2.7000000861686044
21
-7.0000002234000851
31
0
0
LINE
5
124
100
AcDbEntity
8
0
100
AcDbLine
10
6.5490044602758708
20
-9.1481404185760002
30
0
11
6.8000002170172253
21
-9.1481404185760002
31
0
0
LINE
5
125
100
AcDbEntity
8
0
100
AcDbLine
10
0.80000002553143834
20
-5.1000001627629192
30
0
11
-0.6000000191485787
21
-7.100000226591515
31
0
0
LINE
5
126
100
AcDbEntity
8
0
100
AcDbLine
10
-0.70000002234000858
20
-3.2000001021257534
30
0
11
-2.2940061475326567
21
-1.6437713401381571
31
0
0
LWPOLYLINE
5
127
100
AcDbEntity
8
0
100
AcDbPolyline
90
8
70
1
43
0.0
10
-6.0718032009629539
20
12.451167097100688
10
-7.0859978809683142
20
11.783816416811968
10
-7.8150347887010101
20
12.269240789222779
10
-8.915377317509936
20
11.545203925661866
10
-8.8011225607843766
20
10.655246484016441
10
-9.2631880885517237
20
10.351202546128819
10
-9.7140022045382253
20
13.645773759765065
10
-8.75854478684127
20
14.274474708663355
0
LWPOLYLINE
5
128
100
AcDbEntity
8
0
100
AcDbPolyline
90
3
70
1
43
0.0
10
-8.2526228999658997
20
12.576097439226732
10
-9.1655166603598701
20
13.18743775730492
10
-8.9927109308921729
20
12.089111793719718
0
LWPOLYLINE
5
129
100
AcDbEntity
8
0
100
AcDbPolyline
90
6
70
1
43
0.0
10
-3.224886847634691
20
13.856034349115095
10
-5.5404450646324923
20
12.680470501930609
10
-6.8984971817911864
20
15.355483642671214
10
-5.8786483999133132
20
15.873241023491971
10
-4.7455235778171305
20
13.641276763130339
10
-3.4498141426972015
20
14.299083229494068
0
LWPOLYLINE
5
130
100
AcDbEntity
8
0
100
AcDbPolyline
90
6
70
1
43
0.0
10
-0.30527583887710785
20
14.226347311872997
10
-2.8807158043264214
20
13.89337704371129
10
-3.2653746033452218
20
16.868614591268042
10
-2.131065263902876
20
17.015265761553255
10
-1.8101155538742011
20
14.532801742556272
10
-0.36898492786723386
20
14.719120840432771
0
SPLINE
5
131
100
AcDbEntity
8
0
100
AcDbSpline
70
0
71
2
72
6
73
3
74
0
42
0.000000001
43
0.0000000001
44
0.0000000001
40
0
40
0
40
0
40
1
40
1
40
1
10
3.5305737739240608
20
14.52432458477009
30
0
10
3.408557410970265
20
13.703658030027913
30
0
10
2.6759853429319711
20
13.812576541239396
30
0
0
LINE
5
132
100
AcDbEntity
8
0
100
AcDbLine
10
2.6759853429319711
20
13.812576541239396
30
0
11
0.34380895321361149
21
14.15932355949646
31
0
0
LINE
5
133
100
AcDbEntity
8
0
100
AcDbLine
10
0.34380895321361149
20
14.15932355949646
30
0
11
0.78499800651452767
21
17.126705077822262
31
0
0
LINE
5
134
100
AcDbEntity
8
0
100
AcDbLine
10
0.78499800651452767
20
17.126705077822262
30
0
11
3.1171743962328886
21
16.7799580595652
31
0
0
SPLINE
5
135
100
AcDbEntity
8
0
100
AcDbSpline
70
0
71
2
72
6
73
3
74
0
42
0.000000001
43
0.0000000001
44
0.0000000001
40
0
40
0
40
0
40
1
40
1
40
1
10
3.1171743962328886
20
16.7799580595652
30
0
10
3.8497464642711825
20
16.671039548353718
30
0
10
3.7277301013173867
20
15.850372993611543
30
0
0
LINE
5
136
100
AcDbEntity
8
0
100
AcDbLine
10
3.7277301013173867
20
15.850372993611547
30
0
11
3.5305737739240608
21
14.52432458477009
31
0
0
LINE
5
137
100
AcDbEntity
8
0
100
AcDbLine
10
2.3778896524459134
20
14.548795291997358
30
0
11
2.617786184130956
21
16.16230888465471
31
0
0
SPLINE
5
138
100
AcDbEntity
8
0
100
AcDbSpline
70
0
71
2
72
6
73
3
74
0
42
0.000000001
43
0.0000000001
44
0.0000000001
40
0
40
0
40
0
40
1
40
1
40
1
10
2.617786184130956
20
16.16230888465471
30
0
10
2.6453605085898602
20
16.347770287578193
30
0
10
2.4228069736336697
20
16.380859454842231
30
0
0
LINE
5
139
100
AcDbEntity
8
0
100
AcDbLine
10
2.4228069736336697
20
16.380859454842231
30
0
11
1.8432402983990188
21
16.467029187716953
31
0
0
LINE
5
140
100
AcDbEntity
8
0
100
AcDbLine
10
1.8432402983990188
20
16.467029187716953
30
0
11
1.5481950901878572
21
14.482592603522651
31
0
0
LINE
5
141
100
AcDbEntity
8
0
100
AcDbLine
10
1.5481950901878572
20
14.482592603522651
30
0
11
2.1277617654225089
21
14.396422870647925
31
0
0
SPLINE
5
142
100
AcDbEntity
8
0
100
AcDbSpline
70
0
71
2
72
6
73
3
74
0
42
0.000000001
43
0.0000000001
44
0.0000000001
40
0
40
0
40
0
40
1
40
1
40
1
10
2.1277617654225081
20
14.396422870647925
30
0
10
2.3503153003786985
20
14.363333703383885
30
0
10
2.3778896524459134
20
14.548795291997358
30
0
0
LWPOLYLINE
5
143
100
AcDbEntity
8
0
100
AcDbPolyline
90
8
70
1
43
0.0
10
7.1074640388750598
20
12.248249634726939
10
5.97244285646011
20
12.67914950117199
10
5.9386908675648042
20
13.55435944022233
10
4.7072585767707293
20
14.021860855931857
10
4.0529860889846523
20
13.407852786684638
10
3.5358721935766106
20
13.604170099454175
10
5.9416344862118358
20
15.8997616659633
10
7.0109207182948152
20
15.493817440661926
0
LWPOLYLINE
5
144
100
AcDbEntity
8
0
100
AcDbPolyline
90
3
70
1
43
0.0
10
5.930986172620508
20
14.088760971327767
10
5.8915554156326708
20
15.186739667695578
10
5.1027274482219021
20
14.403201423413384
0
LWPOLYLINE
5
145
100
AcDbEntity
8
0
100
AcDbPolyline
90
9
70
1
43
0.0
10
11.513109541734355
20
12.823925102937064
10
9.4838576785321234
20
11.90411724569743
10
8.8691022055302362
20
10.978775277971788
10
7.9164293851920062
20
11.611688136903865
10
8.5649056435755888
20
12.587787290646878
10
8.5887162478842001
20
14.766760125348394
10
9.7170868424030168
20
14.01712158873281
10
9.6908556716667373
20
12.53758801541332
10
11.028964171333833
20
13.14556945341841
0
SPLINE
5
146
100
AcDbEntity
8
0
100
AcDbSpline
70
0
71
2
72
6
73
3
74
0
42
0.000000001
43
0.0000000001
44
0.0000000001
40
0
40
0
40
0
40
1
40
1
40
1
10
15.124755963533801
20
-8.1793893394761881
30
-7.9793415445611206e-17
10
15.703963571010334
20
-8.5862273719267233
30
6.8886246348652543e-18
10
15.315985522631268
20
-9.138584377001898
30
8.9552304176743107e-17
0
LINE
5
147
100
AcDbEntity
8
0
100
AcDbLine
10
15.315985522631268
20
-9.138584377001898
30
8.9552304176743107e-17
11
14.044279982136819
21
-10.949087488246784
31
3.605054153392452e-16
0
LINE
5
148
100
AcDbEntity
8
0
100
AcDbLine
10
14.044279982136819
20
-10.949087488246784
30
3.605054153392452e-16
11
13.637684092367902
21
-10.66349270381923
31
2.9965579810604273e-16
0
LINE
5
149
100
AcDbEntity
8
0
100
AcDbLine
10
13.637684092367902
20
-10.66349270381923
30
2.9965579810604273e-16
11
14.55913176843527
21
-9.3516450856035362
31
1.0332959942734743e-16
0
SPLINE
5
150
100
AcDbEntity
8
0
100
AcDbSpline
70
0
71
2
72
6
73
3
74
0
42
0.000000001
43
0.0000000001
44
0.0000000001
40
0
40
0
40
0
40
1
40
1
40
1
10
14.55913176843527
20
-9.351645085603538
30
1.0332959942734739e-16
10
14.661514816577737
20
-9.2058842775405356
30
8.151558309954607e-17
10
14.554111792485783
20
-9.1304439096365648
30
6.544204898340407e-17
0
LINE
5
151
100
AcDbEntity
8
0
100
AcDbLine
10
14.554111792485783
20
-9.1304439096365666
30
6.544204898340407e-17
11
14.385336314040149
21
-9.0118952533510015
31
4.0183743328607136e-17
0
SPLINE
5
152
100
AcDbEntity
8
0
100
AcDbSpline
70
0
71
2
72
6
73
3
74
0
42
0.000000001
43
0.0000000001
44
0.0000000001
40
0
40
0
40
0
40
1
40
1
40
1
10
14.385336314040149
20
-9.0118952533510015
30
4.0183743328607087e-17
10
14.277933597191447
20
-8.936455101256076
30
2.4110255193339043e-17
10
14.167467637072912
20
-9.0937233981320222
30
4.7646439175075155e-17
0
LINE
5
153
100
AcDbEntity
8
0
100
AcDbLine
10
14.167467637072912
20
-9.0937233981320222
30
4.7646439175075155e-17
11
13.604360764384827
21
-9.8954079961001682
31
1.6762355196841947e-16
0
SPLINE
5
154
100
AcDbEntity
8
0
100
AcDbSpline
70
0
71
2
72
6
73
3
74
0
42
0.000000001
43
0.0000000001
44
0.0000000001
40
0
40
0
40
0
40
1
40
1
40
1
10
13.604360764384827
20
-9.8954079961001664
30
1.6762355196841947e-16
10
13.415760357171383
20
-10.163914826627325
30
2.0780727805419881e-16
10
13.217939221802597
20
-10.196813193069715
30
2.0752023095317888e-16
0
SPLINE
5
155
100
AcDbEntity
8
0
100
AcDbSpline
70
0
71
2
72
6
73
3
74
0
42
0.000000001
43
0.0000000001
44
0.0000000001
40
0
40
0
40
0
40
1
40
1
40
1
10
13.217939221802597
20
-10.196813193069715
30
2.0752023095317888e-16
10
13.020118240055435
20
-10.229711667416629
30
2.0723320684259594e-16
10
12.740103959120747
20
-10.033028375203246
30
1.6532731885049105e-16
0
LINE
5
156
100
AcDbEntity
8
0
100
AcDbLine
10
12.740103959120747
20
-10.033028375203248
30
1.6532731885049107e-16
11
12.153224794849999
21
-9.6208018067050087
31
7.7497182327682793e-17
0
SPLINE
5
157
100
AcDbEntity
8
0
100
AcDbSpline
70
0
71
2
72
6
73
3
74
0
42
0.000000001
43
0.0000000001
44
0.0000000001
40
0
40
0
40
0
40
1
40
1
40
1
10
12.153224794850001
20
-9.6208018067050105
30
7.7497182327682818e-17
10
11.907732826732506
20
-9.4483671425153197
30
4.0757774306945317e-17
10
11.841659277367263
20
-9.2243796590927687
30
5.7405971638446101e-19
0
SPLINE
5
158
100
AcDbEntity
8
0
100
AcDbSpline
70
0
71
2
72
6
73
3
74
0
42
0.000000001
43
0.0000000001
44
0.0000000001
40
0
40
0
40
0
40
1
40
1
40
1
10
11.841659277367263
20
-9.2243796590927687
30
5.7405971638446101e-19
10
11.764489413773182
20
-8.9754131693343897
30
-4.4202103867205557e-17
10
11.939618345986723
20
-8.726085422819791
30
-8.1515560109108993e-17
0
LINE
5
159
100
AcDbEntity
8
0
100
AcDbLine
10
11.939618345986723
20
-8.726085422819791
30
-8.1515560109108993e-17
11
13.249044043457024
21
-6.8618808379343337
31
-3.6050543258207284e-16
0
LINE
5
160
100
AcDbEntity
8
0
100
AcDbLine
10
13.249044043457024
20
-6.8618808379343337
30
-3.6050543258207284e-16
11
13.655640086847573
21
-7.1474757302664118
31
-2.9965579235843328e-16
0
LINE
5
161
100
AcDbEntity
8
0
100
AcDbLine
10
13.655640086847573
20
-7.1474757302664118
30
-2.9965579235843328e-16
11
12.74766377787558
21
-8.4401444180911707
31
-1.0619984053317691e-16
0
SPLINE
5
162
100
AcDbEntity
8
0
100
AcDbSpline
70
0
71
2
72
6
73
3
74
0
42
0.000000001
43
0.0000000001
44
0.0000000001
40
0
40
0
40
0
40
1
40
1
40
1
10
12.74766377787558
20
-8.4401444180911707
30
-1.0619984053317694e-16
10
12.631809281709346
20
-8.6050842717613261
30
-8.1515560109108968e-17
10
12.731540441763837
20
-8.6751358878085512
30
-6.6590168416172832e-17
0
LINE
5
163
100
AcDbEntity
8
0
100
AcDbLine
10
12.731540441763837
20
-8.6751358878085512
30
-6.6590168416172832e-17
11
12.888808738639778
21
-8.7856018479270883
31
-4.3053984434436714e-17
0
SPLINE
5
164
100
AcDbEntity
8
0
100
AcDbSpline
70
0
71
2
72
6
73
3
74
0
42
0.000000001
43
0.0000000001
44
0.0000000001
40
0
40
0
40
0
40
1
40
1
40
1
10
12.888808738639778
20
-8.7856018479270883
30
-4.3053984434436721e-17
10
12.984703966675538
20
-8.8529590880459423
30
-2.8702663953103473e-17
10
13.100558462841775
20
-8.6880192343757852
30
-5.3386944377171449e-17
0
LINE
5
165
100
AcDbEntity
8
0
100
AcDbLine
10
13.100558462841775
20
-8.6880192343757852
30
-5.3386944377171437e-17
11
13.590919559363309
21
-7.9899014212376098
31
-1.5786464024685067e-16
0
SPLINE
5
166
100
AcDbEntity
8
0
100
AcDbSpline
70
0
71
2
72
6
73
3
74
0
42
0.000000001
43
0.0000000001
44
0.0000000001
40
0
40
0
40
0
40
1
40
1
40
1
10
13.590919559363305
20
-7.9899014212376098
30
-1.5786464024685067e-16
10
14.008534771813764
20
-7.3953505465510272
30
-2.4684289620242775e-16
10
14.480339662441599
20
-7.7267484269066395
30
-1.7623434425721938e-16
0
LINE
5
167
100
AcDbEntity
8
0
100
AcDbLine
10
14.480339662441596
20
-7.7267484269066395
30
-1.7623434425721941e-16
11
15.124755963533801
21
-8.1793893394761881
31
-7.9793415445611206e-17
0
LWPOLYLINE
5
168
100
AcDbEntity
8
0
100
AcDbPolyline
90
11
70
1
43
0.0
10
13.743428572908462
20
-11.324190275643817
10
12.668581488106502
20
-12.350845039213096
10
10.05465163718206
20
-11.412000609626018
10
11.770633327655906
20
-13.208532397163857
10
11.414331684732664
20
-13.548858741391797
10
9.3422028338269971
20
-11.379461847944569
10
10.420506980681678
20
-10.349505024692043
10
12.991904586563924
20
-11.277116900859847
10
13.002073546049441
20
-11.267403881357847
10
11.31199350024969
20
-9.4979895906236429
10
11.671299722002797
20
-9.154793382196587
0
SPLINE
5
169
100
AcDbEntity
8
0
100
AcDbSpline
70
0
71
2
72
6
73
3
74
0
42
0.000000001
43
0.0000000001
44
0.0000000001
40
0
40
0
40
0
40
1
40
1
40
1
10
10.592180879230797
20
-13.143207120372509
30
-1.159587522547458e-16
10
11.030680102058483
20
-13.847550799608991
30
-1.4351320481333208e-17
10
10.401944066069248
20
-14.238979403673275
30
7.6349080137741687e-17
0
LINE
5
170
100
AcDbEntity
8
0
100
AcDbLine
10
10.401944066069246
20
-14.238979403673275
30
7.63490801377417e-17
11
8.9136700753837559
21
-15.165525644533531
31
2.9104497707919643e-16
0
SPLINE
5
171
100
AcDbEntity
8
0
100
AcDbSpline
70
0
71
2
72
6
73
3
74
0
42
0.000000001
43
0.0000000001
44
0.0000000001
40
0
40
0
40
0
40
1
40
1
40
1
10
8.9136700753837559
20
-15.165525644533533
30
2.9104497707919643e-16
10
8.2849339995520381
20
-15.556954273402324
30
3.817453834458806e-16
10
7.8464347767243545
20
-14.852610594165842
30
2.8013795167246803e-16
0
LINE
5
172
100
AcDbEntity
8
0
100
AcDbLine
10
7.8464347767243545
20
-14.852610594165842
30
2.8013795167246803e-16
11
7.1378995094481814
21
-13.714518868930984
31
1.159587580023551e-16
0
SPLINE
5
173
100
AcDbEntity
8
0
100
AcDbSpline
70
0
71
2
72
6
73
3
74
0
42
0.000000001
43
0.0000000001
44
0.0000000001
40
0
40
0
40
0
40
1
40
1
40
1
10
7.1378995094481814
20
-13.714518868930984
30
1.1595875800235507e-16
10
6.6994002866204969
20
-13.010175189694502
30
1.4351326228942492e-17
10
7.3281363624522138
20
-12.618746560825713
30
-7.634908013774165e-17
0
LINE
5
174
100
AcDbEntity
8
0
100
AcDbLine
10
7.3281363624522138
20
-12.618746560825713
30
-7.6349080137741663e-17
11
8.8164103531377069
21
-11.692200319965457
31
-2.9104497707919638e-16
0
SPLINE
5
175
100
AcDbEntity
8
0
100
AcDbSpline
70
0
71
2
72
6
73
3
74
0
42
0.000000001
43
0.0000000001
44
0.0000000001
40
0
40
0
40
0
40
1
40
1
40
1
10
8.8164103531377069
20
-11.692200319965457
30
-2.9104497707919643e-16
10
9.4451463891269416
20
-11.30077171590117
30
-3.8174537769827125e-16
10
9.8836456119546252
20
-12.005115395137652
30
-2.8013794592485873e-16
0
LINE
5
176
100
AcDbEntity
8
0
100
AcDbLine
10
9.8836456119546252
20
-12.005115395137652
30
-2.8013794592485868e-16
11
10.592180879230797
21
-13.143207120372509
31
-1.159587522547458e-16
0
LINE
5
177
100
AcDbEntity
8
0
100
AcDbLine
10
9.6980208276709945
20
-13.871051404278496
30
4.1905865001667878e-17
11
8.8358869289349471
21
-12.48624037014614
31
-1.5786464024685069e-16
0
SPLINE
5
178
100
AcDbEntity
8
0
100
AcDbSpline
70
0
71
2
72
6
73
3
74
0
42
0.000000001
43
0.0000000001
44
0.0000000001
40
0
40
0
40
0
40
1
40
1
40
1
10
8.8358869289349471
20
-12.486240370146136
30
-1.5786464024685067e-16
10
8.7367910408710934
20
-12.327066627611298
30
-1.8082677600742082e-16
10
8.5457825179552973
20
-12.445981713131527
30
-1.5327220849664921e-16
0
LINE
5
179
100
AcDbEntity
8
0
100
AcDbLine
10
8.5457825179552991
20
-12.445981713131527
30
-1.5327220849664923e-16
11
8.1239722357024071
21
-12.708585732165419
31
-9.2422568273009657e-17
0
SPLINE
5
180
100
AcDbEntity
8
0
100
AcDbSpline
70
0
71
2
72
6
73
3
74
0
42
0.000000001
43
0.0000000001
44
0.0000000001
40
0
40
0
40
0
40
1
40
1
40
1
10
8.1239722357024071
20
-12.708585732165419
30
-9.2422568273009657e-17
10
7.9329638721565399
20
-12.827500718467624
30
-6.4868023752675045e-17
10
8.0320597602203936
20
-12.986674461002465
30
-4.1905887992104881e-17
0
LINE
5
181
100
AcDbEntity
8
0
100
AcDbLine
10
8.0320597602203918
20
-12.986674461002465
30
-4.1905887992104881e-17
11
8.8941936589564428
21
-14.371485495134822
31
1.578646172564137e-16
0
SPLINE
5
182
100
AcDbEntity
8
0
100
AcDbSpline
70
0
71
2
72
6
73
3
74
0
42
0.000000001
43
0.0000000001
44
0.0000000001
40
0
40
0
40
0
40
1
40
1
40
1
10
8.8941936589564428
20
-14.371485495134824
30
1.5786461725641368e-16
10
8.9932896462383205
20
-14.530659397039592
30
1.8082677600742089e-16
10
9.1842980097841895
20
-14.411744410737386
30
1.5327223148708627e-16
0
LINE
5
183
100
AcDbEntity
8
0
100
AcDbLine
10
9.1842980097841895
20
-14.41174441073739
30
1.5327223148708629e-16
11
9.6061082920370797
21
-14.149140391703494
31
9.2422591263446709e-17
0
SPLINE
5
184
100
AcDbEntity
8
0
100
AcDbSpline
70
0
71
2
72
6
73
3
74
0
42
0.000000001
43
0.0000000001
44
0.0000000001
40
0
40
0
40
0
40
1
40
1
40
1
10
9.6061082920370779
20
-14.149140391703494
30
9.2422591263446709e-17
10
9.797116814952874
20
-14.030225306183265
30
6.4868023752675094e-17
10
9.6980208276709945
20
-13.871051404278496
30
4.1905865001667878e-17
0
LWPOLYLINE
5
185
100
AcDbEntity
8
0
100
AcDbPolyline
90
4
70
1
43
0.0
10
7.828327954249704
20
-15.709225785281783
10
6.7789312034957332
20
-16.164122150181704
10
5.5857604360199868
20
-13.411606141927535
10
6.6351571867739576
20
-12.956709777027612
0
LWPOLYLINE
5
186
100
AcDbEntity
8
0
100
AcDbPolyline
90
8
70
1
43
0.0
10
5.7505229599594196
20
-13.94856804374257
10
4.8381038637546965
20
-14.201674895297622
10
5.5072083643146073
20
-16.61371439528169
10
4.4050778663097852
20
-16.91944756276267
10
3.7359733657498726
20
-14.5074080627786
10
2.8235539077454286
20
-14.760515014697605
10
2.6907354126952359
20
-14.281720661765558
10
5.6177044649092274
20
-13.469773690810523
0
LWPOLYLINE
5
187
100
AcDbEntity
8
0
100
AcDbPolyline
90
8
70
1
43
0.0
10
3.1659891850111563
20
-17.268454844961482
10
1.9542675893016412
20
-17.343811025359511
10
1.5626963443019215
20
-16.560354840077743
10
0.24804854430720114
20
-16.642111934386413
10
-0.094898763904343292
20
-17.471247352255492
10
-0.64695724899287843
20
-17.505579511507168
10
0.59844383009322499
20
-14.42233300804617
10
1.7399883576173978
20
-14.351341094018158
0
LWPOLYLINE
5
188
100
AcDbEntity
8
0
100
AcDbPolyline
90
3
70
1
43
0.0
10
1.3353602229352259
20
-16.07665798594908
10
0.84677482983953423
20
-15.092586689788217
10
0.45113092507028429
20
-16.131647632679041
0
LWPOLYLINE
5
189
100
AcDbEntity
8
0
100
AcDbPolyline
90
7
70
1
43
0.0
10
-0.53507151129133779
20
-14.509743222736896
10
-2.1619741806149295
20
-17.283498473788882
10
-3.4248785673316093
20
-17.076924944402379
10
-4.018467129944888
20
-13.939963487419389
10
-2.8157009436951181
20
-14.13670019902929
10
-2.3551312657619379
20
-16.605931680298493
10
-1.0763161955216094
20
-14.421211718801109
0
SPLINE
5
190
100
AcDbEntity
8
0
100
AcDbSpline
70
0
71
2
72
6
73
3
74
0
42
0.000000001
43
0.0000000001
44
0.0000000001
40
0
40
0
40
0
40
1
40
1
40
1
10
-4.5864708696808369
20
-16.006265597695801
30
-1.159587522547458e-16
10
-4.8878866159101833
20
-16.779266331735474
30
-1.4351320481333208e-17
10
-5.5779097277292848
20
-16.510206003580887
30
7.6349080137741687e-17
0
LINE
5
191
100
AcDbEntity
8
0
100
AcDbLine
10
-5.5779097277292857
20
-16.510206003580887
30
7.63490801377417e-17
11
-7.2112556654668518
21
-15.873316330655202
31
2.9104497707919643e-16
0
SPLINE
5
192
100
AcDbEntity
8
0
100
AcDbSpline
70
0
71
2
72
6
73
3
74
0
42
0.000000001
43
0.0000000001
44
0.0000000001
40
0
40
0
40
0
40
1
40
1
40
1
10
-7.2112556654668518
20
-15.873316330655202
30
2.9104497707919643e-16
10
-7.9012788210121485
20
-15.604255985450484
30
3.817453834458806e-16
10
-7.5998630747828004
20
-14.831255251410813
30
2.8013795167246803e-16
0
LINE
5
193
100
AcDbEntity
8
0
100
AcDbLine
10
-7.5998630747828004
20
-14.831255251410816
30
2.8013795167246803e-16
11
-7.1128298596754149
21
-13.582226169521871
31
1.159587580023551e-16
0
SPLINE
5
194
100
AcDbEntity
8
0
100
AcDbSpline
70
0
71
2
72
6
73
3
74
0
42
0.000000001
43
0.0000000001
44
0.0000000001
40
0
40
0
40
0
40
1
40
1
40
1
10
-7.1128298596754149
20
-13.582226169521869
30
1.1595875800235507e-16
10
-6.8114141134460677
20
-12.809225435482196
30
1.4351326228942492e-17
10
-6.1213909579007737
20
-13.078285780686913
30
-7.634908013774165e-17
0
LINE
5
195
100
AcDbEntity
8
0
100
AcDbLine
10
-6.1213909579007737
20
-13.078285780686913
30
-7.6349080137741663e-17
11
-4.4880450201632058
21
-13.715175453612597
31
-2.9104497707919638e-16
0
SPLINE
5
196
100
AcDbEntity
8
0
100
AcDbSpline
70
0
71
2
72
6
73
3
74
0
42
0.000000001
43
0.0000000001
44
0.0000000001
40
0
40
0
40
0
40
1
40
1
40
1
10
-4.4880450201632058
20
-13.715175453612597
30
-2.9104497707919643e-16
10
-3.7980219083441042
20
-13.984235781767184
30
-3.8174537769827125e-16
10
-4.0994376545734514
20
-14.757236515806856
30
-2.8013794592485873e-16
0
LINE
5
197
100
AcDbEntity
8
0
100
AcDbLine
10
-4.0994376545734514
20
-14.757236515806852
30
-2.8013794592485868e-16
11
-4.5864708696808369
21
-16.006265597695801
31
-1.159587522547458e-16
0
LINE
5
198
100
AcDbEntity
8
0
100
AcDbLine
10
-5.7048664330396877
20
-15.726139084706958
30
4.1905865001667878e-17
11
-5.1122525379421848
21
-14.206341324825098
31
-1.5786464024685069e-16
0
SPLINE
5
199
100
AcDbEntity
8
0
100
AcDbSpline
70
0
71
2
72
6
73
3
74
0
42
0.000000001
43
0.0000000001
44
0.0000000001
40
0
40
0
40
0
40
1
40
1
40
1
10
-5.1122525379421848
20
-14.206341324825098
30
-1.5786464024685067e-16
10
-5.0441359724066421
20
-14.031651860794339
30
-1.8082677600742082e-16
10
-5.2537633642245076
20
-13.949911968511584
30
-1.5327220849664921e-16
0
LINE
5
200
100
AcDbEntity
8
0
100
AcDbLine
10
-5.2537633642245076
20
-13.949911968511584
30
-1.5327220849664923e-16
11
-5.7166902952369627
21
-13.769403127812838
31
-9.2422568273009657e-17
0
SPLINE
5
201
100
AcDbEntity
8
0
100
AcDbSpline
70
0
71
2
72
6
73
3
74
0
42
0.000000001
43
0.0000000001
44
0.0000000001
40
0
40
0
40
0
40
1
40
1
40
1
10
-5.7166902952369627
20
-13.769403127812838
30
-9.2422568273009657e-17
10
-5.9263175121500566
20
-13.687663303730602
30
-6.4868023752675045e-17
10
-5.9944340776855984
20
-13.862352767761362
30
-4.1905887992104881e-17
0
LINE
5
202
100
AcDbEntity
8
0
100
AcDbLine
10
-5.9944340776855984
20
-13.862352767761362
30
-4.1905887992104881e-17
11
-6.5870479727831004
21
-15.382150527643221
31
1.578646172564137e-16
0
SPLINE
5
203
100
AcDbEntity
8
0
100
AcDbSpline
70
0
71
2
72
6
73
3
74
0
42
0.000000001
43
0.0000000001
44
0.0000000001
40
0
40
0
40
0
40
1
40
1
40
1
10
-6.5870479727831022
20
-15.382150527643221
30
1.5786461725641368e-16
10
-6.6551646065191647
20
-15.556840166578754
30
1.8082677600742089e-16
10
-6.4455373896060708
20
-15.638579990660986
30
1.5327223148708627e-16
0
LINE
5
204
100
AcDbEntity
8
0
100
AcDbLine
10
-6.4455373896060708
20
-15.638579990660986
30
1.5327223148708629e-16
11
-5.9826104585936157
21
-15.819088831359732
31
9.2422591263446709e-17
0
SPLINE
5
205
100
AcDbEntity
8
0
100
AcDbSpline
70
0
71
2
72
6
73
3
74
0
42
0.000000001
43
0.0000000001
44
0.0000000001
40
0
40
0
40
0
40
1
40
1
40
1
10
-5.9826104585936157
20
-15.819088831359732
30
9.2422591263446709e-17
10
-5.7729830667757502
20
-15.900828723642487
30
6.4868023752675094e-17
10
-5.7048664330396877
20
-15.726139084706958
30
4.1905865001667878e-17
0
LWPOLYLINE
5
206
100
AcDbEntity
8
0
100
AcDbPolyline
90
11
70
1
43
0.0
10
-8.329857076233484
20
-15.383522285883862
10
-9.5752542421905087
20
-14.572164067651634
10
-9.2595546968963127
20
-11.812745301747915
10
-10.615683257642079
20
-13.894339631199506
10
-11.032002143194291
20
-13.623113906240915
10
-9.3944129242309398
20
-11.10949054424152
10
-8.1415286472623691
20
-11.925726506872156
10
-8.4560277414959746
20
-14.641171177652753
10
-8.4442452344742165
20
-14.648847310347447
10
-7.1085865658653145
20
-12.598673314210821
10
-6.6922678572701351
20
-12.869898923884469
0
LWPOLYLINE
5
207
100
AcDbEntity
8
0
100
AcDbPolyline
90
12
70
1
43
0.0
10
-11.376229137181559
20
-13.315555808843751
10
-13.247561320544916
20
-11.515034752420979
10
-11.167536965831992
20
-9.3532069285980004
10
-9.2962047824686351
20
-11.153727985020772
10
-9.640708813370674
20
-11.511780715382185
10
-10.687844121145915
20
-10.504268961277452
10
-11.175349884193762
20
-11.010947414557554
10
-10.216038879532368
20
-11.933958133288694
10
-10.560542910434407
20
-12.292010863650106
10
-11.519853915095799
20
-11.369000144918969
10
-12.078860544216553
20
-11.949991459658417
10
-11.031725236441313
20
-12.95750321376315
0
LINE
5
208
100
AcDbEntity
8
0
100
AcDbLine
10
-13.484792005516528
20
-11.309092112194522
30
-3.0998856837767159e-17
11
-14.212146940867514
21
-10.290581840452386
31
1.2227332866844507e-16
0
LINE
5
209
100
AcDbEntity
8
0
100
AcDbLine
10
-14.212146940867514
20
-10.290581840452386
30
1.2227332866844507e-16
11
-13.467679889358607
21
-9.0907620196356778
31
2.9276712174269445e-17
0
LINE
5
210
100
AcDbEntity
8
0
100
AcDbLine
10
-13.467679889358607
20
-9.0907620196356778
30
2.9276712174269445e-17
11
-13.671993072220102
21
-8.8046636304134367
31
7.2330696608706166e-17
0
LINE
5
211
100
AcDbEntity
8
0
100
AcDbLine
10
-13.671993072220102
20
-8.8046636304134367
30
7.2330696608706166e-17
11
-14.732464540860477
21
-9.5619845705303472
31
2.3191748151905461e-16
0
LINE
5
212
100
AcDbEntity
8
0
100
AcDbLine
10
-14.732464540860477
20
-9.5619845705303472
30
2.3191748151905461e-16
11
-15.397163546023531
21
-8.6312109805379151
31
3.7198646885050714e-16
0
LINE
5
213
100
AcDbEntity
8
0
100
AcDbLine
10
-15.397163546023531
20
-8.6312109805379151
30
3.7198646885050714e-16
11
-12.955790247818015
21
-6.8877382176697219
31
4.5924116335691019e-18
0
LINE
5
214
100
AcDbEntity
8
0
100
AcDbLine
10
-12.955790247818015
20
-6.8877382176697219
30
4.5924116335691019e-18
11
-11.57190876479355
21
-8.8255782416107245
31
-2.8702661654059789e-16
0
SPLINE
5
215
100
AcDbEntity
8
0
100
AcDbSpline
70
0
71
2
72
6
73
3
74
0
42
0.000000001
43
0.0000000001
44
0.0000000001
40
0
40
0
40
0
40
1
40
1
40
1
10
-11.571908764793552
20
-8.8255782416107245
30
-2.8702661654059789e-16
10
-11.348526296253612
20
-9.1383792245658402
30
-3.340989845040701e-16
10
-11.364895490022299
20
-9.3574316861116635
30
-3.3754327383106572e-16
0
SPLINE
5
216
100
AcDbEntity
8
0
100
AcDbSpline
70
0
71
2
72
6
73
3
74
0
42
0.000000001
43
0.0000000001
44
0.0000000001
40
0
40
0
40
0
40
1
40
1
40
1
10
-11.364895490022299
20
-9.3574316861116635
30
-3.3754327383106572e-16
10
-11.385626415094922
20
-9.6026393608089489
30
-3.4098758614849829e-16
10
-11.683168794884672
20
-9.8151251102614037
30
-2.9621143406012673e-16
0
LINE
5
217
100
AcDbEntity
8
0
100
AcDbLine
10
-11.683168794884672
20
-9.8151251102614037
30
-2.9621143406012673e-16
11
-12.152370269317345
21
-10.150198813071311
31
-2.2560288211491837e-16
0
SPLINE
5
218
100
AcDbEntity
8
0
100
AcDbSpline
70
0
71
2
72
6
73
3
74
0
42
0.000000001
43
0.0000000001
44
0.0000000001
40
0
40
0
40
0
40
1
40
1
40
1
10
-12.152370269317345
20
-10.150198813071313
30
-2.2560288211491842e-16
10
-12.522390899562117
20
-10.414443896363275
30
-1.6991972186264623e-16
10
-12.789360026249218
20
-10.040608806294589
30
-1.1366253637964507e-16
0
LINE
5
219
100
AcDbEntity
8
0
100
AcDbLine
10
-12.789360026249215
20
-10.040608806294589
30
-1.1366253637964507e-16
11
-13.484792005516528
21
-11.309092112194522
31
-3.0998856837767159e-17
0
LINE
5
220
100
AcDbEntity
8
0
100
AcDbLine
10
-12.645410057098417
20
-9.0968374415921147
30
-1.1136632050454436e-16
11
-12.347867677308669
21
-8.8843516921396581
31
-1.5614247259291587e-16
0
SPLINE
5
221
100
AcDbEntity
8
0
100
AcDbSpline
70
0
71
2
72
6
73
3
74
0
42
0.000000001
43
0.0000000001
44
0.0000000001
40
0
40
0
40
0
40
1
40
1
40
1
10
-12.347867677308669
20
-8.8843516921396581
30
-1.5614247259291587e-16
10
-12.267760048883991
20
-8.8271439442057194
30
-1.6819760018958538e-16
10
-12.259581532615172
20
-8.7781028131848782
30
-1.6819760018958543e-16
0
SPLINE
5
222
100
AcDbEntity
8
0
100
AcDbSpline
70
0
71
2
72
6
73
3
74
0
42
0.000000001
43
0.0000000001
44
0.0000000001
40
0
40
0
40
0
40
1
40
1
40
1
10
-12.259581532615172
20
-8.7781028131848782
30
-1.6819760018958543e-16
10
-12.251403016346353
20
-8.729061682164037
30
-1.6819760018958538e-16
10
-12.308610655178908
20
-8.6489542065133023
30
-1.5614249558335286e-16
0
LINE
5
223
100
AcDbEntity
8
0
100
AcDbLine
10
-12.308610655178908
20
-8.6489542065133023
30
-1.5614249558335286e-16
11
-12.69544369182832
21
-8.1072744816256073
31
-7.4626935474243826e-17
0
LINE
5
224
100
AcDbEntity
8
0
100
AcDbLine
10
-12.69544369182832
20
-8.1072744816256073
30
-7.4626935474243826e-17
11
-13.267640623046745
21
-8.5159009564499861
31
1.1481056385066619e-17
0
LINE
5
225
100
AcDbEntity
8
0
100
AcDbLine
10
-13.267640623046745
20
-8.5159009564499861
30
1.1481056385066619e-17
11
-12.88080758639733
21
-9.0575806813376829
31
-7.0034503724042437e-17
0
SPLINE
5
226
100
AcDbEntity
8
0
100
AcDbSpline
70
0
71
2
72
6
73
3
74
0
42
0.000000001
43
0.0000000001
44
0.0000000001
40
0
40
0
40
0
40
1
40
1
40
1
10
-12.880807586397333
20
-9.0575806813376811
30
-7.0034503724042425e-17
10
-12.782737332812756
20
-9.1949078042780759
30
-9.0700400619074892e-17
10
-12.645410057098417
20
-9.0968374415921147
30
-1.1136632050454436e-16
0
LINE
5
227
100
AcDbEntity
8
0
100
AcDbLine
10
6.8000002170172253
20
-9.1481404185760002
30
0
11
7.0725799514133323
21
-8.9347233561025554
31
0
0
ENDSEC
0
SECTION
2
OBJECTS
0
DICTIONARY
5
C
100
AcDbDictionary
3
ACAD_GROUP
350
D
3
ACAD_MLINESTYLE
350
17
0
DICTIONARY
5
D
100
AcDbDictionary
0
DICTIONARY
5
1A
330
C
100
AcDbDictionary
0
DICTIONARY
5
17
100
AcDbDictionary
0
ENDSEC
0
EOF
