0
SECTION
2
HEADER
9
$INSUNITS
70
1
9
$ACADVER
1
AC1014
9
$HANDSEED
5
FFFF
0
ENDSEC
0
SECTION
2
TABLES
0
TABLE
2
VPORT
5
8
100
AcDbSymbolTable
0
ENDTAB
0
TABLE
2
LTYPE
5
5
100
AcDbSymbolTable
0
LTYPE
5
14
100
AcDbSymbolTableRecord
100
AcDbLinetypeTableRecord
2
BYBLOCK
70
0
0
LTYPE
5
15
100
AcDbSymbolTableRecord
100
AcDbLinetypeTableRecord
2
BYLAYER
70
0
0
ENDTAB
0
TABLE
2
LAYER
5
2
100
AcDbSymbolTable
70
2
0
LAYER
5
50
100
AcDbSymbolTableRecord
100
AcDbLayerTableRecord
2
0
70
0
6
CONTINUOUS
0
ENDTAB
0
TABLE
2
STYLE
5
3
100
AcDbSymbolTable
70
1
0
STYLE
5
11
100
AcDbSymbolTableRecord
100
AcDbTextStyleTableRecord
2
STANDARD
70
0
0
ENDTAB
0
TABLE
2
VIEW
5
6
100
AcDbSymbolTable
70
0
0
ENDTAB
0
TABLE
2
UCS
5
7
100
AcDbSymbolTable
70
0
0
ENDTAB
0
TABLE
2
APPID
5
9
100
AcDbSymbolTable
70
2
0
APPID
5
12
100
AcDbSymbolTableRecord
100
AcDbRegAppTableRecord
2
ACAD
70
0
0
ENDTAB
0
TABLE
2
DIMSTYLE
5
A
100
AcDbSymbolTable
70
1
0
ENDTAB
0
TABLE
2
BLOCK_RECORD
5
1
100
AcDbSymbolTable
70
1
0
BLOCK_RECORD
5
1F
100
AcDbSymbolTableRecord
100
AcDbBlockTableRecord
2
*MODEL_SPACE
0
BLOCK_RECORD
5
1B
100
AcDbSymbolTableRecord
100
AcDbBlockTableRecord
2
*PAPER_SPACE
0
ENDTAB
0
ENDSEC
0
SECTION
2
BLOCKS
0
BLOCK
5
20
100
AcDbEntity
100
AcDbBlockBegin
2
*MODEL_SPACE
0
ENDBLK
5
21
100
AcDbEntity
100
AcDbBlockEnd
0
BLOCK
5
1C
100
AcDbEntity
100
AcDbBlockBegin
2
*PAPER_SPACE
0
ENDBLK
5
1D
100
AcDbEntity
100
AcDbBlockEnd
0
ENDSEC
0
SECTION
2
ENTITIES
0
SPLINE
5
100
100
AcDbEntity
8
0
100
AcDbSpline
70
4
71
3
72
8
73
4
74
0
42
0.000000001
43
0.0000000001
44
0.0000000001
40
0
40
0
40
0
40
0
40
1
40
1
40
1
40
1
41
1
41
1
41
1
41
1
10
-7.0730230466761688
20
0.41959607481983685
30
0
10
-7.0704217477789273
20
0.33375321121089874
30
0
10
-7.1900814970519926
20
0.46902075386740805
30
0
10
-7.5022373647208562
20
0.89823507191209639
30
0
0
SPLINE
5
101
100
AcDbEntity
8
0
100
AcDbSpline
70
4
71
3
72
8
73
4
74
0
42
0.000000001
43
0.0000000001
44
0.0000000001
40
0
40
0
40
0
40
0
40
1
40
1
40
1
40
1
41
1
41
1
41
1
41
1
10
-7.5022373647208562
20
0.89823507191209639
30
0
10
-7.7025373798083789
20
1.1739727550195924
30
0
10
-7.9054386937931396
20
1.4445078403326093
30
0
10
-7.9548633728407099
20
1.4965338182774197
30
0
0
SPLINE
5
102
100
AcDbEntity
8
0
100
AcDbSpline
70
4
71
3
72
8
73
4
74
0
42
0.000000001
43
0.0000000001
44
0.0000000001
40
0
40
0
40
0
40
0
40
1
40
1
40
1
40
1
41
1
41
1
41
1
41
1
10
-7.9548633728407099
20
1.4965338182774197
30
0
10
-8.1083400077779046
20
1.6682195454952946
30
0
10
-8.3944828864743624
20
1.6916312355704604
30
0
10
-8.5635673147949962
20
1.5459584973249894
30
0
0
SPLINE
5
103
100
AcDbEntity
8
0
100
AcDbSpline
70
4
71
3
72
8
73
4
74
0
42
0.000000001
43
0.0000000001
44
0.0000000001
40
0
40
0
40
0
40
0
40
1
40
1
40
1
40
1
41
1
41
1
41
1
41
1
10
-8.5635673147949962
20
1.5459584973249894
30
0
10
-8.7066387541432242
20
1.4236974491546843
30
0
10
-8.8002855144438872
20
1.3664688734153931
30
0
10
-8.9797751383534816
20
1.2962338031898972
30
0
0
SPLINE
5
104
100
AcDbEntity
8
0
100
AcDbSpline
70
4
71
3
72
8
73
4
74
0
42
0.000000001
43
0.0000000001
44
0.0000000001
40
0
40
0
40
0
40
0
40
1
40
1
40
1
40
1
41
1
41
1
41
1
41
1
10
-8.9797751383534816
20
1.2962338031898972
30
0
10
-9.2555128214609788
20
1.1843779506085554
30
0
10
-9.3881790652202461
20
0.99448313110999609
30
0
10
-9.3881790652202461
20
0.70834025241353715
30
0
0
SPLINE
5
105
100
AcDbEntity
8
0
100
AcDbSpline
70
4
71
3
72
8
73
4
74
0
42
0.000000001
43
0.0000000001
44
0.0000000001
40
0
40
0
40
0
40
0
40
1
40
1
40
1
40
1
41
1
41
1
41
1
41
1
10
-9.3881790652202461
20
0.70834025241353715
30
0
10
-9.3881790652202461
20
0.50804023732601611
30
0
10
-9.362166076247842
20
0.44821036268948328
30
0
10
-9.1982842457216858
20
0.28692983106057052
30
0
0
SPLINE
5
106
100
AcDbEntity
8
0
100
AcDbSpline
70
4
71
3
72
8
73
4
74
0
42
0.000000001
43
0.0000000001
44
0.0000000001
40
0
40
0
40
0
40
0
40
1
40
1
40
1
40
1
41
1
41
1
41
1
41
1
10
-9.1982842457216858
20
0.28692983106057052
30
0
10
-9.0890296920375864
20
0.18027657627370774
30
0
10
-9.0500102085789766
20
0.11784540273993542
30
0
10
-9.0135920240176084
20
-0.0044156454303709613
30
0
0
SPLINE
5
107
100
AcDbEntity
8
0
100
AcDbSpline
70
4
71
3
72
8
73
4
74
0
42
0.000000001
43
0.0000000001
44
0.0000000001
40
0
40
0
40
0
40
0
40
1
40
1
40
1
40
1
41
1
41
1
41
1
41
1
10
-9.0135920240176084
20
-0.0044156454303709613
30
0
10
-8.9329517582031528
20
-0.26454553515442425
30
0
10
-8.7820764221632022
20
-0.40761697450265377
30
0
10
-8.5895803037674021
20
-0.40761697450265377
30
0
0
SPLINE
5
108
100
AcDbEntity
8
0
100
AcDbSpline
70
4
71
3
72
8
73
4
74
0
42
0.000000001
43
0.0000000001
44
0.0000000001
40
0
40
0
40
0
40
0
40
1
40
1
40
1
40
1
41
1
41
1
41
1
41
1
10
-8.5895803037674021
20
-0.40761697450265377
30
0
10
-8.5505608203087924
20
-0.40761697450265377
30
0
10
-8.2358036537426909
20
-0.31397021420199445
30
0
10
-7.8924321993069393
20
-0.19951306272341116
30
0
0
SPLINE
5
109
100
AcDbEntity
8
0
100
AcDbSpline
70
4
71
3
72
8
73
4
74
0
42
0.000000001
43
0.0000000001
44
0.0000000001
40
0
40
0
40
0
40
0
40
1
40
1
40
1
40
1
41
1
41
1
41
1
41
1
10
-7.8924321993069393
20
-0.19951306272341116
30
0
10
-7.4346035933926045
20
-0.048637726683459878
30
0
10
-7.2655191650719679
20
-0.0018143465331298197
30
0
10
-7.2499113716885244
20
-0.025226036608294145
30
0
0
SPLINE
5
110
100
AcDbEntity
8
0
100
AcDbSpline
70
4
71
3
72
8
73
4
74
0
42
0.000000001
43
0.0000000001
44
0.0000000001
40
0
40
0
40
0
40
0
40
1
40
1
40
1
40
1
41
1
41
1
41
1
41
1
10
-7.2499113716885244
20
-0.025226036608294145
30
0
10
-7.2395061760995638
20
-0.040833829991737854
30
0
10
-7.2395061760995638
20
-0.061644221169662429
30
0
10
-7.2499113716885244
20
-0.069448117861384481
30
0
0
SPLINE
5
111
100
AcDbEntity
8
0
100
AcDbSpline
70
4
71
3
72
8
73
4
74
0
42
0.000000001
43
0.0000000001
44
0.0000000001
40
0
40
0
40
0
40
0
40
1
40
1
40
1
40
1
41
1
41
1
41
1
41
1
10
-7.2499113716885244
20
-0.069448117861384481
30
0
10
-7.2603165672774859
20
-0.079853313450345867
30
0
10
-7.6453088040690869
20
-0.20731695941513176
30
0
10
-8.1083400077779046
20
-0.35559099655784354
30
0
0
SPLINE
5
112
100
AcDbEntity
8
0
100
AcDbSpline
70
4
71
3
72
8
73
4
74
0
42
0.000000001
43
0.0000000001
44
0.0000000001
40
0
40
0
40
0
40
0
40
1
40
1
40
1
40
1
41
1
41
1
41
1
41
1
10
-8.1083400077779046
20
-0.35559099655784354
30
0
10
-8.8601153890804163
20
-0.59751179400121202
30
0
10
-8.956363448278319
20
-0.63653127745982041
30
0
10
-9.0370037140927746
20
-0.71717154327427735
30
0
0
SPLINE
5
113
100
AcDbEntity
8
0
100
AcDbSpline
70
4
71
3
72
8
73
4
74
0
42
0.000000001
43
0.0000000001
44
0.0000000001
40
0
40
0
40
0
40
0
40
1
40
1
40
1
40
1
41
1
41
1
41
1
41
1
10
-9.0370037140927746
20
-0.71717154327427735
30
0
10
-9.1202452788044717
20
-0.79781180908873472
30
0
10
-9.1800751534410026
20
-0.93047805284800111
30
0
10
-9.1800751534410026
20
-1.0319287098403831
30
0
0
SPLINE
5
114
100
AcDbEntity
8
0
100
AcDbSpline
70
4
71
3
72
8
73
4
74
0
42
0.000000001
43
0.0000000001
44
0.0000000001
40
0
40
0
40
0
40
0
40
1
40
1
40
1
40
1
41
1
41
1
41
1
41
1
10
-9.1800751534410026
20
-1.0319287098403831
30
0
10
-9.1800751534410026
20
-1.2088170348527381
30
0
10
-9.0422063118872575
20
-1.3935092565568168
30
0
10
-8.847108894594216
20
-1.4793521201657549
30
0
0
SPLINE
5
115
100
AcDbEntity
8
0
100
AcDbSpline
70
4
71
3
72
8
73
4
74
0
42
0.000000001
43
0.0000000001
44
0.0000000001
40
0
40
0
40
0
40
0
40
1
40
1
40
1
40
1
41
1
41
1
41
1
41
1
10
-8.847108894594216
20
-1.4793521201657549
30
0
10
-8.753462134293553
20
-1.520972902521603
30
0
10
-8.7014361563487448
20
-1.5261755003160846
30
0
10
-8.54015562471983
20
-1.5131690058298819
30
0
0
SPLINE
5
116
100
AcDbEntity
8
0
100
AcDbSpline
70
4
71
3
72
8
73
4
74
0
42
0.000000001
43
0.0000000001
44
0.0000000001
40
0
40
0
40
0
40
0
40
1
40
1
40
1
40
1
41
1
41
1
41
1
41
1
10
-8.54015562471983
20
-1.5131690058298819
30
0
10
-8.3866789897826379
20
-1.4975612124464384
30
0
10
-8.3216465173516276
20
-1.5027638102409189
30
0
10
-8.2306010559482061
20
-1.5391819948022876
30
0
0
SPLINE
5
117
100
AcDbEntity
8
0
100
AcDbSpline
70
4
71
3
72
8
73
4
74
0
42
0.000000001
43
0.0000000001
44
0.0000000001
40
0
40
0
40
0
40
0
40
1
40
1
40
1
40
1
41
1
41
1
41
1
41
1
10
-8.2306010559482061
20
-1.5391819948022876
30
0
10
-8.0329023397579284
20
-1.612018363925023
30
0
10
-7.8534127158483296
20
-1.866945655854594
30
0
10
-7.8534127158483296
20
-2.069846969839356
30
0
0
SPLINE
5
118
100
AcDbEntity
8
0
100
AcDbSpline
70
4
71
3
72
8
73
4
74
0
42
0.000000001
43
0.0000000001
44
0.0000000001
40
0
40
0
40
0
40
0
40
1
40
1
40
1
40
1
41
1
41
1
41
1
41
1
10
-7.8534127158483296
20
-2.069846969839356
30
0
10
-7.8534127158483296
20
-2.1921080180096606
30
0
10
-7.7363542654725057
20
-2.3377807562551314
30
0
10
-7.5750737338435936
20
-2.4210223209668289
30
0
0
SPLINE
5
119
100
AcDbEntity
8
0
100
AcDbSpline
70
4
71
3
72
8
73
4
74
0
42
0.000000001
43
0.0000000001
44
0.0000000001
40
0
40
0
40
0
40
0
40
1
40
1
40
1
40
1
41
1
41
1
41
1
41
1
10
-7.5750737338435936
20
-2.4210223209668289
30
0
10
-7.4736230768512115
20
-2.4730482989116398
30
0
10
-7.2499113716885244
20
-2.4756495978088804
30
0
10
-7.1562646113878658
20
-2.4262249187613092
30
0
0
SPLINE
5
120
100
AcDbEntity
8
0
100
AcDbSpline
70
4
71
3
72
8
73
4
74
0
42
0.000000001
43
0.0000000001
44
0.0000000001
40
0
40
0
40
0
40
0
40
1
40
1
40
1
40
1
41
1
41
1
41
1
41
1
10
-7.1562646113878658
20
-2.4262249187613092
30
0
10
-7.0496113566010052
20
-2.3715976419192595
30
0
10
-6.9455594007113843
20
-2.2493365937489544
30
0
10
-6.9169451128417379
20
-2.1478859367565724
30
0
0
SPLINE
5
121
100
AcDbEntity
8
0
100
AcDbSpline
70
4
71
3
72
8
73
4
74
0
42
0.000000001
43
0.0000000001
44
0.0000000001
40
0
40
0
40
0
40
0
40
1
40
1
40
1
40
1
41
1
41
1
41
1
41
1
10
-6.9169451128417379
20
-2.1478859367565724
30
0
10
-6.9013373194582934
20
-2.0984612577090029
30
0
10
-6.8909321238693302
20
-1.6770508363560366
30
0
10
-6.8909321238693302
20
-1.1802027469830936
30
0
0
SPLINE
5
122
100
AcDbEntity
8
0
100
AcDbSpline
70
4
71
3
72
8
73
4
74
0
42
0.000000001
43
0.0000000001
44
0.0000000001
40
0
40
0
40
0
40
0
40
1
40
1
40
1
40
1
41
1
41
1
41
1
41
1
10
-6.8909321238693302
20
-1.1802027469830936
30
0
10
-6.8909321238693302
20
-0.4856559414198699
30
0
10
-6.8831282271776084
20
-0.30096371971579122
30
0
10
-6.8571152382052034
20
-0.30876761640751355
30
0
0
SPLINE
5
123
100
AcDbEntity
8
0
100
AcDbSpline
70
4
71
3
72
8
73
4
74
0
42
0.000000001
43
0.0000000001
44
0.0000000001
40
0
40
0
40
0
40
0
40
1
40
1
40
1
40
1
41
1
41
1
41
1
41
1
10
-6.8571152382052034
20
-0.30876761640751355
30
0
10
-6.8337035481300408
20
-0.31917281199647463
30
0
10
-6.8232983525410766
20
-0.54028321826192016
30
0
10
-6.8128931569521161
20
-1.2608430127975492
30
0
0
SPLINE
5
124
100
AcDbEntity
8
0
100
AcDbSpline
70
4
71
3
72
8
73
4
74
0
42
0.000000001
43
0.0000000001
44
0.0000000001
40
0
40
0
40
0
40
0
40
1
40
1
40
1
40
1
41
1
41
1
41
1
41
1
10
-6.8128931569521161
20
-1.2608430127975492
30
0
10
-6.7998866624659131
20
-2.1608924312427753
30
0
10
-6.7972853635686725
20
-2.2025132135986247
30
0
10
-6.7452593856238598
20
-2.2727482838241184
30
0
0
SPLINE
5
125
100
AcDbEntity
8
0
100
AcDbSpline
70
4
71
3
72
8
73
4
74
0
42
0.000000001
43
0.0000000001
44
0.0000000001
40
0
40
0
40
0
40
0
40
1
40
1
40
1
40
1
41
1
41
1
41
1
41
1
10
-6.7452593856238598
20
-2.2727482838241184
30
0
10
-6.5475606694335804
20
-2.5406820702398942
30
0
10
-6.1599671337447406
20
-2.5276755757536913
30
0
10
-5.9466606241710158
20
-2.2441339959544719
30
0
0
SPLINE
5
126
100
AcDbEntity
8
0
100
AcDbSpline
70
4
71
3
72
8
73
4
74
0
42
0.000000001
43
0.0000000001
44
0.0000000001
40
0
40
0
40
0
40
0
40
1
40
1
40
1
40
1
41
1
41
1
41
1
41
1
10
-5.9466606241710158
20
-2.2441339959544719
30
0
10
-5.8946346462262049
20
-2.1765002246262184
30
0
10
-5.8348047715896723
20
-2.1400820400648506
30
0
10
-5.7073411256248869
20
-2.0984612577090029
30
0
0
SPLINE
5
127
100
AcDbEntity
8
0
100
AcDbSpline
70
4
71
3
72
8
73
4
74
0
42
0.000000001
43
0.0000000001
44
0.0000000001
40
0
40
0
40
0
40
0
40
1
40
1
40
1
40
1
41
1
41
1
41
1
41
1
10
-5.7073411256248869
20
-2.0984612577090029
30
0
10
-5.4940346160511622
20
-2.0282261874835079
30
0
10
-5.2599177152995154
20
-1.856540460265633
30
0
10
-5.1506631616154124
20
-1.6926586297394781
30
0
0
SPLINE
5
128
100
AcDbEntity
8
0
100
AcDbSpline
70
4
71
3
72
8
73
4
74
0
42
0.000000001
43
0.0000000001
44
0.0000000001
40
0
40
0
40
0
40
0
40
1
40
1
40
1
40
1
41
1
41
1
41
1
41
1
10
-5.1506631616154124
20
-1.6926586297394781
30
0
10
-5.070022895800955
20
-1.5703975815691735
30
0
10
-5.0674215969037144
20
-1.557391087082971
30
0
10
-5.0830293902871588
20
-1.3831040609678558
30
0
0
SPLINE
5
129
100
AcDbEntity
8
0
100
AcDbSpline
70
4
71
3
72
8
73
4
74
0
42
0.000000001
43
0.0000000001
44
0.0000000001
40
0
40
0
40
0
40
0
40
1
40
1
40
1
40
1
41
1
41
1
41
1
41
1
10
-5.0830293902871588
20
-1.3831040609678558
30
0
10
-5.0960358847733609
20
-1.2478365183113465
30
0
10
-5.0908332869788806
20
-1.1697975513941303
30
0
10
-5.0596177002119926
20
-1.0839546877851931
30
0
0
SPLINE
5
130
100
AcDbEntity
8
0
100
AcDbSpline
70
4
71
3
72
8
73
4
74
0
42
0.000000001
43
0.0000000001
44
0.0000000001
40
0
40
0
40
0
40
0
40
1
40
1
40
1
40
1
41
1
41
1
41
1
41
1
10
-5.0596177002119926
20
-1.0839546877851931
30
0
10
-4.973774836603055
20
-0.8394325914445826
30
0
10
-5.0388073090340697
20
-0.61832218517913695
30
0
10
-5.2234995307381471
20
-0.51687152818675663
30
0
0
SPLINE
5
131
100
AcDbEntity
8
0
100
AcDbSpline
70
4
71
3
72
8
73
4
74
0
42
0.000000001
43
0.0000000001
44
0.0000000001
40
0
40
0
40
0
40
0
40
1
40
1
40
1
40
1
41
1
41
1
41
1
41
1
10
-5.2234995307381471
20
-0.51687152818675663
30
0
10
-5.275525508682958
20
-0.48825724031710999
30
0
10
-5.5746748818656204
20
-0.38160398553024866
30
0
10
-5.8894320484317255
20
-0.27755202964062747
30
0
0
SPLINE
5
132
100
AcDbEntity
8
0
100
AcDbSpline
70
4
71
3
72
8
73
4
74
0
42
0.000000001
43
0.0000000001
44
0.0000000001
40
0
40
0
40
0
40
0
40
1
40
1
40
1
40
1
41
1
41
1
41
1
41
1
10
-5.8894320484317255
20
-0.27755202964062747
30
0
10
-6.2041892149978297
20
-0.17350007375100565
30
0
10
-6.4669204036191239
20
-0.08505591124482674
30
0
10
-6.4721230014136069
20
-0.079853313450345867
30
0
0
SPLINE
5
133
100
AcDbEntity
8
0
100
AcDbSpline
70
4
71
3
72
8
73
4
74
0
42
0.000000001
43
0.0000000001
44
0.0000000001
40
0
40
0
40
0
40
0
40
1
40
1
40
1
40
1
41
1
41
1
41
1
41
1
10
-6.4721230014136069
20
-0.079853313450345867
30
0
10
-6.4773255992080871
20
-0.074650715655864994
30
0
10
-6.4747243003108466
20
-0.053840324477940404
30
0
10
-6.4669204036191239
20
-0.033029933300015822
30
0
0
SPLINE
5
134
100
AcDbEntity
8
0
100
AcDbSpline
70
4
71
3
72
8
73
4
74
0
42
0.000000001
43
0.0000000001
44
0.0000000001
40
0
40
0
40
0
40
0
40
1
40
1
40
1
40
1
41
1
41
1
41
1
41
1
10
-6.4669204036191239
20
-0.033029933300015822
30
0
10
-6.4539139091329218
20
0.00078695236411132133
30
0
10
-6.3290515620653762
20
-0.033029933300015822
30
0
10
-5.7593671035696978
20
-0.22812735059305597
30
0
0
SPLINE
5
135
100
AcDbEntity
8
0
100
AcDbSpline
70
4
71
3
72
8
73
4
74
0
42
0.000000001
43
0.0000000001
44
0.0000000001
40
0
40
0
40
0
40
0
40
1
40
1
40
1
40
1
41
1
41
1
41
1
41
1
10
-5.7593671035696978
20
-0.22812735059305597
30
0
10
-5.0882319880816391
20
-0.45704165355022397
30
0
10
-5.0622189991092332
20
-0.46484555024194568
30
0
10
-4.9477618476306491
20
-0.43623126237229898
30
0
0
SPLINE
5
136
100
AcDbEntity
8
0
100
AcDbSpline
70
4
71
3
72
8
73
4
74
0
42
0.000000001
43
0.0000000001
44
0.0000000001
40
0
40
0
40
0
40
0
40
1
40
1
40
1
40
1
41
1
41
1
41
1
41
1
10
-4.9477618476306491
20
-0.43623126237229898
30
0
10
-4.7266514413652052
20
-0.3790026866330079
30
0
10
-4.6330046810645458
20
-0.27495073074338605
30
0
10
-4.5679722086335319
20
-0.0044156454303709613
30
0
0
SPLINE
5
137
100
AcDbEntity
8
0
100
AcDbSpline
70
4
71
3
72
8
73
4
74
0
42
0.000000001
43
0.0000000001
44
0.0000000001
40
0
40
0
40
0
40
0
40
1
40
1
40
1
40
1
41
1
41
1
41
1
41
1
10
-4.5679722086335319
20
-0.0044156454303709613
30
0
10
-4.5471618174556081
20
0.081427218178567143
30
0
10
-4.5055410350997596
20
0.21929605973231581
30
0
10
-4.4743254483328725
20
0.29993632554677307
30
0
0
SPLINE
5
138
100
AcDbEntity
8
0
100
AcDbSpline
70
4
71
3
72
8
73
4
74
0
42
0.000000001
43
0.0000000001
44
0.0000000001
40
0
40
0
40
0
40
0
40
1
40
1
40
1
40
1
41
1
41
1
41
1
41
1
10
-4.4743254483328725
20
0.29993632554677307
30
0
10
-4.3754760902377328
20
0.56787011196254733
30
0
10
-4.4170968725935804
20
0.86962078404245013
30
0
10
-4.5835800020169764
20
1.1167441792803008
30
0
0
SPLINE
5
139
100
AcDbEntity
8
0
100
AcDbSpline
70
4
71
3
72
8
73
4
74
0
42
0.000000001
43
0.0000000001
44
0.0000000001
40
0
40
0
40
0
40
0
40
1
40
1
40
1
40
1
41
1
41
1
41
1
41
1
10
-4.5835800020169764
20
1.1167441792803008
30
0
10
-4.6460111755507487
20
1.2129922384782008
30
0
10
-4.7058410501872805
20
1.2624169175257713
30
0
10
-4.8333046961520667
20
1.3274493899567852
30
0
0
SPLINE
5
140
100
AcDbEntity
8
0
100
AcDbSpline
70
4
71
3
72
8
73
4
74
0
42
0.000000001
43
0.0000000001
44
0.0000000001
40
0
40
0
40
0
40
0
40
1
40
1
40
1
40
1
41
1
41
1
41
1
41
1
10
-4.8333046961520667
20
1.3274493899567852
30
0
10
-4.9243501575554847
20
1.3716714712098741
30
0
10
-5.0336047112395885
20
1.4445078403326093
30
0
10
-5.0804280913899182
20
1.4887299215856982
30
0
0
SPLINE
5
141
100
AcDbEntity
8
0
100
AcDbSpline
70
4
71
3
72
8
73
4
74
0
42
0.000000001
43
0.0000000001
44
0.0000000001
40
0
40
0
40
0
40
0
40
1
40
1
40
1
40
1
41
1
41
1
41
1
41
1
10
-5.0804280913899182
20
1.4887299215856982
30
0
10
-5.2911333020664006
20
1.6942325344676994
30
0
10
-5.5954852730435434
20
1.6994351322621806
30
0
10
-5.7749748969531405
20
1.5017364160719009
30
0
0
SPLINE
5
142
100
AcDbEntity
8
0
100
AcDbSpline
70
4
71
3
72
8
73
4
74
0
42
0.000000001
43
0.0000000001
44
0.0000000001
40
0
40
0
40
0
40
0
40
1
40
1
40
1
40
1
41
1
41
1
41
1
41
1
10
-5.7749748969531405
20
1.5017364160719009
30
0
10
-5.8139943804117502
20
1.4601156337160517
30
0
10
-6.0116930966020314
20
1.1973844450947582
30
0
10
-6.214594410586793
20
0.91904546309001944
30
0
0
SPLINE
5
143
100
AcDbEntity
8
0
100
AcDbSpline
70
4
71
3
72
8
73
4
74
0
42
0.000000001
43
0.0000000001
44
0.0000000001
40
0
40
0
40
0
40
0
40
1
40
1
40
1
40
1
41
1
41
1
41
1
41
1
10
-6.214594410586793
20
0.91904546309001944
30
0
10
-6.4174957245715536
20
0.6407064810852825
30
0
10
-6.5891814517894316
20
0.40658958033363429
30
0
10
-6.5943840495839092
20
0.40138698253915334
30
0
0
SPLINE
5
144
100
AcDbEntity
8
0
100
AcDbSpline
70
4
71
3
72
8
73
4
74
0
42
0.000000001
43
0.0000000001
44
0.0000000001
40
0
40
0
40
0
40
0
40
1
40
1
40
1
40
1
41
1
41
1
41
1
41
1
10
-6.5943840495839092
20
0.40138698253915334
30
0
10
-6.6021879462756337
20
0.3935830858474314
30
0
10
-6.6177957396590754
20
0.40138698253915334
30
0
10
-6.6308022341452775
20
0.41439347702535595
30
0
0
SPLINE
5
145
100
AcDbEntity
8
0
100
AcDbSpline
70
4
71
3
72
8
73
4
74
0
42
0.000000001
43
0.0000000001
44
0.0000000001
40
0
40
0
40
0
40
0
40
1
40
1
40
1
40
1
41
1
41
1
41
1
41
1
10
-6.6308022341452775
20
0.41439347702535595
30
0
10
-6.646410027528721
20
0.43000127040879993
30
0
10
-6.4695217025163636
20
0.6953337579273341
30
0
10
-6.1261502480806138
20
1.1609662605333897
30
0
0
SPLINE
5
146
100
AcDbEntity
8
0
100
AcDbSpline
70
4
71
3
72
8
73
4
74
0
42
0.000000001
43
0.0000000001
44
0.0000000001
40
0
40
0
40
0
40
0
40
1
40
1
40
1
40
1
41
1
41
1
41
1
41
1
10
-6.1261502480806138
20
1.1609662605333897
30
0
10
-5.7671710002614187
20
1.6474091543173697
30
0
10
-5.5902826752490631
20
1.9101403429386647
30
0
10
-5.5798774796601007
20
1.9725715164724369
30
0
0
SPLINE
5
147
100
AcDbEntity
8
0
100
AcDbSpline
70
4
71
3
72
8
73
4
74
0
42
0.000000001
43
0.0000000001
44
0.0000000001
40
0
40
0
40
0
40
0
40
1
40
1
40
1
40
1
41
1
41
1
41
1
41
1
10
-5.5798774796601007
20
1.9725715164724369
30
0
10
-5.5590670884821769
20
2.0818260701565401
30
0
10
-5.6032891697352669
20
2.256113096271656
30
0
10
-5.6761255388580008
20
2.3601650521612783
30
0
0
SPLINE
5
148
100
AcDbEntity
8
0
100
AcDbSpline
70
4
71
3
72
8
73
4
74
0
42
0.000000001
43
0.0000000001
44
0.0000000001
40
0
40
0
40
0
40
0
40
1
40
1
40
1
40
1
41
1
41
1
41
1
41
1
10
-5.6761255388580008
20
2.3601650521612783
30
0
10
-5.7463606090834958
20
2.4616157091536581
30
0
10
-5.9128437385068882
20
2.5318507793791527
30
0
10
-6.0793268679302832
20
2.5318507793791527
30
0
0
SPLINE
5
149
100
AcDbEntity
8
0
100
AcDbSpline
70
4
71
3
72
8
73
4
74
0
42
0.000000001
43
0.0000000001
44
0.0000000001
40
0
40
0
40
0
40
0
40
1
40
1
40
1
40
1
41
1
41
1
41
1
41
1
10
-6.0793268679302832
20
2.5318507793791527
30
0
10
-6.2406073995591962
20
2.5318507793791527
30
0
10
-6.2900320786067683
20
2.5084390893039883
30
0
10
-6.4435087135439595
20
2.3705702477502393
30
0
0
SPLINE
5
150
100
AcDbEntity
8
0
100
AcDbSpline
70
4
71
3
72
8
73
4
74
0
42
0.000000001
43
0.0000000001
44
0.0000000001
40
0
40
0
40
0
40
0
40
1
40
1
40
1
40
1
41
1
41
1
41
1
41
1
10
-6.4435087135439595
20
2.3705702477502393
30
0
10
-6.5813775550977072
20
2.2431066017854531
30
0
10
-6.698436005473531
20
2.1936819227378828
30
0
10
-6.8519126404107231
20
2.1936819227378828
30
0
0
SPLINE
5
151
100
AcDbEntity
8
0
100
AcDbSpline
70
4
71
3
72
8
73
4
74
0
42
0.000000001
43
0.0000000001
44
0.0000000001
40
0
40
0
40
0
40
0
40
1
40
1
40
1
40
1
41
1
41
1
41
1
41
1
10
-6.8519126404107231
20
2.1936819227378828
30
0
10
-7.0079905742451567
20
2.1936819227378828
30
0
10
-7.1406568180044223
20
2.2509104984771762
30
0
10
-7.2681204639692094
20
2.3757728455447205
30
0
0
SPLINE
5
152
100
AcDbEntity
8
0
100
AcDbSpline
70
4
71
3
72
8
73
4
74
0
42
0.000000001
43
0.0000000001
44
0.0000000001
40
0
40
0
40
0
40
0
40
1
40
1
40
1
40
1
41
1
41
1
41
1
41
1
10
-7.2681204639692094
20
2.3757728455447205
30
0
10
-7.3253490397084979
20
2.4304001223867719
30
0
10
-7.4059893055229562
20
2.4902299970233042
30
0
10
-7.4450087889815659
20
2.5032364915095071
30
0
0
SPLINE
5
153
100
AcDbEntity
8
0
100
AcDbSpline
70
4
71
3
72
8
73
4
74
0
42
0.000000001
43
0.0000000001
44
0.0000000001
40
0
40
0
40
0
40
0
40
1
40
1
40
1
40
1
41
1
41
1
41
1
41
1
10
-7.4450087889815659
20
2.5032364915095071
30
0
10
-7.5568646415629086
20
2.5474585727625954
30
0
10
-7.7753737489311128
20
2.5370533771736348
30
0
10
-7.895033498204179
20
2.4824261003315828
30
0
0
SPLINE
5
154
100
AcDbEntity
8
0
100
AcDbSpline
70
4
71
3
72
8
73
4
74
0
42
0.000000001
43
0.0000000001
44
0.0000000001
40
0
40
0
40
0
40
0
40
1
40
1
40
1
40
1
41
1
41
1
41
1
41
1
10
-7.895033498204179
20
2.4824261003315828
30
0
10
-8.0224971441689625
20
2.4251975245922912
30
0
10
-8.1031374099834181
20
2.3263481664971506
30
0
10
-8.1421568934420279
20
2.188479324943402
30
0
0
SPLINE
5
155
100
AcDbEntity
8
0
100
AcDbSpline
70
4
71
3
72
8
73
4
74
0
42
0.000000001
43
0.0000000001
44
0.0000000001
40
0
40
0
40
0
40
0
40
1
40
1
40
1
40
1
41
1
41
1
41
1
41
1
10
-7.6036880217132383
20
1.1583649616361498
30
0
10
-7.3123425452222994
20
0.76296752925558742
30
0
10
-7.0730230466761688
20
0.43000127040879993
30
0
10
-7.0730230466761688
20
0.41959607481983685
30
0
0
SPLINE
5
156
100
AcDbEntity
8
0
100
AcDbSpline
70
4
71
3
72
8
73
4
74
0
42
0.000000001
43
0.0000000001
44
0.0000000001
40
0
40
0
40
0
40
0
40
1
40
1
40
1
40
1
41
1
41
1
41
1
41
1
10
-8.1421568934420279
20
2.188479324943402
30
0
10
-8.1967841702840794
20
1.9803754131641589
30
0
10
-8.170771181311677
20
1.9283494352193478
30
0
10
-7.6036880217132383
20
1.1583649616361498
30
0
0
SPLINE
5
157
100
AcDbEntity
8
0
100
AcDbSpline
70
4
71
3
72
8
73
4
74
0
42
0.000000001
43
0.0000000001
44
0.0000000001
40
0
40
0
40
0
40
0
40
1
40
1
40
1
40
1
41
1
41
1
41
1
41
1
10
-3.2178980809656941
20
0.50283763953153382
30
0
10
-3.1632708041236426
20
0.50283763953153382
30
0
10
-3.1632708041236426
20
0.50023634063429401
30
0
10
-3.1814798964043249
20
0.037205136925478215
30
0
0
SPLINE
5
158
100
AcDbEntity
8
0
100
AcDbSpline
70
4
71
3
72
8
73
4
74
0
42
0.000000001
43
0.0000000001
44
0.0000000001
40
0
40
0
40
0
40
0
40
1
40
1
40
1
40
1
41
1
41
1
41
1
41
1
10
-3.1814798964043249
20
0.037205136925478215
30
0
10
-3.1970876897877694
20
-0.40241437670817148
30
0
10
-3.2309045754518966
20
-0.85764168372526595
30
0
10
-3.2621201622187828
20
-1.1021637800658777
30
0
0
LINE
5
159
100
AcDbEntity
8
0
100
AcDbLine
10
-3.2621201622187814
20
-1.1021637800658777
30
0
11
-3.2777279556022254
21
-1.2140196326472206
31
0
0
LINE
5
160
100
AcDbEntity
8
0
100
AcDbLine
10
-3.2777279556022254
20
-1.2140196326472206
30
0
11
-2.8563175342492593
21
-1.2140196326472197
31
0
0
LINE
5
161
100
AcDbEntity
8
0
100
AcDbLine
10
-2.8563175342492593
20
-1.2140196326472197
30
0
11
-2.8693240287354618
21
-1.1281767690382829
31
0
0
SPLINE
5
162
100
AcDbEntity
8
0
100
AcDbSpline
70
4
71
3
72
8
73
4
74
0
42
0.000000001
43
0.0000000001
44
0.0000000001
40
0
40
0
40
0
40
0
40
1
40
1
40
1
40
1
41
1
41
1
41
1
41
1
10
-2.8693240287354618
20
-1.1281767690382825
30
0
10
-2.8979383166051083
20
-0.95909234071764771
30
0
10
-2.9369578000637167
20
-0.43362996347505967
30
0
10
-2.9551668923443999
20
0.0033882512613510637
30
0
0
SPLINE
5
163
100
AcDbEntity
8
0
100
AcDbSpline
70
4
71
3
72
8
73
4
74
0
42
0.000000001
43
0.0000000001
44
0.0000000001
40
0
40
0
40
0
40
0
40
1
40
1
40
1
40
1
41
1
41
1
41
1
41
1
10
-2.9551668923443999
20
0.0033882512613510637
30
0
10
-2.973375984625084
20
0.49243244394257235
30
0
10
-2.9707746857278434
20
0.50283763953153382
30
0
10
-2.8329058441740949
20
0.50283763953153382
30
0
0
SPLINE
5
164
100
AcDbEntity
8
0
100
AcDbSpline
70
4
71
3
72
8
73
4
74
0
42
0.000000001
43
0.0000000001
44
0.0000000001
40
0
40
0
40
0
40
0
40
1
40
1
40
1
40
1
41
1
41
1
41
1
41
1
10
-2.8329058441740949
20
0.50283763953153382
30
0
10
-2.7262525893872329
20
0.50283763953153382
30
0
10
-2.4609201018686973
20
0.64330777998252375
30
0
10
-2.3672733415680383
20
0.74996103476938503
30
0
0
SPLINE
5
165
100
AcDbEntity
8
0
100
AcDbSpline
70
4
71
3
72
8
73
4
74
0
42
0.000000001
43
0.0000000001
44
0.0000000001
40
0
40
0
40
0
40
0
40
1
40
1
40
1
40
1
41
1
41
1
41
1
41
1
10
-2.3672733415680383
20
0.74996103476938503
30
0
10
-2.2528161900894546
20
0.8800259796314116
30
0
10
-2.2085941088363663
20
0.99188183221275517
30
0
10
-2.2085941088363663
20
1.147959766047187
30
0
0
SPLINE
5
166
100
AcDbEntity
8
0
100
AcDbSpline
70
4
71
3
72
8
73
4
74
0
42
0.000000001
43
0.0000000001
44
0.0000000001
40
0
40
0
40
0
40
0
40
1
40
1
40
1
40
1
41
1
41
1
41
1
41
1
10
-2.2085941088363663
20
1.147959766047187
30
0
10
-2.2085941088363663
20
1.3482597811347083
30
0
10
-2.2450122933977328
20
1.4132922535657215
30
0
10
-2.4583188029714562
20
1.5771740840918755
30
0
0
SPLINE
5
167
100
AcDbEntity
8
0
100
AcDbSpline
70
4
71
3
72
8
73
4
74
0
42
0.000000001
43
0.0000000001
44
0.0000000001
40
0
40
0
40
0
40
0
40
1
40
1
40
1
40
1
41
1
41
1
41
1
41
1
10
-2.4583188029714562
20
1.5771740840918755
30
0
10
-2.6846318070313844
20
1.7514611102069915
30
0
10
-2.8797292243244246
20
2.0011858043420836
30
0
10
-2.9837811802140468
20
2.2535117973744154
30
0
0
LINE
5
168
100
AcDbEntity
8
0
100
AcDbLine
10
-2.9837811802140468
20
2.2535117973744154
30
0
11
-3.0592188482340217
21
2.4304001223867719
31
0
0
LINE
5
169
100
AcDbEntity
8
0
100
AcDbLine
10
-3.0592188482340217
20
2.4304001223867719
30
0
11
-3.1138461250760732
21
2.2769234874495803
31
0
0
SPLINE
5
170
100
AcDbEntity
8
0
100
AcDbSpline
70
4
71
3
72
8
73
4
74
0
42
0.000000001
43
0.0000000001
44
0.0000000001
40
0
40
0
40
0
40
0
40
1
40
1
40
1
40
1
41
1
41
1
41
1
41
1
10
-3.1138461250760732
20
2.2769234874495803
30
0
10
-3.1996889886850086
20
2.0480091844924133
30
0
10
-3.3479630258277213
20
1.8399052727131708
30
0
10
-3.595086421065572
20
1.6057883719615222
30
0
0
SPLINE
5
171
100
AcDbEntity
8
0
100
AcDbSpline
70
4
71
3
72
8
73
4
74
0
42
0.000000001
43
0.0000000001
44
0.0000000001
40
0
40
0
40
0
40
0
40
1
40
1
40
1
40
1
41
1
41
1
41
1
41
1
10
-3.595086421065572
20
1.6057883719615222
30
0
10
-3.7745760449751682
20
1.4367039436408873
30
0
10
-3.8240007240227394
20
1.3716714712098741
30
0
10
-3.8474124140979034
20
1.2806260098064548
30
0
0
SPLINE
5
172
100
AcDbEntity
8
0
100
AcDbSpline
70
4
71
3
72
8
73
4
74
0
42
0.000000001
43
0.0000000001
44
0.0000000001
40
0
40
0
40
0
40
0
40
1
40
1
40
1
40
1
41
1
41
1
41
1
41
1
10
-3.5898838232710903
20
0.653712975571485
30
0
10
-3.4806292695869883
20
0.57827530755151013
30
0
10
-3.2959370478829086
20
0.50283763953153382
30
0
10
-3.2178980809656941
20
0.50283763953153382
30
0
0
SPLINE
5
173
100
AcDbEntity
8
0
100
AcDbSpline
70
4
71
3
72
8
73
4
74
0
42
0.000000001
43
0.0000000001
44
0.0000000001
40
0
40
0
40
0
40
0
40
1
40
1
40
1
40
1
41
1
41
1
41
1
41
1
10
-3.8474124140979034
20
1.2806260098064548
30
0
10
-3.9072422887344356
20
1.0647182013354903
30
0
10
-3.7979877350503335
20
0.80198701271419548
30
0
10
-3.5898838232710903
20
0.653712975571485
30
0
0
CIRCLE
5
174
100
AcDbEntity
8
0
100
AcDbCircle
10
-6.8678455961563207
20
0.087110198631839789
30
0
40
0.13500000000000004
210
0
220
-0
230
1
0
LINE
5
175
100
AcDbEntity
8
0
100
AcDbLine
10
-7.6999360809111375
20
-3.1884054956527863
30
0
11
-7.7779750478283542
21
-3.2482353702893194
31
0
0
LINE
5
176
100
AcDbEntity
8
0
100
AcDbLine
10
-7.7779750478283542
20
-3.2482353702893194
30
0
11
-7.8794257048207346
21
-3.1780003000638257
31
0
0
SPLINE
5
177
100
AcDbEntity
8
0
100
AcDbSpline
70
4
71
3
72
8
73
4
74
0
42
0.000000001
43
0.0000000001
44
0.0000000001
40
0
40
0
40
0
40
0
40
1
40
1
40
1
40
1
41
1
41
1
41
1
41
1
10
-7.8794257048207346
20
-3.1780003000638257
30
0
10
-7.9496607750462296
20
-3.1311769199134956
30
0
10
-7.9964841551965611
20
-3.0661444474824822
30
0
10
-8.0355036386551681
20
-2.9698963882845826
30
0
0
SPLINE
5
178
100
AcDbEntity
8
0
100
AcDbSpline
70
4
71
3
72
8
73
4
74
0
42
0.000000001
43
0.0000000001
44
0.0000000001
40
0
40
0
40
0
40
0
40
1
40
1
40
1
40
1
41
1
41
1
41
1
41
1
10
-8.0355036386551681
20
-2.9698963882845826
30
0
10
-8.0667192254220552
20
-2.8944587202646068
30
0
10
-8.1187452033668652
20
-2.8086158566556696
30
0
10
-8.152562089030992
20
-2.7800015687860227
30
0
0
SPLINE
5
179
100
AcDbEntity
8
0
100
AcDbSpline
70
4
71
3
72
8
73
4
74
0
42
0.000000001
43
0.0000000001
44
0.0000000001
40
0
40
0
40
0
40
0
40
1
40
1
40
1
40
1
41
1
41
1
41
1
41
1
10
-8.152562089030992
20
-2.7800015687860227
30
0
10
-8.2071893658730435
20
-2.7305768897384533
30
0
10
-8.2436075504344117
20
-2.6499366239239963
30
0
10
-8.2800257349957764
20
-2.4808521956033616
30
0
0
SPLINE
5
180
100
AcDbEntity
8
0
100
AcDbSpline
70
4
71
3
72
8
73
4
74
0
42
0.000000001
43
0.0000000001
44
0.0000000001
40
0
40
0
40
0
40
0
40
1
40
1
40
1
40
1
41
1
41
1
41
1
41
1
10
-8.2800257349957764
20
-2.4808521956033616
30
0
10
-8.290430930584737
20
-2.4418327121447536
30
0
10
-8.3060387239681841
20
-2.4106171253778665
30
0
10
-8.3190452184543862
20
-2.4106171253778665
30
0
0
SPLINE
5
181
100
AcDbEntity
8
0
100
AcDbSpline
70
4
71
3
72
8
73
4
74
0
42
0.000000001
43
0.0000000001
44
0.0000000001
40
0
40
0
40
0
40
0
40
1
40
1
40
1
40
1
41
1
41
1
41
1
41
1
10
-8.3190452184543862
20
-2.4106171253778665
30
0
10
-8.3320517129405882
20
-2.4106171253778665
30
0
10
-8.3554634030157544
20
-2.4418327121447536
30
0
10
-8.3684698975019547
20
-2.4808521956033616
30
0
0
SPLINE
5
182
100
AcDbEntity
8
0
100
AcDbSpline
70
4
71
3
72
8
73
4
74
0
42
0.000000001
43
0.0000000001
44
0.0000000001
40
0
40
0
40
0
40
0
40
1
40
1
40
1
40
1
41
1
41
1
41
1
41
1
10
-8.3684698975019547
20
-2.4808521956033616
30
0
10
-8.3944828864743624
20
-2.5510872658288557
30
0
10
-8.3944828864743624
20
-2.5510872658288557
30
0
10
-8.3970841853716003
20
-2.491257391192323
30
0
0
SPLINE
5
183
100
AcDbEntity
8
0
100
AcDbSpline
70
4
71
3
72
8
73
4
74
0
42
0.000000001
43
0.0000000001
44
0.0000000001
40
0
40
0
40
0
40
0
40
1
40
1
40
1
40
1
41
1
41
1
41
1
41
1
10
-8.3970841853716003
20
-2.491257391192323
30
0
10
-8.3996854842688418
20
-2.4314275165557921
30
0
10
-8.5531621192060339
20
-2.2545391915434347
30
0
10
-8.6025867982536024
20
-2.2545391915434347
30
0
0
SPLINE
5
184
100
AcDbEntity
8
0
100
AcDbSpline
70
4
71
3
72
8
73
4
74
0
42
0.000000001
43
0.0000000001
44
0.0000000001
40
0
40
0
40
0
40
0
40
1
40
1
40
1
40
1
41
1
41
1
41
1
41
1
10
-8.6025867982536024
20
-2.2545391915434347
30
0
10
-8.6181945916370459
20
-2.2545391915434347
30
0
10
-8.6364036839177292
20
-2.288356077207562
30
0
10
-8.6468088795066951
20
-2.3325781584606511
30
0
0
SPLINE
5
185
100
AcDbEntity
8
0
100
AcDbSpline
70
4
71
3
72
8
73
4
74
0
42
0.000000001
43
0.0000000001
44
0.0000000001
40
0
40
0
40
0
40
0
40
1
40
1
40
1
40
1
41
1
41
1
41
1
41
1
10
-8.6468088795066951
20
-2.3325781584606511
30
0
10
-8.667619270684618
20
-2.4262249187613092
30
0
10
-8.6416062817122103
20
-2.5536885647260967
30
0
10
-8.5947829015618833
20
-2.6031132437736666
30
0
0
SPLINE
5
186
100
AcDbEntity
8
0
100
AcDbSpline
70
4
71
3
72
8
73
4
74
0
42
0.000000001
43
0.0000000001
44
0.0000000001
40
0
40
0
40
0
40
0
40
1
40
1
40
1
40
1
41
1
41
1
41
1
41
1
10
-8.5947829015618833
20
-2.6031132437736666
30
0
10
-8.4985348423639842
20
-2.6993613029715657
30
0
10
-8.4256984732412494
20
-2.8398314434225558
30
0
10
-8.4256984732412494
20
-2.9334782037232152
30
0
0
SPLINE
5
187
100
AcDbEntity
8
0
100
AcDbSpline
70
4
71
3
72
8
73
4
74
0
42
0.000000001
43
0.0000000001
44
0.0000000001
40
0
40
0
40
0
40
0
40
1
40
1
40
1
40
1
41
1
41
1
41
1
41
1
10
-8.4256984732412494
20
-2.9334782037232152
30
0
10
-8.4256984732412494
20
-3.0115171706404307
30
0
10
-8.4335023699329685
20
-3.0297262629211148
30
0
10
-8.4647179566998574
20
-3.019321067332152
30
0
0
SPLINE
5
188
100
AcDbEntity
8
0
100
AcDbSpline
70
4
71
3
72
8
73
4
74
0
42
0.000000001
43
0.0000000001
44
0.0000000001
40
0
40
0
40
0
40
0
40
1
40
1
40
1
40
1
41
1
41
1
41
1
41
1
10
-8.4647179566998574
20
-3.019321067332152
30
0
10
-8.5349530269253489
20
-2.9907067794625064
30
0
10
-8.5115413368501862
20
-3.1467847132969387
30
0
10
-8.43610366883021
20
-3.2196210824196743
30
0
0
SPLINE
5
189
100
AcDbEntity
8
0
100
AcDbSpline
70
4
71
3
72
8
73
4
74
0
42
0.000000001
43
0.0000000001
44
0.0000000001
40
0
40
0
40
0
40
0
40
1
40
1
40
1
40
1
41
1
41
1
41
1
41
1
10
-8.43610366883021
20
-3.2196210824196743
30
0
10
-8.3398556096323126
20
-3.308065244925853
30
0
10
-8.2644179416123347
20
-3.4771496732464868
30
0
10
-8.3008361261737029
20
-3.523973053396817
30
0
0
SPLINE
5
190
100
AcDbEntity
8
0
100
AcDbSpline
70
4
71
3
72
8
73
4
74
0
42
0.000000001
43
0.0000000001
44
0.0000000001
40
0
40
0
40
0
40
0
40
1
40
1
40
1
40
1
41
1
41
1
41
1
41
1
10
-8.3008361261737029
20
-3.523973053396817
30
0
10
-8.3554634030157544
20
-3.5890055258278304
30
0
10
-8.527149130233628
20
-3.659240596053325
30
0
10
-8.6312010861232515
20
-3.659240596053325
30
0
0
SPLINE
5
191
100
AcDbEntity
8
0
100
AcDbSpline
70
4
71
3
72
8
73
4
74
0
42
0.000000001
43
0.0000000001
44
0.0000000001
40
0
40
0
40
0
40
0
40
1
40
1
40
1
40
1
41
1
41
1
41
1
41
1
10
-8.6312010861232515
20
-3.659240596053325
30
0
10
-8.688429661862541
20
-3.659240596053325
30
0
10
-8.7820764221632022
20
-3.6826522861284885
30
0
10
-8.8393049979024916
20
-3.7138678728953765
30
0
0
SPLINE
5
192
100
AcDbEntity
8
0
100
AcDbSpline
70
4
71
3
72
8
73
4
74
0
42
0.000000001
43
0.0000000001
44
0.0000000001
40
0
40
0
40
0
40
0
40
1
40
1
40
1
40
1
41
1
41
1
41
1
41
1
10
-8.8393049979024916
20
-3.7138678728953765
30
0
10
-8.9251478615114301
20
-3.7580899541484638
30
0
10
-8.969369942764521
20
-3.7632925519429454
30
0
10
-9.0890296920375864
20
-3.7502860574567434
30
0
0
SPLINE
5
193
100
AcDbEntity
8
0
100
AcDbSpline
70
4
71
3
72
8
73
4
74
0
42
0.000000001
43
0.0000000001
44
0.0000000001
40
0
40
0
40
0
40
0
40
1
40
1
40
1
40
1
41
1
41
1
41
1
41
1
10
-9.0890296920375864
20
-3.7502860574567434
30
0
10
-9.239905028077537
20
-3.7294756662788191
30
0
10
-9.2581141203582202
20
-3.7424821607650229
30
0
10
-9.1878790501327234
20
-3.8205211276822371
30
0
0
SPLINE
5
194
100
AcDbEntity
8
0
100
AcDbSpline
70
4
71
3
72
8
73
4
74
0
42
0.000000001
43
0.0000000001
44
0.0000000001
40
0
40
0
40
0
40
0
40
1
40
1
40
1
40
1
41
1
41
1
41
1
41
1
10
-9.1878790501327234
20
-3.8205211276822371
30
0
10
-9.1488595666741155
20
-3.8647432089353257
30
0
10
-9.1514608655713552
20
-3.8673445078325677
30
0
10
-9.2373037291802955
20
-3.8673445078325677
30
0
0
SPLINE
5
195
100
AcDbEntity
8
0
100
AcDbSpline
70
4
71
3
72
8
73
4
74
0
42
0.000000001
43
0.0000000001
44
0.0000000001
40
0
40
0
40
0
40
0
40
1
40
1
40
1
40
1
41
1
41
1
41
1
41
1
10
-9.2373037291802955
20
-3.8673445078325677
30
0
10
-9.3257478916864756
20
-3.8673445078325677
30
0
10
-9.4662180321374656
20
-3.9479847736470242
30
0
10
-9.4662180321374656
20
-3.997409452694594
30
0
0
SPLINE
5
196
100
AcDbEntity
8
0
100
AcDbSpline
70
4
71
3
72
8
73
4
74
0
42
0.000000001
43
0.0000000001
44
0.0000000001
40
0
40
0
40
0
40
0
40
1
40
1
40
1
40
1
41
1
41
1
41
1
41
1
10
-9.4662180321374656
20
-3.997409452694594
30
0
10
-9.4662180321374656
20
-4.010415947180797
30
0
10
-9.414192054192652
20
-4.0390302350504443
30
0
10
-9.34915958176164
20
-4.0624419251256088
30
0
0
SPLINE
5
197
100
AcDbEntity
8
0
100
AcDbSpline
70
4
71
3
72
8
73
4
74
0
42
0.000000001
43
0.0000000001
44
0.0000000001
40
0
40
0
40
0
40
0
40
1
40
1
40
1
40
1
41
1
41
1
41
1
41
1
10
-9.34915958176164
20
-4.0624419251256088
30
0
10
-9.2373037291802955
20
-4.106664006378697
30
0
10
-9.2294998324885746
20
-4.106664006378697
30
0
10
-9.0760231975513825
20
-4.049435430639404
30
0
0
SPLINE
5
198
100
AcDbEntity
8
0
100
AcDbSpline
70
4
71
3
72
8
73
4
74
0
42
0.000000001
43
0.0000000001
44
0.0000000001
40
0
40
0
40
0
40
0
40
1
40
1
40
1
40
1
41
1
41
1
41
1
41
1
10
-9.0760231975513825
20
-4.049435430639404
30
0
10
-8.9615660460727966
20
-4.0078146482835555
30
0
10
-8.8965335736417845
20
-3.997409452694594
30
0
10
-8.823697204519048
20
-4.010415947180797
30
0
0
SPLINE
5
199
100
AcDbEntity
8
0
100
AcDbSpline
70
4
71
3
72
8
73
4
74
0
42
0.000000001
43
0.0000000001
44
0.0000000001
40
0
40
0
40
0
40
0
40
1
40
1
40
1
40
1
41
1
41
1
41
1
41
1
10
-8.823697204519048
20
-4.010415947180797
30
0
10
-8.6988348574515051
20
-4.0338276372559614
30
0
10
-8.6702205695818595
20
-4.049435430639404
30
0
10
-8.7144426508349468
20
-4.0780497185090514
30
0
0
SPLINE
5
200
100
AcDbEntity
8
0
100
AcDbSpline
70
4
71
3
72
8
73
4
74
0
42
0.000000001
43
0.0000000001
44
0.0000000001
40
0
40
0
40
0
40
0
40
1
40
1
40
1
40
1
41
1
41
1
41
1
41
1
10
-8.7144426508349468
20
-4.0780497185090514
30
0
10
-8.7456582376018357
20
-4.0988601096869752
30
0
10
-8.7430569387045942
20
-4.106664006378697
30
0
10
-8.7118413519377071
20
-4.1274743975566208
30
0
0
SPLINE
5
201
100
AcDbEntity
8
0
100
AcDbSpline
70
4
71
3
72
8
73
4
74
0
42
0.000000001
43
0.0000000001
44
0.0000000001
40
0
40
0
40
0
40
0
40
1
40
1
40
1
40
1
41
1
41
1
41
1
41
1
10
-8.7118413519377071
20
-4.1274743975566208
30
0
10
-8.6520114773011727
20
-4.1664938810152305
30
0
10
-8.5635673147949962
20
-4.1586899843235061
30
0
10
-8.4595153589053762
20
-4.1014614085842167
30
0
0
SPLINE
5
202
100
AcDbEntity
8
0
100
AcDbSpline
70
4
71
3
72
8
73
4
74
0
42
0.000000001
43
0.0000000001
44
0.0000000001
40
0
40
0
40
0
40
0
40
1
40
1
40
1
40
1
41
1
41
1
41
1
41
1
10
-8.4595153589053762
20
-4.1014614085842167
30
0
10
-8.4048880820633247
20
-4.0728471207145684
30
0
10
-8.3190452184543862
20
-4.049435430639404
30
0
10
-8.2670192405095762
20
-4.049435430639404
30
0
0
SPLINE
5
203
100
AcDbEntity
8
0
100
AcDbSpline
70
4
71
3
72
8
73
4
74
0
42
0.000000001
43
0.0000000001
44
0.0000000001
40
0
40
0
40
0
40
0
40
1
40
1
40
1
40
1
41
1
41
1
41
1
41
1
10
-8.2670192405095762
20
-4.049435430639404
30
0
10
-8.1759737791061546
20
-4.049435430639404
30
0
10
-8.170771181311677
20
-4.054638028433887
30
0
10
-8.1395555945447899
20
-4.1690951799124694
30
0
0
SPLINE
5
204
100
AcDbEntity
8
0
100
AcDbSpline
70
4
71
3
72
8
73
4
74
0
42
0.000000001
43
0.0000000001
44
0.0000000001
40
0
40
0
40
0
40
0
40
1
40
1
40
1
40
1
41
1
41
1
41
1
41
1
10
-8.1395555945447899
20
-4.1690951799124694
30
0
10
-8.1109413066751426
20
-4.2653432391103694
30
0
10
-8.1109413066751426
20
-4.3147679181579397
30
0
10
-8.1369542956475485
20
-4.41621857515032
30
0
0
SPLINE
5
205
100
AcDbEntity
8
0
100
AcDbSpline
70
4
71
3
72
8
73
4
74
0
42
0.000000001
43
0.0000000001
44
0.0000000001
40
0
40
0
40
0
40
0
40
1
40
1
40
1
40
1
41
1
41
1
41
1
41
1
10
-8.1369542956475485
20
-4.41621857515032
30
0
10
-8.1551633879282335
20
-4.4890549442730565
30
0
10
-8.1629672846199526
20
-4.5879043023681962
30
0
10
-8.152562089030992
20
-4.6451328781074874
30
0
0
SPLINE
5
206
100
AcDbEntity
8
0
100
AcDbSpline
70
4
71
3
72
8
73
4
74
0
42
0.000000001
43
0.0000000001
44
0.0000000001
40
0
40
0
40
0
40
0
40
1
40
1
40
1
40
1
41
1
41
1
41
1
41
1
10
-8.152562089030992
20
-4.6451328781074874
30
0
10
-8.1395555945447899
20
-4.7205705461274619
30
0
10
-8.1499607901337523
20
-4.7804004207639972
30
0
10
-8.1889802735923602
20
-4.8714458821674151
30
0
0
SPLINE
5
207
100
AcDbEntity
8
0
100
AcDbSpline
70
4
71
3
72
8
73
4
74
0
42
0.000000001
43
0.0000000001
44
0.0000000001
40
0
40
0
40
0
40
0
40
1
40
1
40
1
40
1
41
1
41
1
41
1
41
1
10
-8.1889802735923602
20
-4.8714458821674151
30
0
10
-8.2514114471261308
20
-5.0093147237211619
30
0
10
-8.2566140449206138
20
-5.0379290115908084
30
0
10
-8.2149932625647644
20
-5.0379290115908084
30
0
0
SPLINE
5
208
100
AcDbEntity
8
0
100
AcDbSpline
70
4
71
3
72
8
73
4
74
0
42
0.000000001
43
0.0000000001
44
0.0000000001
40
0
40
0
40
0
40
0
40
1
40
1
40
1
40
1
41
1
41
1
41
1
41
1
10
-8.2149932625647644
20
-5.0379290115908084
30
0
10
-8.2019867680785623
20
-5.0379290115908084
30
0
10
-8.1941828713868414
20
-5.0275238160018478
30
0
10
-8.2019867680785623
20
-5.0171186204128846
30
0
0
SPLINE
5
209
100
AcDbEntity
8
0
100
AcDbSpline
70
4
71
3
72
8
73
4
74
0
42
0.000000001
43
0.0000000001
44
0.0000000001
40
0
40
0
40
0
40
0
40
1
40
1
40
1
40
1
41
1
41
1
41
1
41
1
10
-8.2019867680785623
20
-5.0171186204128846
30
0
10
-8.2071893658730435
20
-5.0067134248239196
30
0
10
-8.1915815724895999
20
-4.9963082292349599
30
0
10
-8.1629672846199526
20
-4.9963082292349599
30
0
0
SPLINE
5
210
100
AcDbEntity
8
0
100
AcDbSpline
70
4
71
3
72
8
73
4
74
0
42
0.000000001
43
0.0000000001
44
0.0000000001
40
0
40
0
40
0
40
0
40
1
40
1
40
1
40
1
41
1
41
1
41
1
41
1
10
-8.1629672846199526
20
-4.9963082292349599
30
0
10
-8.1239478011613464
20
-4.9963082292349599
30
0
10
-8.1187452033668652
20
-5.0093147237211619
30
0
10
-8.1317516978530673
20
-5.0509355060770131
30
0
0
SPLINE
5
211
100
AcDbEntity
8
0
100
AcDbSpline
70
4
71
3
72
8
73
4
74
0
42
0.000000001
43
0.0000000001
44
0.0000000001
40
0
40
0
40
0
40
0
40
1
40
1
40
1
40
1
41
1
41
1
41
1
41
1
10
-8.1317516978530673
20
-5.0509355060770131
30
0
10
-8.1629672846199526
20
-5.1341770707887084
30
0
10
-8.1499607901337523
20
-5.246032923370052
30
0
10
-8.1083400077779046
20
-5.2876537057259005
30
0
0
SPLINE
5
212
100
AcDbEntity
8
0
100
AcDbSpline
70
4
71
3
72
8
73
4
74
0
42
0.000000001
43
0.0000000001
44
0.0000000001
40
0
40
0
40
0
40
0
40
1
40
1
40
1
40
1
41
1
41
1
41
1
41
1
10
-8.1083400077779046
20
-5.2876537057259005
30
0
10
-8.0719218232165328
20
-5.3240718902872688
30
0
10
-8.0615166276275705
20
-5.3214705913900273
30
0
10
-7.9964841551965611
20
-5.2642420156507344
30
0
0
SPLINE
5
213
100
AcDbEntity
8
0
100
AcDbSpline
70
4
71
3
72
8
73
4
74
0
42
0.000000001
43
0.0000000001
44
0.0000000001
40
0
40
0
40
0
40
0
40
1
40
1
40
1
40
1
41
1
41
1
41
1
41
1
10
-7.9964841551965611
20
-5.2642420156507344
30
0
10
-7.9288503838683075
20
-5.2070134399114449
30
0
10
-7.9210464871765831
20
-5.1810004509390373
30
0
10
-7.9054386937931396
20
-4.970295240262554
30
0
0
SPLINE
5
214
100
AcDbEntity
8
0
100
AcDbSpline
70
4
71
3
72
8
73
4
74
0
42
0.000000001
43
0.0000000001
44
0.0000000001
40
0
40
0
40
0
40
0
40
1
40
1
40
1
40
1
41
1
41
1
41
1
41
1
10
-7.9054386937931396
20
-4.970295240262554
30
0
10
-7.895033498204179
20
-4.8064134097364004
30
0
10
-7.8742231070262543
20
-4.7153679483329825
30
0
10
-7.8378049224648869
20
-4.6633419703881716
30
0
0
SPLINE
5
215
100
AcDbEntity
8
0
100
AcDbSpline
70
4
71
3
72
8
73
4
74
0
42
0.000000001
43
0.0000000001
44
0.0000000001
40
0
40
0
40
0
40
0
40
1
40
1
40
1
40
1
41
1
41
1
41
1
41
1
10
-7.8378049224648869
20
-4.6633419703881716
30
0
10
-7.7987854390062772
20
-4.6009107968543974
30
0
10
-7.7857789445200787
20
-4.5957081990599171
30
0
10
-7.780576346725594
20
-4.6295250847240439
30
0
0
SPLINE
5
216
100
AcDbEntity
8
0
100
AcDbSpline
70
4
71
3
72
8
73
4
74
0
42
0.000000001
43
0.0000000001
44
0.0000000001
40
0
40
0
40
0
40
0
40
1
40
1
40
1
40
1
41
1
41
1
41
1
41
1
10
-7.780576346725594
20
-4.6295250847240439
30
0
10
-7.7753737489311128
20
-4.6529367747992083
30
0
10
-7.7623672544449107
20
-4.6737471659771339
30
0
10
-7.749360759958706
20
-4.6737471659771339
30
0
0
SPLINE
5
217
100
AcDbEntity
8
0
100
AcDbSpline
70
4
71
3
72
8
73
4
74
0
42
0.000000001
43
0.0000000001
44
0.0000000001
40
0
40
0
40
0
40
0
40
1
40
1
40
1
40
1
41
1
41
1
41
1
41
1
10
-7.749360759958706
20
-4.6737471659771339
30
0
10
-7.7025373798083789
20
-4.6737471659771339
30
0
10
-7.6687204941442522
20
-4.5644926122930292
30
0
10
-7.6739230919387325
20
-4.4318263685337644
30
0
0
SPLINE
5
218
100
AcDbEntity
8
0
100
AcDbSpline
70
4
71
3
72
8
73
4
74
0
42
0.000000001
43
0.0000000001
44
0.0000000001
40
0
40
0
40
0
40
0
40
1
40
1
40
1
40
1
41
1
41
1
41
1
41
1
10
-7.6739230919387325
20
-4.4318263685337644
30
0
10
-7.6791256897332119
20
-4.3563887005137873
30
0
10
-7.6713217930414919
20
-4.2575393424186485
30
0
10
-7.6609165974525286
20
-4.2081146633710791
30
0
0
LINE
5
219
100
AcDbEntity
8
0
100
AcDbLine
10
-7.6609165974525286
20
-4.2081146633710791
30
0
11
-7.6401062062746066
21
-4.1222717997621379
31
0
0
LINE
5
220
100
AcDbEntity
8
0
100
AcDbLine
10
-7.6401062062746066
20
-4.1222717997621379
30
0
11
-7.4918321691318948
21
-4.132676995351102
31
0
0
SPLINE
5
221
100
AcDbEntity
8
0
100
AcDbSpline
70
4
71
3
72
8
73
4
74
0
42
0.000000001
43
0.0000000001
44
0.0000000001
40
0
40
0
40
0
40
0
40
1
40
1
40
1
40
1
41
1
41
1
41
1
41
1
10
-7.4918321691318948
20
-4.132676995351102
30
0
10
-7.3903815121395127
20
-4.1404808920428238
30
0
10
-7.3175451430167779
20
-4.1638925821179891
30
0
10
-7.2447087738940468
20
-4.2133172611655576
30
0
0
SPLINE
5
222
100
AcDbEntity
8
0
100
AcDbSpline
70
4
71
3
72
8
73
4
74
0
42
0.000000001
43
0.0000000001
44
0.0000000001
40
0
40
0
40
0
40
0
40
1
40
1
40
1
40
1
41
1
41
1
41
1
41
1
10
-7.2447087738940468
20
-4.2133172611655576
30
0
10
-7.1900814970519926
20
-4.2523367446241656
30
0
10
-7.1146438290320173
20
-4.2835523313910544
30
0
10
-7.0808269433678905
20
-4.2835523313910544
30
0
0
SPLINE
5
223
100
AcDbEntity
8
0
100
AcDbSpline
70
4
71
3
72
8
73
4
74
0
42
0.000000001
43
0.0000000001
44
0.0000000001
40
0
40
0
40
0
40
0
40
1
40
1
40
1
40
1
41
1
41
1
41
1
41
1
10
-7.0808269433678905
20
-4.2835523313910544
30
0
10
-7.0001866775534332
20
-4.2835523313910544
30
0
10
-6.8935334227665717
20
-4.3381796082331059
30
0
10
-6.8154944558493549
20
-4.4240224718420418
30
0
0
SPLINE
5
224
100
AcDbEntity
8
0
100
AcDbSpline
70
4
71
3
72
8
73
4
74
0
42
0.000000001
43
0.0000000001
44
0.0000000001
40
0
40
0
40
0
40
0
40
1
40
1
40
1
40
1
41
1
41
1
41
1
41
1
10
-6.8154944558493549
20
-4.4240224718420418
30
0
10
-6.734854190034901
20
-4.5098653354509795
30
0
10
-6.698436005473531
20
-4.5098653354509795
30
0
10
-6.7140437988569746
20
-4.4266237707392833
30
0
0
SPLINE
5
225
100
AcDbEntity
8
0
100
AcDbSpline
70
4
71
3
72
8
73
4
74
0
42
0.000000001
43
0.0000000001
44
0.0000000001
40
0
40
0
40
0
40
0
40
1
40
1
40
1
40
1
41
1
41
1
41
1
41
1
10
-6.7140437988569746
20
-4.4266237707392833
30
0
10
-6.7296515922404163
20
-4.3511861027193079
30
0
10
-6.716645097754216
20
-4.345983504924825
30
0
10
-6.6542139242204437
20
-4.4032120806641188
30
0
0
SPLINE
5
226
100
AcDbEntity
8
0
100
AcDbSpline
70
4
71
3
72
8
73
4
74
0
42
0.000000001
43
0.0000000001
44
0.0000000001
40
0
40
0
40
0
40
0
40
1
40
1
40
1
40
1
41
1
41
1
41
1
41
1
10
-6.6542139242204437
20
-4.4032120806641188
30
0
10
-6.5969853484811507
20
-4.4552380586089297
30
0
10
-6.4096918278798318
20
-4.4812510475813356
30
0
10
-6.3836788389074268
20
-4.4422315641227277
30
0
0
SPLINE
5
227
100
AcDbEntity
8
0
100
AcDbSpline
70
4
71
3
72
8
73
4
74
0
42
0.000000001
43
0.0000000001
44
0.0000000001
40
0
40
0
40
0
40
0
40
1
40
1
40
1
40
1
41
1
41
1
41
1
41
1
10
-6.3836788389074268
20
-4.4422315641227277
30
0
10
-6.3732736433184636
20
-4.4240224718420418
30
0
10
-6.3966853333936298
20
-4.3641925972055109
30
0
10
-6.4331035179549971
20
-4.3069640214662179
30
0
0
SPLINE
5
228
100
AcDbEntity
8
0
100
AcDbSpline
70
4
71
3
72
8
73
4
74
0
42
0.000000001
43
0.0000000001
44
0.0000000001
40
0
40
0
40
0
40
0
40
1
40
1
40
1
40
1
41
1
41
1
41
1
41
1
10
-6.4331035179549971
20
-4.3069640214662179
30
0
10
-6.4903320936942883
20
-4.2211211578572803
30
0
10
-6.5267502782556557
20
-4.1977094677821158
30
0
10
-6.6568152231176843
20
-4.1612912832207476
30
0
0
SPLINE
5
229
100
AcDbEntity
8
0
100
AcDbSpline
70
4
71
3
72
8
73
4
74
0
42
0.000000001
43
0.0000000001
44
0.0000000001
40
0
40
0
40
0
40
0
40
1
40
1
40
1
40
1
41
1
41
1
41
1
41
1
10
-6.6568152231176843
20
-4.1612912832207476
30
0
10
-6.7660697768017846
20
-4.132676995351102
30
0
10
-6.8415074448217617
20
-4.0910562129952552
30
0
10
-6.9065399172527746
20
-4.0260237405642414
30
0
0
SPLINE
5
230
100
AcDbEntity
8
0
100
AcDbSpline
70
4
71
3
72
8
73
4
74
0
42
0.000000001
43
0.0000000001
44
0.0000000001
40
0
40
0
40
0
40
0
40
1
40
1
40
1
40
1
41
1
41
1
41
1
41
1
10
-6.9065399172527746
20
-4.0260237405642414
30
0
10
-6.9767749874782696
20
-3.955788670338745
30
0
10
-6.9897814819644717
20
-3.92977568136634
30
0
10
-6.9585658951975837
20
-3.9245730835718597
30
0
0
SPLINE
5
231
100
AcDbEntity
8
0
100
AcDbSpline
70
4
71
3
72
8
73
4
74
0
42
0.000000001
43
0.0000000001
44
0.0000000001
40
0
40
0
40
0
40
0
40
1
40
1
40
1
40
1
41
1
41
1
41
1
41
1
10
-6.9585658951975837
20
-3.9245730835718597
30
0
10
-6.9351542051224202
20
-3.9193704857773772
30
0
10
-6.9169451128417379
20
-3.9063639912911756
30
0
10
-6.9169451128417379
20
-3.8959587957022146
30
0
0
SPLINE
5
232
100
AcDbEntity
8
0
100
AcDbSpline
70
4
71
3
72
8
73
4
74
0
42
0.000000001
43
0.0000000001
44
0.0000000001
40
0
40
0
40
0
40
0
40
1
40
1
40
1
40
1
41
1
41
1
41
1
41
1
10
-6.9169451128417379
20
-3.8959587957022146
30
0
10
-6.9169451128417379
20
-3.8517367144491246
30
0
10
-7.0418074599092835
20
-3.7632925519429454
30
0
10
-7.109441231237537
20
-3.7632925519429454
30
0
0
SPLINE
5
233
100
AcDbEntity
8
0
100
AcDbSpline
70
4
71
3
72
8
73
4
74
0
42
0.000000001
43
0.0000000001
44
0.0000000001
40
0
40
0
40
0
40
0
40
1
40
1
40
1
40
1
41
1
41
1
41
1
41
1
10
-7.109441231237537
20
-3.7632925519429454
30
0
10
-7.1874801981547538
20
-3.7632925519429454
30
0
10
-7.3071399474278174
20
-3.7086652751008944
30
0
10
-7.3565646264753859
20
-3.6488354004643617
30
0
0
SPLINE
5
234
100
AcDbEntity
8
0
100
AcDbSpline
70
4
71
3
72
8
73
4
74
0
42
0.000000001
43
0.0000000001
44
0.0000000001
40
0
40
0
40
0
40
0
40
1
40
1
40
1
40
1
41
1
41
1
41
1
41
1
10
-7.3565646264753859
20
-3.6488354004643617
30
0
10
-7.4033880066257165
20
-3.594208123622312
30
0
10
-7.3019373496333362
20
-3.3704964184596249
30
0
10
-7.2030879915381956
20
-3.3132678427203324
30
0
0
SPLINE
5
235
100
AcDbEntity
8
0
100
AcDbSpline
70
4
71
3
72
8
73
4
74
0
42
0.000000001
43
0.0000000001
44
0.0000000001
40
0
40
0
40
0
40
0
40
1
40
1
40
1
40
1
41
1
41
1
41
1
41
1
10
-7.2030879915381956
20
-3.3132678427203324
30
0
10
-7.161467209182347
20
-3.2872548537479278
30
0
10
-7.1016373345458152
20
-3.2196210824196743
30
0
10
-7.0678204488816885
20
-3.157189908885901
30
0
0
SPLINE
5
236
100
AcDbEntity
8
0
100
AcDbSpline
70
4
71
3
72
8
73
4
74
0
42
0.000000001
43
0.0000000001
44
0.0000000001
40
0
40
0
40
0
40
0
40
1
40
1
40
1
40
1
41
1
41
1
41
1
41
1
10
-7.0678204488816885
20
-3.157189908885901
30
0
10
-7.0314022643203202
20
-3.0921574364548872
30
0
10
-6.9585658951975837
20
-3.0167197684349123
30
0
10
-6.8857295260748499
20
-2.9698963882845826
30
0
0
SPLINE
5
237
100
AcDbEntity
8
0
100
AcDbSpline
70
4
71
3
72
8
73
4
74
0
42
0.000000001
43
0.0000000001
44
0.0000000001
40
0
40
0
40
0
40
0
40
1
40
1
40
1
40
1
41
1
41
1
41
1
41
1
10
-6.8857295260748499
20
-2.9698963882845826
30
0
10
-6.7452593856238598
20
-2.8814522257784043
30
0
10
-6.7322528911376596
20
-2.8528379379087578
30
0
10
-6.8311022492327993
20
-2.8528379379087578
30
0
0
LINE
5
238
100
AcDbEntity
8
0
100
AcDbLine
10
-6.8311022492327993
20
-2.8528379379087578
30
0
11
-6.9013373194582934
21
-2.8528379379087578
31
0
0
LINE
5
239
100
AcDbEntity
8
0
100
AcDbLine
10
-6.9013373194582934
20
-2.8528379379087578
30
0
11
-6.8180957547465963
21
-2.7800015687860227
31
0
0
SPLINE
5
240
100
AcDbEntity
8
0
100
AcDbSpline
70
4
71
3
72
8
73
4
74
0
42
0.000000001
43
0.0000000001
44
0.0000000001
40
0
40
0
40
0
40
0
40
1
40
1
40
1
40
1
41
1
41
1
41
1
41
1
10
-6.8180957547465963
20
-2.7800015687860227
30
0
10
-6.7686710756990278
20
-2.7383807864301741
30
0
10
-6.7270502933431775
20
-2.6759496128964018
30
0
10
-6.716645097754216
20
-2.6213223360543503
30
0
0
LINE
5
241
100
AcDbEntity
8
0
100
AcDbLine
10
-6.716645097754216
20
-2.6213223360543503
30
0
11
-6.7010373043707725
21
-2.5328781735481725
31
0
0
LINE
5
242
100
AcDbEntity
8
0
100
AcDbLine
10
-6.7010373043707725
20
-2.5328781735481725
30
0
11
-6.8154944558493549
21
-2.5484859669316164
31
0
0
SPLINE
5
243
100
AcDbEntity
8
0
100
AcDbSpline
70
4
71
3
72
8
73
4
74
0
42
0.000000001
43
0.0000000001
44
0.0000000001
40
0
40
0
40
0
40
0
40
1
40
1
40
1
40
1
41
1
41
1
41
1
41
1
10
-6.8154944558493549
20
-2.5484859669316164
30
0
10
-6.9325529062251796
20
-2.5640937603150582
30
0
10
-6.9559645963003449
20
-2.582302852595741
30
0
10
-7.1198464268264985
20
-2.8008119599639483
30
0
0
SPLINE
5
244
100
AcDbEntity
8
0
100
AcDbSpline
70
4
71
3
72
8
73
4
74
0
42
0.000000001
43
0.0000000001
44
0.0000000001
40
0
40
0
40
0
40
0
40
1
40
1
40
1
40
1
41
1
41
1
41
1
41
1
10
-7.1198464268264985
20
-2.8008119599639483
30
0
10
-7.1536633124906244
20
-2.8450340412170361
30
0
10
-7.2238983827161194
20
-2.8970600191618474
30
0
10
-7.2733230617636897
20
-2.9178704103397717
30
0
0
SPLINE
5
245
100
AcDbEntity
8
0
100
AcDbSpline
70
4
71
3
72
8
73
4
74
0
42
0.000000001
43
0.0000000001
44
0.0000000001
40
0
40
0
40
0
40
0
40
1
40
1
40
1
40
1
41
1
41
1
41
1
41
1
10
-7.2733230617636897
20
-2.9178704103397717
30
0
10
-7.387780213242273
20
-2.964693790490101
30
0
10
-7.387780213242273
20
-2.964693790490101
30
0
10
-7.3695711209615897
20
-2.9178704103397717
30
0
0
SPLINE
5
246
100
AcDbEntity
8
0
100
AcDbSpline
70
4
71
3
72
8
73
4
74
0
42
0.000000001
43
0.0000000001
44
0.0000000001
40
0
40
0
40
0
40
0
40
1
40
1
40
1
40
1
41
1
41
1
41
1
41
1
10
-7.3695711209615897
20
-2.9178704103397717
30
0
10
-7.3461594308864244
20
-2.8606418346004805
30
0
10
-7.4424074900843262
20
-2.8684457312922005
30
0
10
-7.5048386636180968
20
-2.9282756059287331
30
0
0
SPLINE
5
247
100
AcDbEntity
8
0
100
AcDbSpline
70
4
71
3
72
8
73
4
74
0
42
0.000000001
43
0.0000000001
44
0.0000000001
40
0
40
0
40
0
40
0
40
1
40
1
40
1
40
1
41
1
41
1
41
1
41
1
10
-7.5906815272270363
20
-3.0531379529962801
30
0
10
-7.6088906195077204
20
-3.0973600342493683
30
0
10
-7.6583152985552889
20
-3.157189908885901
30
0
10
-7.6999360809111375
20
-3.1884054956527863
30
0
0
SPLINE
5
248
100
AcDbEntity
8
0
100
AcDbSpline
70
4
71
3
72
8
73
4
74
0
42
0.000000001
43
0.0000000001
44
0.0000000001
40
0
40
0
40
0
40
0
40
1
40
1
40
1
40
1
41
1
41
1
41
1
41
1
10
-7.5048386636180968
20
-2.9282756059287331
30
0
10
-7.533452951487746
20
-2.9542885949011382
30
0
10
-7.5724724349463521
20
-3.0115171706404307
30
0
10
-7.5906815272270363
20
-3.0531379529962801
30
0
0
SPLINE
5
249
100
AcDbEntity
8
0
100
AcDbSpline
70
4
71
3
72
8
73
4
74
0
42
0.000000001
43
0.0000000001
44
0.0000000001
40
0
40
0
40
0
40
0
40
1
40
1
40
1
40
1
41
1
41
1
41
1
41
1
10
-6.2380061006619565
20
-3.1858041967555462
30
0
10
-6.279626883017805
20
-3.2690457614672446
30
0
10
-6.2874307797095268
20
-3.318470440514814
30
0
10
-6.2744242852233247
20
-3.4875548688354487
30
0
0
SPLINE
5
250
100
AcDbEntity
8
0
100
AcDbSpline
70
4
71
3
72
8
73
4
74
0
42
0.000000001
43
0.0000000001
44
0.0000000001
40
0
40
0
40
0
40
0
40
1
40
1
40
1
40
1
41
1
41
1
41
1
41
1
10
-6.2744242852233247
20
-3.4875548688354487
30
0
10
-6.2536138940454
20
-3.7554886552512237
30
0
10
-6.2406073995591962
20
-3.7632925519429454
30
0
10
-5.842608668281394
20
-3.7632925519429454
30
0
0
SPLINE
5
251
100
AcDbEntity
8
0
100
AcDbSpline
70
4
71
3
72
8
73
4
74
0
42
0.000000001
43
0.0000000001
44
0.0000000001
40
0
40
0
40
0
40
0
40
1
40
1
40
1
40
1
41
1
41
1
41
1
41
1
10
-5.842608668281394
20
-3.7632925519429454
30
0
10
-5.5642696862766572
20
-3.7632925519429454
30
0
10
-5.5356553984070107
20
-3.7684951497374275
30
0
10
-5.5434592950987316
20
-3.8075146331960359
30
0
0
SPLINE
5
252
100
AcDbEntity
8
0
100
AcDbSpline
70
4
71
3
72
8
73
4
74
0
42
0.000000001
43
0.0000000001
44
0.0000000001
40
0
40
0
40
0
40
0
40
1
40
1
40
1
40
1
41
1
41
1
41
1
41
1
10
-5.5434592950987316
20
-3.8075146331960359
30
0
10
-5.5486618928932145
20
-3.8387302199629203
30
0
10
-5.6188969631187096
20
-3.8777497034215296
30
0
10
-5.7593671035696978
20
-3.9271743824690999
30
0
0
SPLINE
5
253
100
AcDbEntity
8
0
100
AcDbSpline
70
4
71
3
72
8
73
4
74
0
42
0.000000001
43
0.0000000001
44
0.0000000001
40
0
40
0
40
0
40
0
40
1
40
1
40
1
40
1
41
1
41
1
41
1
41
1
10
-5.7593671035696978
20
-3.9271743824690999
30
0
10
-6.1989866172033476
20
-4.0780497185090514
30
0
10
-6.2328035028674762
20
-4.1092653052759367
30
0
10
-6.1521632370530188
20
-4.3173692170551794
30
0
0
SPLINE
5
254
100
AcDbEntity
8
0
100
AcDbSpline
70
4
71
3
72
8
73
4
74
0
42
0.000000001
43
0.0000000001
44
0.0000000001
40
0
40
0
40
0
40
0
40
1
40
1
40
1
40
1
41
1
41
1
41
1
41
1
10
-6.1521632370530188
20
-4.3173692170551794
30
0
10
-6.1287515469778544
20
-4.3798003905889518
30
0
10
-6.1105424546971712
20
-4.4448328630199674
30
0
10
-6.1105424546971712
20
-4.4630419553006497
30
0
0
SPLINE
5
255
100
AcDbEntity
8
0
100
AcDbSpline
70
4
71
3
72
8
73
4
74
0
42
0.000000001
43
0.0000000001
44
0.0000000001
40
0
40
0
40
0
40
0
40
1
40
1
40
1
40
1
41
1
41
1
41
1
41
1
10
-6.1105424546971712
20
-4.4630419553006497
30
0
10
-6.1105424546971712
20
-4.5254731288344221
30
0
10
-5.9882814065268644
20
-4.6633419703881716
30
0
10
-5.8946346462262049
20
-4.7075640516412607
30
0
0
SPLINE
5
256
100
AcDbEntity
8
0
100
AcDbSpline
70
4
71
3
72
8
73
4
74
0
42
0.000000001
43
0.0000000001
44
0.0000000001
40
0
40
0
40
0
40
0
40
1
40
1
40
1
40
1
41
1
41
1
41
1
41
1
10
-5.8946346462262049
20
-4.7075640516412607
30
0
10
-5.7645697013641781
20
-4.7699952251750339
30
0
10
-5.4732242248732392
20
-4.7413809373053875
30
0
10
-5.3899826601615421
20
-4.6581393725936886
30
0
0
SPLINE
5
257
100
AcDbEntity
8
0
100
AcDbSpline
70
4
71
3
72
8
73
4
74
0
42
0.000000001
43
0.0000000001
44
0.0000000001
40
0
40
0
40
0
40
0
40
1
40
1
40
1
40
1
41
1
41
1
41
1
41
1
10
-5.3899826601615421
20
-4.6581393725936886
30
0
10
-5.3353553833194907
20
-4.6035120957516389
30
0
10
-5.3301527855250095
20
-4.5748978078819915
30
0
10
-5.3301527855250095
20
-4.299160124774497
30
0
0
SPLINE
5
258
100
AcDbEntity
8
0
100
AcDbSpline
70
4
71
3
72
8
73
4
74
0
42
0.000000001
43
0.0000000001
44
0.0000000001
40
0
40
0
40
0
40
0
40
1
40
1
40
1
40
1
41
1
41
1
41
1
41
1
10
-5.3301527855250095
20
-4.299160124774497
30
0
10
-5.3301527855250095
20
-4.1144679030704188
30
0
10
-5.319747589936048
20
-3.9948081537973534
30
0
10
-5.3015384976553639
20
-3.9844029582083915
30
0
0
SPLINE
5
259
100
AcDbEntity
8
0
100
AcDbSpline
70
4
71
3
72
8
73
4
74
0
42
0.000000001
43
0.0000000001
44
0.0000000001
40
0
40
0
40
0
40
0
40
1
40
1
40
1
40
1
41
1
41
1
41
1
41
1
10
-5.3015384976553639
20
-3.9844029582083915
30
0
10
-5.2625190141967542
20
-3.9583899692359865
30
0
10
-5.2573164164022739
20
-3.9661938659277061
30
0
10
-5.1506631616154124
20
-4.2757484346993326
30
0
0
SPLINE
5
260
100
AcDbEntity
8
0
100
AcDbSpline
70
4
71
3
72
8
73
4
74
0
42
0.000000001
43
0.0000000001
44
0.0000000001
40
0
40
0
40
0
40
0
40
1
40
1
40
1
40
1
41
1
41
1
41
1
41
1
10
-5.1506631616154124
20
-4.2757484346993326
30
0
10
-5.0648202980064747
20
-4.5202705310399427
30
0
10
-5.0414086079313085
20
-4.5618913133957903
30
0
10
-4.9685722388085747
20
-4.5983094979571595
30
0
0
SPLINE
5
261
100
AcDbEntity
8
0
100
AcDbSpline
70
4
71
3
72
8
73
4
74
0
42
0.000000001
43
0.0000000001
44
0.0000000001
40
0
40
0
40
0
40
0
40
1
40
1
40
1
40
1
41
1
41
1
41
1
41
1
10
-4.9685722388085747
20
-4.5983094979571595
30
0
10
-4.8905332718913579
20
-4.6399302803130071
30
0
10
-4.8775267774051567
20
-4.6399302803130071
30
0
10
-4.7240501424679646
20
-4.5905056012654342
30
0
0
SPLINE
5
262
100
AcDbEntity
8
0
100
AcDbSpline
70
4
71
3
72
8
73
4
74
0
42
0.000000001
43
0.0000000001
44
0.0000000001
40
0
40
0
40
0
40
0
40
1
40
1
40
1
40
1
41
1
41
1
41
1
41
1
10
-4.7240501424679646
20
-4.5905056012654342
30
0
10
-4.6356059799617855
20
-4.5644926122930292
30
0
10
-4.5341553229694052
20
-4.5228718299371833
30
0
10
-4.5029397362025181
20
-4.5020614387592577
30
0
0
SPLINE
5
263
100
AcDbEntity
8
0
100
AcDbSpline
70
4
71
3
72
8
73
4
74
0
42
0.000000001
43
0.0000000001
44
0.0000000001
40
0
40
0
40
0
40
0
40
1
40
1
40
1
40
1
41
1
41
1
41
1
41
1
10
-4.5029397362025181
20
-4.5020614387592577
30
0
10
-4.4301033670797842
20
-4.4552380586089297
30
0
10
-4.3312540089846436
20
-4.2445328479324456
30
0
10
-4.3572669979570486
20
-4.2003107666793564
30
0
0
SPLINE
5
264
100
AcDbEntity
8
0
100
AcDbSpline
70
4
71
3
72
8
73
4
74
0
42
0.000000001
43
0.0000000001
44
0.0000000001
40
0
40
0
40
0
40
0
40
1
40
1
40
1
40
1
41
1
41
1
41
1
41
1
10
-4.3572669979570486
20
-4.2003107666793564
30
0
10
-4.3702734924432516
20
-4.1821016743986732
30
0
10
-4.3780773891349716
20
-4.1040627074814564
30
0
10
-4.3806786880322131
20
-4.0286250394614811
30
0
0
SPLINE
5
265
100
AcDbEntity
8
0
100
AcDbSpline
70
4
71
3
72
8
73
4
74
0
42
0.000000001
43
0.0000000001
44
0.0000000001
40
0
40
0
40
0
40
0
40
1
40
1
40
1
40
1
41
1
41
1
41
1
41
1
10
-4.3806786880322131
20
-4.0286250394614811
30
0
10
-4.3832799869294545
20
-3.8153185298877577
30
0
10
-4.4275020681825437
20
-3.7893055409153527
30
0
10
-4.7968865115907002
20
-3.7893055409153527
30
0
0
SPLINE
5
266
100
AcDbEntity
8
0
100
AcDbSpline
70
4
71
3
72
8
73
4
74
0
42
0.000000001
43
0.0000000001
44
0.0000000001
40
0
40
0
40
0
40
0
40
1
40
1
40
1
40
1
41
1
41
1
41
1
41
1
10
-4.7968865115907002
20
-3.7893055409153527
30
0
10
-5.0518138035202709
20
-3.7893055409153527
30
0
10
-5.0934345858761194
20
-3.7841029431208697
30
0
10
-5.1090423792595647
20
-3.7450834596622604
30
0
0
SPLINE
5
267
100
AcDbEntity
8
0
100
AcDbSpline
70
4
71
3
72
8
73
4
74
0
42
0.000000001
43
0.0000000001
44
0.0000000001
40
0
40
0
40
0
40
0
40
1
40
1
40
1
40
1
41
1
41
1
41
1
41
1
10
-5.1090423792595647
20
-3.7450834596622604
30
0
10
-5.1168462759512856
20
-3.7164691717926157
30
0
10
-5.1116436781568035
20
-3.69305748171745
30
0
10
-5.0908332869788806
20
-3.6852535850257291
30
0
0
SPLINE
5
268
100
AcDbEntity
8
0
100
AcDbSpline
70
4
71
3
72
8
73
4
74
0
42
0.000000001
43
0.0000000001
44
0.0000000001
40
0
40
0
40
0
40
0
40
1
40
1
40
1
40
1
41
1
41
1
41
1
41
1
10
-5.0908332869788806
20
-3.6852535850257291
30
0
10
-5.0726241946981965
20
-3.6774496883340082
30
0
10
-4.9347553531444479
20
-3.6306263081836789
30
0
10
-4.7838800171044964
20
-3.5812016291361086
30
0
0
SPLINE
5
269
100
AcDbEntity
8
0
100
AcDbSpline
70
4
71
3
72
8
73
4
74
0
42
0.000000001
43
0.0000000001
44
0.0000000001
40
0
40
0
40
0
40
0
40
1
40
1
40
1
40
1
41
1
41
1
41
1
41
1
10
-4.7838800171044964
20
-3.5812016291361086
30
0
10
-4.5471618174556081
20
-3.5031626622188927
30
0
10
-4.5081423339969993
20
-3.4797509721437283
30
0
10
-4.4873319428190763
20
-3.4199210975071952
30
0
0
SPLINE
5
270
100
AcDbEntity
8
0
100
AcDbSpline
70
4
71
3
72
8
73
4
74
0
42
0.000000001
43
0.0000000001
44
0.0000000001
40
0
40
0
40
0
40
0
40
1
40
1
40
1
40
1
41
1
41
1
41
1
41
1
10
-4.4873319428190763
20
-3.4199210975071952
30
0
10
-4.4587176549494298
20
-3.3366795327954981
30
0
10
-4.5081423339969993
20
-3.0999613331466098
30
0
10
-4.5809787031197349
20
-2.980301583873544
30
0
0
SPLINE
5
271
100
AcDbEntity
8
0
100
AcDbSpline
70
4
71
3
72
8
73
4
74
0
42
0.000000001
43
0.0000000001
44
0.0000000001
40
0
40
0
40
0
40
0
40
1
40
1
40
1
40
1
41
1
41
1
41
1
41
1
10
-4.5809787031197349
20
-2.980301583873544
30
0
10
-4.6278020832700637
20
-2.9022626169563286
30
0
10
-4.8098930060769032
20
-2.7982106610667068
30
0
10
-4.8879319729941191
20
-2.806014557758429
30
0
0
SPLINE
5
272
100
AcDbEntity
8
0
100
AcDbSpline
70
4
71
3
72
8
73
4
74
0
42
0.000000001
43
0.0000000001
44
0.0000000001
40
0
40
0
40
0
40
0
40
1
40
1
40
1
40
1
41
1
41
1
41
1
41
1
10
-4.8879319729941191
20
-2.806014557758429
30
0
10
-4.908742364172042
20
-2.806014557758429
30
0
10
-4.9945852277809797
20
-2.8164197533473905
30
0
10
-5.0778267924926768
20
-2.8242236500391118
30
0
0
SPLINE
5
273
100
AcDbEntity
8
0
100
AcDbSpline
70
4
71
3
72
8
73
4
74
0
42
0.000000001
43
0.0000000001
44
0.0000000001
40
0
40
0
40
0
40
0
40
1
40
1
40
1
40
1
41
1
41
1
41
1
41
1
10
-5.0778267924926768
20
-2.8242236500391118
30
0
10
-5.2911333020664006
20
-2.847635340114278
30
0
10
-5.3041397965526045
20
-2.871047030189442
30
0
10
-5.3041397965526045
20
-3.2482353702893203
30
0
0
SPLINE
5
274
100
AcDbEntity
8
0
100
AcDbSpline
70
4
71
3
72
8
73
4
74
0
42
0.000000001
43
0.0000000001
44
0.0000000001
40
0
40
0
40
0
40
0
40
1
40
1
40
1
40
1
41
1
41
1
41
1
41
1
10
-5.3041397965526045
20
-3.2482353702893203
30
0
10
-5.3041397965526045
20
-3.5499860423692211
30
0
10
-5.3041397965526045
20
-3.5551886401637036
30
0
10
-5.3639696711891363
20
-3.5551886401637036
30
0
0
SPLINE
5
275
100
AcDbEntity
8
0
100
AcDbSpline
70
4
71
3
72
8
73
4
74
0
42
0.000000001
43
0.0000000001
44
0.0000000001
40
0
40
0
40
0
40
0
40
1
40
1
40
1
40
1
41
1
41
1
41
1
41
1
10
-5.3639696711891363
20
-3.5551886401637036
30
0
10
-5.4159956491339463
20
-3.5551886401637036
30
0
10
-5.4290021436201501
20
-3.5265743522940562
30
0
10
-5.4966359149484036
20
-3.2924574515424081
30
0
0
SPLINE
5
276
100
AcDbEntity
8
0
100
AcDbSpline
70
4
71
3
72
8
73
4
74
0
42
0.000000001
43
0.0000000001
44
0.0000000001
40
0
40
0
40
0
40
0
40
1
40
1
40
1
40
1
41
1
41
1
41
1
41
1
10
-5.4966359149484036
20
-3.2924574515424081
30
0
10
-5.5746748818656204
20
-3.0271249640238747
30
0
10
-5.642308653193874
20
-2.9048639158535687
30
0
10
-5.7099424245221275
20
-2.9048639158535687
30
0
0
SPLINE
5
277
100
AcDbEntity
8
0
100
AcDbSpline
70
4
71
3
72
8
73
4
74
0
42
0.000000001
43
0.0000000001
44
0.0000000001
40
0
40
0
40
0
40
0
40
1
40
1
40
1
40
1
41
1
41
1
41
1
41
1
10
-6.1287515469778544
20
-3.0505366540990391
30
0
10
-6.1625684326419821
20
-3.0713470452769633
30
0
10
-6.2119931116895515
20
-3.1311769199134956
30
0
10
-6.2380061006619565
20
-3.1858041967555462
30
0
0
SPLINE
5
278
100
AcDbEntity
8
0
100
AcDbSpline
70
4
71
3
72
8
73
4
74
0
42
0.000000001
43
0.0000000001
44
0.0000000001
40
0
40
0
40
0
40
0
40
1
40
1
40
1
40
1
41
1
41
1
41
1
41
1
10
-5.7099424245221275
20
-2.9048639158535687
30
0
10
-5.7671710002614187
20
-2.9048639158535687
30
0
10
-6.0637190745468397
20
-3.0063145728459491
30
0
10
-6.1287515469778544
20
-3.0505366540990391
30
0
0
SPLINE
5
279
100
AcDbEntity
8
0
100
AcDbSpline
70
4
71
3
72
8
73
4
74
0
42
0.000000001
43
0.0000000001
44
0.0000000001
40
0
40
0
40
0
40
0
40
1
40
1
40
1
40
1
41
1
41
1
41
1
41
1
10
-4.6356059799617855
20
-2.3325781584606511
30
0
10
-4.4066916770046181
20
-2.4886560922950833
30
0
10
-4.1387578905888436
20
-2.8242236500391118
30
0
10
-4.0529150269799059
20
-3.0661444474824822
30
0
0
SPLINE
5
280
100
AcDbEntity
8
0
100
AcDbSpline
70
4
71
3
72
8
73
4
74
0
42
0.000000001
43
0.0000000001
44
0.0000000001
40
0
40
0
40
0
40
0
40
1
40
1
40
1
40
1
41
1
41
1
41
1
41
1
10
-4.0529150269799059
20
-3.0661444474824822
30
0
10
-4.0347059346992227
20
-3.1207717243245328
30
0
10
-4.0086929457268168
20
-3.1649938055776232
30
0
10
-3.9956864512406147
20
-3.1649938055776232
30
0
0
SPLINE
5
281
100
AcDbEntity
8
0
100
AcDbSpline
70
4
71
3
72
8
73
4
74
0
42
0.000000001
43
0.0000000001
44
0.0000000001
40
0
40
0
40
0
40
0
40
1
40
1
40
1
40
1
41
1
41
1
41
1
41
1
10
-3.9956864512406147
20
-3.1649938055776232
30
0
10
-3.9852812556516524
20
-3.1649938055776232
30
0
10
-3.9800786578571707
20
-3.1753990011665838
30
0
10
-3.9904838534461331
20
-3.1884054956527863
30
0
0
SPLINE
5
282
100
AcDbEntity
8
0
100
AcDbSpline
70
4
71
3
72
8
73
4
74
0
42
0.000000001
43
0.0000000001
44
0.0000000001
40
0
40
0
40
0
40
0
40
1
40
1
40
1
40
1
41
1
41
1
41
1
41
1
10
-3.9904838534461331
20
-3.1884054956527863
30
0
10
-3.9982877501378549
20
-3.2014119901389901
30
0
10
-3.9930851523433732
20
-3.2196210824196743
30
0
10
-3.9774773589599306
20
-3.2300262780086362
30
0
0
SPLINE
5
283
100
AcDbEntity
8
0
100
AcDbSpline
70
4
71
3
72
8
73
4
74
0
42
0.000000001
43
0.0000000001
44
0.0000000001
40
0
40
0
40
0
40
0
40
1
40
1
40
1
40
1
41
1
41
1
41
1
41
1
10
-3.9774773589599306
20
-3.2300262780086362
30
0
10
-3.9644708644737281
20
-3.2378301747003571
30
0
10
-3.9514643699875256
20
-3.2222223813169144
30
0
10
-3.9514643699875256
20
-3.1962093923445094
30
0
0
SPLINE
5
284
100
AcDbEntity
8
0
100
AcDbSpline
70
4
71
3
72
8
73
4
74
0
42
0.000000001
43
0.0000000001
44
0.0000000001
40
0
40
0
40
0
40
0
40
1
40
1
40
1
40
1
41
1
41
1
41
1
41
1
10
-3.9514643699875256
20
-3.1962093923445094
30
0
10
-3.9514643699875256
20
-3.1675951044748634
30
0
10
-3.9020396909399553
20
-3.0479353552017989
30
0
10
-3.8448111152006628
20
-2.9282756059287331
30
0
0
SPLINE
5
285
100
AcDbEntity
8
0
100
AcDbSpline
70
4
71
3
72
8
73
4
74
0
42
0.000000001
43
0.0000000001
44
0.0000000001
40
0
40
0
40
0
40
0
40
1
40
1
40
1
40
1
41
1
41
1
41
1
41
1
10
-3.8448111152006628
20
-2.9282756059287331
30
0
10
-3.756366952694485
20
-2.7487859820191369
30
0
10
-3.6913344802634716
20
-2.66814571620468
30
0
10
-3.4962370629704318
20
-2.4730482989116398
30
0
0
SPLINE
5
286
100
AcDbEntity
8
0
100
AcDbSpline
70
4
71
3
72
8
73
4
74
0
42
0.000000001
43
0.0000000001
44
0.0000000001
40
0
40
0
40
0
40
0
40
1
40
1
40
1
40
1
41
1
41
1
41
1
41
1
10
-3.4962370629704318
20
-2.4730482989116398
30
0
10
-3.2178980809656941
20
-2.1999119147013837
30
0
10
-3.1710747008153635
20
-2.1244742466814088
30
0
10
-3.1710747008153635
20
-1.9397820249773294
30
0
0
SPLINE
5
287
100
AcDbEntity
8
0
100
AcDbSpline
70
4
71
3
72
8
73
4
74
0
42
0.000000001
43
0.0000000001
44
0.0000000001
40
0
40
0
40
0
40
0
40
1
40
1
40
1
40
1
41
1
41
1
41
1
41
1
10
-3.1710747008153635
20
-1.9397820249773294
30
0
10
-3.1710747008153635
20
-1.6354300540001874
30
0
10
-3.4338058894366581
20
-1.3544897730982093
30
0
10
-3.7719747460779276
20
-1.3024637951533982
30
0
0
LINE
5
288
100
AcDbEntity
8
0
100
AcDbLine
10
-3.7719747460779276
20
-1.3024637951533977
30
0
11
-3.8812292997620301
21
-1.2842547028727147
31
0
0
LINE
5
289
100
AcDbEntity
8
0
100
AcDbLine
10
-3.8812292997620301
20
-1.2842547028727147
30
0
11
-3.8656215063785875
21
-0.81341960247217682
31
0
0
SPLINE
5
290
100
AcDbEntity
8
0
100
AcDbSpline
70
4
71
3
72
8
73
4
74
0
42
0.000000001
43
0.0000000001
44
0.0000000001
40
0
40
0
40
0
40
0
40
1
40
1
40
1
40
1
41
1
41
1
41
1
41
1
10
-3.8656215063785875
20
-0.81341960247217682
30
0
10
-3.8474124140979034
20
-0.36339489324956392
30
0
10
-3.810994229536536
20
0.1594661850957832
30
0
10
-3.7797786427696494
20
0.34155710790262073
30
0
0
LINE
5
291
100
AcDbEntity
8
0
100
AcDbLine
10
-3.7797786427696494
20
0.34155710790262073
30
0
11
-3.7667721482834473
21
0.42479867261431759
31
0
0
LINE
5
292
100
AcDbEntity
8
0
100
AcDbLine
10
-3.7667721482834473
20
0.42479867261431759
30
0
11
-4.1907838685336554
21
0.42479867261431775
31
0
0
LINE
5
293
100
AcDbEntity
8
0
100
AcDbLine
10
-4.1907838685336554
20
0.42479867261431775
30
0
11
-4.1751760751502118
21
0.32855061341641817
31
0
0
SPLINE
5
294
100
AcDbEntity
8
0
100
AcDbSpline
70
4
71
3
72
8
73
4
74
0
42
0.000000001
43
0.0000000001
44
0.0000000001
40
0
40
0
40
0
40
0
40
1
40
1
40
1
40
1
41
1
41
1
41
1
41
1
10
-4.1751760751502118
20
0.32855061341641817
30
0
10
-4.1413591894860833
20
0.099636310459250546
30
0
10
-4.1049410049247168
20
-0.45183905575574312
30
0
10
-4.0997384071302347
20
-0.84983778703354496
30
0
0
LINE
5
295
100
AcDbEntity
8
0
100
AcDbLine
10
-4.0997384071302347
20
-0.84983778703354496
30
0
11
-4.0945358093357553
21
-1.2764508061809927
31
0
0
LINE
5
296
100
AcDbEntity
8
0
100
AcDbLine
10
-4.0945358093357553
20
-1.2764508061809927
30
0
11
-4.206391661917098
21
-1.297261197358917
31
0
0
SPLINE
5
297
100
AcDbEntity
8
0
100
AcDbSpline
70
4
71
3
72
8
73
4
74
0
42
0.000000001
43
0.0000000001
44
0.0000000001
40
0
40
0
40
0
40
0
40
1
40
1
40
1
40
1
41
1
41
1
41
1
41
1
10
-4.8202982016658629
20
-1.9423833238745707
30
0
10
-4.8202982016658629
20
-2.1218729477841674
30
0
10
-4.760468327029332
20
-2.2467352948517134
30
0
10
-4.6356059799617855
20
-2.3325781584606511
30
0
0
SPLINE
5
298
100
AcDbEntity
8
0
100
AcDbSpline
70
4
71
3
72
8
73
4
74
0
42
0.000000001
43
0.0000000001
44
0.0000000001
40
0
40
0
40
0
40
0
40
1
40
1
40
1
40
1
41
1
41
1
41
1
41
1
10
-4.206391661917098
20
-1.297261197358917
30
0
10
-4.5575670130445687
20
-1.3570910719954501
30
0
10
-4.8202982016658629
20
-1.6354300540001874
30
0
10
-4.8202982016658629
20
-1.9423833238745707
30
0
0
SPLINE
5
299
100
AcDbEntity
8
0
100
AcDbSpline
70
4
71
3
72
8
73
4
74
0
42
0.000000001
43
0.0000000001
44
0.0000000001
40
0
40
0
40
0
40
0
40
1
40
1
40
1
40
1
41
1
41
1
41
1
41
1
10
-2.7366577849761939
20
-2.3325781584606511
30
0
10
-2.507743482019027
20
-2.4886560922950833
30
0
10
-2.239809695603252
20
-2.8242236500391118
30
0
10
-2.1539668319943139
20
-3.0661444474824822
30
0
0
SPLINE
5
300
100
AcDbEntity
8
0
100
AcDbSpline
70
4
71
3
72
8
73
4
74
0
42
0.000000001
43
0.0000000001
44
0.0000000001
40
0
40
0
40
0
40
0
40
1
40
1
40
1
40
1
41
1
41
1
41
1
41
1
10
-2.1539668319943139
20
-3.0661444474824822
30
0
10
-2.1357577397136311
20
-3.1207717243245328
30
0
10
-2.1123460496384654
20
-3.1649938055776232
30
0
10
-2.0993395551522638
20
-3.1649938055776232
30
0
0
SPLINE
5
301
100
AcDbEntity
8
0
100
AcDbSpline
70
4
71
3
72
8
73
4
74
0
42
0.000000001
43
0.0000000001
44
0.0000000001
40
0
40
0
40
0
40
0
40
1
40
1
40
1
40
1
41
1
41
1
41
1
41
1
10
-2.0993395551522638
20
-3.1649938055776232
30
0
10
-2.088934359563301
20
-3.1649938055776232
30
0
10
-2.0863330606660608
20
-3.1858041967555462
30
0
10
-2.0967382562550227
20
-3.2092158868307119
30
0
0
SPLINE
5
302
100
AcDbEntity
8
0
100
AcDbSpline
70
4
71
3
72
8
73
4
74
0
42
0.000000001
43
0.0000000001
44
0.0000000001
40
0
40
0
40
0
40
0
40
1
40
1
40
1
40
1
41
1
41
1
41
1
41
1
10
-2.0967382562550227
20
-3.2092158868307119
30
0
10
-2.1045421529467445
20
-3.2352288758031169
30
0
10
-2.1019408540495026
20
-3.2482353702893203
30
0
10
-2.0915356584605425
20
-3.2352288758031169
30
0
0
SPLINE
5
303
100
AcDbEntity
8
0
100
AcDbSpline
70
4
71
3
72
8
73
4
74
0
42
0.000000001
43
0.0000000001
44
0.0000000001
40
0
40
0
40
0
40
0
40
1
40
1
40
1
40
1
41
1
41
1
41
1
41
1
10
-2.0915356584605425
20
-3.2352288758031169
30
0
10
-2.0785291639743386
20
-3.2248236802141546
30
0
10
-2.0395096805157307
20
-3.1363795177079767
30
0
10
-2.0004901970571223
20
-3.0401314585100763
30
0
0
SPLINE
5
304
100
AcDbEntity
8
0
100
AcDbSpline
70
4
71
3
72
8
73
4
74
0
42
0.000000001
43
0.0000000001
44
0.0000000001
40
0
40
0
40
0
40
0
40
1
40
1
40
1
40
1
41
1
41
1
41
1
41
1
10
-2.0004901970571223
20
-3.0401314585100763
30
0
10
-1.9016408389619821
20
-2.7878054654777453
30
0
10
-1.7689745952027136
20
-2.6005119448764269
30
0
10
-1.5322563955538258
20
-2.3820028375082209
30
0
0
SPLINE
5
305
100
AcDbEntity
8
0
100
AcDbSpline
70
4
71
3
72
8
73
4
74
0
42
0.000000001
43
0.0000000001
44
0.0000000001
40
0
40
0
40
0
40
0
40
1
40
1
40
1
40
1
41
1
41
1
41
1
41
1
10
-1.5322563955538258
20
-2.3820028375082209
30
0
10
-1.3059433914938987
20
-2.1712976268317381
30
0
10
-1.2513161146518486
20
-2.059441774250395
30
0
10
-1.2825317014187338
20
-1.8617430580601135
30
0
0
SPLINE
5
306
100
AcDbEntity
8
0
100
AcDbSpline
70
4
71
3
72
8
73
4
74
0
42
0.000000001
43
0.0000000001
44
0.0000000001
40
0
40
0
40
0
40
0
40
1
40
1
40
1
40
1
41
1
41
1
41
1
41
1
10
-1.2825317014187338
20
-1.8617430580601135
30
0
10
-1.3059433914938987
20
-1.7186716187118842
30
0
10
-1.3527667716442286
20
-1.6354300540001874
30
0
10
-1.4802304176090155
20
-1.5053651091381604
30
0
0
SPLINE
5
307
100
AcDbEntity
8
0
100
AcDbSpline
70
4
71
3
72
8
73
4
74
0
42
0.000000001
43
0.0000000001
44
0.0000000001
40
0
40
0
40
0
40
0
40
1
40
1
40
1
40
1
41
1
41
1
41
1
41
1
10
-1.4802304176090155
20
-1.5053651091381604
30
0
10
-1.5868836723958764
20
-1.4013131532485392
30
0
10
-1.8131966764558038
20
-1.2920585995644362
30
0
10
-1.9276538279343876
20
-1.2920585995644362
30
0
0
SPLINE
5
308
100
AcDbEntity
8
0
100
AcDbSpline
70
4
71
3
72
8
73
4
74
0
42
0.000000001
43
0.0000000001
44
0.0000000001
40
0
40
0
40
0
40
0
40
1
40
1
40
1
40
1
41
1
41
1
41
1
41
1
10
-1.9276538279343876
20
-1.2920585995644362
30
0
10
-1.982281104776439
20
-1.2920585995644362
30
0
10
-1.982281104776439
20
-1.2894573006671957
30
0
10
-1.9666733113929959
20
-0.81602090136941829
30
0
0
SPLINE
5
309
100
AcDbEntity
8
0
100
AcDbSpline
70
4
71
3
72
8
73
4
74
0
42
0.000000001
43
0.0000000001
44
0.0000000001
40
0
40
0
40
0
40
0
40
1
40
1
40
1
40
1
41
1
41
1
41
1
41
1
10
-1.9666733113929959
20
-0.81602090136941829
30
0
10
-1.9484642191123125
20
-0.36339489324956392
30
0
10
-1.9120460345509438
20
0.1594661850957832
30
0
10
-1.8808304477840565
20
0.34155710790262073
30
0
0
LINE
5
310
100
AcDbEntity
8
0
100
AcDbLine
10
-1.8808304477840565
20
0.34155710790262084
30
0
11
-1.8678239532978547
21
0.42479867261431759
31
0
0
LINE
5
311
100
AcDbEntity
8
0
100
AcDbLine
10
-1.8678239532978547
20
0.42479867261431759
30
0
11
-2.2918356735480629
21
0.42479867261431775
31
0
0
LINE
5
312
100
AcDbEntity
8
0
100
AcDbLine
10
-2.2918356735480629
20
0.42479867261431775
30
0
11
-2.2762278801646185
21
0.32855061341641817
31
0
0
SPLINE
5
313
100
AcDbEntity
8
0
100
AcDbSpline
70
4
71
3
72
8
73
4
74
0
42
0.000000001
43
0.0000000001
44
0.0000000001
40
0
40
0
40
0
40
0
40
1
40
1
40
1
40
1
41
1
41
1
41
1
41
1
10
-2.2762278801646185
20
0.32855061341641817
30
0
10
-2.2476135922949747
20
0.13605449502061887
30
0
10
-2.2085941088363663
20
-0.37380008883852706
30
0
10
-2.1929863154529206
20
-0.81602090136941829
30
0
0
LINE
5
314
100
AcDbEntity
8
0
100
AcDbLine
10
-2.1929863154529206
20
-0.81602090136941829
30
0
11
-2.1747772231722382
21
-1.2634443116947902
31
0
0
LINE
5
315
100
AcDbEntity
8
0
100
AcDbLine
10
-2.1747772231722382
20
-1.2634443116947902
30
0
11
-2.2502148911922126
21
-1.2790521050782335
31
0
0
SPLINE
5
316
100
AcDbEntity
8
0
100
AcDbSpline
70
4
71
3
72
8
73
4
74
0
42
0.000000001
43
0.0000000001
44
0.0000000001
40
0
40
0
40
0
40
0
40
1
40
1
40
1
40
1
41
1
41
1
41
1
41
1
10
-2.8693240287354618
20
-1.6874560319449976
30
0
10
-2.9915850769057664
20
-1.9319781282856074
30
0
10
-2.9369578000637167
20
-2.197310615804144
30
0
10
-2.7366577849761939
20
-2.3325781584606511
30
0
0
SPLINE
5
317
100
AcDbEntity
8
0
100
AcDbSpline
70
4
71
3
72
8
73
4
74
0
42
0.000000001
43
0.0000000001
44
0.0000000001
40
0
40
0
40
0
40
0
40
1
40
1
40
1
40
1
41
1
41
1
41
1
41
1
10
-2.2502148911922126
20
-1.2790521050782335
30
0
10
-2.5753772533472805
20
-1.3518884742009676
30
0
10
-2.7652720728458395
20
-1.4767508212685134
30
0
10
-2.8693240287354618
20
-1.6874560319449976
30
0
0
SPLINE
5
318
100
AcDbEntity
8
0
100
AcDbSpline
70
4
71
3
72
8
73
4
74
0
42
0.000000001
43
0.0000000001
44
0.0000000001
40
0
40
0
40
0
40
0
40
1
40
1
40
1
40
1
41
1
41
1
41
1
41
1
10
-4.2480124442729466
20
-4.5670939111902724
30
0
10
-4.310443617806718
20
-4.6321263836212845
30
0
10
-4.3260514111901625
20
-4.6763484648743754
30
0
10
-4.3364566067791248
20
-4.8012108119419201
30
0
0
SPLINE
5
319
100
AcDbEntity
8
0
100
AcDbSpline
70
4
71
3
72
8
73
4
74
0
42
0.000000001
43
0.0000000001
44
0.0000000001
40
0
40
0
40
0
40
0
40
1
40
1
40
1
40
1
41
1
41
1
41
1
41
1
10
-4.3364566067791248
20
-4.8012108119419201
30
0
10
-4.3468618023680863
20
-4.9390796534956696
30
0
10
-4.341659204573606
20
-4.9598900446735916
30
0
10
-4.2740254332453516
20
-5.0353277126935669
30
0
0
SPLINE
5
320
100
AcDbEntity
8
0
100
AcDbSpline
70
4
71
3
72
8
73
4
74
0
42
0.000000001
43
0.0000000001
44
0.0000000001
40
0
40
0
40
0
40
0
40
1
40
1
40
1
40
1
41
1
41
1
41
1
41
1
10
-4.2740254332453516
20
-5.0353277126935669
30
0
10
-4.206391661917098
20
-5.1081640818163034
30
0
10
-4.1205487983081603
20
-5.1419809674804311
30
0
10
-3.5378578453262794
20
-5.3240718902872688
30
0
0
SPLINE
5
321
100
AcDbEntity
8
0
100
AcDbSpline
70
4
71
3
72
8
73
4
74
0
42
0.000000001
43
0.0000000001
44
0.0000000001
40
0
40
0
40
0
40
0
40
1
40
1
40
1
40
1
41
1
41
1
41
1
41
1
10
-3.5378578453262794
20
-5.3240718902872688
30
0
10
-3.1762772986098451
20
-5.4359277428686097
30
0
10
-2.8719253276327033
20
-5.5347771009637521
30
0
10
-2.8641214309409806
20
-5.542580997655473
30
0
0
SPLINE
5
322
100
AcDbEntity
8
0
100
AcDbSpline
70
4
71
3
72
8
73
4
74
0
42
0.000000001
43
0.0000000001
44
0.0000000001
40
0
40
0
40
0
40
0
40
1
40
1
40
1
40
1
41
1
41
1
41
1
41
1
10
-2.8641214309409806
20
-5.542580997655473
30
0
10
-2.8042915563044479
20
-5.6024108722920056
30
0
10
-2.9551668923443999
20
-5.5711952855251203
30
0
10
-3.3869825092863275
20
-5.4333264439713691
30
0
0
SPLINE
5
323
100
AcDbEntity
8
0
100
AcDbSpline
70
4
71
3
72
8
73
4
74
0
42
0.000000001
43
0.0000000001
44
0.0000000001
40
0
40
0
40
0
40
0
40
1
40
1
40
1
40
1
41
1
41
1
41
1
41
1
10
-3.3869825092863275
20
-5.4333264439713691
30
0
10
-3.9098435876316762
20
-5.2642420156507344
30
0
10
-4.0529150269799059
20
-5.2408303255755699
30
0
10
-4.1595682817667674
20
-5.316267993595547
30
0
0
SPLINE
5
324
100
AcDbEntity
8
0
100
AcDbSpline
70
4
71
3
72
8
73
4
74
0
42
0.000000001
43
0.0000000001
44
0.0000000001
40
0
40
0
40
0
40
0
40
1
40
1
40
1
40
1
41
1
41
1
41
1
41
1
10
-4.1595682817667674
20
-5.316267993595547
30
0
10
-4.2558163409646683
20
-5.3813004660265609
30
0
10
-4.2844306288343139
20
-5.4281238461768906
30
0
10
-4.3182475144984407
20
-5.5711952855251203
30
0
0
SPLINE
5
325
100
AcDbEntity
8
0
100
AcDbSpline
70
4
71
3
72
8
73
4
74
0
42
0.000000001
43
0.0000000001
44
0.0000000001
40
0
40
0
40
0
40
0
40
1
40
1
40
1
40
1
41
1
41
1
41
1
41
1
10
-4.3182475144984407
20
-5.5711952855251203
30
0
10
-4.3338553078818842
20
-5.6414303557506127
30
0
10
-4.3884825847239339
20
-5.7766978984071207
30
0
10
-4.4405085626687457
20
-5.8677433598105404
30
0
0
SPLINE
5
326
100
AcDbEntity
8
0
100
AcDbSpline
70
4
71
3
72
8
73
4
74
0
42
0.000000001
43
0.0000000001
44
0.0000000001
40
0
40
0
40
0
40
0
40
1
40
1
40
1
40
1
41
1
41
1
41
1
41
1
10
-4.4405085626687457
20
-5.8677433598105404
30
0
10
-4.5107436328942407
20
-5.9978083046725663
30
0
10
-4.5315540240721637
20
-6.0654420760008199
30
0
10
-4.5315540240721637
20
-6.1668927329932002
30
0
0
SPLINE
5
327
100
AcDbEntity
8
0
100
AcDbSpline
70
4
71
3
72
8
73
4
74
0
42
0.000000001
43
0.0000000001
44
0.0000000001
40
0
40
0
40
0
40
0
40
1
40
1
40
1
40
1
41
1
41
1
41
1
41
1
10
-4.5315540240721637
20
-6.1668927329932002
30
0
10
-4.5315540240721637
20
-6.4140161282310535
30
0
10
-4.3806786880322131
20
-6.5961070510378894
30
0
10
-4.1491630861778059
20
-6.6273226378047774
30
0
0
SPLINE
5
328
100
AcDbEntity
8
0
100
AcDbSpline
70
4
71
3
72
8
73
4
74
0
42
0.000000001
43
0.0000000001
44
0.0000000001
40
0
40
0
40
0
40
0
40
1
40
1
40
1
40
1
41
1
41
1
41
1
41
1
10
-4.1491630861778059
20
-6.6273226378047774
30
0
10
-4.0555163258771474
20
-6.6403291322909794
30
0
10
-3.9540656688847662
20
-6.6793486157495892
30
0
10
-3.8552163107896247
20
-6.7391784903861183
30
0
0
SPLINE
5
329
100
AcDbEntity
8
0
100
AcDbSpline
70
4
71
3
72
8
73
4
74
0
42
0.000000001
43
0.0000000001
44
0.0000000001
40
0
40
0
40
0
40
0
40
1
40
1
40
1
40
1
41
1
41
1
41
1
41
1
10
-3.8552163107896247
20
-6.7391784903861183
30
0
10
-3.6809292846745096
20
-6.8458317451729833
30
0
10
-3.5638708342986853
20
-6.8588382396591836
30
0
10
-3.4416097861283799
20
-6.7834005716392083
30
0
0
SPLINE
5
330
100
AcDbEntity
8
0
100
AcDbSpline
70
4
71
3
72
8
73
4
74
0
42
0.000000001
43
0.0000000001
44
0.0000000001
40
0
40
0
40
0
40
0
40
1
40
1
40
1
40
1
41
1
41
1
41
1
41
1
10
-3.4416097861283799
20
-6.7834005716392083
30
0
10
-3.3973877048752912
20
-6.7547862837695645
30
0
10
-3.2335058743491363
20
-6.5596888664765238
30
0
10
-3.0826305383091857
20
-6.3463823569027999
30
0
0
SPLINE
5
331
100
AcDbEntity
8
0
100
AcDbSpline
70
4
71
3
72
8
73
4
74
0
42
0.000000001
43
0.0000000001
44
0.0000000001
40
0
40
0
40
0
40
0
40
1
40
1
40
1
40
1
41
1
41
1
41
1
41
1
10
-3.0826305383091857
20
-6.3463823569027999
30
0
10
-2.9291539033719944
20
-6.1356771462263149
30
0
10
-2.7912850618182463
20
-5.9561875223167178
30
0
10
-2.7782785673320425
20
-5.9535862234194781
30
0
0
SPLINE
5
332
100
AcDbEntity
8
0
100
AcDbSpline
70
4
71
3
72
8
73
4
74
0
42
0.000000001
43
0.0000000001
44
0.0000000001
40
0
40
0
40
0
40
0
40
1
40
1
40
1
40
1
41
1
41
1
41
1
41
1
10
-2.7782785673320425
20
-5.9535862234194781
30
0
10
-2.7132460949010286
20
-5.9301745333443119
30
0
10
-2.7860824640237647
20
-6.0420303859256563
30
0
10
-3.1580682063291623
20
-6.5492836708875606
30
0
0
SPLINE
5
333
100
AcDbEntity
8
0
100
AcDbSpline
70
4
71
3
72
8
73
4
74
0
42
0.000000001
43
0.0000000001
44
0.0000000001
40
0
40
0
40
0
40
0
40
1
40
1
40
1
40
1
41
1
41
1
41
1
41
1
10
-3.1580682063291623
20
-6.5492836708875606
30
0
10
-3.5586682365042037
20
-7.0929551404108349
30
0
10
-3.5612695354014443
20
-7.1007590371025557
30
0
10
-3.5612695354014443
20
-7.2360265797590628
30
0
0
SPLINE
5
334
100
AcDbEntity
8
0
100
AcDbSpline
70
4
71
3
72
8
73
4
74
0
42
0.000000001
43
0.0000000001
44
0.0000000001
40
0
40
0
40
0
40
0
40
1
40
1
40
1
40
1
41
1
41
1
41
1
41
1
10
-3.5612695354014443
20
-7.2360265797590628
30
0
10
-3.5612695354014443
20
-7.4571369860245085
30
0
10
-3.4155967971559749
20
-7.5872019308865335
30
0
10
-3.1658721030208841
20
-7.5872019308865335
30
0
0
SPLINE
5
335
100
AcDbEntity
8
0
100
AcDbSpline
70
4
71
3
72
8
73
4
74
0
42
0.000000001
43
0.0000000001
44
0.0000000001
40
0
40
0
40
0
40
0
40
1
40
1
40
1
40
1
41
1
41
1
41
1
41
1
10
-3.1658721030208841
20
-7.5872019308865335
30
0
10
-3.0540162504395405
20
-7.5872019308865335
30
0
10
-2.9941863758030065
20
-7.5585876430168888
30
0
10
-2.8225006485851321
20
-7.4207188014631411
30
0
0
SPLINE
5
336
100
AcDbEntity
8
0
100
AcDbSpline
70
4
71
3
72
8
73
4
74
0
42
0.000000001
43
0.0000000001
44
0.0000000001
40
0
40
0
40
0
40
0
40
1
40
1
40
1
40
1
41
1
41
1
41
1
41
1
10
-2.8225006485851321
20
-7.4207188014631411
30
0
10
-2.6404097257782944
20
-7.2750460632176708
30
0
10
-2.4140967217183671
20
-7.3010590521900758
30
0
10
-2.2137967066308462
20
-7.4935551705858749
30
0
0
SPLINE
5
337
100
AcDbEntity
8
0
100
AcDbSpline
70
4
71
3
72
8
73
4
74
0
42
0.000000001
43
0.0000000001
44
0.0000000001
40
0
40
0
40
0
40
0
40
1
40
1
40
1
40
1
41
1
41
1
41
1
41
1
10
-2.2137967066308462
20
-7.4935551705858749
30
0
10
-2.1357577397136311
20
-7.5663915397086088
30
0
10
-2.1123460496384654
20
-7.5741954364003332
30
0
10
-1.9536668169067923
20
-7.5741954364003332
30
0
0
SPLINE
5
338
100
AcDbEntity
8
0
100
AcDbSpline
70
4
71
3
72
8
73
4
74
0
42
0.000000001
43
0.0000000001
44
0.0000000001
40
0
40
0
40
0
40
0
40
1
40
1
40
1
40
1
41
1
41
1
41
1
41
1
10
-1.9536668169067923
20
-7.5741954364003332
30
0
10
-1.6883343293882582
20
-7.57159413750309
30
0
10
-1.5582693845262312
20
-7.4571369860245085
30
0
10
-1.5582693845262312
20
-7.2256213841700996
30
0
0
SPLINE
5
339
100
AcDbEntity
8
0
100
AcDbSpline
70
4
71
3
72
8
73
4
74
0
42
0.000000001
43
0.0000000001
44
0.0000000001
40
0
40
0
40
0
40
0
40
1
40
1
40
1
40
1
41
1
41
1
41
1
41
1
10
-1.5582693845262312
20
-7.2256213841700996
30
0
10
-1.5582693845262312
20
-7.1137655315887587
30
0
10
-1.5998901668820793
20
-7.0461317602605034
30
0
10
-2.1253525441246683
20
-6.3021602756497099
30
0
0
SPLINE
5
340
100
AcDbEntity
8
0
100
AcDbSpline
70
4
71
3
72
8
73
4
74
0
42
0.000000001
43
0.0000000001
44
0.0000000001
40
0
40
0
40
0
40
0
40
1
40
1
40
1
40
1
41
1
41
1
41
1
41
1
10
-2.1253525441246683
20
-6.3021602756497099
30
0
10
-2.2580187878839344
20
-6.1174680539456316
30
0
10
-2.3594694448763169
20
-5.9587888212139593
30
0
10
-2.3516655481845952
20
-5.9535862234194781
30
0
0
SPLINE
5
341
100
AcDbEntity
8
0
100
AcDbSpline
70
4
71
3
72
8
73
4
74
0
42
0.000000001
43
0.0000000001
44
0.0000000001
40
0
40
0
40
0
40
0
40
1
40
1
40
1
40
1
41
1
41
1
41
1
41
1
10
-2.3516655481845952
20
-5.9535862234194781
30
0
10
-2.3438616514928734
20
-5.9457823267277545
30
0
10
-2.333456455903911
20
-5.9457823267277545
30
0
10
-2.3308551570066713
20
-5.9509849245222375
30
0
0
SPLINE
5
342
100
AcDbEntity
8
0
100
AcDbSpline
70
4
71
3
72
8
73
4
74
0
42
0.000000001
43
0.0000000001
44
0.0000000001
40
0
40
0
40
0
40
0
40
1
40
1
40
1
40
1
41
1
41
1
41
1
41
1
10
-2.3308551570066713
20
-5.9509849245222375
30
0
10
-2.3256525592121897
20
-5.9561875223167178
30
0
10
-2.1435616364053525
20
-6.1955070208628475
30
0
10
-1.9302551268316277
20
-6.481649899559307
30
0
0
SPLINE
5
343
100
AcDbEntity
8
0
100
AcDbSpline
70
4
71
3
72
8
73
4
74
0
42
0.000000001
43
0.0000000001
44
0.0000000001
40
0
40
0
40
0
40
0
40
1
40
1
40
1
40
1
41
1
41
1
41
1
41
1
10
-1.9302551268316277
20
-6.481649899559307
30
0
10
-1.714347318360663
20
-6.7677927782557674
30
0
10
-1.5088447054786611
20
-7.0279226679798201
30
0
10
-1.4724265209172942
20
-7.0617395536439451
30
0
0
SPLINE
5
344
100
AcDbEntity
8
0
100
AcDbSpline
70
4
71
3
72
8
73
4
74
0
42
0.000000001
43
0.0000000001
44
0.0000000001
40
0
40
0
40
0
40
0
40
1
40
1
40
1
40
1
41
1
41
1
41
1
41
1
10
-1.4724265209172942
20
-7.0617395536439451
30
0
10
-1.3839823584111139
20
-7.144981118355644
30
0
10
-1.2331070223711651
20
-7.1605889117390875
30
0
10
-1.1186498708925801
20
-7.1007590371025557
30
0
0
SPLINE
5
345
100
AcDbEntity
8
0
100
AcDbSpline
70
4
71
3
72
8
73
4
74
0
42
0.000000001
43
0.0000000001
44
0.0000000001
40
0
40
0
40
0
40
0
40
1
40
1
40
1
40
1
41
1
41
1
41
1
41
1
10
-1.1186498708925801
20
-7.1007590371025557
30
0
10
-0.99118622492779429
20
-7.0331252657743004
30
0
10
-0.9365589480857428
20
-6.9446811032681204
30
0
10
-0.91834985580505912
20
-6.7807992727419695
30
0
0
SPLINE
5
346
100
AcDbEntity
8
0
100
AcDbSpline
70
4
71
3
72
8
73
4
74
0
42
0.000000001
43
0.0000000001
44
0.0000000001
40
0
40
0
40
0
40
0
40
1
40
1
40
1
40
1
41
1
41
1
41
1
41
1
10
-0.91834985580505912
20
-6.7807992727419695
30
0
10
-0.90534336131885584
20
-6.6793486157495892
30
0
10
-0.87672907344920925
20
-6.6013096488323724
30
0
10
-0.81169660101819574
20
-6.5050615896344723
30
0
0
SPLINE
5
347
100
AcDbEntity
8
0
100
AcDbSpline
70
4
71
3
72
8
73
4
74
0
42
0.000000001
43
0.0000000001
44
0.0000000001
40
0
40
0
40
0
40
0
40
1
40
1
40
1
40
1
41
1
41
1
41
1
41
1
10
-0.81169660101819574
20
-6.5050615896344723
30
0
10
-0.7128472429230569
20
-6.3567875524917614
30
0
10
-0.64781477049204339
20
-6.1694940318904417
30
0
10
-0.64781477049204339
20
-6.0238212936449713
30
0
0
SPLINE
5
348
100
AcDbEntity
8
0
100
AcDbSpline
70
4
71
3
72
8
73
4
74
0
42
0.000000001
43
0.0000000001
44
0.0000000001
40
0
40
0
40
0
40
0
40
1
40
1
40
1
40
1
41
1
41
1
41
1
41
1
10
-0.64781477049204339
20
-6.0238212936449713
30
0
10
-0.64781477049204339
20
-5.9457823267277545
30
0
10
-0.67122646056720858
20
-5.8989589465774275
30
0
10
-0.7518667263816653
20
-5.8053121862767672
30
0
0
SPLINE
5
349
100
AcDbEntity
8
0
100
AcDbSpline
70
4
71
3
72
8
73
4
74
0
42
0.000000001
43
0.0000000001
44
0.0000000001
40
0
40
0
40
0
40
0
40
1
40
1
40
1
40
1
41
1
41
1
41
1
41
1
10
-0.7518667263816653
20
-5.8053121862767672
30
0
10
-0.80909530212095704
20
-5.7402797138457551
30
0
10
-0.86632387786024767
20
-5.6388290568533748
30
0
10
-0.88453297014093235
20
-5.5789991822168394
30
0
0
SPLINE
5
350
100
AcDbEntity
8
0
100
AcDbSpline
70
4
71
3
72
8
73
4
74
0
42
0.000000001
43
0.0000000001
44
0.0000000001
40
0
40
0
40
0
40
0
40
1
40
1
40
1
40
1
41
1
41
1
41
1
41
1
10
-0.88453297014093235
20
-5.5789991822168394
30
0
10
-0.90014076352437589
20
-5.5191693075803085
30
0
10
-0.9521667414691859
20
-5.4307251450741294
30
0
10
-0.99899012161951584
20
-5.3839017649237988
30
0
0
SPLINE
5
351
100
AcDbEntity
8
0
100
AcDbSpline
70
4
71
3
72
8
73
4
74
0
42
0.000000001
43
0.0000000001
44
0.0000000001
40
0
40
0
40
0
40
0
40
1
40
1
40
1
40
1
41
1
41
1
41
1
41
1
10
-0.99899012161951584
20
-5.3839017649237988
30
0
10
-1.1186498708925801
20
-5.2642420156507344
30
0
10
-1.2070940333987599
20
-5.2694446134452164
30
0
10
-1.7559681007165118
20
-5.4437316395603341
30
0
0
SPLINE
5
352
100
AcDbEntity
8
0
100
AcDbSpline
70
4
71
3
72
8
73
4
74
0
42
0.000000001
43
0.0000000001
44
0.0000000001
40
0
40
0
40
0
40
0
40
1
40
1
40
1
40
1
41
1
41
1
41
1
41
1
10
-1.7559681007165118
20
-5.4437316395603341
30
0
10
-2.1747772231722382
20
-5.5763978833195997
30
0
10
-2.2866330757535818
20
-5.5972082744975236
30
0
10
-2.2189993044253278
20
-5.5347771009637521
30
0
0
SPLINE
5
353
100
AcDbEntity
8
0
100
AcDbSpline
70
4
71
3
72
8
73
4
74
0
42
0.000000001
43
0.0000000001
44
0.0000000001
40
0
40
0
40
0
40
0
40
1
40
1
40
1
40
1
41
1
41
1
41
1
41
1
10
-2.2189993044253278
20
-5.5347771009637521
30
0
10
-2.2059928099391248
20
-5.5217706064775482
30
0
10
-1.9666733113929959
20
-5.4385290417658512
30
0
10
-1.6883343293882582
20
-5.3526861781569153
30
0
0
SPLINE
5
354
100
AcDbEntity
8
0
100
AcDbSpline
70
4
71
3
72
8
73
4
74
0
42
0.000000001
43
0.0000000001
44
0.0000000001
40
0
40
0
40
0
40
0
40
1
40
1
40
1
40
1
41
1
41
1
41
1
41
1
10
-1.6883343293882582
20
-5.3526861781569153
30
0
10
-1.4099953473835194
20
-5.2642420156507344
30
0
10
-1.1524667565567068
20
-5.1731965542473164
30
0
10
-1.1160485719953399
20
-5.1445822663776717
30
0
0
SPLINE
5
355
100
AcDbEntity
8
0
100
AcDbSpline
70
4
71
3
72
8
73
4
74
0
42
0.000000001
43
0.0000000001
44
0.0000000001
40
0
40
0
40
0
40
0
40
1
40
1
40
1
40
1
41
1
41
1
41
1
41
1
10
-1.1160485719953399
20
-5.1445822663776717
30
0
10
-1.0796303874339717
20
-5.1185692774052667
30
0
10
-1.035408306180883
20
-5.0561381038714925
30
0
10
-1.0198005127974394
20
-5.0015108270294428
30
0
0
SPLINE
5
356
100
AcDbEntity
8
0
100
AcDbSpline
70
4
71
3
72
8
73
4
74
0
42
0.000000001
43
0.0000000001
44
0.0000000001
40
0
40
0
40
0
40
0
40
1
40
1
40
1
40
1
41
1
41
1
41
1
41
1
10
-1.0198005127974394
20
-5.0015108270294428
30
0
10
-0.99118622492779429
20
-4.9208705612149855
30
0
10
-0.99378752382503444
20
-4.8870536755508578
30
0
10
-1.0276044094891614
20
-4.7960082141474389
30
0
0
SPLINE
5
357
100
AcDbEntity
8
0
100
AcDbSpline
70
4
71
3
72
8
73
4
74
0
42
0.000000001
43
0.0000000001
44
0.0000000001
40
0
40
0
40
0
40
0
40
1
40
1
40
1
40
1
41
1
41
1
41
1
41
1
10
-1.0276044094891614
20
-4.7960082141474389
30
0
10
-1.0510160995643263
20
-4.7361783395109072
30
0
10
-1.0900355830229347
20
-4.6165185902378418
30
0
10
-1.1160485719953399
20
-4.5280744277316636
30
0
0
SPLINE
5
358
100
AcDbEntity
8
0
100
AcDbSpline
70
4
71
3
72
8
73
4
74
0
42
0.000000001
43
0.0000000001
44
0.0000000001
40
0
40
0
40
0
40
0
40
1
40
1
40
1
40
1
41
1
41
1
41
1
41
1
10
-1.1160485719953399
20
-4.5280744277316636
30
0
10
-1.2018914356042767
20
-4.2367289512407229
30
0
10
-1.2929368970076953
20
-4.1196705008648991
30
0
10
-1.5192499010676239
20
-4.0208211427697584
30
0
0
SPLINE
5
359
100
AcDbEntity
8
0
100
AcDbSpline
70
4
71
3
72
8
73
4
74
0
42
0.000000001
43
0.0000000001
44
0.0000000001
40
0
40
0
40
0
40
0
40
1
40
1
40
1
40
1
41
1
41
1
41
1
41
1
10
-1.5192499010676239
20
-4.0208211427697584
30
0
10
-1.6545174437241317
20
-3.960991268133228
30
0
10
-1.7169486172579034
20
-3.955788670338745
30
0
10
-2.0785291639743386
20
-3.9739977626194292
30
0
0
SPLINE
5
360
100
AcDbEntity
8
0
100
AcDbSpline
70
4
71
3
72
8
73
4
74
0
42
0.000000001
43
0.0000000001
44
0.0000000001
40
0
40
0
40
0
40
0
40
1
40
1
40
1
40
1
41
1
41
1
41
1
41
1
10
-2.0785291639743386
20
-3.9739977626194292
30
0
10
-2.4921356886355839
20
-3.9948081537973534
30
0
10
-2.5207499765052299
20
-4.0442328328449237
30
0
10
-2.5207499765052299
20
-4.7908056163529595
30
0
0
SPLINE
5
361
100
AcDbEntity
8
0
100
AcDbSpline
70
4
71
3
72
8
73
4
74
0
42
0.000000001
43
0.0000000001
44
0.0000000001
40
0
40
0
40
0
40
0
40
1
40
1
40
1
40
1
41
1
41
1
41
1
41
1
10
-2.5207499765052299
20
-4.7908056163529595
30
0
10
-2.5207499765052299
20
-5.1289744729942282
30
0
10
-2.5311551720941923
20
-5.3240718902872688
30
0
10
-2.5467629654776354
20
-5.3240718902872688
30
0
0
SPLINE
5
362
100
AcDbEntity
8
0
100
AcDbSpline
70
4
71
3
72
8
73
4
74
0
42
0.000000001
43
0.0000000001
44
0.0000000001
40
0
40
0
40
0
40
0
40
1
40
1
40
1
40
1
41
1
41
1
41
1
41
1
10
-2.5467629654776354
20
-5.3240718902872688
30
0
10
-2.5623707588610776
20
-5.3240718902872688
30
0
10
-2.5727759544500408
20
-5.0821510928438975
30
0
10
-2.5727759544500408
20
-4.647734177004728
30
0
0
SPLINE
5
363
100
AcDbEntity
8
0
100
AcDbSpline
70
4
71
3
72
8
73
4
74
0
42
0.000000001
43
0.0000000001
44
0.0000000001
40
0
40
0
40
0
40
0
40
1
40
1
40
1
40
1
41
1
41
1
41
1
41
1
10
-2.5727759544500408
20
-4.647734177004728
30
0
10
-2.5727759544500408
20
-3.8933574968049722
30
0
10
-2.5831811500390023
20
-3.8283250243739588
30
0
10
-2.7340564860789542
20
-3.7372795629705409
30
0
0
SPLINE
5
364
100
AcDbEntity
8
0
100
AcDbSpline
70
4
71
3
72
8
73
4
74
0
42
0.000000001
43
0.0000000001
44
0.0000000001
40
0
40
0
40
0
40
0
40
1
40
1
40
1
40
1
41
1
41
1
41
1
41
1
10
-2.7340564860789542
20
-3.7372795629705409
30
0
10
-2.8407097408658162
20
-3.6722470905395275
30
0
10
-2.999388973597489
20
-3.669645791642286
30
0
10
-3.119048722870553
20
-3.7346782640732994
30
0
0
SPLINE
5
365
100
AcDbEntity
8
0
100
AcDbSpline
70
4
71
3
72
8
73
4
74
0
42
0.000000001
43
0.0000000001
44
0.0000000001
40
0
40
0
40
0
40
0
40
1
40
1
40
1
40
1
41
1
41
1
41
1
41
1
10
-3.119048722870553
20
-3.7346782640732994
30
0
10
-3.2335058743491363
20
-3.7945081387098325
30
0
10
-3.3141461401635945
20
-3.9115665890856559
30
0
10
-3.3375578302387581
20
-4.0468341317421652
30
0
0
SPLINE
5
366
100
AcDbEntity
8
0
100
AcDbSpline
70
4
71
3
72
8
73
4
74
0
42
0.000000001
43
0.0000000001
44
0.0000000001
40
0
40
0
40
0
40
0
40
1
40
1
40
1
40
1
41
1
41
1
41
1
41
1
10
-3.3375578302387581
20
-4.0468341317421652
30
0
10
-3.3583682214166828
20
-4.1795003755014317
30
0
10
-3.485831867381469
20
-4.3277744126441435
30
0
10
-3.6341059045241804
20
-4.3928068850751556
30
0
0
SPLINE
5
367
100
AcDbEntity
8
0
100
AcDbSpline
70
4
71
3
72
8
73
4
74
0
42
0.000000001
43
0.0000000001
44
0.0000000001
40
0
40
0
40
0
40
0
40
1
40
1
40
1
40
1
41
1
41
1
41
1
41
1
10
-3.8838305986592712
20
-4.4266237707392833
30
0
10
-4.0425098313909444
20
-4.4058133795613603
30
0
10
-4.1257513961026406
20
-4.4396302652254862
30
0
10
-4.2480124442729466
20
-4.5670939111902724
30
0
0
SPLINE
5
368
100
AcDbEntity
8
0
100
AcDbSpline
70
4
71
3
72
8
73
4
74
0
42
0.000000001
43
0.0000000001
44
0.0000000001
40
0
40
0
40
0
40
0
40
1
40
1
40
1
40
1
41
1
41
1
41
1
41
1
10
-3.6341059045241804
20
-4.3928068850751556
30
0
10
-3.7199487681331167
20
-4.4318263685337644
30
0
10
-3.7771773438724083
20
-4.4396302652254862
30
0
10
-3.8838305986592712
20
-4.4266237707392833
30
0
0
CIRCLE
5
369
100
AcDbEntity
8
0
100
AcDbCircle
10
-5.3233243759197517
20
-3.7826388275591181
30
0
40
0.13500000000000004
210
0
220
-0
230
1
0
CIRCLE
5
370
100
AcDbEntity
8
0
100
AcDbCircle
10
-7.8501610922267808
20
-3.7145181976196873
30
0
40
0.13500000000000004
210
0
220
-0
230
1
0
SPLINE
5
371
100
AcDbEntity
8
0
100
AcDbSpline
70
4
71
3
72
8
73
4
74
0
42
0.000000001
43
0.0000000001
44
0.0000000001
40
0
40
0
40
0
40
0
40
1
40
1
40
1
40
1
41
1
41
1
41
1
41
1
10
-7.7909815423145572
20
-5.5191693075803085
30
0
10
-7.9236477860738228
20
-5.5061628130941047
30
0
10
-7.9704711662241534
20
-5.5113654108885877
30
0
10
-8.0537127309358514
20
-5.5529861932444335
30
0
0
SPLINE
5
372
100
AcDbEntity
8
0
100
AcDbSpline
70
4
71
3
72
8
73
4
74
0
42
0.000000001
43
0.0000000001
44
0.0000000001
40
0
40
0
40
0
40
0
40
1
40
1
40
1
40
1
41
1
41
1
41
1
41
1
10
-8.0537127309358514
20
-5.5529861932444335
30
0
10
-8.3814763919881567
20
-5.7220706215650701
30
0
10
-8.43610366883021
20
-6.0888537660759843
30
0
10
-8.1551633879282335
20
-6.257938194396619
30
0
0
SPLINE
5
373
100
AcDbEntity
8
0
100
AcDbSpline
70
4
71
3
72
8
73
4
74
0
42
0.000000001
43
0.0000000001
44
0.0000000001
40
0
40
0
40
0
40
0
40
1
40
1
40
1
40
1
41
1
41
1
41
1
41
1
10
-8.1551633879282335
20
-6.257938194396619
30
0
10
-8.1109413066751426
20
-6.2839511833690267
30
0
10
-7.7701711511366325
20
-6.4036109326420929
30
0
10
-7.3981854088312344
20
-6.520669383017915
30
0
0
SPLINE
5
374
100
AcDbEntity
8
0
100
AcDbSpline
70
4
71
3
72
8
73
4
74
0
42
0.000000001
43
0.0000000001
44
0.0000000001
40
0
40
0
40
0
40
0
40
1
40
1
40
1
40
1
41
1
41
1
41
1
41
1
10
-7.3981854088312344
20
-6.520669383017915
30
0
10
-7.0261996665258399
20
-6.637727833393738
30
0
10
-6.7114424999597331
20
-6.7443810881806012
30
0
10
-6.698436005473531
20
-6.7573875826668042
30
0
0
SPLINE
5
375
100
AcDbEntity
8
0
100
AcDbSpline
70
4
71
3
72
8
73
4
74
0
42
0.000000001
43
0.0000000001
44
0.0000000001
40
0
40
0
40
0
40
0
40
1
40
1
40
1
40
1
41
1
41
1
41
1
41
1
10
-6.698436005473531
20
-6.7573875826668042
30
0
10
-6.628200935248036
20
-6.8224200550978162
30
0
10
-6.7478606845211013
20
-6.7964070661254112
30
0
10
-7.1952840948464756
20
-6.655936925674423
30
0
0
SPLINE
5
376
100
AcDbEntity
8
0
100
AcDbSpline
70
4
71
3
72
8
73
4
74
0
42
0.000000001
43
0.0000000001
44
0.0000000001
40
0
40
0
40
0
40
0
40
1
40
1
40
1
40
1
41
1
41
1
41
1
41
1
10
-7.1952840948464756
20
-6.655936925674423
30
0
10
-7.8664192103345343
20
-6.4400291172034585
30
0
10
-7.8742231070262543
20
-6.4400291172034585
30
0
10
-7.9886802585048367
20
-6.468643405073105
30
0
0
SPLINE
5
377
100
AcDbEntity
8
0
100
AcDbSpline
70
4
71
3
72
8
73
4
74
0
42
0.000000001
43
0.0000000001
44
0.0000000001
40
0
40
0
40
0
40
0
40
1
40
1
40
1
40
1
41
1
41
1
41
1
41
1
10
-7.9886802585048367
20
-6.468643405073105
30
0
10
-8.1317516978530673
20
-6.5076628885317138
30
0
10
-8.2253984581537267
20
-6.6169174422158159
30
0
10
-8.2800257349957764
20
-6.809413560611616
30
0
0
SPLINE
5
378
100
AcDbEntity
8
0
100
AcDbSpline
70
4
71
3
72
8
73
4
74
0
42
0.000000001
43
0.0000000001
44
0.0000000001
40
0
40
0
40
0
40
0
40
1
40
1
40
1
40
1
41
1
41
1
41
1
41
1
10
-8.2800257349957764
20
-6.809413560611616
30
0
10
-8.3034374250709444
20
-6.9004590220150348
30
0
10
-8.365868598604715
20
-7.0357265646715419
30
0
10
-8.4126919787550456
20
-7.1111642326915172
30
0
0
SPLINE
5
379
100
AcDbEntity
8
0
100
AcDbSpline
70
4
71
3
72
8
73
4
74
0
42
0.000000001
43
0.0000000001
44
0.0000000001
40
0
40
0
40
0
40
0
40
1
40
1
40
1
40
1
41
1
41
1
41
1
41
1
10
-8.4126919787550456
20
-7.1111642326915172
30
0
10
-8.5167439346446656
20
-7.2698434654231896
30
0
10
-8.558364717000515
20
-7.4207188014631411
30
0
10
-8.5297504291308694
20
-7.5455811485306867
30
0
0
SPLINE
5
380
100
AcDbEntity
8
0
100
AcDbSpline
70
4
71
3
72
8
73
4
74
0
42
0.000000001
43
0.0000000001
44
0.0000000001
40
0
40
0
40
0
40
0
40
1
40
1
40
1
40
1
41
1
41
1
41
1
41
1
10
-8.5297504291308694
20
-7.5455811485306867
30
0
10
-8.4803257500832991
20
-7.7666915547961306
30
0
10
-8.2826270338930179
20
-7.9513837765002098
30
0
10
-8.095333513291699
20
-7.9513837765002098
30
0
0
SPLINE
5
381
100
AcDbEntity
8
0
100
AcDbSpline
70
4
71
3
72
8
73
4
74
0
42
0.000000001
43
0.0000000001
44
0.0000000001
40
0
40
0
40
0
40
0
40
1
40
1
40
1
40
1
41
1
41
1
41
1
41
1
10
-8.095333513291699
20
-7.9513837765002098
30
0
10
-8.0146932474772452
20
-7.9513837765002098
30
0
10
-7.9522620739434693
20
-7.9773967654726148
30
0
10
-7.8273997268759246
20
-8.060638330184311
30
0
0
SPLINE
5
382
100
AcDbEntity
8
0
100
AcDbSpline
70
4
71
3
72
8
73
4
74
0
42
0.000000001
43
0.0000000001
44
0.0000000001
40
0
40
0
40
0
40
0
40
1
40
1
40
1
40
1
41
1
41
1
41
1
41
1
10
-7.8273997268759246
20
-8.060638330184311
30
0
10
-7.6166945161994404
20
-8.201108470635301
30
0
10
-7.4476100878788065
20
-8.2219188618132257
30
0
10
-7.3071399474278174
20
-8.1282721015125645
30
0
0
SPLINE
5
383
100
AcDbEntity
8
0
100
AcDbSpline
70
4
71
3
72
8
73
4
74
0
42
0.000000001
43
0.0000000001
44
0.0000000001
40
0
40
0
40
0
40
0
40
1
40
1
40
1
40
1
41
1
41
1
41
1
41
1
10
-7.3071399474278174
20
-8.1282721015125645
30
0
10
-7.2551139694830056
20
-8.0944552158484377
30
0
10
-7.0808269433678905
20
-7.8811487062747148
30
0
10
-6.9091412161500152
20
-7.6392279088313471
30
0
0
SPLINE
5
384
100
AcDbEntity
8
0
100
AcDbSpline
70
4
71
3
72
8
73
4
74
0
42
0.000000001
43
0.0000000001
44
0.0000000001
40
0
40
0
40
0
40
0
40
1
40
1
40
1
40
1
41
1
41
1
41
1
41
1
10
-6.9091412161500152
20
-7.6392279088313471
30
0
10
-6.6360048319397587
20
-7.2594382698342264
30
0
10
-6.5267502782556557
20
-7.1397785205611637
30
0
10
-6.5449593705363407
20
-7.241229177553544
30
0
0
SPLINE
5
385
100
AcDbEntity
8
0
100
AcDbSpline
70
4
71
3
72
8
73
4
74
0
42
0.000000001
43
0.0000000001
44
0.0000000001
40
0
40
0
40
0
40
0
40
1
40
1
40
1
40
1
41
1
41
1
41
1
41
1
10
-6.5449593705363407
20
-7.241229177553544
30
0
10
-6.5501619683308219
20
-7.2568369709369875
30
0
10
-6.7452593856238598
20
-7.5377772518389667
30
0
10
-6.9845788841699914
20
-7.8603383150967909
30
0
0
SPLINE
5
386
100
AcDbEntity
8
0
100
AcDbSpline
70
4
71
3
72
8
73
4
74
0
42
0.000000001
43
0.0000000001
44
0.0000000001
40
0
40
0
40
0
40
0
40
1
40
1
40
1
40
1
41
1
41
1
41
1
41
1
10
-6.9845788841699914
20
-7.8603383150967909
30
0
10
-7.4398061911870847
20
-8.4768461537427999
30
0
10
-7.4814269735429315
20
-8.5626890173517367
30
0
10
-7.4346035933926045
20
-8.73697604346685
30
0
0
SPLINE
5
387
100
AcDbEntity
8
0
100
AcDbSpline
70
4
71
3
72
8
73
4
74
0
42
0.000000001
43
0.0000000001
44
0.0000000001
40
0
40
0
40
0
40
0
40
1
40
1
40
1
40
1
41
1
41
1
41
1
41
1
10
-7.4346035933926045
20
-8.73697604346685
30
0
10
-7.4033880066257165
20
-8.8540344938426774
30
0
10
-7.2629178661747291
20
-8.9840994387047015
30
0
10
-7.1380555191071808
20
-9.0075111287798695
30
0
0
SPLINE
5
388
100
AcDbEntity
8
0
100
AcDbSpline
70
4
71
3
72
8
73
4
74
0
42
0.000000001
43
0.0000000001
44
0.0000000001
40
0
40
0
40
0
40
0
40
1
40
1
40
1
40
1
41
1
41
1
41
1
41
1
10
-7.1380555191071808
20
-9.0075111287798695
30
0
10
-7.0001866775534332
20
-9.0335241177522718
30
0
10
-6.8154944558493549
20
-9.0049098298826262
30
0
10
-6.7478606845211013
20
-8.9502825530405765
30
0
0
SPLINE
5
389
100
AcDbEntity
8
0
100
AcDbSpline
70
4
71
3
72
8
73
4
74
0
42
0.000000001
43
0.0000000001
44
0.0000000001
40
0
40
0
40
0
40
0
40
1
40
1
40
1
40
1
41
1
41
1
41
1
41
1
10
-6.7478606845211013
20
-8.9502825530405765
30
0
10
-6.7140437988569746
20
-8.9216682651709309
30
0
10
-6.6438087286314804
20
-8.8670409883288777
30
0
10
-6.5943840495839092
20
-8.8254202059730282
30
0
0
SPLINE
5
390
100
AcDbEntity
8
0
100
AcDbSpline
70
4
71
3
72
8
73
4
74
0
42
0.000000001
43
0.0000000001
44
0.0000000001
40
0
40
0
40
0
40
0
40
1
40
1
40
1
40
1
41
1
41
1
41
1
41
1
10
-6.5943840495839092
20
-8.8254202059730282
30
0
10
-6.4122931267770715
20
-8.682348766624802
30
0
10
-6.1807775249226635
20
-8.7057604566999665
30
0
10
-5.9674710153489396
20
-8.8930539773012818
30
0
0
SPLINE
5
391
100
AcDbEntity
8
0
100
AcDbSpline
70
4
71
3
72
8
73
4
74
0
42
0.000000001
43
0.0000000001
44
0.0000000001
40
0
40
0
40
0
40
0
40
1
40
1
40
1
40
1
41
1
41
1
41
1
41
1
10
-5.9674710153489396
20
-8.8930539773012818
30
0
10
-5.8660203583565602
20
-8.9840994387047015
30
0
10
-5.8217982771034711
20
-9.0023085309853883
30
0
10
-5.7099424245221275
20
-9.0127137265743507
30
0
0
SPLINE
5
392
100
AcDbEntity
8
0
100
AcDbSpline
70
4
71
3
72
8
73
4
74
0
42
0.000000001
43
0.0000000001
44
0.0000000001
40
0
40
0
40
0
40
0
40
1
40
1
40
1
40
1
41
1
41
1
41
1
41
1
10
-5.7099424245221275
20
-9.0127137265743507
30
0
10
-5.4081917524422245
20
-9.0361254166495151
30
0
10
-5.2261008296353886
20
-8.9138643684792083
30
0
10
-5.205290438457463
20
-8.6693422721386
30
0
0
SPLINE
5
393
100
AcDbEntity
8
0
100
AcDbSpline
70
4
71
3
72
8
73
4
74
0
42
0.000000001
43
0.0000000001
44
0.0000000001
40
0
40
0
40
0
40
0
40
1
40
1
40
1
40
1
41
1
41
1
41
1
41
1
10
-5.205290438457463
20
-8.6693422721386
30
0
10
-5.1896826450740203
20
-8.4924539471262435
30
0
10
-5.1844800472795391
20
-8.5028591427152023
30
0
10
-5.6943346311386849
20
-7.8083123371519818
30
0
0
SPLINE
5
394
100
AcDbEntity
8
0
100
AcDbSpline
70
4
71
3
72
8
73
4
74
0
42
0.000000001
43
0.0000000001
44
0.0000000001
40
0
40
0
40
0
40
0
40
1
40
1
40
1
40
1
41
1
41
1
41
1
41
1
10
-5.6943346311386849
20
-7.8083123371519818
30
0
10
-5.9102424396096476
20
-7.5143655617637988
30
0
10
-6.0923333624164862
20
-7.2568369709369875
30
0
10
-6.1001372591082079
20
-7.2360265797590628
30
0
0
SPLINE
5
395
100
AcDbEntity
8
0
100
AcDbSpline
70
4
71
3
72
8
73
4
74
0
42
0.000000001
43
0.0000000001
44
0.0000000001
40
0
40
0
40
0
40
0
40
1
40
1
40
1
40
1
41
1
41
1
41
1
41
1
10
-6.1001372591082079
20
-7.2360265797590628
30
0
10
-6.1469606392585385
20
-7.1163668304859975
30
0
10
-6.0299021888827147
20
-7.2568369709369875
30
0
10
-5.6813281366524828
20
-7.7354759680292444
30
0
0
SPLINE
5
396
100
AcDbEntity
8
0
100
AcDbSpline
70
4
71
3
72
8
73
4
74
0
42
0.000000001
43
0.0000000001
44
0.0000000001
40
0
40
0
40
0
40
0
40
1
40
1
40
1
40
1
41
1
41
1
41
1
41
1
10
-5.6813281366524828
20
-7.7354759680292444
30
0
10
-5.4654203281815175
20
-8.0320240423146672
30
0
10
-5.2521138186077945
20
-8.3181669210111249
30
0
10
-5.2026891395602233
20
-8.3727941978531781
30
0
0
SPLINE
5
397
100
AcDbEntity
8
0
100
AcDbSpline
70
4
71
3
72
8
73
4
74
0
42
0.000000001
43
0.0000000001
44
0.0000000001
40
0
40
0
40
0
40
0
40
1
40
1
40
1
40
1
41
1
41
1
41
1
41
1
10
-5.2026891395602233
20
-8.3727941978531781
30
0
10
-5.0570164013147538
20
-8.536676028379329
30
0
10
-4.8255007994603458
20
-8.5678916151462197
30
0
10
-4.6668215667286734
20
-8.4404279691814299
30
0
0
SPLINE
5
398
100
AcDbEntity
8
0
100
AcDbSpline
70
4
71
3
72
8
73
4
74
0
42
0.000000001
43
0.0000000001
44
0.0000000001
40
0
40
0
40
0
40
0
40
1
40
1
40
1
40
1
41
1
41
1
41
1
41
1
10
-4.6668215667286734
20
-8.4404279691814299
30
0
10
-4.5809787031197349
20
-8.3753954967504196
30
0
10
-4.4717241494356328
20
-8.1516837915877307
30
0
10
-4.4717241494356328
20
-8.0450305368008692
30
0
0
SPLINE
5
399
100
AcDbEntity
8
0
100
AcDbSpline
70
4
71
3
72
8
73
4
74
0
42
0.000000001
43
0.0000000001
44
0.0000000001
40
0
40
0
40
0
40
0
40
1
40
1
40
1
40
1
41
1
41
1
41
1
41
1
10
-4.4717241494356328
20
-8.0450305368008692
30
0
10
-4.4717241494356328
20
-8.0034097544450216
30
0
10
-4.432704665977024
20
-7.9097629941443612
30
0
10
-4.3832799869294545
20
-7.8369266250216274
30
0
0
SPLINE
5
400
100
AcDbEntity
8
0
100
AcDbSpline
70
4
71
3
72
8
73
4
74
0
42
0.000000001
43
0.0000000001
44
0.0000000001
40
0
40
0
40
0
40
0
40
1
40
1
40
1
40
1
41
1
41
1
41
1
41
1
10
-4.3832799869294545
20
-7.8369266250216274
30
0
10
-4.2792280310398327
20
-7.6782473922899523
30
0
10
-4.2115942597115783
20
-7.4675421816134699
30
0
10
-4.2115942597115783
20
-7.2984577532928343
30
0
0
SPLINE
5
401
100
AcDbEntity
8
0
100
AcDbSpline
70
4
71
3
72
8
73
4
74
0
42
0.000000001
43
0.0000000001
44
0.0000000001
40
0
40
0
40
0
40
0
40
1
40
1
40
1
40
1
41
1
41
1
41
1
41
1
10
-4.2115942597115783
20
-7.2984577532928343
30
0
10
-4.2115942597115783
20
-7.1918044985059728
30
0
10
-4.2246007541977821
20
-7.157987612841846
30
0
10
-4.3130449167039595
20
-7.0565369558494666
30
0
0
SPLINE
5
402
100
AcDbEntity
8
0
100
AcDbSpline
70
4
71
3
72
8
73
4
74
0
42
0.000000001
43
0.0000000001
44
0.0000000001
40
0
40
0
40
0
40
0
40
1
40
1
40
1
40
1
41
1
41
1
41
1
41
1
10
-4.3130449167039595
20
-7.0565369558494666
30
0
10
-4.3702734924432516
20
-6.9915044834184537
30
0
10
-4.4222994703880634
20
-6.9004590220150348
30
0
10
-4.432704665977024
20
-6.8536356418647033
30
0
0
SPLINE
5
403
100
AcDbEntity
8
0
100
AcDbSpline
70
4
71
3
72
8
73
4
74
0
42
0.000000001
43
0.0000000001
44
0.0000000001
40
0
40
0
40
0
40
0
40
1
40
1
40
1
40
1
41
1
41
1
41
1
41
1
10
-4.432704665977024
20
-6.8536356418647033
30
0
10
-4.4821293450245934
20
-6.6273226378047774
30
0
10
-4.6330046810645458
20
-6.4842511984565485
30
0
10
-4.8202982016658629
20
-6.4868524973537873
30
0
0
SPLINE
5
404
100
AcDbEntity
8
0
100
AcDbSpline
70
4
71
3
72
8
73
4
74
0
42
0.000000001
43
0.0000000001
44
0.0000000001
40
0
40
0
40
0
40
0
40
1
40
1
40
1
40
1
41
1
41
1
41
1
41
1
10
-4.8202982016658629
20
-6.4868524973537873
30
0
10
-4.8801280763023955
20
-6.4868524973537873
30
0
10
-5.1506631616154124
20
-6.5596888664765238
30
0
10
-5.4237995458256689
20
-6.6481330289827012
30
0
0
SPLINE
5
405
100
AcDbEntity
8
0
100
AcDbSpline
70
4
71
3
72
8
73
4
74
0
42
0.000000001
43
0.0000000001
44
0.0000000001
40
0
40
0
40
0
40
0
40
1
40
1
40
1
40
1
41
1
41
1
41
1
41
1
10
-5.4237995458256689
20
-6.6481330289827012
30
0
10
-5.9414580263765364
20
-6.8120148595088548
30
0
10
-5.9804775098351435
20
-6.8224200550978162
30
0
10
-5.9804775098351435
20
-6.7834005716392083
30
0
0
SPLINE
5
406
100
AcDbEntity
8
0
100
AcDbSpline
70
4
71
3
72
8
73
4
74
0
42
0.000000001
43
0.0000000001
44
0.0000000001
40
0
40
0
40
0
40
0
40
1
40
1
40
1
40
1
41
1
41
1
41
1
41
1
10
-5.9804775098351435
20
-6.7834005716392083
30
0
10
-5.9804775098351435
20
-6.770394077153008
30
0
10
-5.712543723419369
20
-6.6689434201606259
30
0
10
-5.3873813612643016
20
-6.5622901653737635
30
0
0
SPLINE
5
407
100
AcDbEntity
8
0
100
AcDbSpline
70
4
71
3
72
8
73
4
74
0
42
0.000000001
43
0.0000000001
44
0.0000000001
40
0
40
0
40
0
40
0
40
1
40
1
40
1
40
1
41
1
41
1
41
1
41
1
10
-5.3873813612643016
20
-6.5622901653737635
30
0
10
-4.9295527553499676
20
-6.4088135304365705
30
0
10
-4.7760761204127764
20
-6.3463823569027999
30
0
10
-4.7240501424679646
20
-6.2917550800607485
30
0
0
SPLINE
5
408
100
AcDbEntity
8
0
100
AcDbSpline
70
4
71
3
72
8
73
4
74
0
42
0.000000001
43
0.0000000001
44
0.0000000001
40
0
40
0
40
0
40
0
40
1
40
1
40
1
40
1
41
1
41
1
41
1
41
1
10
-4.7240501424679646
20
-6.2917550800607485
30
0
10
-4.5939851976059369
20
-6.1564875374042405
30
0
10
-4.5679722086335319
20
-5.9874031090836057
30
0
10
-4.6512137733452281
20
-5.8235212785574513
30
0
0
SPLINE
5
409
100
AcDbEntity
8
0
100
AcDbSpline
70
4
71
3
72
8
73
4
74
0
42
0.000000001
43
0.0000000001
44
0.0000000001
40
0
40
0
40
0
40
0
40
1
40
1
40
1
40
1
41
1
41
1
41
1
41
1
10
-4.6512137733452281
20
-5.8235212785574513
30
0
10
-4.6798280612148755
20
-5.7688940017154016
30
0
10
-4.7188475446734843
20
-5.6596394480312968
30
0
10
-4.7422592347486479
20
-5.5789991822168394
30
0
0
SPLINE
5
410
100
AcDbEntity
8
0
100
AcDbSpline
70
4
71
3
72
8
73
4
74
0
42
0.000000001
43
0.0000000001
44
0.0000000001
40
0
40
0
40
0
40
0
40
1
40
1
40
1
40
1
41
1
41
1
41
1
41
1
10
-4.7422592347486479
20
-5.5789991822168394
30
0
10
-4.8437098917410291
20
-5.2330264288838491
30
0
10
-5.1168462759512856
20
-5.0041121259266816
30
0
10
-5.4290021436201501
20
-5.0041121259266816
30
0
0
SPLINE
5
411
100
AcDbEntity
8
0
100
AcDbSpline
70
4
71
3
72
8
73
4
74
0
42
0.000000001
43
0.0000000001
44
0.0000000001
40
0
40
0
40
0
40
0
40
1
40
1
40
1
40
1
41
1
41
1
41
1
41
1
10
-5.4290021436201501
20
-5.0041121259266816
30
0
10
-5.8504125649731176
20
-5.0041121259266816
30
0
10
-6.0559151778551188
20
-5.0249225171046064
30
0
10
-6.1287515469778544
20
-5.079549793946657
30
0
0
SPLINE
5
412
100
AcDbEntity
8
0
100
AcDbSpline
70
4
71
3
72
8
73
4
74
0
42
0.000000001
43
0.0000000001
44
0.0000000001
40
0
40
0
40
0
40
0
40
1
40
1
40
1
40
1
41
1
41
1
41
1
41
1
10
-6.1287515469778544
20
-5.079549793946657
30
0
10
-6.279626883017805
20
-5.1914056465280005
30
0
10
-6.2926333775040089
20
-5.2512355211645323
30
0
10
-6.2926333775040089
20
-5.9145667399608692
30
0
0
SPLINE
5
413
100
AcDbEntity
8
0
100
AcDbSpline
70
4
71
3
72
8
73
4
74
0
42
0.000000001
43
0.0000000001
44
0.0000000001
40
0
40
0
40
0
40
0
40
1
40
1
40
1
40
1
41
1
41
1
41
1
41
1
10
-6.2926333775040089
20
-5.9145667399608692
30
0
10
-6.2926333775040089
20
-6.3021602756497099
30
0
10
-6.3030385730929712
20
-6.520669383017915
30
0
10
-6.3186463664764121
20
-6.520669383017915
30
0
0
SPLINE
5
414
100
AcDbEntity
8
0
100
AcDbSpline
70
4
71
3
72
8
73
4
74
0
42
0.000000001
43
0.0000000001
44
0.0000000001
40
0
40
0
40
0
40
0
40
1
40
1
40
1
40
1
41
1
41
1
41
1
41
1
10
-6.3186463664764121
20
-6.520669383017915
30
0
10
-6.3342541598598565
20
-6.520669383017915
30
0
10
-6.3446593554488198
20
-6.2527355966021387
30
0
10
-6.3446593554488198
20
-5.7714953006126404
30
0
0
SPLINE
5
415
100
AcDbEntity
8
0
100
AcDbSpline
70
4
71
3
72
8
73
4
74
0
42
0.000000001
43
0.0000000001
44
0.0000000001
40
0
40
0
40
0
40
0
40
1
40
1
40
1
40
1
41
1
41
1
41
1
41
1
10
-6.3446593554488198
20
-5.7714953006126404
30
0
10
-6.3446593554488198
20
-5.0925562884328608
30
0
10
-6.3498619532433001
20
-5.0145173215156449
30
0
10
-6.3966853333936298
20
-4.9156679634205025
30
0
0
SPLINE
5
416
100
AcDbEntity
8
0
100
AcDbSpline
70
4
71
3
72
8
73
4
74
0
42
0.000000001
43
0.0000000001
44
0.0000000001
40
0
40
0
40
0
40
0
40
1
40
1
40
1
40
1
41
1
41
1
41
1
41
1
10
-6.3966853333936298
20
-4.9156679634205025
30
0
10
-6.4903320936942883
20
-4.7075640516412607
30
0
10
-6.7296515922404163
20
-4.6399302803130071
30
0
10
-6.9663697918893082
20
-4.7569887306888301
30
0
0
SPLINE
5
417
100
AcDbEntity
8
0
100
AcDbSpline
70
4
71
3
72
8
73
4
74
0
42
0.000000001
43
0.0000000001
44
0.0000000001
40
0
40
0
40
0
40
0
40
1
40
1
40
1
40
1
41
1
41
1
41
1
41
1
10
-6.9663697918893082
20
-4.7569887306888301
30
0
10
-7.0886308400596123
20
-4.8168186053253628
30
0
10
-7.1770750025657906
20
-4.9338770557011884
30
0
10
-7.1770750025657906
20
-5.0379290115908084
30
0
0
SPLINE
5
418
100
AcDbEntity
8
0
100
AcDbSpline
70
4
71
3
72
8
73
4
74
0
42
0.000000001
43
0.0000000001
44
0.0000000001
40
0
40
0
40
0
40
0
40
1
40
1
40
1
40
1
41
1
41
1
41
1
41
1
10
-7.3487607297836659
20
-5.3813004660265609
30
0
10
-7.4736230768512115
20
-5.4983589164023838
30
0
10
-7.6062893206104798
20
-5.5399796987582324
30
0
10
-7.7909815423145572
20
-5.5191693075803085
30
0
0
SPLINE
5
419
100
AcDbEntity
8
0
100
AcDbSpline
70
4
71
3
72
8
73
4
74
0
42
0.000000001
43
0.0000000001
44
0.0000000001
40
0
40
0
40
0
40
0
40
1
40
1
40
1
40
1
41
1
41
1
41
1
41
1
10
-7.1770750025657906
20
-5.0379290115908084
30
0
10
-7.179676301463032
20
-5.1315757718914696
30
0
10
-7.2629178661747291
20
-5.3006602002121044
30
0
10
-7.3487607297836659
20
-5.3813004660265609
30
0
0
CIRCLE
5
420
100
AcDbEntity
8
0
100
AcDbCircle
10
-6.3305972715458205
20
-6.9103949646427223
30
0
40
0.13500000000000004
210
0
220
-0
230
1
0
CIRCLE
5
421
100
AcDbEntity
8
0
100
AcDbCircle
10
-2.5659475448447848
20
-5.6625659092906924
30
0
40
0.13499999999999973
210
0
220
-0
230
1
0
ENDSEC
0
SECTION
2
OBJECTS
0
DICTIONARY
5
C
100
AcDbDictionary
3
ACAD_GROUP
350
D
3
ACAD_MLINESTYLE
350
17
0
DICTIONARY
5
D
100
AcDbDictionary
0
DICTIONARY
5
1A
330
C
100
AcDbDictionary
0
DICTIONARY
5
17
100
AcDbDictionary
0
ENDSEC
0
EOF
