0
SECTION
2
HEADER
9
$INSUNITS
70
1
9
$ACADVER
1
AC1014
9
$HANDSEED
5
FFFF
0
ENDSEC
0
SECTION
2
TABLES
0
TABLE
2
VPORT
5
8
100
AcDbSymbolTable
0
ENDTAB
0
TABLE
2
LTYPE
5
5
100
AcDbSymbolTable
0
LTYPE
5
14
100
AcDbSymbolTableRecord
100
AcDbLinetypeTableRecord
2
BYBLOCK
70
0
0
LTYPE
5
15
100
AcDbSymbolTableRecord
100
AcDbLinetypeTableRecord
2
BYLAYER
70
0
0
ENDTAB
0
TABLE
2
LAYER
5
2
100
AcDbSymbolTable
70
2
0
LAYER
5
50
100
AcDbSymbolTableRecord
100
AcDbLayerTableRecord
2
0
70
0
6
CONTINUOUS
0
ENDTAB
0
TABLE
2
STYLE
5
3
100
AcDbSymbolTable
70
1
0
STYLE
5
11
100
AcDbSymbolTableRecord
100
AcDbTextStyleTableRecord
2
STANDARD
70
0
0
ENDTAB
0
TABLE
2
VIEW
5
6
100
AcDbSymbolTable
70
0
0
ENDTAB
0
TABLE
2
UCS
5
7
100
AcDbSymbolTable
70
0
0
ENDTAB
0
TABLE
2
APPID
5
9
100
AcDbSymbolTable
70
2
0
APPID
5
12
100
AcDbSymbolTableRecord
100
AcDbRegAppTableRecord
2
ACAD
70
0
0
ENDTAB
0
TABLE
2
DIMSTYLE
5
A
100
AcDbSymbolTable
70
1
0
ENDTAB
0
TABLE
2
BLOCK_RECORD
5
1
100
AcDbSymbolTable
70
1
0
BLOCK_RECORD
5
1F
100
AcDbSymbolTableRecord
100
AcDbBlockTableRecord
2
*MODEL_SPACE
0
BLOCK_RECORD
5
1B
100
AcDbSymbolTableRecord
100
AcDbBlockTableRecord
2
*PAPER_SPACE
0
ENDTAB
0
ENDSEC
0
SECTION
2
BLOCKS
0
BLOCK
5
20
100
AcDbEntity
100
AcDbBlockBegin
2
*MODEL_SPACE
0
ENDBLK
5
21
100
AcDbEntity
100
AcDbBlockEnd
0
BLOCK
5
1C
100
AcDbEntity
100
AcDbBlockBegin
2
*PAPER_SPACE
0
ENDBLK
5
1D
100
AcDbEntity
100
AcDbBlockEnd
0
ENDSEC
0
SECTION
2
ENTITIES
0
SPLINE
5
100
100
AcDbEntity
8
0
100
AcDbSpline
70
4
71
3
72
8
73
4
74
0
42
0.000000001
43
0.0000000001
44
0.0000000001
40
-1
40
-1
40
-1
40
-1
40
0
40
0
40
0
40
0
41
1
41
1
41
1
41
1
10
-2.2185015512730821
20
-3.2479917059086856
30
0
10
-2.1684988840532804
20
-3.1822700392057324
30
0
10
-2.1740185361535511
20
-3.1525975721397188
30
0
10
-2.29785088724153
20
-2.986459154414828
30
0
0
SPLINE
5
101
100
AcDbEntity
8
0
100
AcDbSpline
70
4
71
3
72
8
73
4
74
0
42
0.000000001
43
0.0000000001
44
0.0000000001
40
-1
40
-1
40
-1
40
-1
40
0
40
0
40
0
40
0
41
1
41
1
41
1
41
1
10
-2.29785088724153
20
-2.986459154414828
30
0
10
-2.3746118581450242
20
-2.8771115530629978
30
0
10
-2.4479958781248814
20
-2.7190126578913585
30
0
10
-2.4692174060553098
20
-2.6316922939816312
30
0
0
LINE
5
102
100
AcDbEntity
8
0
100
AcDbLine
10
-2.4692174060553098
20
-2.6316922939816312
30
0
11
-2.5019067784216049
21
-2.4693422437627097
31
0
0
ARC
5
103
100
AcDbEntity
8
0
100
AcDbCircle
10
-3.4310982487935124
20
-2.6564360323609533
30
0
40
0.94784011011559954
210
0
220
-0
230
1
100
AcDbArc
50
11.38435181583586
51
25.669460838849918
0
SPLINE
5
104
100
AcDbEntity
8
0
100
AcDbSpline
70
4
71
3
72
8
73
4
74
0
42
0.000000001
43
0.0000000001
44
0.0000000001
40
-0.5352165328044215
40
-0.5352165328044215
40
-0.5352165328044215
40
-0.5352165328044215
40
-0.5282037975392565
40
-0.5282037975392565
40
-0.5282037975392565
40
-0.5282037975392565
41
1
41
1
41
1
41
1
10
-2.5768023393088701
20
-2.2458518468621094
30
0
10
-2.5769443746251715
20
-2.245531818073391
30
0
10
-2.5770916203021002
20
-2.2452258611433913
30
0
10
-2.5772440924256288
20
-2.2449339618956365
30
0
0
SPLINE
5
105
100
AcDbEntity
8
0
100
AcDbSpline
70
4
71
3
72
8
73
4
74
0
42
0.000000001
43
0.0000000001
44
0.0000000001
40
-0.52820379753925084
40
-0.52820379753925084
40
-0.52820379753925084
40
-0.52820379753925084
40
0
40
0
40
0
40
0
41
1
41
1
41
1
41
1
10
-2.5772440924256292
20
-2.2449339618956357
30
0
10
-2.5887283922917588
20
-2.2229479200256987
30
0
10
-2.6298633728076242
20
-2.2807139312825941
30
0
10
-2.7075227176660497
20
-2.4121742581133021
30
0
0
SPLINE
5
106
100
AcDbEntity
8
0
100
AcDbSpline
70
4
71
3
72
8
73
4
74
0
42
0.000000001
43
0.0000000001
44
0.0000000001
40
-1
40
-1
40
-1
40
-1
40
0
40
0
40
0
40
0
41
1
41
1
41
1
41
1
10
-2.7075227176660497
20
-2.4121742581133021
30
0
10
-2.8592106329607767
20
-2.6627531236715849
30
0
10
-3.1902018477045768
20
-2.957472082379037
30
0
10
-3.4093427142965576
20
-3.0372328349298185
30
0
0
SPLINE
5
107
100
AcDbEntity
8
0
100
AcDbSpline
70
4
71
3
72
8
73
4
74
0
42
0.000000001
43
0.0000000001
44
0.0000000001
40
-1
40
-1
40
-1
40
-1
40
0
40
0
40
0
40
0
41
1
41
1
41
1
41
1
10
-3.4093427142965576
20
-3.0372328349298185
30
0
10
-3.5025941468888901
20
-3.0711735806961085
30
0
10
-3.582269281174705
20
-3.1424148994993319
30
0
10
-3.613193121640716
20
-3.2170331692261902
30
0
0
SPLINE
5
108
100
AcDbEntity
8
0
100
AcDbSpline
70
4
71
3
72
8
73
4
74
0
42
0.000000001
43
0.0000000001
44
0.0000000001
40
-1
40
-1
40
-1
40
-1
40
0
40
0
40
0
40
0
41
1
41
1
41
1
41
1
10
-3.613193121640716
20
-3.2170331692261902
30
0
10
-3.7292603775338322
20
-3.5074496019273815
30
0
10
-4.1056773061327823
20
-3.575811004654267
30
0
10
-4.5499928499173068
20
-3.3995931051174475
30
0
0
SPLINE
5
109
100
AcDbEntity
8
0
100
AcDbSpline
70
4
71
3
72
8
73
4
74
0
42
0.000000001
43
0.0000000001
44
0.0000000001
40
-1
40
-1
40
-1
40
-1
40
0
40
0
40
0
40
0
41
1
41
1
41
1
41
1
10
-4.5499928499173068
20
-3.3995931051174475
30
0
10
-4.9294438074695339
20
-3.2420083684461027
30
0
10
-5.0697666202463525
20
-3.2191582978393329
30
0
10
-5.2533039510897126
20
-3.2806801804539818
30
0
0
LINE
5
110
100
AcDbEntity
8
0
100
AcDbLine
10
-5.2533039510897126
20
-3.2806801804539818
30
0
11
-5.4181909954146086
21
-3.3354139139153731
31
0
0
LINE
5
111
100
AcDbEntity
8
0
100
AcDbLine
10
-5.4181909954146086
20
-3.3354139139153731
30
0
11
-5.2804565477027445
21
-3.206079034380116
31
0
0
SPLINE
5
112
100
AcDbEntity
8
0
100
AcDbSpline
70
4
71
3
72
8
73
4
74
0
42
0.000000001
43
0.0000000001
44
0.0000000001
40
-1
40
-1
40
-1
40
-1
40
0
40
0
40
0
40
0
41
1
41
1
41
1
41
1
10
-5.2804565477027445
20
-3.206079034380116
30
0
10
-5.2054439850465473
20
-3.1365347528652072
30
0
10
-4.9782635959013124
20
-3.0063256692063032
30
0
10
-4.7782015560631264
20
-2.9176683136316157
30
0
0
SPLINE
5
113
100
AcDbEntity
8
0
100
AcDbSpline
70
4
71
3
72
8
73
4
74
0
42
0.000000001
43
0.0000000001
44
0.0000000001
40
-1
40
-1
40
-1
40
-1
40
0
40
0
40
0
40
0
41
1
41
1
41
1
41
1
10
-4.7782015560631264
20
-2.9176683136316157
30
0
10
-4.3204295795430365
20
-2.7246517266520822
30
0
10
-3.8999068051009007
20
-2.7194407492161861
30
0
10
-3.700187687233075
20
-2.9054808268595376
30
0
0
SPLINE
5
114
100
AcDbEntity
8
0
100
AcDbSpline
70
4
71
3
72
8
73
4
74
0
42
0.000000001
43
0.0000000001
44
0.0000000001
40
-1
40
-1
40
-1
40
-1
40
0
40
0
40
0
40
0
41
1
41
1
41
1
41
1
10
-3.700187687233075
20
-2.9054808268595376
30
0
10
-3.6340374802947966
20
-2.9711682462565054
30
0
10
-3.5712813479331444
20
-3.0275305223942381
30
0
10
-3.5649217390152139
20
-3.0304960567355401
30
0
0
SPLINE
5
115
100
AcDbEntity
8
0
100
AcDbSpline
70
4
71
3
72
8
73
4
74
0
42
0.000000001
43
0.0000000001
44
0.0000000001
40
-1
40
-1
40
-1
40
-1
40
0
40
0
40
0
40
0
41
1
41
1
41
1
41
1
10
-3.5649217390152139
20
-3.0304960567355401
30
0
10
-3.5568650928089687
20
-3.0381241627064584
30
0
10
-3.4886235556530338
20
-3.0080060317521244
30
0
10
-3.4161479871028089
20
-2.960506111332311
30
0
0
LINE
5
116
100
AcDbEntity
8
0
100
AcDbLine
10
-3.416147987102808
20
-2.960506111332311
30
0
11
-3.2788249559732789
21
-2.8735629166989316
31
0
0
LINE
5
117
100
AcDbEntity
8
0
100
AcDbLine
10
-3.2788249559732789
20
-2.8735629166989316
30
0
11
-3.4153422775911335
21
-2.8176463044495184
31
0
0
SPLINE
5
118
100
AcDbEntity
8
0
100
AcDbSpline
70
4
71
3
72
8
73
4
74
0
42
0.000000001
43
0.0000000001
44
0.0000000001
40
-1
40
-1
40
-1
40
-1
40
0
40
0
40
0
40
0
41
1
41
1
41
1
41
1
10
-3.4153422775911335
20
-2.8176463044495179
30
0
10
-3.6154556883883018
20
-2.7320743487870836
30
0
10
-3.8597091923346389
20
-2.4671990936755757
30
0
10
-3.93946994488542
20
-2.2480582270835954
30
0
0
LINE
5
119
100
AcDbEntity
8
0
100
AcDbLine
10
-3.93946994488542
20
-2.2480582270835954
30
0
11
-4.0107455109946297
21
-2.0522302186396977
31
0
0
LINE
5
120
100
AcDbEntity
8
0
100
AcDbLine
10
-4.0107455109946297
20
-2.0522302186396977
30
0
11
-3.7487330483064669
21
-2.1627949460855351
31
0
0
SPLINE
5
121
100
AcDbEntity
8
0
100
AcDbSpline
70
4
71
3
72
8
73
4
74
0
42
0.000000001
43
0.0000000001
44
0.0000000001
40
-1
40
-1
40
-1
40
-1
40
0
40
0
40
0
40
0
41
1
41
1
41
1
41
1
10
-3.7487330483064669
20
-2.1627949460855356
30
0
10
-3.5994965088527491
20
-2.2246426270175541
30
0
10
-3.4010801353438969
20
-2.3055520110503722
30
0
10
-3.3027204672336263
20
-2.3436754172519714
30
0
0
SPLINE
5
122
100
AcDbEntity
8
0
100
AcDbSpline
70
4
71
3
72
8
73
4
74
0
42
0.000000001
43
0.0000000001
44
0.0000000001
40
-1
40
-1
40
-1
40
-1
40
0
40
0
40
0
40
0
41
1
41
1
41
1
41
1
10
-3.3027204672336263
20
-2.3436754172519714
30
0
10
-3.1679001829040856
20
-2.3949294578717679
30
0
10
-3.1242228772962282
20
-2.442395130985596
30
0
10
-3.0991787345538455
20
-2.5547253903317206
30
0
0
SPLINE
5
123
100
AcDbEntity
8
0
100
AcDbSpline
70
4
71
3
72
8
73
4
74
0
42
0.000000001
43
0.0000000001
44
0.0000000001
40
-1
40
-1
40
-1
40
-1
40
0
40
0
40
0
40
0
41
1
41
1
41
1
41
1
10
-3.0991787345538455
20
-2.5547253903317206
30
0
10
-3.0843168155413476
20
-2.6390802199001473
30
0
10
-3.0575927591636431
20
-2.6979966137968483
30
0
10
-3.0482676159044098
20
-2.6946025392202193
30
0
0
SPLINE
5
124
100
AcDbEntity
8
0
100
AcDbSpline
70
4
71
3
72
8
73
4
74
0
42
0.000000001
43
0.0000000001
44
0.0000000001
40
-1
40
-1
40
-1
40
-1
40
0
40
0
40
0
40
0
41
1
41
1
41
1
41
1
10
-3.0482676159044098
20
-2.6946025392202193
30
0
10
-3.0342799010155597
20
-2.6895114273552756
30
0
10
-2.9503707353354547
20
-2.6008883190865739
30
0
10
-2.863924575549373
20
-2.4902208497227769
30
0
0
SPLINE
5
125
100
AcDbEntity
8
0
100
AcDbSpline
70
4
71
3
72
8
73
4
74
0
42
0.000000001
43
0.0000000001
44
0.0000000001
40
-1
40
-1
40
-1
40
-1
40
0
40
0
40
0
40
0
41
1
41
1
41
1
41
1
10
-2.863924575549373
20
-2.4902208497227769
30
0
10
-2.6389040112337669
20
-2.2235115680990103
30
0
10
-2.4991467279162194
20
-1.7660653898962906
30
0
10
-2.5242764889235696
20
-1.3633529451549606
30
0
0
SPLINE
5
126
100
AcDbEntity
8
0
100
AcDbSpline
70
4
71
3
72
8
73
4
74
0
42
0.000000001
43
0.0000000001
44
0.0000000001
40
-1
40
-1
40
-1
40
-1
40
0
40
0
40
0
40
0
41
1
41
1
41
1
41
1
10
-2.5242764889235696
20
-1.3633529451549606
30
0
10
-2.5477605836015829
20
-0.79107376080612479
30
0
10
-2.8262459354150939
20
0.55435235724140819
30
0
10
-2.8863965790587964
20
0.40045324615807371
30
0
0
SPLINE
5
127
100
AcDbEntity
8
0
100
AcDbSpline
70
4
71
3
72
8
73
4
74
0
42
0.000000001
43
0.0000000001
44
0.0000000001
40
-1
40
-1
40
-1
40
-1
40
0
40
0
40
0
40
0
41
1
41
1
41
1
41
1
10
-2.8863965790587964
20
0.40045324615807371
30
0
10
-2.8995272134769925
20
0.36399262993880088
30
0
10
-2.9473871795201596
20
0.21984720235002714
30
0
10
-2.9905845739337109
20
0.077398812049566779
30
0
0
SPLINE
5
128
100
AcDbEntity
8
0
100
AcDbSpline
70
4
71
3
72
8
73
4
74
0
42
0.000000001
43
0.0000000001
44
0.0000000001
40
-1
40
-1
40
-1
40
-1
40
0
40
0
40
0
40
0
41
1
41
1
41
1
41
1
10
-2.9905845739337109
20
0.077398812049566779
30
0
10
-3.0384445399768776
20
-0.066746615539207646
30
0
10
-3.138004210528162
20
-0.27195113820131794
30
0
10
-3.2087656181370798
20
-0.38219006732978877
30
0
0
LINE
5
129
100
AcDbEntity
8
0
100
AcDbLine
10
-3.2087656181370798
20
-0.38219006732978877
30
0
11
-3.3460544019606226
21
-0.58528613612125013
31
0
0
LINE
5
130
100
AcDbEntity
8
0
100
AcDbLine
10
-3.3460544019606226
20
-0.58528613612125013
30
0
11
-3.1781846996414314
21
-0.58226923082096915
31
0
0
SPLINE
5
131
100
AcDbEntity
8
0
100
AcDbSpline
70
4
71
3
72
8
73
4
74
0
42
0.000000001
43
0.0000000001
44
0.0000000001
40
-1
40
-1
40
-1
40
-1
40
0
40
0
40
0
40
0
41
1
41
1
41
1
41
1
10
-3.1781846996414314
20
-0.58226923082096915
30
0
10
-3.0039553884043104
20
-0.58221785986198993
30
0
10
-2.9127781623766387
20
-0.70215910152604055
30
0
10
-2.9992243221627204
20
-0.81282657088983845
30
0
0
SPLINE
5
132
100
AcDbEntity
8
0
100
AcDbSpline
70
4
71
3
72
8
73
4
74
0
42
0.000000001
43
0.0000000001
44
0.0000000001
40
-1
40
-1
40
-1
40
-1
40
0
40
0
40
0
40
0
41
1
41
1
41
1
41
1
10
-2.9992243221627204
20
-0.81282657088983845
30
0
10
-3.0297367460463946
20
-0.8450531557148212
30
0
10
-3.0225029330048181
20
-0.93746463148949244
30
0
10
-2.9953503363917848
20
-1.0120657775633579
30
0
0
SPLINE
5
133
100
AcDbEntity
8
0
100
AcDbSpline
70
4
71
3
72
8
73
4
74
0
42
0.000000001
43
0.0000000001
44
0.0000000001
40
-1
40
-1
40
-1
40
-1
40
0
40
0
40
0
40
0
41
1
41
1
41
1
41
1
10
-2.9953503363917848
20
-1.0120657775633579
30
0
10
-2.9482618325543068
20
-1.1269330310154584
30
0
10
-2.9584269326312005
20
-1.1570340383167996
30
0
10
-3.0605749682474377
20
-1.2100536108368833
30
0
0
SPLINE
5
134
100
AcDbEntity
8
0
100
AcDbSpline
70
4
71
3
72
8
73
4
74
0
42
0.000000001
43
0.0000000001
44
0.0000000001
40
-1
40
-1
40
-1
40
-1
40
0
40
0
40
0
40
0
41
1
41
1
41
1
41
1
10
-3.0605749682474377
20
-1.2100536108368833
30
0
10
-3.1271194681150578
20
-1.2448343134208339
30
0
10
-3.2318216214902655
20
-1.2618218099569729
30
0
10
-3.2979547047755524
20
-1.2542108276390462
30
0
0
SPLINE
5
135
100
AcDbEntity
8
0
100
AcDbSpline
70
4
71
3
72
8
73
4
74
0
42
0.000000001
43
0.0000000001
44
0.0000000001
40
-1
40
-1
40
-1
40
-1
40
0
40
0
40
0
40
0
41
1
41
1
41
1
41
1
10
-3.2979547047755524
20
-1.2542108276390462
30
0
10
-3.4098735475393434
20
-1.2368632854795543
30
0
10
-3.4111420445923311
20
-1.2478854660271024
30
0
10
-3.3305584588768826
20
-1.3822429628153297
30
0
0
SPLINE
5
136
100
AcDbEntity
8
0
100
AcDbSpline
70
4
71
3
72
8
73
4
74
0
42
0.000000001
43
0.0000000001
44
0.0000000001
40
-1
40
-1
40
-1
40
-1
40
0
40
0
40
0
40
0
41
1
41
1
41
1
41
1
10
-3.3305584588768826
20
-1.3822429628153297
30
0
10
-3.2185882451541112
20
-1.5738198162119448
30
0
10
-3.2681281248325993
20
-1.771379109250143
30
0
10
-3.421170155445282
20
-1.7425979699607697
30
0
0
SPLINE
5
137
100
AcDbEntity
8
0
100
AcDbSpline
70
4
71
3
72
8
73
4
74
0
42
0.000000001
43
0.0000000001
44
0.0000000001
40
-1
40
-1
40
-1
40
-1
40
0
40
0
40
0
40
0
41
1
41
1
41
1
41
1
10
-3.421170155445282
20
-1.7425979699607697
30
0
10
-3.4953598849368124
20
-1.727358881671925
30
0
10
-3.5419856012329789
20
-1.7443292545550702
30
0
10
-3.5843601624818628
20
-1.801994275051777
30
0
0
SPLINE
5
138
100
AcDbEntity
8
0
100
AcDbSpline
70
4
71
3
72
8
73
4
74
0
42
0.000000001
43
0.0000000001
44
0.0000000001
40
-1
40
-1
40
-1
40
-1
40
0
40
0
40
0
40
0
41
1
41
1
41
1
41
1
10
-3.5843601624818628
20
-1.801994275051777
30
0
10
-3.6813999625801639
20
-1.9270779995397507
30
0
10
-3.8336020363751846
20
-1.8715899275256647
30
0
10
-3.9252249262911754
20
-1.677887496605408
30
0
0
LINE
5
139
100
AcDbEntity
8
0
100
AcDbLine
10
-3.9252249262911758
20
-1.677887496605408
30
0
11
-4.000305983559346
21
-1.5151260298041536
31
0
0
LINE
5
140
100
AcDbEntity
8
0
100
AcDbLine
10
-4.000305983559346
20
-1.5151260298041536
30
0
11
-4.131680822353279
21
-1.6474264436807124
31
0
0
SPLINE
5
141
100
AcDbEntity
8
0
100
AcDbSpline
70
4
71
3
72
8
73
4
74
0
42
0.000000001
43
0.0000000001
44
0.0000000001
40
-1
40
-1
40
-1
40
-1
40
0
40
0
40
0
40
0
41
1
41
1
41
1
41
1
10
-4.131680822353279
20
-1.6474264436807124
30
0
10
-4.2384743059461414
20
-1.7602194905681521
30
0
10
-4.2804374506126903
20
-1.7754928261629828
30
0
10
-4.359718291969167
20
-1.7462660229852878
30
0
0
SPLINE
5
142
100
AcDbEntity
8
0
100
AcDbSpline
70
4
71
3
72
8
73
4
74
0
42
0.000000001
43
0.0000000001
44
0.0000000001
40
-1
40
-1
40
-1
40
-1
40
0
40
0
40
0
40
0
41
1
41
1
41
1
41
1
10
-4.359718291969167
20
-1.7462660229852878
30
0
10
-4.4135606976539163
20
-1.7289013571728022
30
0
10
-4.4589350405500889
20
-1.6767731124293581
30
0
10
-4.4695458045153034
20
-1.6331129304744951
30
0
0
SPLINE
5
143
100
AcDbEntity
8
0
100
AcDbSpline
70
4
71
3
72
8
73
4
74
0
42
0.000000001
43
0.0000000001
44
0.0000000001
40
-1
40
-1
40
-1
40
-1
40
0
40
0
40
0
40
0
41
1
41
1
41
1
41
1
10
-4.4695458045153034
20
-1.6331129304744951
30
0
10
-4.4754939968509007
20
-1.5877557112313161
30
0
10
-4.5318905202946205
20
-1.5343589694348856
30
0
10
-4.5984521438152344
20
-1.5110632349397952
30
0
0
SPLINE
5
144
100
AcDbEntity
8
0
100
AcDbSpline
70
4
71
3
72
8
73
4
74
0
42
0.000000001
43
0.0000000001
44
0.0000000001
40
-1
40
-1
40
-1
40
-1
40
0
40
0
40
0
40
0
41
1
41
1
41
1
41
1
10
-4.5984521438152344
20
-1.5110632349397952
30
0
10
-4.7616763981578005
20
-1.4543066658727217
30
0
10
-4.7464544335219498
20
-1.3220404993021486
30
0
10
-4.5536262067253395
20
-1.1409716679527881
30
0
0
LINE
5
145
100
AcDbEntity
8
0
100
AcDbLine
10
-4.5536262067253404
20
-1.1409716679527881
30
0
11
-4.3913104038124056
21
-0.9921294214284111
31
0
0
LINE
5
146
100
AcDbEntity
8
0
100
AcDbLine
10
-4.3913104038124056
20
-0.9921294214284111
30
0
11
-4.5486035894723695
21
-0.92265363452547522
31
0
0
SPLINE
5
147
100
AcDbEntity
8
0
100
AcDbSpline
70
4
71
3
72
8
73
4
74
0
42
0.000000001
43
0.0000000001
44
0.0000000001
40
-1
40
-1
40
-1
40
-1
40
0
40
0
40
0
40
0
41
1
41
1
41
1
41
1
10
-4.5486035894723695
20
-0.92265363452547544
30
0
10
-4.7550766091874666
20
-0.83411614452173899
30
0
10
-4.8322832439792798
20
-0.65100735391370346
30
0
10
-4.683080951831549
20
-0.59670216068763959
30
0
0
SPLINE
5
148
100
AcDbEntity
8
0
100
AcDbSpline
70
4
71
3
72
8
73
4
74
0
42
0.000000001
43
0.0000000001
44
0.0000000001
40
-1
40
-1
40
-1
40
-1
40
0
40
0
40
0
40
0
41
1
41
1
41
1
41
1
10
-4.683080951831549
20
-0.59670216068763959
30
0
10
-4.6224675206465324
20
-0.57464067593955082
30
0
10
-4.5771274250563456
20
-0.51061604652491288
30
0
10
-4.5712134800267359
20
-0.43982039161001013
30
0
0
SPLINE
5
149
100
AcDbEntity
8
0
100
AcDbSpline
70
4
71
3
72
8
73
4
74
0
42
0.000000001
43
0.0000000001
44
0.0000000001
40
-1
40
-1
40
-1
40
-1
40
0
40
0
40
0
40
0
41
1
41
1
41
1
41
1
10
-4.5712134800267359
20
-0.43982039161001013
30
0
10
-4.5572771360968654
20
-0.26049996850794377
30
0
10
-4.4780134183933837
20
-0.2316503346065974
30
0
10
-4.2711118584429579
20
-0.3358725767874981
30
0
0
LINE
5
150
100
AcDbEntity
8
0
100
AcDbLine
10
-4.2711118584429579
20
-0.33587257678749805
30
0
11
-4.0896487341642587
21
-0.4282326816031905
31
0
0
LINE
5
151
100
AcDbEntity
8
0
100
AcDbLine
10
-4.0896487341642587
20
-0.4282326816031905
30
0
11
-4.0379832769621267
21
-0.25102071237177276
31
0
0
SPLINE
5
152
100
AcDbEntity
8
0
100
AcDbSpline
70
4
71
3
72
8
73
4
74
0
42
0.000000001
43
0.0000000001
44
0.0000000001
40
-1
40
-1
40
-1
40
-1
40
0
40
0
40
0
40
0
41
1
41
1
41
1
41
1
10
-4.0379832769621276
20
-0.2510207123717727
30
0
10
-3.9791182540244048
20
-0.050067344756945395
30
0
10
-3.8367041110299311
20
0.022888134987585237
30
0
10
-3.7455268850022612
20
-0.097053106676465772
30
0
0
SPLINE
5
153
100
AcDbEntity
8
0
100
AcDbSpline
70
4
71
3
72
8
73
4
74
0
42
0.000000001
43
0.0000000001
44
0.0000000001
40
-1
40
-1
40
-1
40
-1
40
0
40
0
40
0
40
0
41
1
41
1
41
1
41
1
10
-3.7455268850022612
20
-0.097053106676465772
30
0
10
-3.7082091883123356
20
-0.14155324544899073
30
0
10
-3.6556352796805722
20
-0.16994009180902397
30
0
10
-3.6293568871911877
20
-0.15509529644952033
30
0
0
SPLINE
5
154
100
AcDbEntity
8
0
100
AcDbSpline
70
4
71
3
72
8
73
4
74
0
42
0.000000001
43
0.0000000001
44
0.0000000001
40
-1
40
-1
40
-1
40
-1
40
0
40
0
40
0
40
0
41
1
41
1
41
1
41
1
10
-3.6293568871911877
20
-0.15509529644952033
30
0
10
-3.4776176009374802
20
-0.078745742128360524
30
0
10
-3.4441225190595097
20
-0.098235985464488543
30
0
10
-3.4050735377752823
20
-0.2635515700247108
30
0
0
SPLINE
5
155
100
AcDbEntity
8
0
100
AcDbSpline
70
4
71
3
72
8
73
4
74
0
42
0.000000001
43
0.0000000001
44
0.0000000001
40
-1
40
-1
40
-1
40
-1
40
0
40
0
40
0
40
0
41
1
41
1
41
1
41
1
10
-3.4050735377752823
20
-0.2635515700247108
30
0
10
-3.3821549725565405
20
-0.35553450556405564
30
0
10
-3.3503398043138928
20
-0.42843861434960667
30
0
10
-3.3363520894250427
20
-0.42334750248466313
30
0
0
SPLINE
5
156
100
AcDbEntity
8
0
100
AcDbSpline
70
4
71
3
72
8
73
4
74
0
42
0.000000001
43
0.0000000001
44
0.0000000001
40
-1
40
-1
40
-1
40
-1
40
0
40
0
40
0
40
0
41
1
41
1
41
1
41
1
10
-3.3363520894250427
20
-0.42334750248466313
30
0
10
-3.2477632284623268
20
-0.39110379400668754
30
0
10
-3.043998439383135
20
0.07907872568488869
30
0
10
-3.0054978639051866
20
0.33598295285511548
30
0
0
SPLINE
5
157
100
AcDbEntity
8
0
100
AcDbSpline
70
4
71
3
72
8
73
4
74
0
42
0.000000001
43
0.0000000001
44
0.0000000001
40
-1
40
-1
40
-1
40
-1
40
0
40
0
40
0
40
0
41
1
41
1
41
1
41
1
10
-3.0054978639051866
20
0.33598295285511548
30
0
10
-2.9661573316095775
20
0.6195941127500536
30
0
10
-2.9750710582864768
20
0.65859172307530101
30
0
10
-3.192720371426061
20
1.2710856438433924
30
0
0
LINE
5
158
100
AcDbEntity
8
0
100
AcDbLine
10
-3.192720371426061
20
1.2710856438433922
30
0
11
-3.4205519082955318
21
1.9115549943891836
31
0
0
LINE
5
159
100
AcDbEntity
8
0
100
AcDbLine
10
-3.4205519082955318
20
1.9115549943891836
30
0
11
-3.4904391117808022
21
1.7118701238273433
31
0
0
SPLINE
5
160
100
AcDbEntity
8
0
100
AcDbSpline
70
4
71
3
72
8
73
4
74
0
42
0.000000001
43
0.0000000001
44
0.0000000001
40
-1
40
-1
40
-1
40
-1
40
0
40
0
40
0
40
0
41
1
41
1
41
1
41
1
10
-3.4904391117808014
20
1.7118701238273433
30
0
10
-3.6187799216214596
20
1.3536235705525526
30
0
10
-3.9857689650432184
20
0.94019761992805106
30
0
10
-4.3952010643258346
20
0.70141239712300407
30
0
0
LINE
5
161
100
AcDbEntity
8
0
100
AcDbLine
10
-4.3952010643258346
20
0.70141239712300407
30
0
11
-4.5604995252330633
21
0.60428697875973625
31
0
0
LINE
5
162
100
AcDbEntity
8
0
100
AcDbLine
10
-4.5604995252330633
20
0.60428697875973625
30
0
11
-4.4350900024277209
21
0.84002104895851593
31
0
0
SPLINE
5
163
100
AcDbEntity
8
0
100
AcDbSpline
70
4
71
3
72
8
73
4
74
0
42
0.000000001
43
0.0000000001
44
0.0000000001
40
-1
40
-1
40
-1
40
-1
40
0
40
0
40
0
40
0
41
1
41
1
41
1
41
1
10
-4.4350900024277209
20
0.8400210489585157
30
0
10
-4.3545920349772373
20
0.99604573756548997
30
0
10
-4.3063206523517374
20
1.1825828500561415
30
0
10
-4.3068005635460418
20
1.3724969134704288
30
0
0
SPLINE
5
164
100
AcDbEntity
8
0
100
AcDbSpline
70
4
71
3
72
8
73
4
74
0
42
0.000000001
43
0.0000000001
44
0.0000000001
40
-1
40
-1
40
-1
40
-1
40
0
40
0
40
0
40
0
41
1
41
1
41
1
41
1
10
-4.3068005635460418
20
1.3724969134704288
30
0
10
-4.303543478193359
20
1.8277832668435219
30
0
10
-4.2684027299860539
20
1.9778597631149004
30
0
10
-4.1455130776336926
20
2.1334730351395419
30
0
0
SPLINE
5
165
100
AcDbEntity
8
0
100
AcDbSpline
70
4
71
3
72
8
73
4
74
0
42
0.000000001
43
0.0000000001
44
0.0000000001
40
-1
40
-1
40
-1
40
-1
40
0
40
0
40
0
40
0
41
1
41
1
41
1
41
1
10
-4.1455130776336926
20
2.1334730351395419
30
0
10
-4.0014361446568918
20
2.3179188174125378
30
0
10
-3.8242584227314604
20
2.3824062343684895
30
0
10
-3.6436523789234121
20
2.3214156339071259
30
0
0
LINE
5
166
100
AcDbEntity
8
0
100
AcDbLine
10
-3.6436523789234121
20
2.3214156339071259
30
0
11
-3.504169522964256
21
2.2718586305756432
31
0
0
LINE
5
167
100
AcDbEntity
8
0
100
AcDbLine
10
-3.504169522964256
20
2.2718586305756432
30
0
11
-3.5360874331248633
21
2.6932213618354401
31
0
0
SPLINE
5
168
100
AcDbEntity
8
0
100
AcDbSpline
70
4
71
3
72
8
73
4
74
0
42
0.000000001
43
0.0000000001
44
0.0000000001
40
-1
40
-1
40
-1
40
-1
40
0
40
0
40
0
40
0
41
1
41
1
41
1
41
1
10
-3.5360874331248633
20
2.6932213618354401
30
0
10
-3.5948321415811328
20
3.5219591094661817
30
0
10
-3.4436926320926835
20
4.1947577867549137
30
0
10
-3.0763092957415847
20
4.7086518593603337
30
0
0
SPLINE
5
169
100
AcDbEntity
8
0
100
AcDbSpline
70
4
71
3
72
8
73
4
74
0
42
0.000000001
43
0.0000000001
44
0.0000000001
40
-1
40
-1
40
-1
40
-1
40
0
40
0
40
0
40
0
41
1
41
1
41
1
41
1
10
-3.0763092957415847
20
4.7086518593603337
30
0
10
-2.9267298343175048
20
4.9215016116463559
30
0
10
-2.8623109119735264
20
4.9766296380370871
30
0
10
-2.7495521123920734
20
4.9859890286023072
30
0
0
SPLINE
5
170
100
AcDbEntity
8
0
100
AcDbSpline
70
4
71
3
72
8
73
4
74
0
42
0.000000001
43
0.0000000001
44
0.0000000001
40
-1
40
-1
40
-1
40
-1
40
0
40
0
40
0
40
0
41
1
41
1
41
1
41
1
10
-2.7495521123920734
20
4.9859890286023072
30
0
10
-2.6134804546625383
20
5.0038336056090982
30
0
10
-2.6117834173742236
20
4.999171033979481
30
0
10
-2.8096856323827835
20
4.7740134804399306
30
0
0
SPLINE
5
171
100
AcDbEntity
8
0
100
AcDbSpline
70
4
71
3
72
8
73
4
74
0
42
0.000000001
43
0.0000000001
44
0.0000000001
40
-1
40
-1
40
-1
40
-1
40
0
40
0
40
0
40
0
41
1
41
1
41
1
41
1
10
-2.8096856323827835
20
4.7740134804399306
30
0
10
-3.2618523385376377
20
4.260942240999178
30
0
10
-3.3782796400541071
20
3.7539048121589915
30
0
10
-3.172938128168052
20
3.189733644975381
30
0
0
SPLINE
5
172
100
AcDbEntity
8
0
100
AcDbSpline
70
4
71
3
72
8
73
4
74
0
42
0.000000001
43
0.0000000001
44
0.0000000001
40
-1
40
-1
40
-1
40
-1
40
0
40
0
40
0
40
0
41
1
41
1
41
1
41
1
10
-3.172938128168052
20
3.189733644975381
30
0
10
-3.0812981145990688
20
2.937954776976083
30
0
10
-3.0812981145990688
20
2.937954776976083
30
0
10
-3.0041770980722218
20
3.0452281717632514
30
0
0
SPLINE
5
173
100
AcDbEntity
8
0
100
AcDbSpline
70
4
71
3
72
8
73
4
74
0
42
0.000000001
43
0.0000000001
44
0.0000000001
40
-1
40
-1
40
-1
40
-1
40
0
40
0
40
0
40
0
41
1
41
1
41
1
41
1
10
-3.0041770980722218
20
3.0452281717632514
30
0
10
-2.904600303867944
20
3.1923562573463213
30
0
10
-2.613823825543399
20
3.2929099975922038
30
0
10
-2.39168317730413
20
3.2628774849028357
30
0
0
SPLINE
5
174
100
AcDbEntity
8
0
100
AcDbSpline
70
4
71
3
72
8
73
4
74
0
42
0.000000001
43
0.0000000001
44
0.0000000001
40
-1
40
-1
40
-1
40
-1
40
0
40
0
40
0
40
0
41
1
41
1
41
1
41
1
10
-2.39168317730413
20
3.2628774849028357
30
0
10
-2.2924835523762002
20
3.2514610114259468
30
0
10
-2.1169857440860902
20
3.2625345629324736
30
0
10
-1.993633304192417
20
3.2863102086218694
30
0
0
LINE
5
175
100
AcDbEntity
8
0
100
AcDbLine
10
-1.993633304192417
20
3.2863102086218694
30
0
11
-1.7753323944180965
21
3.3393640284479389
31
0
0
LINE
5
176
100
AcDbEntity
8
0
100
AcDbLine
10
-1.7753323944180965
20
3.3393640284479389
30
0
11
-1.966035043691065
21
3.1379478732917976
31
0
0
SPLINE
5
177
100
AcDbEntity
8
0
100
AcDbSpline
70
4
71
3
72
8
73
4
74
0
42
0.000000001
43
0.0000000001
44
0.0000000001
40
-1
40
-1
40
-1
40
-1
40
0
40
0
40
0
40
0
41
1
41
1
41
1
41
1
10
-1.9660350436910645
20
3.137947873291798
30
0
10
-2.1185971631094391
20
2.976814949166886
30
0
10
-2.2266762674082821
20
2.9110761588109408
30
0
10
-2.5110931368148952
20
2.8075568842237555
30
0
0
SPLINE
5
178
100
AcDbEntity
8
0
100
AcDbSpline
70
4
71
3
72
8
73
4
74
0
42
0.000000001
43
0.0000000001
44
0.0000000001
40
-1
40
-1
40
-1
40
-1
40
0
40
0
40
0
40
0
41
1
41
1
41
1
41
1
10
-2.5110931368148952
20
2.8075568842237555
30
0
10
-2.8934240104434585
20
2.6683998265819664
30
0
10
-2.8993550791260634
20
2.655680608746104
30
0
10
-2.6589413136446738
20
2.4738916861500346
30
0
0
SPLINE
5
179
100
AcDbEntity
8
0
100
AcDbSpline
70
4
71
3
72
8
73
4
74
0
42
0.000000001
43
0.0000000001
44
0.0000000001
40
-1
40
-1
40
-1
40
-1
40
0
40
0
40
0
40
0
41
1
41
1
41
1
41
1
10
-2.6589413136446738
20
2.4738916861500346
30
0
10
-2.5805004291058595
20
2.4179579502476285
30
0
10
-2.5410742785452856
20
2.411186924747363
30
0
10
-2.5203155381561713
20
2.455704187172882
30
0
0
SPLINE
5
180
100
AcDbEntity
8
0
100
AcDbSpline
70
4
71
3
72
8
73
4
74
0
42
0.000000001
43
0.0000000001
44
0.0000000001
40
-1
40
-1
40
-1
40
-1
40
0
40
0
40
0
40
0
41
1
41
1
41
1
41
1
10
-2.5203155381561713
20
2.455704187172882
30
0
10
-2.5025223321083581
20
2.4938618406804682
30
0
10
-2.4130935143279801
20
2.5528124818831563
30
0
10
-2.3198420817356489
20
2.5867532276494463
30
0
0
SPLINE
5
181
100
AcDbEntity
8
0
100
AcDbSpline
70
4
71
3
72
8
73
4
74
0
42
0.000000001
43
0.0000000001
44
0.0000000001
40
-1
40
-1
40
-1
40
-1
40
0
40
0
40
0
40
0
41
1
41
1
41
1
41
1
10
-2.3198420817356489
20
2.5867532276494463
30
0
10
-1.998124639292103
20
2.7038488005431471
30
0
10
-1.3638779084402983
20
2.4700343751215934
30
0
10
-0.95002341758046904
20
2.0873605795226702
30
0
0
SPLINE
5
182
100
AcDbEntity
8
0
100
AcDbSpline
70
4
71
3
72
8
73
4
74
0
42
0.000000001
43
0.0000000001
44
0.0000000001
40
-1
40
-1
40
-1
40
-1
40
0
40
0
40
0
40
0
41
1
41
1
41
1
41
1
10
-0.95002341758046904
20
2.0873605795226702
30
0
10
-0.70026738518685416
20
1.8508892944241884
30
0
10
-0.66336110507926216
20
1.7639974707497881
30
0
10
-0.84439568912263574
20
1.8406728233883156
30
0
0
SPLINE
5
183
100
AcDbEntity
8
0
100
AcDbSpline
70
4
71
3
72
8
73
4
74
0
42
0.000000001
43
0.0000000001
44
0.0000000001
40
-1
40
-1
40
-1
40
-1
40
0
40
0
40
0
40
0
41
1
41
1
41
1
41
1
10
-0.84439568912263574
20
1.8406728233883156
30
0
10
-1.0618908893852808
20
1.930478810445039
30
0
10
-1.2157728768156231
20
1.9325530170097023
30
0
10
-1.5468325861713954
20
1.8701398066184132
30
0
0
SPLINE
5
184
100
AcDbEntity
8
0
100
AcDbSpline
70
4
71
3
72
8
73
4
74
0
42
0.000000001
43
0.0000000001
44
0.0000000001
40
-1
40
-1
40
-1
40
-1
40
0
40
0
40
0
40
0
41
1
41
1
41
1
41
1
10
-1.5468325861713954
20
1.8701398066184132
30
0
10
-1.7155422453082472
20
1.8404159685934194
30
0
10
-1.9300376639236054
20
1.8204286904099936
30
0
10
-2.0292372888515349
20
1.8318451638868807
30
0
0
SPLINE
5
185
100
AcDbEntity
8
0
100
AcDbSpline
70
4
71
3
72
8
73
4
74
0
42
0.000000001
43
0.0000000001
44
0.0000000001
40
-1
40
-1
40
-1
40
-1
40
0
40
0
40
0
40
0
41
1
41
1
41
1
41
1
10
-2.0292372888515349
20
1.8318451638868807
30
0
10
-2.2369616819666276
20
1.8512840362640295
30
0
10
-2.5074764547493569
20
2.0432380589369918
30
0
10
-2.5431313614569531
20
2.199228500237981
30
0
0
SPLINE
5
186
100
AcDbEntity
8
0
100
AcDbSpline
70
4
71
3
72
8
73
4
74
0
42
0.000000001
43
0.0000000001
44
0.0000000001
40
-1
40
-1
40
-1
40
-1
40
0
40
0
40
0
40
0
41
1
41
1
41
1
41
1
10
-2.5431313614569531
20
2.199228500237981
30
0
10
-2.5558677029458092
20
2.2632360059996266
30
0
10
-2.6419538171085368
20
2.3691895327748282
30
0
10
-2.730148385141911
20
2.4374139462777697
30
0
0
SPLINE
5
187
100
AcDbEntity
8
0
100
AcDbSpline
70
4
71
3
72
8
73
4
74
0
42
0.000000001
43
0.0000000001
44
0.0000000001
40
-1
40
-1
40
-1
40
-1
40
0
40
0
40
0
40
0
41
1
41
1
41
1
41
1
10
-2.730148385141911
20
2.4374139462777697
30
0
10
-2.9642025417053688
20
2.6162373345325363
30
0
10
-3.1181530237476816
20
2.8506172894133615
30
0
10
-3.2488248949478984
20
3.20963530489384
30
0
0
SPLINE
5
188
100
AcDbEntity
8
0
100
AcDbSpline
70
4
71
3
72
8
73
4
74
0
42
0.000000001
43
0.0000000001
44
0.0000000001
40
-1
40
-1
40
-1
40
-1
40
0
40
0
40
0
40
0
41
1
41
1
41
1
41
1
10
-3.2488248949478984
20
3.20963530489384
30
0
10
-3.3116152746155363
20
3.3821504551896555
30
0
10
-3.3731200335771914
20
3.5076113489539775
30
0
10
-3.3930388171486463
20
3.4898010192531719
30
0
0
SPLINE
5
189
100
AcDbEntity
8
0
100
AcDbSpline
70
4
71
3
72
8
73
4
74
0
42
0.000000001
43
0.0000000001
44
0.0000000001
40
-1
40
-1
40
-1
40
-1
40
0
40
0
40
0
40
0
41
1
41
1
41
1
41
1
10
-3.3930388171486463
20
3.4898010192531719
30
0
10
-3.4506695903393658
20
3.4160227063439721
30
0
10
-3.4351736472556254
20
2.6190658796498947
30
0
10
-3.3659551640580854
20
2.2112794466966146
30
0
0
SPLINE
5
190
100
AcDbEntity
8
0
100
AcDbSpline
70
4
71
3
72
8
73
4
74
0
42
0.000000001
43
0.0000000001
44
0.0000000001
40
-1
40
-1
40
-1
40
-1
40
0
40
0
40
0
40
0
41
1
41
1
41
1
41
1
10
-3.3659551640580854
20
2.2112794466966146
30
0
10
-3.2844117559540233
20
1.6970938230798125
30
0
10
-3.1274272449584353
20
1.236767728800755
30
0
10
-3.0740476268149983
20
1.3512406893235156
30
0
0
SPLINE
5
191
100
AcDbEntity
8
0
100
AcDbSpline
70
4
71
3
72
8
73
4
74
0
42
0.000000001
43
0.0000000001
44
0.0000000001
40
-1
40
-1
40
-1
40
-1
40
0
40
0
40
0
40
0
41
1
41
1
41
1
41
1
10
-3.0740476268149983
20
1.3512406893235156
30
0
10
-3.0117714056476523
20
1.484792476600068
30
0
10
-2.7947389929263213
20
1.5268241158785893
30
0
10
-2.6446453730019481
20
1.4336069305922443
30
0
0
SPLINE
5
192
100
AcDbEntity
8
0
100
AcDbSpline
70
4
71
3
72
8
73
4
74
0
42
0.000000001
43
0.0000000001
44
0.0000000001
40
-1
40
-1
40
-1
40
-1
40
0
40
0
40
0
40
0
41
1
41
1
41
1
41
1
10
-2.6446453730019481
20
1.4336069305922443
30
0
10
-2.5280468349555463
20
1.359879988642025
30
0
10
-2.4771528399591052
20
1.2780792768325684
30
0
10
-2.3668454162186614
20
0.97501212090748801
30
0
0
SPLINE
5
193
100
AcDbEntity
8
0
100
AcDbSpline
70
4
71
3
72
8
73
4
74
0
42
0.000000001
43
0.0000000001
44
0.0000000001
40
-1
40
-1
40
-1
40
-1
40
0
40
0
40
0
40
0
41
1
41
1
41
1
41
1
10
-2.3668454162186614
20
0.97501212090748801
30
0
10
-2.2921757755328231
20
0.76985896920435692
30
0
10
-2.1941932766989032
20
0.57319100394279832
30
0
10
-2.1458533994614291
20
0.52742236811728604
30
0
0
SPLINE
5
194
100
AcDbEntity
8
0
100
AcDbSpline
70
4
71
3
72
8
73
4
74
0
42
0.000000001
43
0.0000000001
44
0.0000000001
40
-1
40
-1
40
-1
40
-1
40
0
40
0
40
0
40
0
41
1
41
1
41
1
41
1
10
-2.1458533994614291
20
0.52742236811728604
30
0
10
-2.0992105595122696
20
0.48631630392138953
30
0
10
-2.0665554344519599
20
0.44011912786055157
30
0
10
-2.0724865031345634
20
0.42739991002468836
30
0
0
SPLINE
5
195
100
AcDbEntity
8
0
100
AcDbSpline
70
4
71
3
72
8
73
4
74
0
42
0.000000001
43
0.0000000001
44
0.0000000001
40
-1
40
-1
40
-1
40
-1
40
0
40
0
40
0
40
0
41
1
41
1
41
1
41
1
10
-2.0724865031345634
20
0.42739991002468836
30
0
10
-2.1038388838358997
20
0.3684663924749943
30
0
10
-2.6126075972703897
20
0.60570913977916319
30
0
10
-2.7767060557366041
20
0.75191165027960671
30
0
0
LINE
5
196
100
AcDbEntity
8
0
100
AcDbLine
10
-2.7767060557366041
20
0.75191165027960671
30
0
11
-2.9488611604090647
21
0.90574226675096836
31
0
0
LINE
5
197
100
AcDbEntity
8
0
100
AcDbLine
10
-2.9488611604090647
20
0.90574226675096836
30
0
11
-2.7528276681292496
21
0.28010058791168807
31
0
0
SPLINE
5
198
100
AcDbEntity
8
0
100
AcDbSpline
70
4
71
3
72
8
73
4
74
0
42
0.000000001
43
0.0000000001
44
0.0000000001
40
-1
40
-1
40
-1
40
-1
40
0
40
0
40
0
40
0
41
1
41
1
41
1
41
1
10
-2.7528276681292496
20
0.28010058791168807
30
0
10
-2.6492912698890714
20
-0.062392718573965854
30
0
10
-2.5457377479959007
20
-0.4629624621386611
30
0
10
-2.526196133700795
20
-0.6036966914978128
30
0
0
SPLINE
5
199
100
AcDbEntity
8
0
100
AcDbSpline
70
4
71
3
72
8
73
4
74
0
42
0.000000001
43
0.0000000001
44
0.0000000001
40
-1
40
-1
40
-1
40
-1
40
0
40
0
40
0
40
0
41
1
41
1
41
1
41
1
10
-2.526196133700795
20
-0.6036966914978128
30
0
10
-2.4947581347344934
20
-0.83514535934332268
30
0
10
-2.3891304062766601
20
-1.0818331154776764
30
0
10
-2.3285169750916435
20
-1.0597716307295875
30
0
0
SPLINE
5
200
100
AcDbEntity
8
0
100
AcDbSpline
70
4
71
3
72
8
73
4
74
0
42
0.000000001
43
0.0000000001
44
0.0000000001
40
-1
40
-1
40
-1
40
-1
40
0
40
0
40
0
40
0
41
1
41
1
41
1
41
1
10
-2.3285169750916435
20
-1.0597716307295875
30
0
10
-2.3145292602027947
20
-1.054680518864644
30
0
10
-2.2691891646126083
20
-0.99065588945000604
30
0
10
-2.2225805719694351
20
-0.91560907948782022
30
0
0
SPLINE
5
201
100
AcDbEntity
8
0
100
AcDbSpline
70
4
71
3
72
8
73
4
74
0
42
0.000000001
43
0.0000000001
44
0.0000000001
40
-1
40
-1
40
-1
40
-1
40
0
40
0
40
0
40
0
41
1
41
1
41
1
41
1
10
-2.2225805719694351
20
-0.91560907948782022
30
0
10
-2.111141640399949
20
-0.7430425582330259
30
0
10
-1.9899147780299173
20
-0.69891958873684912
30
0
10
-1.6380620809790443
20
-0.70814199007812439
30
0
0
SPLINE
5
202
100
AcDbEntity
8
0
100
AcDbSpline
70
4
71
3
72
8
73
4
74
0
42
0.000000001
43
0.0000000001
44
0.0000000001
40
-1
40
-1
40
-1
40
-1
40
0
40
0
40
0
40
0
41
1
41
1
41
1
41
1
10
-1.6380620809790443
20
-0.70814199007812439
30
0
10
-1.4621357324536071
20
-0.71275319074876131
30
0
10
-1.3091108254939197
20
-0.68345789295909432
30
0
10
-1.2256130763961468
20
-0.63722646959226892
30
0
0
SPLINE
5
203
100
AcDbEntity
8
0
100
AcDbSpline
70
4
71
3
72
8
73
4
74
0
42
0.000000001
43
0.0000000001
44
0.0000000001
40
-1
40
-1
40
-1
40
-1
40
0
40
0
40
0
40
0
41
1
41
1
41
1
41
1
10
-1.2256130763961468
20
-0.63722646959226892
30
0
10
-1.0988836855788384
20
-0.56469953008306528
30
0
10
-1.0988836855788384
20
-0.56469953008306528
30
0
10
-1.1620169872168362
20
-0.66688181300529048
30
0
0
SPLINE
5
204
100
AcDbEntity
8
0
100
AcDbSpline
70
4
71
3
72
8
73
4
74
0
42
0.000000001
43
0.0000000001
44
0.0000000001
40
-1
40
-1
40
-1
40
-1
40
0
40
0
40
0
40
0
41
1
41
1
41
1
41
1
10
-1.1620169872168362
20
-0.66688181300529048
30
0
10
-1.331926648794703
20
-0.93993357989399495
30
0
10
-1.536205596374187
20
-1.1040491620132027
30
0
10
-1.8189254284924867
20
-1.2122310082300038
30
0
0
SPLINE
5
205
100
AcDbEntity
8
0
100
AcDbSpline
70
4
71
3
72
8
73
4
74
0
42
0.000000001
43
0.0000000001
44
0.0000000001
40
-1
40
-1
40
-1
40
-1
40
0
40
0
40
0
40
0
41
1
41
1
41
1
41
1
10
-1.8189254284924867
20
-1.2122310082300038
30
0
10
-2.1266551560471836
20
-1.3242354692587615
30
0
10
-2.1296206903884856
20
-1.3305950781766924
30
0
10
-1.8675911040473294
20
-1.4992362427015711
30
0
0
SPLINE
5
206
100
AcDbEntity
8
0
100
AcDbSpline
70
4
71
3
72
8
73
4
74
0
42
0.000000001
43
0.0000000001
44
0.0000000001
40
-1
40
-1
40
-1
40
-1
40
0
40
0
40
0
40
0
41
1
41
1
41
1
41
1
10
-1.8675911040473294
20
-1.4992362427015711
30
0
10
-1.784487647878898
20
-1.5534729413156632
30
0
10
-1.7577807151541851
20
-1.5543128981333245
30
0
10
-1.7281253717411635
20
-1.490716808954013
30
0
0
SPLINE
5
207
100
AcDbEntity
8
0
100
AcDbSpline
70
4
71
3
72
8
73
4
74
0
42
0.000000001
43
0.0000000001
44
0.0000000001
40
-1
40
-1
40
-1
40
-1
40
0
40
0
40
0
40
0
41
1
41
1
41
1
41
1
10
-1.7281253717411635
20
-1.490716808954013
30
0
10
-1.6688146849151217
20
-1.3635246305953905
30
0
10
-1.3945629155854022
20
-1.2901063633095471
30
0
10
-1.1253680108146407
20
-1.3188532552929353
30
0
0
SPLINE
5
208
100
AcDbEntity
8
0
100
AcDbSpline
70
4
71
3
72
8
73
4
74
0
42
0.000000001
43
0.0000000001
44
0.0000000001
40
-1
40
-1
40
-1
40
-1
40
0
40
0
40
0
40
0
41
1
41
1
41
1
41
1
10
-1.1253680108146407
20
-1.3188532552929353
30
0
10
-0.81674695548330334
20
-1.3543711727765877
30
0
10
-0.36691175959850886
20
-1.5602615393794206
30
0
10
-0.085786222850565502
20
-1.7958757440072475
30
0
0
SPLINE
5
209
100
AcDbEntity
8
0
100
AcDbSpline
70
4
71
3
72
8
73
4
74
0
42
0.000000001
43
0.0000000001
44
0.0000000001
40
-1
40
-1
40
-1
40
-1
40
0
40
0
40
0
40
0
41
1
41
1
41
1
41
1
10
-0.085786222850565502
20
-1.7958757440072475
30
0
10
0.17456344985527
20
-2.0179307739815511
30
0
10
0.21230968678052267
20
-2.0781156649312407
30
0
10
0.034240637078451486
20
-1.9950807033747808
30
0
0
SPLINE
5
210
100
AcDbEntity
8
0
100
AcDbSpline
70
4
71
3
72
8
73
4
74
0
42
0.000000001
43
0.0000000001
44
0.0000000001
40
-1
40
-1
40
-1
40
-1
40
0
40
0
40
0
40
0
41
1
41
1
41
1
41
1
10
0.034240637078451486
20
-1.9950807033747808
30
0
10
-0.15654763045948222
20
-1.9061146731357179
30
0
10
-0.33840504766752288
20
-1.9142226903009429
30
0
10
-0.75465954340938279
20
-2.0182047524294404
30
0
0
SPLINE
5
211
100
AcDbEntity
8
0
100
AcDbSpline
70
4
71
3
72
8
73
4
74
0
42
0.000000001
43
0.0000000001
44
0.0000000001
40
-1
40
-1
40
-1
40
-1
40
0
40
0
40
0
40
0
41
1
41
1
41
1
41
1
10
-0.75465954340938279
20
-2.0182047524294404
30
0
10
-0.96363530992447044
20
-2.0678644976788814
30
0
10
-1.2061061583175263
20
-2.0980339995921948
30
0
10
-1.2989461743275257
20
-2.0895830604566084
30
0
0
SPLINE
5
212
100
AcDbEntity
8
0
100
AcDbSpline
70
4
71
3
72
8
73
4
74
0
42
0.000000001
43
0.0000000001
44
0.0000000001
40
-1
40
-1
40
-1
40
-1
40
0
40
0
40
0
40
0
41
1
41
1
41
1
41
1
10
-1.2989461743275257
20
-2.0895830604566084
30
0
10
-1.4880202809241518
20
-2.0633560389262033
30
0
10
-1.6885793556096378
20
-1.9040228940075632
30
0
10
-1.7513697352772739
20
-1.7315077437117492
30
0
0
SPLINE
5
213
100
AcDbEntity
8
0
100
AcDbSpline
70
4
71
3
72
8
73
4
74
0
42
0.000000001
43
0.0000000001
44
0.0000000001
40
-1
40
-1
40
-1
40
-1
40
0
40
0
40
0
40
0
41
1
41
1
41
1
41
1
10
-1.7513697352772739
20
-1.7315077437117492
30
0
10
-1.7751282573136771
20
-1.6662317408971159
30
0
10
-1.8366158926223402
20
-1.5988472842118342
30
0
10
-1.8951208699367084
20
-1.5831796556876638
30
0
0
SPLINE
5
214
100
AcDbEntity
8
0
100
AcDbSpline
70
4
71
3
72
8
73
4
74
0
42
0.000000001
43
0.0000000001
44
0.0000000001
40
-1
40
-1
40
-1
40
-1
40
0
40
0
40
0
40
0
41
1
41
1
41
1
41
1
10
-1.8951208699367084
20
-1.5831796556876638
30
0
10
-1.9506603129097744
20
-1.5611524182455612
30
0
10
-2.0999139760164844
20
-1.4412283002345037
30
0
10
-2.2241577436867979
20
-1.3174815674114895
30
0
0
SPLINE
5
215
100
AcDbEntity
8
0
100
AcDbSpline
70
4
71
3
72
8
73
4
74
0
42
0.000000001
43
0.0000000001
44
0.0000000001
40
-1
40
-1
40
-1
40
-1
40
0
40
0
40
0
40
0
41
1
41
1
41
1
41
1
10
-2.2241577436867979
20
-1.3174815674114895
30
0
10
-2.3628177664812888
20
-1.1831411942762544
30
0
10
-2.4556749061442802
20
-1.1166138180616274
30
0
10
-2.4543892854382992
20
-1.1636680745931207
30
0
0
SPLINE
5
216
100
AcDbEntity
8
0
100
AcDbSpline
70
4
71
3
72
8
73
4
74
0
42
0.000000001
43
0.0000000001
44
0.0000000001
40
-1
40
-1
40
-1
40
-1
40
0
40
0
40
0
40
0
41
1
41
1
41
1
41
1
10
-2.4543892854382992
20
-1.1636680745931207
30
0
10
-2.4450817147425581
20
-2.5384237377363066
30
0
10
-2.4178948708235404
20
-2.729177757968253
30
0
10
-2.1829665101364362
20
-2.9974470876563895
30
0
0
SPLINE
5
217
100
AcDbEntity
8
0
100
AcDbSpline
70
4
71
3
72
8
73
4
74
0
42
0.000000001
43
0.0000000001
44
0.0000000001
40
-1
40
-1
40
-1
40
-1
40
0
40
0
40
0
40
0
41
1
41
1
41
1
41
1
10
-2.1829665101364362
20
-2.9974470876563895
30
0
10
-2.0985774332620246
20
-3.0987380428019744
30
0
10
-2.0828926810848594
20
-3.0983095025666474
30
0
10
-2.0710476673726448
20
-3.0147946298158819
30
0
0
SPLINE
5
218
100
AcDbEntity
8
0
100
AcDbSpline
70
4
71
3
72
8
73
4
74
0
42
0.000000001
43
0.0000000001
44
0.0000000001
40
-1
40
-1
40
-1
40
-1
40
0
40
0
40
0
40
0
41
1
41
1
41
1
41
1
10
-2.0710476673726448
20
-3.0147946298158819
30
0
10
-2.0600426104780905
20
-2.9579866897898293
30
0
10
-2.008342905969974
20
-2.8969275947164923
30
0
10
-1.9570546180441917
20
-2.8782601845450331
30
0
0
SPLINE
5
219
100
AcDbEntity
8
0
100
AcDbSpline
70
4
71
3
72
8
73
4
74
0
42
0.000000001
43
0.0000000001
44
0.0000000001
40
-1
40
-1
40
-1
40
-1
40
0
40
0
40
0
40
0
41
1
41
1
41
1
41
1
10
-1.9570546180441917
20
-2.8782601845450331
30
0
10
-1.8451528989333914
20
-2.8375312896254847
30
0
10
-1.5772093675626233
20
-2.935376799235462
30
0
10
-1.5432686217963336
20
-3.0286282318277942
30
0
0
SPLINE
5
220
100
AcDbEntity
8
0
100
AcDbSpline
70
4
71
3
72
8
73
4
74
0
42
0.000000001
43
0.0000000001
44
0.0000000001
40
-1
40
-1
40
-1
40
-1
40
0
40
0
40
0
40
0
41
1
41
1
41
1
41
1
10
-1.5432686217963336
20
-3.0286282318277942
30
0
10
-1.5025397268767851
20
-3.1405299509385931
30
0
10
-1.4495715253156816
20
-3.0684486753177094
30
0
10
-1.4225045469676152
20
-2.852667635996371
30
0
0
SPLINE
5
221
100
AcDbEntity
8
0
100
AcDbSpline
70
4
71
3
72
8
73
4
74
0
42
0.000000001
43
0.0000000001
44
0.0000000001
40
-1
40
-1
40
-1
40
-1
40
0
40
0
40
0
40
0
41
1
41
1
41
1
41
1
10
-1.4225045469676152
20
-2.852667635996371
30
0
10
-1.3852724685426547
20
-2.6067855893736915
30
0
10
-1.2123459016645062
20
-2.5016035248041777
30
0
10
-1.0732573386346891
20
-2.651628650116578
30
0
0
SPLINE
5
222
100
AcDbEntity
8
0
100
AcDbSpline
70
4
71
3
72
8
73
4
74
0
42
0.000000001
43
0.0000000001
44
0.0000000001
40
-1
40
-1
40
-1
40
-1
40
0
40
0
40
0
40
0
41
1
41
1
41
1
41
1
10
-1.0732573386346891
20
-2.651628650116578
30
0
10
-1.0232204241089002
20
-2.7020598575717076
30
0
10
-0.96471544679453325
20
-2.7177274860958782
30
0
10
-0.93250598562254416
20
-2.6901634729005122
30
0
0
SPLINE
5
223
100
AcDbEntity
8
0
100
AcDbSpline
70
4
71
3
72
8
73
4
74
0
42
0.000000001
43
0.0000000001
44
0.0000000001
40
-1
40
-1
40
-1
40
-1
40
0
40
0
40
0
40
0
41
1
41
1
41
1
41
1
10
-0.93250598562254416
20
-2.6901634729005122
30
0
10
-0.85749342296634379
20
-2.6206191913856038
30
0
10
-0.71927906406017417
20
-2.6811983752646333
30
0
10
-0.67345905727568267
20
-2.8070878092642815
30
0
0
SPLINE
5
224
100
AcDbEntity
8
0
100
AcDbSpline
70
4
71
3
72
8
73
4
74
0
42
0.000000001
43
0.0000000001
44
0.0000000001
40
-1
40
-1
40
-1
40
-1
40
0
40
0
40
0
40
0
41
1
41
1
41
1
41
1
10
-0.67345905727568267
20
-2.8070878092642815
30
0
10
-0.65309460981590839
20
-2.8630386688196818
30
0
10
-0.662385505769155
20
-2.9825856175543919
30
0
10
-0.68821823437022001
20
-3.0711916021701007
30
0
0
SPLINE
5
225
100
AcDbEntity
8
0
100
AcDbSpline
70
4
71
3
72
8
73
4
74
0
42
0.000000001
43
0.0000000001
44
0.0000000001
40
-1
40
-1
40
-1
40
-1
40
0
40
0
40
0
40
0
41
1
41
1
41
1
41
1
10
-0.68821823437022001
20
-3.0711916021701007
30
0
10
-0.75217436917288627
20
-3.2581572548960782
30
0
10
-0.7585339780908168
20
-3.2551917205547762
30
0
10
-0.50037837752059522
20
-3.2245936784061371
30
0
0
SPLINE
5
226
100
AcDbEntity
8
0
100
AcDbSpline
70
4
71
3
72
8
73
4
74
0
42
0.000000001
43
0.0000000001
44
0.0000000001
40
-1
40
-1
40
-1
40
-1
40
0
40
0
40
0
40
0
41
1
41
1
41
1
41
1
10
-0.50037837752059522
20
-3.2245936784061371
30
0
10
-0.23289763369114133
20
-3.1906015616808667
30
0
10
-0.12053312703902969
20
-3.2817102930965643
30
0
10
-0.20823066022510481
20
-3.461476380086951
30
0
0
SPLINE
5
227
100
AcDbEntity
8
0
100
AcDbSpline
70
4
71
3
72
8
73
4
74
0
42
0.000000001
43
0.0000000001
44
0.0000000001
40
-1
40
-1
40
-1
40
-1
40
0
40
0
40
0
40
0
41
1
41
1
41
1
41
1
10
-0.20823066022510481
20
-3.461476380086951
30
0
10
-0.2569477067389267
20
-3.5742523033213955
30
0
10
-0.25439358897995779
20
-3.6102843793053419
30
0
10
-0.18697488498869066
20
-3.6649496181547603
30
0
0
SPLINE
5
228
100
AcDbEntity
8
0
100
AcDbSpline
70
4
71
3
72
8
73
4
74
0
42
0.000000001
43
0.0000000001
44
0.0000000001
40
-1
40
-1
40
-1
40
-1
40
0
40
0
40
0
40
0
41
1
41
1
41
1
41
1
10
-0.18697488498869066
20
-3.6649496181547603
30
0
10
-0.010585748921941397
20
-3.8013984451606428
30
0
10
-0.21867018766038782
20
-3.9985805689224949
30
0
10
-0.53575930578030417
20
-3.9978262303697982
30
0
0
SPLINE
5
229
100
AcDbEntity
8
0
100
AcDbSpline
70
4
71
3
72
8
73
4
74
0
42
0.000000001
43
0.0000000001
44
0.0000000001
40
-1
40
-1
40
-1
40
-1
40
0
40
0
40
0
40
0
41
1
41
1
41
1
41
1
10
-0.53575930578030417
20
-3.9978262303697982
30
0
10
-0.67861911266309805
20
-3.9970205208581242
30
0
10
-0.67861911266309805
20
-3.9970205208581242
30
0
10
-0.58955034050607535
20
-4.1546908757944356
30
0
0
SPLINE
5
230
100
AcDbEntity
8
0
100
AcDbSpline
70
4
71
3
72
8
73
4
74
0
42
0.000000001
43
0.0000000001
44
0.0000000001
40
-1
40
-1
40
-1
40
-1
40
0
40
0
40
0
40
0
41
1
41
1
41
1
41
1
10
-0.58955034050607535
20
-4.1546908757944356
30
0
10
-0.5369593082213191
20
-4.2411541592335107
30
0
10
-0.50385851927268865
20
-4.3611125245505544
30
0
10
-0.51486357616724432
20
-4.4179204645766079
30
0
0
SPLINE
5
231
100
AcDbEntity
8
0
100
AcDbSpline
70
4
71
3
72
8
73
4
74
0
42
0.000000001
43
0.0000000001
44
0.0000000001
40
-1
40
-1
40
-1
40
-1
40
0
40
0
40
0
40
0
41
1
41
1
41
1
41
1
10
-0.51486357616724432
20
-4.4179204645766079
30
0
10
-0.53051408103842213
20
-4.5345018789700156
30
0
10
-0.72251947467036437
20
-4.6307873405156226
30
0
10
-0.80435443378580807
20
-4.565528461353983
30
0
0
SPLINE
5
232
100
AcDbEntity
8
0
100
AcDbSpline
70
4
71
3
72
8
73
4
74
0
42
0.000000001
43
0.0000000001
44
0.0000000001
40
-1
40
-1
40
-1
40
-1
40
0
40
0
40
0
40
0
41
1
41
1
41
1
41
1
10
-0.80435443378580807
20
-4.565528461353983
30
0
10
-0.84124359024040718
20
-4.5367130747586231
30
0
10
-0.86116237381186167
20
-4.5545234044594292
30
0
10
-0.87047039341810106
20
-4.6159939161150971
30
0
0
SPLINE
5
233
100
AcDbEntity
8
0
100
AcDbSpline
70
4
71
3
72
8
73
4
74
0
42
0.000000001
43
0.0000000001
44
0.0000000001
40
-1
40
-1
40
-1
40
-1
40
0
40
0
40
0
40
0
41
1
41
1
41
1
41
1
10
-0.87047039341810106
20
-4.6159939161150971
30
0
10
-0.88951497286590919
20
-4.7232501872492731
30
0
10
-1.0166729039185454
20
-4.7800923745813124
30
0
10
-1.1247862555233747
20
-4.7296782907791766
30
0
0
SPLINE
5
234
100
AcDbEntity
8
0
100
AcDbSpline
70
4
71
3
72
8
73
4
74
0
42
0.000000001
43
0.0000000001
44
0.0000000001
40
-1
40
-1
40
-1
40
-1
40
0
40
0
40
0
40
0
41
1
41
1
41
1
41
1
10
-1.1247862555233747
20
-4.7296782907791766
30
0
10
-1.1693035179488913
20
-4.7089195503900623
30
0
10
-1.2333452710165225
20
-4.605503017720836
30
0
10
-1.2740741659360713
20
-4.4936012986100371
30
0
0
SPLINE
5
235
100
AcDbEntity
8
0
100
AcDbSpline
70
4
71
3
72
8
73
4
74
0
42
0.000000001
43
0.0000000001
44
0.0000000001
40
-1
40
-1
40
-1
40
-1
40
0
40
0
40
0
40
0
41
1
41
1
41
1
41
1
10
-1.2740741659360713
20
-4.4936012986100371
30
0
10
-1.3555319557751671
20
-4.2697978603884392
30
0
10
-1.3618915646930989
20
-4.2668323260471368
30
0
10
-1.4830841797571439
20
-4.4271081697013965
30
0
0
SPLINE
5
236
100
AcDbEntity
8
0
100
AcDbSpline
70
4
71
3
72
8
73
4
74
0
42
0.000000001
43
0.0000000001
44
0.0000000001
40
-1
40
-1
40
-1
40
-1
40
0
40
0
40
0
40
0
41
1
41
1
41
1
41
1
10
-1.4830841797571439
20
-4.4271081697013965
30
0
10
-1.5301213126356445
20
-4.486470227486417
30
0
10
-1.6271782363869398
20
-4.5534775148953504
30
0
10
-1.7051734570374339
20
-4.5713049682491498
30
0
0
SPLINE
5
237
100
AcDbEntity
8
0
100
AcDbSpline
70
4
71
3
72
8
73
4
74
0
42
0.000000001
43
0.0000000001
44
0.0000000001
40
-1
40
-1
40
-1
40
-1
40
0
40
0
40
0
40
0
41
1
41
1
41
1
41
1
10
-1.7051734570374339
20
-4.5713049682491498
30
0
10
-1.8221662880131764
20
-4.5980461482798471
30
0
10
-1.849301760973215
20
-4.581521439285023
30
0
10
-1.8917276931810776
20
-4.4649571485446069
30
0
0
SPLINE
5
238
100
AcDbEntity
8
0
100
AcDbSpline
70
4
71
3
72
8
73
4
74
0
42
0.000000001
43
0.0000000001
44
0.0000000001
40
-1
40
-1
40
-1
40
-1
40
0
40
0
40
0
40
0
41
1
41
1
41
1
41
1
10
-1.8917276931810776
20
-4.4649571485446069
30
0
10
-1.923971401659053
20
-4.3763682875818928
30
0
10
-1.9757053534731566
20
-4.3212745084971473
30
0
10
-2.0384443621818145
20
-4.3229886694384536
30
0
0
SPLINE
5
239
100
AcDbEntity
8
0
100
AcDbSpline
70
4
71
3
72
8
73
4
74
0
42
0.000000001
43
0.0000000001
44
0.0000000001
40
-1
40
-1
40
-1
40
-1
40
0
40
0
40
0
40
0
41
1
41
1
41
1
41
1
10
-2.0384443621818145
20
-4.3229886694384536
30
0
10
-2.0918582276312376
20
-4.3213087558031322
30
0
10
-2.148254751074957
20
-4.2679120140067015
30
0
10
-2.1720132731113604
20
-4.2026360111920695
30
0
0
SPLINE
5
240
100
AcDbEntity
8
0
100
AcDbSpline
70
4
71
3
72
8
73
4
74
0
42
0.000000001
43
0.0000000001
44
0.0000000001
40
-1
40
-1
40
-1
40
-1
40
0
40
0
40
0
40
0
41
1
41
1
41
1
41
1
10
-2.1720132731113604
20
-4.2026360111920695
30
0
10
-2.2195303171841658
20
-4.0720840055628038
30
0
10
-2.1292786662391228
20
-3.9283499945563638
30
0
10
-1.9334677814482173
20
-3.7989979913681138
30
0
0
LINE
5
241
100
AcDbEntity
8
0
100
AcDbLine
10
-1.9334677814482173
20
-3.7989979913681138
30
0
11
-1.8147950368371548
21
-3.7188429458879901
31
0
0
LINE
5
242
100
AcDbEntity
8
0
100
AcDbLine
10
-1.8147950368371548
20
-3.7188429458879901
30
0
11
-2.0102458760047046
21
-3.6315739529372415
31
0
0
SPLINE
5
243
100
AcDbEntity
8
0
100
AcDbSpline
70
4
71
3
72
8
73
4
74
0
42
0.000000001
43
0.0000000001
44
0.0000000001
40
-1
40
-1
40
-1
40
-1
40
0
40
0
40
0
40
0
41
1
41
1
41
1
41
1
10
-2.0102458760047046
20
-3.6315739529372415
30
0
10
-2.2218100075847467
20
-3.5290487480446555
30
0
10
-2.3159698916067102
20
-3.3573906782194953
30
0
10
-2.2185015512730821
20
-3.2479917059086856
30
0
0
CIRCLE
5
244
100
AcDbEntity
8
0
100
AcDbCircle
10
-2.7808619764844642
20
-7.7176767757967006
30
0
40
0.10500000000000005
210
0
220
-0
230
1
0
CIRCLE
5
245
100
AcDbEntity
8
0
100
AcDbCircle
10
-2.7808619764844638
20
6.7823451082279824
30
0
40
0.10500000000000005
210
0
220
-0
230
1
0
ELLIPSE
5
246
100
AcDbEntity
8
0
100
AcDbEllipse
10
-2.7808619764844642
20
-0.46765489177201597
30
0
11
0
21
-7.9999999999999982
31
0.0
40
0.62499999999999989
41
0
42
6.2831853071795862
0
ENDSEC
0
SECTION
2
OBJECTS
0
DICTIONARY
5
C
100
AcDbDictionary
3
ACAD_GROUP
350
D
3
ACAD_MLINESTYLE
350
17
0
DICTIONARY
5
D
100
AcDbDictionary
0
DICTIONARY
5
1A
330
C
100
AcDbDictionary
0
DICTIONARY
5
17
100
AcDbDictionary
0
ENDSEC
0
EOF
