0
SECTION
2
HEADER
9
$INSUNITS
70
1
9
$ACADVER
1
AC1014
9
$HANDSEED
5
FFFF
0
ENDSEC
0
SECTION
2
TABLES
0
TABLE
2
VPORT
5
8
100
AcDbSymbolTable
0
ENDTAB
0
TABLE
2
LTYPE
5
5
100
AcDbSymbolTable
0
LTYPE
5
14
100
AcDbSymbolTableRecord
100
AcDbLinetypeTableRecord
2
BYBLOCK
70
0
0
LTYPE
5
15
100
AcDbSymbolTableRecord
100
AcDbLinetypeTableRecord
2
BYLAYER
70
0
0
ENDTAB
0
TABLE
2
LAYER
5
2
100
AcDbSymbolTable
70
2
0
LAYER
5
50
100
AcDbSymbolTableRecord
100
AcDbLayerTableRecord
2
0
70
0
6
CONTINUOUS
0
ENDTAB
0
TABLE
2
STYLE
5
3
100
AcDbSymbolTable
70
1
0
STYLE
5
11
100
AcDbSymbolTableRecord
100
AcDbTextStyleTableRecord
2
STANDARD
70
0
0
ENDTAB
0
TABLE
2
VIEW
5
6
100
AcDbSymbolTable
70
0
0
ENDTAB
0
TABLE
2
UCS
5
7
100
AcDbSymbolTable
70
0
0
ENDTAB
0
TABLE
2
APPID
5
9
100
AcDbSymbolTable
70
2
0
APPID
5
12
100
AcDbSymbolTableRecord
100
AcDbRegAppTableRecord
2
ACAD
70
0
0
ENDTAB
0
TABLE
2
DIMSTYLE
5
A
100
AcDbSymbolTable
70
1
0
ENDTAB
0
TABLE
2
BLOCK_RECORD
5
1
100
AcDbSymbolTable
70
1
0
BLOCK_RECORD
5
1F
100
AcDbSymbolTableRecord
100
AcDbBlockTableRecord
2
*MODEL_SPACE
0
BLOCK_RECORD
5
1B
100
AcDbSymbolTableRecord
100
AcDbBlockTableRecord
2
*PAPER_SPACE
0
ENDTAB
0
ENDSEC
0
SECTION
2
BLOCKS
0
BLOCK
5
20
100
AcDbEntity
100
AcDbBlockBegin
2
*MODEL_SPACE
0
ENDBLK
5
21
100
AcDbEntity
100
AcDbBlockEnd
0
BLOCK
5
1C
100
AcDbEntity
100
AcDbBlockBegin
2
*PAPER_SPACE
0
ENDBLK
5
1D
100
AcDbEntity
100
AcDbBlockEnd
0
ENDSEC
0
SECTION
2
ENTITIES
0
SPLINE
5
100
100
AcDbEntity
8
0
100
AcDbSpline
70
4
71
3
72
8
73
4
74
0
42
0.000000001
43
0.0000000001
44
0.0000000001
40
0
40
0
40
0
40
0
40
1
40
1
40
1
40
1
41
1
41
1
41
1
41
1
10
2.0265623092651373
20
1.5635419209798163
30
0
10
2.0046872456868488
20
1.5635419209798163
30
0
10
1.9854165077209478
20
1.5802086512247711
30
0
10
1.9822914759318033
20
1.6020837148030593
30
0
0
LINE
5
101
100
AcDbEntity
8
0
100
AcDbLine
10
0.55104153951009116
20
0.99322923024495369
30
0
11
1.2552762064295737
21
0.99322923024495369
31
0
0
SPLINE
5
102
100
AcDbEntity
8
0
100
AcDbSpline
70
4
71
3
72
8
73
4
74
0
42
0.000000001
43
0.0000000001
44
0.0000000001
40
0
40
0
40
0
40
0
40
1
40
1
40
1
40
1
41
1
41
1
41
1
41
1
10
1.3895832061767579
20
1.4276042302449536
30
0
10
1.3994790077209476
20
1.4052084604899084
30
0
10
1.390104071299235
20
1.3791667938232413
30
0
10
1.3671874364217125
20
1.368750127156575
30
0
0
LINE
5
103
100
AcDbEntity
8
0
100
AcDbLine
10
1.8765625317891439
20
1.3614586512247708
30
0
11
1.8760416666666662
21
1.3614586512247708
31
0
0
SPLINE
5
104
100
AcDbEntity
8
0
100
AcDbSpline
70
4
71
3
72
8
73
4
74
0
42
0.000000001
43
0.0000000001
44
0.0000000001
40
0
40
0
40
0
40
0
40
1
40
1
40
1
40
1
41
1
41
1
41
1
41
1
10
1.3749999364217125
20
1.7567709604899087
30
0
10
1.3661457061767579
20
1.7645834604899082
30
0
10
1.3604166666666671
20
1.7750001271565747
30
0
10
1.3598958015441895
20
1.7869792302449532
30
0
0
SPLINE
5
105
100
AcDbEntity
8
0
100
AcDbSpline
70
4
71
3
72
8
73
4
74
0
42
0.000000001
43
0.0000000001
44
0.0000000001
40
0
40
0
40
0
40
0
40
1
40
1
40
1
40
1
41
1
41
1
41
1
41
1
10
1.9822914759318033
20
1.6020837148030593
30
0
10
1.9786455790201822
20
1.6260419209798171
30
0
10
1.9958331743876141
20
1.6484380086263015
30
0
10
2.0197915395100909
20
1.6520835876464839
30
0
0
SPLINE
5
106
100
AcDbEntity
8
0
100
AcDbSpline
70
4
71
3
72
8
73
4
74
0
42
0.000000001
43
0.0000000001
44
0.0000000001
40
0
40
0
40
0
40
0
40
1
40
1
40
1
40
1
41
1
41
1
41
1
41
1
10
1.5177083969116212
20
1.233333142598469
30
0
10
1.5093750317891437
20
1.220312309265136
30
0
10
1.4953126271565755
20
1.2130205154418934
30
0
10
1.4802083333333331
20
1.2130205154418934
30
0
0
LINE
5
107
100
AcDbEntity
8
0
100
AcDbLine
10
2.0915988571487136
20
0.99322923024495369
30
0
11
2.7958332061767566
21
0.99322923024495369
31
0
0
SPLINE
5
108
100
AcDbEntity
8
0
100
AcDbSpline
70
4
71
3
72
8
73
4
74
0
42
0.000000001
43
0.0000000001
44
0.0000000001
40
0
40
0
40
0
40
0
40
1
40
1
40
1
40
1
41
1
41
1
41
1
41
1
10
1.4432291348775232
20
1.2812498728434241
30
0
10
1.4515625000000003
20
1.2942707061767573
30
0
10
1.4656250635782877
20
1.3015624999999991
30
0
10
1.4807291984558109
20
1.3015624999999991
30
0
0
SPLINE
5
109
100
AcDbEntity
8
0
100
AcDbSpline
70
4
71
3
72
8
73
4
74
0
42
0.000000001
43
0.0000000001
44
0.0000000001
40
0
40
0
40
0
40
0
40
1
40
1
40
1
40
1
41
1
41
1
41
1
41
1
10
2.0197915395100909
20
1.6520835876464839
30
0
10
2.0218750000000001
20
1.6520832697550449
30
0
10
2.0239583015441887
20
1.6526042938232415
30
0
10
2.026041603088379
20
1.6526042938232415
30
0
0
SPLINE
5
110
100
AcDbEntity
8
0
100
AcDbSpline
70
4
71
3
72
8
73
4
74
0
42
0.000000001
43
0.0000000001
44
0.0000000001
40
0
40
0
40
0
40
0
40
1
40
1
40
1
40
1
41
1
41
1
41
1
41
1
10
1.3307291030883792
20
1.4494792938232415
30
0
10
1.3364583015441895
20
1.4520834604899084
30
0
10
1.3427083651224772
20
1.4536458969116202
30
0
10
1.3489582697550455
20
1.4536458969116202
30
0
0
SPLINE
5
111
100
AcDbEntity
8
0
100
AcDbSpline
70
4
71
3
72
8
73
4
74
0
42
0.000000001
43
0.0000000001
44
0.0000000001
40
0
40
0
40
0
40
0
40
1
40
1
40
1
40
1
41
1
41
1
41
1
41
1
10
1.6734375317891437
20
1.2453125635782871
30
0
10
1.697916762034098
20
1.2453125635782871
30
0
10
1.7177083651224774
20
1.2255209604899078
30
0
10
1.7177083651224774
20
1.2010417302449536
30
0
0
SPLINE
5
112
100
AcDbEntity
8
0
100
AcDbSpline
70
4
71
3
72
8
73
4
74
0
42
0.000000001
43
0.0000000001
44
0.0000000001
40
0
40
0
40
0
40
0
40
1
40
1
40
1
40
1
41
1
41
1
41
1
41
1
10
2.0359372456868488
20
1.2875005722045891
30
0
10
2.0067705472310382
20
1.3140629450480137
30
0
10
1.9739581108093263
20
1.3364590326944978
30
0
10
1.9385413487752279
20
1.3536464691162096
30
0
0
SPLINE
5
113
100
AcDbEntity
8
0
100
AcDbSpline
70
4
71
3
72
8
73
4
74
0
42
0.000000001
43
0.0000000001
44
0.0000000001
40
0
40
0
40
0
40
0
40
1
40
1
40
1
40
1
41
1
41
1
41
1
41
1
10
2.070312436421712
20
1.6145835240681958
30
0
10
2.0739583333333327
20
1.590625317891438
30
0
10
2.0567707379659006
20
1.5677085240681961
30
0
10
2.032812372843424
20
1.5640626271565747
30
0
0
SPLINE
5
114
100
AcDbEntity
8
0
100
AcDbSpline
70
4
71
3
72
8
73
4
74
0
42
0.000000001
43
0.0000000001
44
0.0000000001
40
0
40
0
40
0
40
0
40
1
40
1
40
1
40
1
41
1
41
1
41
1
41
1
10
1.9098955154418944
20
1.3677090326944981
30
0
10
1.9057292302449547
20
1.3708332697550443
30
0
10
1.9015624682108563
20
1.3713542938232413
30
0
10
1.8973958651224776
20
1.3713542938232413
30
0
0
SPLINE
5
115
100
AcDbEntity
8
0
100
AcDbSpline
70
4
71
3
72
8
73
4
74
0
42
0.000000001
43
0.0000000001
44
0.0000000001
40
0
40
0
40
0
40
0
40
1
40
1
40
1
40
1
41
1
41
1
41
1
41
1
10
1.4333333333333331
20
1.8239585876464839
30
0
10
1.4520833651224772
20
1.8078128814697252
30
0
10
1.4541666666666666
20
1.7802084604899087
30
0
10
1.4380208015441891
20
1.7614585876464837
30
0
0
LINE
5
116
100
AcDbEntity
8
0
100
AcDbLine
10
1.8765625317891439
20
1.3619793574015291
30
0
11
1.8765625317891439
21
1.3614586512247708
31
0
0
SPLINE
5
117
100
AcDbEntity
8
0
100
AcDbSpline
70
4
71
3
72
8
73
4
74
0
42
0.000000001
43
0.0000000001
44
0.0000000001
40
0
40
0
40
0
40
0
40
1
40
1
40
1
40
1
41
1
41
1
41
1
41
1
10
2.7958332061767566
20
0.99322923024495369
30
0
10
2.9109372456868488
20
0.99322923024495369
30
0
10
3.0041665395100914
20
0.89947923024495324
30
0
10
3.0041665395100914
20
0.7843751907348625
30
0
0
SPLINE
5
118
100
AcDbEntity
8
0
100
AcDbSpline
70
4
71
3
72
8
73
4
74
0
42
0.000000001
43
0.0000000001
44
0.0000000001
40
0
40
0
40
0
40
0
40
1
40
1
40
1
40
1
41
1
41
1
41
1
41
1
10
1.4807291984558109
20
1.3015624999999991
30
0
10
1.4890625635782879
20
1.3015624999999991
30
0
10
1.4973959287007648
20
1.2989583333333323
30
0
10
1.5046875635782875
20
1.2942707061767573
30
0
0
SPLINE
5
119
100
AcDbEntity
8
0
100
AcDbSpline
70
4
71
3
72
8
73
4
74
0
42
0.000000001
43
0.0000000001
44
0.0000000001
40
0
40
0
40
0
40
0
40
1
40
1
40
1
40
1
41
1
41
1
41
1
41
1
10
1.5729166030883792
20
1.8541668574015286
30
0
10
1.5536457061767579
20
1.8541668574015286
30
0
10
1.535937404632568
20
1.8671876907348623
30
0
10
1.5307290712992352
20
1.8859375635782862
30
0
0
SPLINE
5
120
100
AcDbEntity
8
0
100
AcDbSpline
70
4
71
3
72
8
73
4
74
0
42
0.000000001
43
0.0000000001
44
0.0000000001
40
0
40
0
40
0
40
0
40
1
40
1
40
1
40
1
41
1
41
1
41
1
41
1
10
1.3140625317891437
20
1.5640626271565747
30
0
10
1.2901041666666668
20
1.5677085240681961
30
0
10
1.2729167302449544
20
1.5901042938232415
30
0
10
1.2765624682108565
20
1.6145835240681958
30
0
0
SPLINE
5
121
100
AcDbEntity
8
0
100
AcDbSpline
70
4
71
3
72
8
73
4
74
0
42
0.000000001
43
0.0000000001
44
0.0000000001
40
0
40
0
40
0
40
0
40
1
40
1
40
1
40
1
41
1
41
1
41
1
41
1
10
1.6291666984558104
20
1.2010417302449536
30
0
10
1.6286458333333331
20
1.2255209604899078
30
0
10
1.6489583015441898
20
1.2453125635782871
30
0
10
1.6734375317891437
20
1.2453125635782871
30
0
0
SPLINE
5
122
100
AcDbEntity
8
0
100
AcDbSpline
70
4
71
3
72
8
73
4
74
0
42
0.000000001
43
0.0000000001
44
0.0000000001
40
0
40
0
40
0
40
0
40
1
40
1
40
1
40
1
41
1
41
1
41
1
41
1
10
2.032812372843424
20
1.5640626271565747
30
0
10
2.0307290712992354
20
1.5635419209798163
30
0
10
2.0286457697550446
20
1.5635419209798163
30
0
10
2.0265623092651373
20
1.5635419209798163
30
0
0
SPLINE
5
123
100
AcDbEntity
8
0
100
AcDbSpline
70
4
71
3
72
8
73
4
74
0
42
0.000000001
43
0.0000000001
44
0.0000000001
40
0
40
0
40
0
40
0
40
1
40
1
40
1
40
1
41
1
41
1
41
1
41
1
10
1.8890625000000003
20
1.3000003814697256
30
0
10
1.9093749682108563
20
1.2661462148030587
30
0
10
1.9343750635782879
20
1.2354169209798174
30
0
10
1.9635416030883792
20
1.2088545481363924
30
0
0
SPLINE
5
124
100
AcDbEntity
8
0
100
AcDbSpline
70
4
71
3
72
8
73
4
74
0
42
0.000000001
43
0.0000000001
44
0.0000000001
40
0
40
0
40
0
40
0
40
1
40
1
40
1
40
1
41
1
41
1
41
1
41
1
10
1.3645834287007648
20
1.6015626907348628
30
0
10
1.3614583969116214
20
1.5796876271565747
30
0
10
1.3427083651224772
20
1.5635419209798163
30
0
10
1.3203125953674315
20
1.5635419209798163
30
0
0
SPLINE
5
125
100
AcDbEntity
8
0
100
AcDbSpline
70
4
71
3
72
8
73
4
74
0
42
0.000000001
43
0.0000000001
44
0.0000000001
40
0
40
0
40
0
40
0
40
1
40
1
40
1
40
1
41
1
41
1
41
1
41
1
10
2.026041603088379
20
1.6526042938232415
30
0
10
2.0479166666666671
20
1.6526042938232415
30
0
10
2.0671874046325684
20
1.6359375635782867
30
0
10
2.070312436421712
20
1.6145835240681958
30
0
0
SPLINE
5
126
100
AcDbEntity
8
0
100
AcDbSpline
70
4
71
3
72
8
73
4
74
0
42
0.000000001
43
0.0000000001
44
0.0000000001
40
0
40
0
40
0
40
0
40
1
40
1
40
1
40
1
41
1
41
1
41
1
41
1
10
1.2765624682108565
20
1.6145835240681958
30
0
10
1.2796874999999999
20
1.6359375635782867
30
0
10
1.2989583969116212
20
1.6526042938232415
30
0
10
1.3208333015441895
20
1.6526042938232415
30
0
0
LINE
5
127
100
AcDbEntity
8
0
100
AcDbLine
10
1.9635416030883792
20
1.2088545481363924
30
0
11
1.9869791030883792
21
1.1875005086263013
31
0
0
SPLINE
5
128
100
AcDbEntity
8
0
100
AcDbSpline
70
4
71
3
72
8
73
4
74
0
42
0.000000001
43
0.0000000001
44
0.0000000001
40
0
40
0
40
0
40
0
40
1
40
1
40
1
40
1
41
1
41
1
41
1
41
1
10
1.3203125953674315
20
1.5635419209798163
30
0
10
1.3182292938232423
20
1.5635419209798163
30
0
10
1.3161459922790528
20
1.5635419209798163
30
0
10
1.3140625317891437
20
1.5640626271565747
30
0
0
SPLINE
5
129
100
AcDbEntity
8
0
100
AcDbSpline
70
4
71
3
72
8
73
4
74
0
42
0.000000001
43
0.0000000001
44
0.0000000001
40
0
40
0
40
0
40
0
40
1
40
1
40
1
40
1
41
1
41
1
41
1
41
1
10
1.3088540395100907
20
1.3906251907348619
30
0
10
1.2984373728434246
20
1.41250025431315
30
0
10
1.3083331743876143
20
1.4390626271565745
30
0
10
1.3307291030883792
20
1.4494792938232415
30
0
0
SPLINE
5
130
100
AcDbEntity
8
0
100
AcDbSpline
70
4
71
3
72
8
73
4
74
0
42
0.000000001
43
0.0000000001
44
0.0000000001
40
0
40
0
40
0
40
0
40
1
40
1
40
1
40
1
41
1
41
1
41
1
41
1
10
3.0041665395100914
20
0.61666679382324097
30
0
10
3.0041665395100914
20
0.5020834604899076
30
0
10
2.9109375635782877
20
0.40833346048990771
30
0
10
2.7958332061767566
20
0.40833346048990771
30
0
0
SPLINE
5
131
100
AcDbEntity
8
0
100
AcDbSpline
70
4
71
3
72
8
73
4
74
0
42
0.000000001
43
0.0000000001
44
0.0000000001
40
0
40
0
40
0
40
0
40
1
40
1
40
1
40
1
41
1
41
1
41
1
41
1
10
1.4562499682108565
20
1.220312309265136
30
0
10
1.4463541666666668
20
1.2265623728434241
30
0
10
1.4395832379659017
20
1.236458015441894
30
0
10
1.436979071299235
20
1.2479164123535147
30
0
0
SPLINE
5
132
100
AcDbEntity
8
0
100
AcDbSpline
70
4
71
3
72
8
73
4
74
0
42
0.000000001
43
0.0000000001
44
0.0000000001
40
0
40
0
40
0
40
0
40
1
40
1
40
1
40
1
41
1
41
1
41
1
41
1
10
1.5046875635782875
20
1.2942707061767573
30
0
10
1.5145833651224772
20
1.2880206425984688
30
0
10
1.5213542938232423
20
1.2781249999999991
30
0
10
1.523958460489909
20
1.2666666030883778
30
0
0
SPLINE
5
133
100
AcDbEntity
8
0
100
AcDbSpline
70
4
71
3
72
8
73
4
74
0
42
0.000000001
43
0.0000000001
44
0.0000000001
40
0
40
0
40
0
40
0
40
1
40
1
40
1
40
1
41
1
41
1
41
1
41
1
10
1.3208333015441895
20
1.6526042938232415
30
0
10
1.322916603088379
20
1.6526042938232415
30
0
10
1.3249999046325682
20
1.6526042938232415
30
0
10
1.3270833651224774
20
1.6520835876464839
30
0
0
LINE
5
134
100
AcDbEntity
8
0
100
AcDbLine
10
1.8729166348775228
20
1.3276044845581043
30
0
11
1.8890625000000003
21
1.3000003814697256
31
0
0
SPLINE
5
135
100
AcDbEntity
8
0
100
AcDbSpline
70
4
71
3
72
8
73
4
74
0
42
0.000000001
43
0.0000000001
44
0.0000000001
40
0
40
0
40
0
40
0
40
1
40
1
40
1
40
1
41
1
41
1
41
1
41
1
10
0.34270820617675773
20
0.7843751907348625
30
0
10
0.34270820617675773
20
0.89947923024495324
30
0
10
0.43645820617675762
20
0.99322923024495369
30
0
10
0.55104153951009116
20
0.99322923024495369
30
0
0
LINE
5
136
100
AcDbEntity
8
0
100
AcDbLine
10
0.34270820617675773
20
0.61666679382324097
30
0
11
0.34270820617675773
21
0.7843751907348625
31
0
0
SPLINE
5
137
100
AcDbEntity
8
0
100
AcDbSpline
70
4
71
3
72
8
73
4
74
0
42
0.000000001
43
0.0000000001
44
0.0000000001
40
0
40
0
40
0
40
0
40
1
40
1
40
1
40
1
41
1
41
1
41
1
41
1
10
0.55104153951009116
20
0.40833346048990771
30
0
10
0.43593734105428072
20
0.40833346048990771
30
0
10
0.34270820617675773
20
0.5020834604899076
30
0
10
0.34270820617675773
20
0.61666679382324097
30
0
0
LINE
5
138
100
AcDbEntity
8
0
100
AcDbLine
10
2.7958332061767566
20
0.40833346048990771
30
0
11
2.0485863559135686
21
0.40833346048990771
31
0
0
SPLINE
5
139
100
AcDbEntity
8
0
100
AcDbSpline
70
4
71
3
72
8
73
4
74
0
42
0.000000001
43
0.0000000001
44
0.0000000001
40
0
40
0
40
0
40
0
40
1
40
1
40
1
40
1
41
1
41
1
41
1
41
1
10
1.3708333333333331
20
1.819270960489908
30
0
10
1.3791666984558109
20
1.8296876271565743
30
0
10
1.3911458015441891
20
1.8348959604899082
30
0
10
1.4041666348775228
20
1.8348959604899082
30
0
0
SPLINE
5
140
100
AcDbEntity
8
0
100
AcDbSpline
70
4
71
3
72
8
73
4
74
0
42
0.000000001
43
0.0000000001
44
0.0000000001
40
0
40
0
40
0
40
0
40
1
40
1
40
1
40
1
41
1
41
1
41
1
41
1
10
1.3270833651224774
20
1.6520835876464839
30
0
10
1.3510417302449549
20
1.6484376907348628
30
0
10
1.3682291666666666
20
1.6260419209798171
30
0
10
1.3645834287007648
20
1.6015626907348628
30
0
0
SPLINE
5
141
100
AcDbEntity
8
0
100
AcDbSpline
70
4
71
3
72
8
73
4
74
0
42
0.000000001
43
0.0000000001
44
0.0000000001
40
0
40
0
40
0
40
0
40
1
40
1
40
1
40
1
41
1
41
1
41
1
41
1
10
1.3671874364217125
20
1.368750127156575
30
0
10
1.3614582379659015
20
1.3661459604899076
30
0
10
1.3552083333333336
20
1.3645835240681961
30
0
10
1.3489582697550455
20
1.3645835240681961
30
0
0
SPLINE
5
142
100
AcDbEntity
8
0
100
AcDbSpline
70
4
71
3
72
8
73
4
74
0
42
0.000000001
43
0.0000000001
44
0.0000000001
40
0
40
0
40
0
40
0
40
1
40
1
40
1
40
1
41
1
41
1
41
1
41
1
10
1.6734375317891437
20
1.1567708969116204
30
0
10
1.6489583015441898
20
1.1567708969116204
30
0
10
1.6291666984558104
20
1.1765624999999988
30
0
10
1.6291666984558104
20
1.2010417302449536
30
0
0
SPLINE
5
143
100
AcDbEntity
8
0
100
AcDbSpline
70
4
71
3
72
8
73
4
74
0
42
0.000000001
43
0.0000000001
44
0.0000000001
40
0
40
0
40
0
40
0
40
1
40
1
40
1
40
1
41
1
41
1
41
1
41
1
10
1.3489582697550455
20
1.4536458969116202
30
0
10
1.366666571299235
20
1.4536458969116202
30
0
10
1.3822915712992354
20
1.4437499364217112
30
0
10
1.3895832061767579
20
1.4276042302449536
30
0
0
LINE
5
144
100
AcDbEntity
8
0
100
AcDbLine
10
1.2982887076647187
20
0.40833346048990771
30
0
11
0.55104153951009116
21
0.40833346048990771
31
0
0
SPLINE
5
145
100
AcDbEntity
8
0
100
AcDbSpline
70
4
71
3
72
8
73
4
74
0
42
0.000000001
43
0.0000000001
44
0.0000000001
40
0
40
0
40
0
40
0
40
1
40
1
40
1
40
1
41
1
41
1
41
1
41
1
10
1.8760416666666662
20
1.3614586512247708
30
0
10
1.8677083015441889
20
1.3520837148030587
30
0
10
1.8666667302449549
20
1.3385418574015291
30
0
10
1.8729166348775228
20
1.3276044845581043
30
0
0
SPLINE
5
146
100
AcDbEntity
8
0
100
AcDbSpline
70
4
71
3
72
8
73
4
74
0
42
0.000000001
43
0.0000000001
44
0.0000000001
40
0
40
0
40
0
40
0
40
1
40
1
40
1
40
1
41
1
41
1
41
1
41
1
10
1.9427082697550451
20
1.7458335876464834
30
0
10
1.9296874364217125
20
1.7458335876464834
30
0
10
1.9177083333333327
20
1.7515626271565747
30
0
10
1.9088541030883792
20
1.7614585876464837
30
0
0
SPLINE
5
147
100
AcDbEntity
8
0
100
AcDbSpline
70
4
71
3
72
8
73
4
74
0
42
0.000000001
43
0.0000000001
44
0.0000000001
40
0
40
0
40
0
40
0
40
1
40
1
40
1
40
1
41
1
41
1
41
1
41
1
10
1.523958460489909
20
1.2666666030883778
30
0
10
1.5265626271565758
20
1.2552082061767567
30
0
10
1.5244793256123859
20
1.2432291030883784
30
0
10
1.5177083969116212
20
1.233333142598469
30
0
0
SPLINE
5
148
100
AcDbEntity
8
0
100
AcDbSpline
70
4
71
3
72
8
73
4
74
0
42
0.000000001
43
0.0000000001
44
0.0000000001
40
0
40
0
40
0
40
0
40
1
40
1
40
1
40
1
41
1
41
1
41
1
41
1
10
1.4380208015441891
20
1.7614585876464837
30
0
10
1.4296874364217123
20
1.7515626271565747
30
0
10
1.4171874682108565
20
1.7458335876464834
30
0
10
1.4041666348775228
20
1.7458335876464834
30
0
0
LINE
5
149
100
AcDbEntity
8
0
100
AcDbLine
10
1.9385413487752279
20
1.3536464691162096
30
0
11
1.9098955154418944
21
1.3677090326944981
31
0
0
SPLINE
5
150
100
AcDbEntity
8
0
100
AcDbSpline
70
4
71
3
72
8
73
4
74
0
42
0.000000001
43
0.0000000001
44
0.0000000001
40
0
40
0
40
0
40
0
40
1
40
1
40
1
40
1
41
1
41
1
41
1
41
1
10
1.7177083651224774
20
1.2010417302449536
30
0
10
1.7177083651224774
20
1.1765624999999988
30
0
10
1.697916762034098
20
1.1567708969116204
30
0
10
1.6734375317891437
20
1.1567708969116204
30
0
0
SPLINE
5
151
100
AcDbEntity
8
0
100
AcDbSpline
70
4
71
3
72
8
73
4
74
0
42
0.000000001
43
0.0000000001
44
0.0000000001
40
0
40
0
40
0
40
0
40
1
40
1
40
1
40
1
41
1
41
1
41
1
41
1
10
1.5854165712992352
20
1.8562503178914376
30
0
10
1.5812499682108563
20
1.8552085876464841
30
0
10
1.5770832061767577
20
1.8541668574015286
30
0
10
1.5729166030883792
20
1.8541668574015286
30
0
0
SPLINE
5
152
100
AcDbEntity
8
0
100
AcDbSpline
70
4
71
3
72
8
73
4
74
0
42
0.000000001
43
0.0000000001
44
0.0000000001
40
0
40
0
40
0
40
0
40
1
40
1
40
1
40
1
41
1
41
1
41
1
41
1
10
1.4802083333333331
20
1.2130205154418934
30
0
10
1.4718749682108563
20
1.2130205154418934
30
0
10
1.4635416030883792
20
1.2156246821085601
30
0
10
1.4562499682108565
20
1.220312309265136
30
0
0
SPLINE
5
153
100
AcDbEntity
8
0
100
AcDbSpline
70
4
71
3
72
8
73
4
74
0
42
0.000000001
43
0.0000000001
44
0.0000000001
40
0
40
0
40
0
40
0
40
1
40
1
40
1
40
1
41
1
41
1
41
1
41
1
10
1.3489582697550455
20
1.3645835240681961
30
0
10
1.3317708333333336
20
1.3645835240681961
30
0
10
1.3156249682108563
20
1.3750001907348621
30
0
10
1.3088540395100907
20
1.3906251907348619
30
0
0
LINE
5
154
100
AcDbEntity
8
0
100
AcDbLine
10
2.0593747456868488
20
1.2661465326944981
30
0
11
2.0359372456868488
21
1.2875005722045891
31
0
0
SPLINE
5
155
100
AcDbEntity
8
0
100
AcDbSpline
70
4
71
3
72
8
73
4
74
0
42
0.000000001
43
0.0000000001
44
0.0000000001
40
0
40
0
40
0
40
0
40
1
40
1
40
1
40
1
41
1
41
1
41
1
41
1
10
1.436979071299235
20
1.2479164123535147
30
0
10
1.4343749046325682
20
1.259374809265136
30
0
10
1.4364582061767575
20
1.2713539123535147
30
0
10
1.4432291348775232
20
1.2812498728434241
30
0
0
SPLINE
5
156
100
AcDbEntity
8
0
100
AcDbSpline
70
4
71
3
72
8
73
4
74
0
42
0.000000001
43
0.0000000001
44
0.0000000001
40
0
40
0
40
0
40
0
40
1
40
1
40
1
40
1
41
1
41
1
41
1
41
1
10
1.8973958651224776
20
1.3713542938232413
30
0
10
1.8895833651224763
20
1.3713542938232413
30
0
10
1.8817708651224767
20
1.3682294209798169
30
0
10
1.8765625317891439
20
1.3619793574015291
30
0
0
LINE
5
157
100
AcDbEntity
8
0
100
AcDbLine
10
3.0041665395100914
20
0.7843751907348625
30
0
11
3.0041665395100914
21
0.61666679382324097
31
0
0
LWPOLYLINE
5
158
100
AcDbEntity
8
0
100
AcDbPolyline
90
8
70
1
43
0.0
10
0.24999999999999989
20
3.9999999999999991
10
3.7499999999999991
20
3.9999999999999978
42
-0.41421356237309587
10
3.9999999999999978
20
3.75
10
3.9999999999999991
20
0.24999999999999928
42
-0.41421356237309748
10
3.7499999999999978
20
0
10
0.24999999999999986
20
0
42
-0.41421356237309531
10
0
20
0.24999999999999989
10
5.2451481478353848e-16
20
3.75
42
-0.41421356237309609
0
LINE
5
159
100
AcDbEntity
8
0
100
AcDbLine
10
2.1120861761843854
20
2.2215000903488917
30
0
11
2.1120861761843854
21
2.3873204834555741
31
0
0
SPLINE
5
160
100
AcDbEntity
8
0
100
AcDbSpline
70
4
71
3
72
8
73
4
74
0
42
0.000000001
43
0.0000000001
44
0.0000000001
40
0
40
0
40
0
40
0
40
1
40
1
40
1
40
1
41
1
41
1
41
1
41
1
10
1.6734375317891437
20
1.7416666666666658
30
0
10
1.7750000317891439
20
1.7416666666666658
30
0
10
1.8578125000000001
20
1.6588540395100901
30
0
10
1.8578125000000001
20
1.5572915395100904
30
0
0
SPLINE
5
161
100
AcDbEntity
8
0
100
AcDbSpline
70
4
71
3
72
8
73
4
74
0
42
0.000000001
43
0.0000000001
44
0.0000000001
40
0
40
0
40
0
40
0
40
1
40
1
40
1
40
1
41
1
41
1
41
1
41
1
10
1.9427082697550451
20
1.8348959604899082
30
0
10
1.9557291030883792
20
1.8348959604899082
30
0
10
1.9677082061767577
20
1.8291669209798163
30
0
10
1.9760415712992352
20
1.819270960489908
30
0
0
SPLINE
5
162
100
AcDbEntity
8
0
100
AcDbSpline
70
4
71
3
72
8
73
4
74
0
42
0.000000001
43
0.0000000001
44
0.0000000001
40
0
40
0
40
0
40
0
40
1
40
1
40
1
40
1
41
1
41
1
41
1
41
1
10
3.0187504450480138
20
2.0234371821085602
30
0
10
3.0473962783813477
20
2.1114579836527501
30
0
10
3.0786462783813482
20
2.1937497456868478
30
0
10
3.0765628178914386
20
2.2901039123535147
30
0
0
SPLINE
5
163
100
AcDbEntity
8
0
100
AcDbSpline
70
4
71
3
72
8
73
4
74
0
42
0.000000001
43
0.0000000001
44
0.0000000001
40
0
40
0
40
0
40
0
40
1
40
1
40
1
40
1
41
1
41
1
41
1
41
1
10
1.7343749364217125
20
1.8776043574015286
30
0
10
1.7286457379659017
20
1.8880210240681961
30
0
10
1.7276041666666666
20
1.9000001271565743
30
0
10
1.7307290395100914
20
1.9114585240681961
30
0
0
SPLINE
5
164
100
AcDbEntity
8
0
100
AcDbSpline
70
4
71
3
72
8
73
4
74
0
42
0.000000001
43
0.0000000001
44
0.0000000001
40
0
40
0
40
0
40
0
40
1
40
1
40
1
40
1
41
1
41
1
41
1
41
1
10
1.4890625635782879
20
1.5572915395100904
30
0
10
1.4885416984558104
20
1.6588540395100901
30
0
10
1.5713541666666668
20
1.7416666666666658
30
0
10
1.6734375317891437
20
1.7416666666666658
30
0
0
SPLINE
5
165
100
AcDbEntity
8
0
100
AcDbSpline
70
4
71
3
72
8
73
4
74
0
42
0.000000001
43
0.0000000001
44
0.0000000001
40
0
40
0
40
0
40
0
40
1
40
1
40
1
40
1
41
1
41
1
41
1
41
1
10
2.1484377543131514
20
1.5567711512247711
30
0
10
2.1484377543131514
20
1.8192712783813469
30
0
10
1.9359378178914388
20
2.0317712148030589
30
0
10
1.6734376907348636
20
2.0317712148030589
30
0
0
SPLINE
5
166
100
AcDbEntity
8
0
100
AcDbSpline
70
4
71
3
72
8
73
4
74
0
42
0.000000001
43
0.0000000001
44
0.0000000001
40
0
40
0
40
0
40
0
40
1
40
1
40
1
40
1
41
1
41
1
41
1
41
1
10
1.7859374046325687
20
1.9411457697550449
30
0
10
1.7973958015441889
20
1.9380208969116206
30
0
10
1.8067707379659013
20
1.9302083969116199
30
0
10
1.8124999364217125
20
1.9197917302449536
30
0
0
SPLINE
5
167
100
AcDbEntity
8
0
100
AcDbSpline
70
4
71
3
72
8
73
4
74
0
42
0.000000001
43
0.0000000001
44
0.0000000001
40
0
40
0
40
0
40
0
40
1
40
1
40
1
40
1
41
1
41
1
41
1
41
1
10
1.7739583015441889
20
1.8541668574015286
30
0
10
1.7697916984558109
20
1.8541668574015286
30
0
10
1.7656249364217125
20
1.8546875635782867
30
0
10
1.7609374682108563
20
1.8562503178914376
30
0
0
SPLINE
5
168
100
AcDbEntity
8
0
100
AcDbSpline
70
4
71
3
72
8
73
4
74
0
42
0.000000001
43
0.0000000001
44
0.0000000001
40
0
40
0
40
0
40
0
40
1
40
1
40
1
40
1
41
1
41
1
41
1
41
1
10
1.9088541030883792
20
1.7614585876464837
30
0
10
1.892708237965901
20
1.7802084604899087
30
0
10
1.8942708333333327
20
1.8078128814697252
30
0
10
1.913541571299235
20
1.8239585876464839
30
0
0
SPLINE
5
169
100
AcDbEntity
8
0
100
AcDbSpline
70
4
71
3
72
8
73
4
74
0
42
0.000000001
43
0.0000000001
44
0.0000000001
40
0
40
0
40
0
40
0
40
1
40
1
40
1
40
1
41
1
41
1
41
1
41
1
10
1.7734374364217123
20
1.9432292302449536
30
0
10
1.7776040395100912
20
1.9432292302449536
30
0
10
1.7817708015441895
20
1.9427085240681958
30
0
10
1.7859374046325687
20
1.9411457697550449
30
0
0
SPLINE
5
170
100
AcDbEntity
8
0
100
AcDbSpline
70
4
71
3
72
8
73
4
74
0
42
0.000000001
43
0.0000000001
44
0.0000000001
40
0
40
0
40
0
40
0
40
1
40
1
40
1
40
1
41
1
41
1
41
1
41
1
10
1.9760415712992352
20
1.819270960489908
30
0
10
1.983854071299235
20
1.8104167302449532
30
0
10
1.9874999682108558
20
1.7989583333333319
30
0
10
1.9869791030883792
20
1.7869792302449532
30
0
0
SPLINE
5
171
100
AcDbEntity
8
0
100
AcDbSpline
70
4
71
3
72
8
73
4
74
0
42
0.000000001
43
0.0000000001
44
0.0000000001
40
0
40
0
40
0
40
0
40
1
40
1
40
1
40
1
41
1
41
1
41
1
41
1
10
1.913541571299235
20
1.8239585876464839
30
0
10
1.9218749364217123
20
1.8312500635782867
30
0
10
1.9317708969116207
20
1.8348959604899082
30
0
10
1.9427082697550451
20
1.8348959604899082
30
0
0
SPLINE
5
172
100
AcDbEntity
8
0
100
AcDbSpline
70
4
71
3
72
8
73
4
74
0
42
0.000000001
43
0.0000000001
44
0.0000000001
40
0
40
0
40
0
40
0
40
1
40
1
40
1
40
1
41
1
41
1
41
1
41
1
10
1.9869791030883792
20
1.7869792302449532
30
0
10
1.9859373728434249
20
1.7750001271565747
30
0
10
1.9807290395100914
20
1.7645834604899082
30
0
10
1.9718749682108563
20
1.7567709604899087
30
0
0
SPLINE
5
173
100
AcDbEntity
8
0
100
AcDbSpline
70
4
71
3
72
8
73
4
74
0
42
0.000000001
43
0.0000000001
44
0.0000000001
40
0
40
0
40
0
40
0
40
1
40
1
40
1
40
1
41
1
41
1
41
1
41
1
10
1.6734375317891437
20
1.3729164123535142
30
0
10
1.5718750317891435
20
1.3729164123535142
30
0
10
1.4890625635782879
20
1.4557290395100904
30
0
10
1.4890625635782879
20
1.5572915395100904
30
0
0
SPLINE
5
174
100
AcDbEntity
8
0
100
AcDbSpline
70
4
71
3
72
8
73
4
74
0
42
0.000000001
43
0.0000000001
44
0.0000000001
40
0
40
0
40
0
40
0
40
1
40
1
40
1
40
1
41
1
41
1
41
1
41
1
10
1.7307290395100914
20
1.9114585240681961
30
0
10
1.7364583969116212
20
1.9302083969116199
30
0
10
1.7541666984558106
20
1.9432292302449536
30
0
10
1.7734374364217123
20
1.9432292302449536
30
0
0
SPLINE
5
175
100
AcDbEntity
8
0
100
AcDbSpline
70
4
71
3
72
8
73
4
74
0
42
0.000000001
43
0.0000000001
44
0.0000000001
40
0
40
0
40
0
40
0
40
1
40
1
40
1
40
1
41
1
41
1
41
1
41
1
10
1.8578125000000001
20
1.5572915395100904
30
0
10
1.8578125000000001
20
1.4557290395100904
30
0
10
1.7750000317891439
20
1.3729164123535142
30
0
10
1.6734375317891437
20
1.3729164123535142
30
0
0
SPLINE
5
176
100
AcDbEntity
8
0
100
AcDbSpline
70
4
71
3
72
8
73
4
74
0
42
0.000000001
43
0.0000000001
44
0.0000000001
40
0
40
0
40
0
40
0
40
1
40
1
40
1
40
1
41
1
41
1
41
1
41
1
10
1.8124999364217125
20
1.9197917302449536
30
0
10
1.8182291348775221
20
1.9093750635782862
30
0
10
1.8192707061767577
20
1.8973959604899082
30
0
10
1.8161458333333336
20
1.8859375635782862
30
0
0
SPLINE
5
177
100
AcDbEntity
8
0
100
AcDbSpline
70
4
71
3
72
8
73
4
74
0
42
0.000000001
43
0.0000000001
44
0.0000000001
40
0
40
0
40
0
40
0
40
1
40
1
40
1
40
1
41
1
41
1
41
1
41
1
10
1.7609374682108563
20
1.8562503178914376
30
0
10
1.749479071299235
20
1.8593751907348626
30
0
10
1.740104134877523
20
1.8671876907348623
30
0
10
1.7343749364217125
20
1.8776043574015286
30
0
0
SPLINE
5
178
100
AcDbEntity
8
0
100
AcDbSpline
70
4
71
3
72
8
73
4
74
0
42
0.000000001
43
0.0000000001
44
0.0000000001
40
0
40
0
40
0
40
0
40
1
40
1
40
1
40
1
41
1
41
1
41
1
41
1
10
1.8161458333333336
20
1.8859375635782862
30
0
10
1.810416634877523
20
1.8671876907348623
30
0
10
1.7932291984558109
20
1.8541668574015286
30
0
10
1.7739583015441889
20
1.8541668574015286
30
0
0
SPLINE
5
179
100
AcDbEntity
8
0
100
AcDbSpline
70
4
71
3
72
8
73
4
74
0
42
0.000000001
43
0.0000000001
44
0.0000000001
40
0
40
0
40
0
40
0
40
1
40
1
40
1
40
1
41
1
41
1
41
1
41
1
10
1.3598958015441895
20
1.7869792302449532
30
0
10
1.3588540712992354
20
1.7989583333333319
30
0
10
1.3630208333333331
20
1.8104167302449532
30
0
10
1.3708333333333331
20
1.819270960489908
30
0
0
SPLINE
5
180
100
AcDbEntity
8
0
100
AcDbSpline
70
4
71
3
72
8
73
4
74
0
42
0.000000001
43
0.0000000001
44
0.0000000001
40
0
40
0
40
0
40
0
40
1
40
1
40
1
40
1
41
1
41
1
41
1
41
1
10
1.6156250000000001
20
1.9114585240681961
30
0
10
1.6187500317891435
20
1.9000001271565743
30
0
10
1.6177083015441898
20
1.8880210240681961
30
0
10
1.611979103088379
20
1.8776043574015286
30
0
0
SPLINE
5
181
100
AcDbEntity
8
0
100
AcDbSpline
70
4
71
3
72
8
73
4
74
0
42
0.000000001
43
0.0000000001
44
0.0000000001
40
0
40
0
40
0
40
0
40
1
40
1
40
1
40
1
41
1
41
1
41
1
41
1
10
1.9718749682108563
20
1.7567709604899087
30
0
10
1.9635416030883792
20
1.749479166666666
30
0
10
1.9536458015441889
20
1.7458335876464834
30
0
10
1.9427082697550451
20
1.7458335876464834
30
0
0
SPLINE
5
182
100
AcDbEntity
8
0
100
AcDbSpline
70
4
71
3
72
8
73
4
74
0
42
0.000000001
43
0.0000000001
44
0.0000000001
40
0
40
0
40
0
40
0
40
1
40
1
40
1
40
1
41
1
41
1
41
1
41
1
10
1.4041666348775228
20
1.8348959604899082
30
0
10
1.4145833015441891
20
1.8348959604899082
30
0
10
1.4249999682108563
20
1.8312500635782867
30
0
10
1.4333333333333331
20
1.8239585876464839
30
0
0
SPLINE
5
183
100
AcDbEntity
8
0
100
AcDbSpline
70
4
71
3
72
8
73
4
74
0
42
0.000000001
43
0.0000000001
44
0.0000000001
40
0
40
0
40
0
40
0
40
1
40
1
40
1
40
1
41
1
41
1
41
1
41
1
10
1.5307290712992352
20
1.8859375635782862
30
0
10
1.5276040395100907
20
1.8973959604899082
30
0
10
1.5286457697550453
20
1.9093750635782862
30
0
10
1.5343749682108563
20
1.9197917302449536
30
0
0
SPLINE
5
184
100
AcDbEntity
8
0
100
AcDbSpline
70
4
71
3
72
8
73
4
74
0
42
0.000000001
43
0.0000000001
44
0.0000000001
40
0
40
0
40
0
40
0
40
1
40
1
40
1
40
1
41
1
41
1
41
1
41
1
10
1.5609374999999999
20
1.9411457697550449
30
0
10
1.5645833969116207
20
1.9427082061767569
30
0
10
1.5687500000000001
20
1.9432292302449536
30
0
10
1.5734374682108561
20
1.9432292302449536
30
0
0
SPLINE
5
185
100
AcDbEntity
8
0
100
AcDbSpline
70
4
71
3
72
8
73
4
74
0
42
0.000000001
43
0.0000000001
44
0.0000000001
40
0
40
0
40
0
40
0
40
1
40
1
40
1
40
1
41
1
41
1
41
1
41
1
10
1.611979103088379
20
1.8776043574015286
30
0
10
1.6062499046325684
20
1.8671876907348623
30
0
10
1.5968749682108558
20
1.8598958969116199
30
0
10
1.5854165712992352
20
1.8562503178914376
30
0
0
SPLINE
5
186
100
AcDbEntity
8
0
100
AcDbSpline
70
4
71
3
72
8
73
4
74
0
42
0.000000001
43
0.0000000001
44
0.0000000001
40
0
40
0
40
0
40
0
40
1
40
1
40
1
40
1
41
1
41
1
41
1
41
1
10
1.4041666348775228
20
1.7458335876464834
30
0
10
1.3937499682108565
20
1.7458335876464834
30
0
10
1.3833333015441895
20
1.749479484558105
30
0
10
1.3749999364217125
20
1.7567709604899087
30
0
0
SPLINE
5
187
100
AcDbEntity
8
0
100
AcDbSpline
70
4
71
3
72
8
73
4
74
0
42
0.000000001
43
0.0000000001
44
0.0000000001
40
0
40
0
40
0
40
0
40
1
40
1
40
1
40
1
41
1
41
1
41
1
41
1
10
1.5734374682108561
20
1.9432292302449536
30
0
10
1.5927083651224774
20
1.9432292302449536
30
0
10
1.6104166666666668
20
1.9302083969116199
30
0
10
1.6156250000000001
20
1.9114585240681961
30
0
0
SPLINE
5
188
100
AcDbEntity
8
0
100
AcDbSpline
70
4
71
3
72
8
73
4
74
0
42
0.000000001
43
0.0000000001
44
0.0000000001
40
0
40
0
40
0
40
0
40
1
40
1
40
1
40
1
41
1
41
1
41
1
41
1
10
1.5343749682108563
20
1.9197917302449536
30
0
10
1.5401041666666664
20
1.9302083969116199
30
0
10
1.5494791030883792
20
1.9375001907348623
30
0
10
1.5609374999999999
20
1.9411457697550449
30
0
0
SPLINE
5
189
100
AcDbEntity
8
0
100
AcDbSpline
70
0
71
2
72
6
73
3
74
0
42
0.000000001
43
0.0000000001
44
0.0000000001
40
0
40
0
40
0
40
1
40
1
40
1
10
0.94427102406819663
20
1.9505208333333328
30
0
10
0.91614605585734032
20
1.9890626271565748
30
0
10
0.88125015894571934
20
2.038020769755045
30
0
0
SPLINE
5
190
100
AcDbEntity
8
0
100
AcDbSpline
70
4
71
3
72
8
73
4
74
0
42
0.000000001
43
0.0000000001
44
0.0000000001
40
0
40
0
40
0
40
0
40
1
40
1
40
1
40
1
41
1
41
1
41
1
41
1
10
0.88125015894571934
20
2.038020769755045
30
0
10
0.82812517484029113
20
2.1114583015441886
30
0
10
0.85468762715657542
20
2.1760416030883785
30
0
10
0.91510432561238597
20
2.2296873728434239
30
0
0
SPLINE
5
191
100
AcDbEntity
8
0
100
AcDbSpline
70
4
71
3
72
8
73
4
74
0
42
0.000000001
43
0.0000000001
44
0.0000000001
40
0
40
0
40
0
40
0
40
1
40
1
40
1
40
1
41
1
41
1
41
1
41
1
10
2.9645836512247716
20
1.9843746821085606
30
0
10
2.988541857401529
20
1.9843746821085606
30
0
10
3.0109379450480143
20
1.9994789759318023
30
0
10
3.0187504450480138
20
2.0234371821085602
30
0
0
SPLINE
5
192
100
AcDbEntity
8
0
100
AcDbSpline
70
4
71
3
72
8
73
4
74
0
42
0.000000001
43
0.0000000001
44
0.0000000001
40
0
40
0
40
0
40
0
40
1
40
1
40
1
40
1
41
1
41
1
41
1
41
1
10
2.3500003178914386
20
2.475520769755045
30
0
10
2.4244794209798166
20
2.4447916348775212
30
0
10
2.4713544209798166
20
2.3932291666666661
30
0
10
2.445312754313151
20
2.3057290712992344
30
0
0
SPLINE
5
193
100
AcDbEntity
8
0
100
AcDbSpline
70
4
71
3
72
8
73
4
74
0
42
0.000000001
43
0.0000000001
44
0.0000000001
40
0
40
0
40
0
40
0
40
1
40
1
40
1
40
1
41
1
41
1
41
1
41
1
10
0.74947923024495455
20
2.6359375317891427
30
0
10
0.60885423024495455
20
2.5515624682108555
30
0
10
0.47864589691162124
20
2.4442709287007638
30
0
10
0.39322926203409836
20
2.3020833333333326
30
0
0
SPLINE
5
194
100
AcDbEntity
8
0
100
AcDbSpline
70
4
71
3
72
8
73
4
74
0
42
0.000000001
43
0.0000000001
44
0.0000000001
40
0
40
0
40
0
40
0
40
1
40
1
40
1
40
1
41
1
41
1
41
1
41
1
10
0.47968762715657559
20
1.5583333969116204
30
0
10
0.49114594459533673
20
1.5583333969116204
30
0
10
0.50312512715657554
20
1.5619792938232415
30
0
10
0.51354179382324217
20
1.569270769755045
30
0
0
SPLINE
5
195
100
AcDbEntity
8
0
100
AcDbSpline
70
4
71
3
72
8
73
4
74
0
42
0.000000001
43
0.0000000001
44
0.0000000001
40
0
40
0
40
0
40
0
40
1
40
1
40
1
40
1
41
1
41
1
41
1
41
1
10
1.5343751271565751
20
2.9192708333333326
30
0
10
1.3973960240681966
20
2.8880208333333326
30
0
10
1.2572917302449549
20
2.8645833333333326
30
0
10
1.1244792302449549
20
2.8171874682108555
30
0
0
SPLINE
5
196
100
AcDbEntity
8
0
100
AcDbSpline
70
4
71
3
72
8
73
4
74
0
42
0.000000001
43
0.0000000001
44
0.0000000001
40
0
40
0
40
0
40
0
40
1
40
1
40
1
40
1
41
1
41
1
41
1
41
1
10
0.91510432561238597
20
2.2296873728434239
30
0
10
1.0166668256123863
20
2.3203123410542799
30
0
10
1.1661460558573404
20
2.3692706425984693
30
0
10
1.2942710876464845
20
2.4078124364217115
30
0
0
SPLINE
5
197
100
AcDbEntity
8
0
100
AcDbSpline
70
4
71
3
72
8
73
4
74
0
42
0.000000001
43
0.0000000001
44
0.0000000001
40
0
40
0
40
0
40
0
40
1
40
1
40
1
40
1
41
1
41
1
41
1
41
1
10
2.4151044845581047
20
2.2020832697550445
30
0
10
2.4062502543131505
20
2.1718749999999991
30
0
10
2.4234376907348638
20
2.140104134877522
30
0
10
2.4536462783813482
20
2.1317707697550445
30
0
0
LINE
5
198
100
AcDbEntity
8
0
100
AcDbLine
10
2.4536462783813482
20
2.1317707697550445
30
0
11
2.5580557222736955
21
2.1011073378218321
31
0
0
SPLINE
5
199
100
AcDbEntity
8
0
100
AcDbSpline
70
4
71
3
72
8
73
4
74
0
42
0.000000001
43
0.0000000001
44
0.0000000001
40
0
40
0
40
0
40
0
40
1
40
1
40
1
40
1
41
1
41
1
41
1
41
1
10
0.29114589691162113
20
1.8124999999999991
30
0
10
0.32135424613952646
20
1.720833460489908
30
0
10
0.37812504768371591
20
1.6536458333333317
30
0
10
0.43489592870076521
20
1.5802084604899083
30
0
0
SPLINE
5
200
100
AcDbEntity
8
0
100
AcDbSpline
70
4
71
3
72
8
73
4
74
0
42
0.000000001
43
0.0000000001
44
0.0000000001
40
0
40
0
40
0
40
0
40
1
40
1
40
1
40
1
41
1
41
1
41
1
41
1
10
2.9484379450480138
20
1.9864581425984689
30
0
10
2.9536462783813482
20
1.9848957061767565
30
0
10
2.9593753178914382
20
1.9843746821085606
30
0
10
2.9645836512247716
20
1.9843746821085606
30
0
0
LINE
5
201
100
AcDbEntity
8
0
100
AcDbLine
10
2.8592579543663632
20
2.0126489206749314
30
0
11
2.9484379450480138
21
1.9864581425984689
31
0
0
SPLINE
5
202
100
AcDbEntity
8
0
100
AcDbSpline
70
4
71
3
72
8
73
4
74
0
42
0.000000001
43
0.0000000001
44
0.0000000001
40
0
40
0
40
0
40
0
40
1
40
1
40
1
40
1
41
1
41
1
41
1
41
1
10
1.1244792302449549
20
2.8171874682108555
30
0
10
0.99375003178914401
20
2.7703124682108555
30
0
10
0.86822924613952657
20
2.7078124682108555
30
0
10
0.74947923024495455
20
2.6359375317891427
30
0
0
SPLINE
5
203
100
AcDbEntity
8
0
100
AcDbSpline
70
4
71
3
72
8
73
4
74
0
42
0.000000001
43
0.0000000001
44
0.0000000001
40
0
40
0
40
0
40
0
40
1
40
1
40
1
40
1
41
1
41
1
41
1
41
1
10
0.93125011126200363
20
1.8708333969116204
30
0
10
0.95677099227905271
20
1.8890625635782863
30
0
10
0.96250019073486315
20
1.9250001907348622
30
0
10
0.94427102406819663
20
1.9505208333333328
30
0
0
SPLINE
5
204
100
AcDbEntity
8
0
100
AcDbSpline
70
4
71
3
72
8
73
4
74
0
42
0.000000001
43
0.0000000001
44
0.0000000001
40
0
40
0
40
0
40
0
40
1
40
1
40
1
40
1
41
1
41
1
41
1
41
1
10
0.39322926203409836
20
2.3020833333333326
30
0
10
0.31145844459533689
20
2.1651042302449537
30
0
10
0.23802091280619311
20
1.9718748728434241
30
0
10
0.29114589691162113
20
1.8124999999999991
30
0
0
SPLINE
5
205
100
AcDbEntity
8
0
100
AcDbSpline
70
4
71
3
72
8
73
4
74
0
42
0.000000001
43
0.0000000001
44
0.0000000001
40
0
40
0
40
0
40
0
40
1
40
1
40
1
40
1
41
1
41
1
41
1
41
1
10
1.9333336512247721
20
2.5171874364217106
30
0
10
1.9734378814697269
20
2.5187498728434234
30
0
10
2.0151045481363927
20
2.5208333333333326
30
0
10
2.057812786102295
20
2.5208333333333326
30
0
0
SPLINE
5
206
100
AcDbEntity
8
0
100
AcDbSpline
70
4
71
3
72
8
73
4
74
0
42
0.000000001
43
0.0000000001
44
0.0000000001
40
0
40
0
40
0
40
0
40
1
40
1
40
1
40
1
41
1
41
1
41
1
41
1
10
2.057812786102295
20
2.5208333333333326
30
0
10
2.1578128496805822
20
2.5208333333333326
30
0
10
2.2619795163472496
20
2.511979103088378
30
0
10
2.3500003178914386
20
2.475520769755045
30
0
0
SPLINE
5
207
100
AcDbEntity
8
0
100
AcDbSpline
70
0
71
2
72
6
73
3
74
0
42
0.000000001
43
0.0000000001
44
0.0000000001
40
0
40
0
40
0
40
1
40
1
40
1
10
2.445312754313151
20
2.3057290712992344
30
0
10
2.428125317891439
20
2.2479165395100904
30
0
10
2.4151044845581047
20
2.2020832697550445
30
0
0
LINE
5
208
100
AcDbEntity
8
0
100
AcDbLine
10
0.84244283744122539
20
1.8067193879586303
30
0
11
0.93125011126200363
21
1.8708333969116204
31
0
0
LINE
5
209
100
AcDbEntity
8
0
100
AcDbLine
10
0.51354179382324217
20
1.569270769755045
30
0
11
0.59623703633193748
21
1.6289722253956271
31
0
0
SPLINE
5
210
100
AcDbEntity
8
0
100
AcDbSpline
70
4
71
3
72
8
73
4
74
0
42
0.000000001
43
0.0000000001
44
0.0000000001
40
0
40
0
40
0
40
0
40
1
40
1
40
1
40
1
41
1
41
1
41
1
41
1
10
0.43489592870076521
20
1.5802084604899083
30
0
10
0.44583346048990885
20
1.5656251907348624
30
0
10
0.46250011126200358
20
1.5583333969116204
30
0
10
0.47968762715657559
20
1.5583333969116204
30
0
0
SPLINE
5
211
100
AcDbEntity
8
0
100
AcDbSpline
70
4
71
3
72
8
73
4
74
0
42
0.000000001
43
0.0000000001
44
0.0000000001
40
0
40
0
40
0
40
0
40
1
40
1
40
1
40
1
41
1
41
1
41
1
41
1
10
2.2494790712992345
20
2.0557292302449528
30
0
10
2.2468749046325689
20
2.1114584604899078
30
0
10
2.201041634877523
20
2.1557292938232417
30
0
10
2.1447915395100905
20
2.1557292938232417
30
0
0
LINE
5
212
100
AcDbEntity
8
0
100
AcDbLine
10
2.1447915395100905
20
2.1557292938232417
30
0
11
1.8007074809140451
21
2.1557292938232417
31
0
0
LINE
5
213
100
AcDbEntity
8
0
100
AcDbLine
10
1.5461672647728042
20
2.1557292938232417
30
0
11
1.2020832061767577
21
2.1557292938232417
31
0
0
SPLINE
5
214
100
AcDbEntity
8
0
100
AcDbSpline
70
4
71
3
72
8
73
4
74
0
42
0.000000001
43
0.0000000001
44
0.0000000001
40
0
40
0
40
0
40
0
40
1
40
1
40
1
40
1
41
1
41
1
41
1
41
1
10
2.1120861761843854
20
2.3873204834555741
30
0
10
2.1120860172386666
20
2.4039872137005291
30
0
10
2.0990651839053331
20
2.4170080470338626
30
0
10
2.0823986126060974
20
2.4170080470338626
30
0
0
LINE
5
215
100
AcDbEntity
8
0
100
AcDbLine
10
1.3341667302449549
20
2.2215000903488917
30
0
11
1.3341667302449549
21
2.337948117275761
31
0
0
SPLINE
5
216
100
AcDbEntity
8
0
100
AcDbSpline
70
4
71
3
72
8
73
4
74
0
42
0.000000001
43
0.0000000001
44
0.0000000001
40
0
40
0
40
0
40
0
40
1
40
1
40
1
40
1
41
1
41
1
41
1
41
1
10
3.5718751907348634
20
3.0536457697550445
30
0
10
3.7510416666666653
20
2.796354134877522
30
0
10
3.8161458333333322
20
2.4848958651224766
30
0
10
3.7562499999999996
20
2.1770833333333317
30
0
0
LINE
5
217
100
AcDbEntity
8
0
100
AcDbLine
10
1.2317707697550455
20
2.3060339464549768
30
0
11
1.2317707697550455
21
2.2215000903488917
31
0
0
SPLINE
5
218
100
AcDbEntity
8
0
100
AcDbSpline
70
4
71
3
72
8
73
4
74
0
42
0.000000001
43
0.0000000001
44
0.0000000001
40
0
40
0
40
0
40
0
40
1
40
1
40
1
40
1
41
1
41
1
41
1
41
1
10
2.3703129450480147
20
2.9135414759318028
30
0
10
2.2343754132588707
20
2.9416664441426583
30
0
10
2.0953130086263023
20
2.9588540395100904
30
0
10
1.9562504450480147
20
2.9593747456868482
30
0
0
SPLINE
5
219
100
AcDbEntity
8
0
100
AcDbSpline
70
4
71
3
72
8
73
4
74
0
42
0.000000001
43
0.0000000001
44
0.0000000001
40
0
40
0
40
0
40
0
40
1
40
1
40
1
40
1
41
1
41
1
41
1
41
1
10
1.1984376271565755
20
1.5567711512247711
30
0
10
1.1984376271565755
20
1.2947920481363924
30
0
10
1.4114584287007648
20
1.0817710876464837
30
0
10
1.6734376907348636
20
1.0817710876464837
30
0
0
LINE
5
220
100
AcDbEntity
8
0
100
AcDbLine
10
2.0823986126060974
20
2.4170080470338626
30
0
11
2.0393777792727645
21
2.4170080470338626
31
0
0
SPLINE
5
221
100
AcDbEntity
8
0
100
AcDbSpline
70
4
71
3
72
8
73
4
74
0
42
0.000000001
43
0.0000000001
44
0.0000000001
40
0
40
0
40
0
40
0
40
1
40
1
40
1
40
1
41
1
41
1
41
1
41
1
10
3.0765628178914386
20
2.2901039123535147
30
0
10
3.0734379450480147
20
2.4578123092651349
30
0
10
2.9401044209798184
20
2.6156247456868482
30
0
10
2.8171878814697267
20
2.7171872456868482
30
0
0
SPLINE
5
222
100
AcDbEntity
8
0
100
AcDbSpline
70
4
71
3
72
8
73
4
74
0
42
0.000000001
43
0.0000000001
44
0.0000000001
40
0
40
0
40
0
40
0
40
1
40
1
40
1
40
1
41
1
41
1
41
1
41
1
10
3.2848955154418946
20
2.8541665077209468
30
0
10
3.4093748092651373
20
2.6744790077209455
30
0
10
3.4546870549519864
20
2.4572916030883776
30
0
10
3.4124996821085607
20
2.2432289123535152
30
0
0
SPLINE
5
223
100
AcDbEntity
8
0
100
AcDbSpline
70
4
71
3
72
8
73
4
74
0
42
0.000000001
43
0.0000000001
44
0.0000000001
40
0
40
0
40
0
40
0
40
1
40
1
40
1
40
1
41
1
41
1
41
1
41
1
10
2.0393777792727645
20
2.4170080470338626
30
0
10
2.0227110490278095
20
2.4170080470338626
30
0
10
2.0096902156944774
20
2.4034663485780516
30
0
10
2.0096902156944774
20
2.3873204834555741
30
0
0
LINE
5
224
100
AcDbEntity
8
0
100
AcDbLine
10
2.0096902156944774
20
2.3873204834555741
30
0
11
2.0096902156944774
21
2.2215000903488917
31
0
0
SPLINE
5
225
100
AcDbEntity
8
0
100
AcDbSpline
70
0
71
2
72
6
73
3
74
0
42
0.000000001
43
0.0000000001
44
0.0000000001
40
0
40
0
40
0
40
1
40
1
40
1
10
1.6104169845581058
20
2.4817708333333326
30
0
10
1.9031253814697269
20
2.5161458651224766
30
0
10
1.9333336512247721
20
2.5171874364217106
30
0
0
SPLINE
5
226
100
AcDbEntity
8
0
100
AcDbSpline
70
4
71
3
72
8
73
4
74
0
42
0.000000001
43
0.0000000001
44
0.0000000001
40
0
40
0
40
0
40
0
40
1
40
1
40
1
40
1
41
1
41
1
41
1
41
1
10
2.7687498092651373
20
3.1869789759318028
30
0
10
2.979166603088379
20
3.148437341054279
30
0
10
3.1624996821085607
20
3.0302081108093253
30
0
10
3.2848955154418946
20
2.8541665077209468
30
0
0
SPLINE
5
227
100
AcDbEntity
8
0
100
AcDbSpline
70
4
71
3
72
8
73
4
74
0
42
0.000000001
43
0.0000000001
44
0.0000000001
40
0
40
0
40
0
40
0
40
1
40
1
40
1
40
1
41
1
41
1
41
1
41
1
10
2.8307294209798162
20
3.5312499205271402
30
0
10
3.1338544845581056
20
3.4760415554046622
30
0
10
3.396875317891439
20
3.3062499364217111
30
0
10
3.5718751907348634
20
3.0536457697550445
30
0
0
SPLINE
5
228
100
AcDbEntity
8
0
100
AcDbSpline
70
4
71
3
72
8
73
4
74
0
42
0.000000001
43
0.0000000001
44
0.0000000001
40
0
40
0
40
0
40
0
40
1
40
1
40
1
40
1
41
1
41
1
41
1
41
1
10
1.2020832061767577
20
2.1557292938232417
30
0
10
1.1463539759318031
20
2.1557292938232417
30
0
10
1.0999998410542806
20
2.1114584604899078
30
0
10
1.0979165395100914
20
2.0557292302449528
30
0
0
SPLINE
5
229
100
AcDbEntity
8
0
100
AcDbSpline
70
4
71
3
72
8
73
4
74
0
42
0.000000001
43
0.0000000001
44
0.0000000001
40
0
40
0
40
0
40
0
40
1
40
1
40
1
40
1
41
1
41
1
41
1
41
1
10
2.8171878814697267
20
2.7171872456868482
30
0
10
2.6890630086263014
20
2.8234372138977046
30
0
10
2.5307295481363936
20
2.8807288805643703
30
0
10
2.3703129450480147
20
2.9135414759318028
30
0
0
SPLINE
5
230
100
AcDbEntity
8
0
100
AcDbSpline
70
4
71
3
72
8
73
4
74
0
42
0.000000001
43
0.0000000001
44
0.0000000001
40
0
40
0
40
0
40
0
40
0.94050750784302706
40
0.94050750784302706
40
0.94050750784302706
40
0.94050750784302706
41
1
41
1
41
1
41
1
10
1.0979165395100914
20
2.0557292302449528
30
0
10
1.0802819938401058
20
1.608498376155038
30
0
10
0.9447069073744131
20
1.3275820597984178
30
0
10
0.77655075416362296
20
1.1341204588177787
30
0
0
SPLINE
5
231
100
AcDbEntity
8
0
100
AcDbSpline
70
4
71
3
72
8
73
4
74
0
42
0.000000001
43
0.0000000001
44
0.0000000001
40
0.13987963215605612
40
0.13987963215605612
40
0.13987963215605612
40
0.13987963215605612
40
1
40
1
40
1
40
1
41
1
41
1
41
1
41
1
10
2.5707697876716566
20
1.1341204603132002
30
0
10
2.4023281782200603
20
1.3275084201391458
30
0
10
2.2669502389285752
20
1.6081980154060922
30
0
10
2.2494790712992345
20
2.0557292302449528
30
0
0
SPLINE
5
232
100
AcDbEntity
8
0
100
AcDbSpline
70
4
71
3
72
8
73
4
74
0
42
0.000000001
43
0.0000000001
44
0.0000000001
40
0.3031958255753745
40
0.3031958255753745
40
0.3031958255753745
40
0.3031958255753745
40
1
40
1
40
1
40
1
41
1
41
1
41
1
41
1
10
2.1156543475844649
20
1.3835609850067139
30
0
10
2.1368051041675433
20
1.4373591885887282
30
0
10
2.1484377543131514
20
1.4958008302642329
30
0
10
2.1484377543131514
20
1.5567711512247711
30
0
0
SPLINE
5
233
100
AcDbEntity
8
0
100
AcDbSpline
70
4
71
3
72
8
73
4
74
0
42
0.000000001
43
0.0000000001
44
0.0000000001
40
0
40
0
40
0
40
0
40
0.74313210431019083
40
0.74313210431019083
40
0.74313210431019083
40
0.74313210431019083
41
1
41
1
41
1
41
1
10
1.6734376907348636
20
1.0817710876464837
30
0
10
1.7462026620348365
20
1.0817710876464837
30
0
10
1.8152285073946135
20
1.0981659058270976
30
0
10
1.8770952868510529
20
1.1275355369952544
30
0
0
SPLINE
5
234
100
AcDbEntity
8
0
100
AcDbSpline
70
4
71
3
72
8
73
4
74
0
42
0.000000001
43
0.0000000001
44
0.0000000001
40
0.56218033295131054
40
0.56218033295131054
40
0.56218033295131054
40
0.56218033295131054
40
1
40
1
40
1
40
1
41
1
41
1
41
1
41
1
10
1.3071682775357927
20
1.8591636703787302
30
0
10
1.2392707759523547
20
1.7770422481646859
30
0
10
1.1984376271565755
20
1.6716988694967017
30
0
10
1.1984376271565755
20
1.5567711512247711
30
0
0
SPLINE
5
235
100
AcDbEntity
8
0
100
AcDbSpline
70
4
71
3
72
8
73
4
74
0
42
0.000000001
43
0.0000000001
44
0.0000000001
40
0
40
0
40
0
40
0
40
0.21495029563661372
40
0.21495029563661372
40
0.21495029563661372
40
0.21495029563661372
41
1
41
1
41
1
41
1
10
1.6734376907348636
20
2.0317712148030589
30
0
10
1.6171252050754015
20
2.0317712148030589
30
0
10
1.5630747633021824
20
2.0219529464518247
30
0
10
1.5129157526399668
20
2.0039302733477751
30
0
0
SPLINE
5
236
100
AcDbEntity
8
0
100
AcDbSpline
70
4
71
3
72
8
73
4
74
0
42
0.000000001
43
0.0000000001
44
0.0000000001
40
0.94050750784402704
40
0.94050750784402704
40
0.94050750784402704
40
0.94050750784402704
40
0.95844352514259068
40
0.95844352514259068
40
0.95844352514259068
40
0.95844352514259068
41
1
41
1
41
1
41
1
10
0.7765507541630865
20
1.1341204588171616
30
0
10
0.77334391992976192
20
1.1304310351891129
30
0
10
0.77012523639373132
20
1.1267734176834254
30
0
10
0.76689529558398351
20
1.1231470593508424
30
0
0
SPLINE
5
237
100
AcDbEntity
8
0
100
AcDbSpline
70
4
71
3
72
8
73
4
74
0
42
0.000000001
43
0.0000000001
44
0.0000000001
40
0.12347054457625282
40
0.12347054457625282
40
0.12347054457625282
40
0.12347054457625282
40
0.13987963215505611
40
0.13987963215505611
40
0.13987963215505611
40
0.13987963215505611
41
1
41
1
41
1
41
1
10
2.5804457172622706
20
1.1231470585321175
30
0
10
2.5772087663718648
20
1.1267734532486364
30
0
10
2.5739832601404471
20
1.1304310697480151
30
0
10
2.5707697876722442
20
1.1341204603125257
30
0
0
ENDSEC
0
SECTION
2
OBJECTS
0
DICTIONARY
5
C
100
AcDbDictionary
3
ACAD_GROUP
350
D
3
ACAD_MLINESTYLE
350
17
0
DICTIONARY
5
D
100
AcDbDictionary
0
DICTIONARY
5
1A
330
C
100
AcDbDictionary
0
DICTIONARY
5
17
100
AcDbDictionary
0
ENDSEC
0
EOF
