0
SECTION
2
HEADER
9
$INSUNITS
70
1
9
$ACADVER
1
AC1014
9
$HANDSEED
5
FFFF
0
ENDSEC
0
SECTION
2
TABLES
0
TABLE
2
VPORT
5
8
100
AcDbSymbolTable
0
ENDTAB
0
TABLE
2
LTYPE
5
5
100
AcDbSymbolTable
0
LTYPE
5
14
100
AcDbSymbolTableRecord
100
AcDbLinetypeTableRecord
2
BYBLOCK
70
0
0
LTYPE
5
15
100
AcDbSymbolTableRecord
100
AcDbLinetypeTableRecord
2
BYLAYER
70
0
0
ENDTAB
0
TABLE
2
LAYER
5
2
100
AcDbSymbolTable
70
2
0
LAYER
5
50
100
AcDbSymbolTableRecord
100
AcDbLayerTableRecord
2
0
70
0
6
CONTINUOUS
0
ENDTAB
0
TABLE
2
STYLE
5
3
100
AcDbSymbolTable
70
1
0
STYLE
5
11
100
AcDbSymbolTableRecord
100
AcDbTextStyleTableRecord
2
STANDARD
70
0
0
ENDTAB
0
TABLE
2
VIEW
5
6
100
AcDbSymbolTable
70
0
0
ENDTAB
0
TABLE
2
UCS
5
7
100
AcDbSymbolTable
70
0
0
ENDTAB
0
TABLE
2
APPID
5
9
100
AcDbSymbolTable
70
2
0
APPID
5
12
100
AcDbSymbolTableRecord
100
AcDbRegAppTableRecord
2
ACAD
70
0
0
ENDTAB
0
TABLE
2
DIMSTYLE
5
A
100
AcDbSymbolTable
70
1
0
ENDTAB
0
TABLE
2
BLOCK_RECORD
5
1
100
AcDbSymbolTable
70
1
0
BLOCK_RECORD
5
1F
100
AcDbSymbolTableRecord
100
AcDbBlockTableRecord
2
*MODEL_SPACE
0
BLOCK_RECORD
5
1B
100
AcDbSymbolTableRecord
100
AcDbBlockTableRecord
2
*PAPER_SPACE
0
ENDTAB
0
ENDSEC
0
SECTION
2
BLOCKS
0
BLOCK
5
20
100
AcDbEntity
100
AcDbBlockBegin
2
*MODEL_SPACE
0
ENDBLK
5
21
100
AcDbEntity
100
AcDbBlockEnd
0
BLOCK
5
1C
100
AcDbEntity
100
AcDbBlockBegin
2
*PAPER_SPACE
0
ENDBLK
5
1D
100
AcDbEntity
100
AcDbBlockEnd
0
ENDSEC
0
SECTION
2
ENTITIES
0
SPLINE
5
100
100
AcDbEntity
8
0
100
AcDbSpline
70
4
71
3
72
8
73
4
74
0
42
0.000000001
43
0.0000000001
44
0.0000000001
40
-1
40
-1
40
-1
40
-1
40
0
40
0
40
0
40
0
41
1
41
1
41
1
41
1
10
0.55240136091649084
20
-6.8193551497755873
30
0
10
0.32021451683240426
20
-6.960488329512974
30
0
10
0.23826621892037289
20
-6.9149614973396236
30
0
10
0.45224233013511927
20
-6.7601702679502322
30
0
0
SPLINE
5
101
100
AcDbEntity
8
0
100
AcDbSpline
70
4
71
3
72
8
73
4
74
0
42
0.000000001
43
0.0000000001
44
0.0000000001
40
-1
40
-1
40
-1
40
-1
40
0
40
0
40
0
40
0
41
1
41
1
41
1
41
1
10
0.45224233013511927
20
-6.7601702679502322
30
0
10
0.6616657581325317
20
-6.6099317217781763
30
0
10
0.77093015534857112
20
-6.4323770763021084
30
0
10
0.86198381969527194
20
-6.0954785182193163
30
0
0
SPLINE
5
102
100
AcDbEntity
8
0
100
AcDbSpline
70
4
71
3
72
8
73
4
74
0
42
0.000000001
43
0.0000000001
44
0.0000000001
40
-1
40
-1
40
-1
40
-1
40
0
40
0
40
0
40
0
41
1
41
1
41
1
41
1
10
0.86198381969527194
20
-6.0954785182193163
30
0
10
0.96669553369397876
20
-5.6857370286591635
30
0
10
1.0440911483886735
20
-5.6584209293551515
30
0
10
1.0122223658673284
20
-6.0362936363939603
30
0
0
SPLINE
5
103
100
AcDbEntity
8
0
100
AcDbSpline
70
4
71
3
72
8
73
4
74
0
42
0.000000001
43
0.0000000001
44
0.0000000001
40
-1
40
-1
40
-1
40
-1
40
0
40
0
40
0
40
0
41
1
41
1
41
1
41
1
10
1.0122223658673284
20
-6.0362936363939603
30
0
10
0.98490626656331892
20
-6.4005082937807636
30
0
10
0.84377308682593311
20
-6.6463531875168576
30
0
10
0.55240136091649084
20
-6.8193551497755873
30
0
0
SPLINE
5
104
100
AcDbEntity
8
0
100
AcDbSpline
70
0
71
3
72
17
73
13
74
0
42
0.000000001
43
0.0000000001
44
0.0000000001
40
-1
40
-1
40
-1
40
-1
40
-0.83480090425682474
40
-0.83480090425682474
40
-0.83480090425682474
40
-0.44038979974213632
40
-0.44038979974213632
40
-0.44038979974213632
40
-0.22216327602447586
40
-0.22216327602447586
40
-0.22216327602447586
40
0
40
0
40
0
40
0
10
4.030124506787109
20
0.63793996021920252
30
0
10
4.030124506787109
20
0.62599457986005103
30
0
10
4.0295672671420659
20
0.61474983386373938
30
0
10
4.0284087972574998
20
0.60413869127137032
30
0
10
4.0256429625859296
20
0.57880469987637184
30
0
10
4.0208276647393575
20
0.55691812774021554
30
0
10
4.005839437998084
20
0.53657612988371384
30
0
10
3.997546495479479
20
0.52532096128708239
30
0
10
3.9844057960873482
20
0.51424998727605564
30
0
10
3.967613162217678
20
0.50991100060186467
30
0
10
3.9505175934022563
20
0.50549373968535039
30
0
10
3.9326952164228937
20
0.50913136190885799
30
0
10
3.9194730628162597
20
0.51574243871217496
30
0
0
SPLINE
5
105
100
AcDbEntity
8
0
100
AcDbSpline
70
0
71
3
72
14
73
10
74
0
42
0.000000001
43
0.0000000001
44
0.0000000001
40
-1
40
-1
40
-1
40
-1
40
-0.9617161486884227
40
-0.9617161486884227
40
-0.9617161486884227
40
-0.54736992968792231
40
-0.54736992968792231
40
-0.54736992968792231
40
-0.00012501150583536498
40
-0.00012501150583536498
40
-0.00012501150583536498
40
-0.00012501150583536498
10
3.919473062816258
20
0.51574243871217618
30
0
10
3.9171945810988769
20
0.5168816795708665
30
0
10
3.915001712388483
20
0.51810897205790329
30
0
10
3.9128949104173891
20
0.51940710581542737
30
0
10
3.8900929873872041
20
0.53345681073694673
30
0
10
3.877229574813521
20
0.55386179090588328
30
0
10
3.8677470239958023
20
0.57544512975722462
30
0
10
3.8552230102400649
20
0.60395117605901139
30
0
10
3.8490738777815907
20
0.63641058347575341
30
0
10
3.8490708434801495
20
0.66978587003591805
30
0
0
LINE
5
106
100
AcDbEntity
8
0
100
AcDbLine
10
3.8490708434801486
20
0.66978587003591794
30
0
11
3.8490704846234234
21
0.6698087343387964
31
0
0
SPLINE
5
107
100
AcDbEntity
8
0
100
AcDbSpline
70
0
71
3
72
20
73
16
74
0
42
0.000000001
43
0.0000000001
44
0.0000000001
40
-0.99642005303503378
40
-0.99642005303503378
40
-0.99642005303503378
40
-0.99642005303503378
40
-0.95842001873832494
40
-0.95842001873832494
40
-0.95842001873832494
40
-0.875
40
-0.875
40
-0.875
40
-0.75
40
-0.75
40
-0.75
40
-0.5
40
-0.5
40
-0.5
40
-0.00010348579258798834
40
-0.00010348579258798834
40
-0.00010348579258798834
40
-0.00010348579258798834
10
3.8490704846234234
20
0.66980873433879629
30
0
10
3.8490629720629195
20
0.67012868208128262
30
0
10
3.8488147244063295
20
0.67341294993095269
30
0
10
3.8480189629012305
20
0.67808020772874278
30
0
10
3.8462720581708743
20
0.68832605987477546
30
0
10
3.8421656096749572
20
0.70558111633804654
30
0
10
3.8360437267175924
20
0.72729065085912181
30
0
10
3.8268704445576947
20
0.759821113644641
30
0
10
3.8132033282031257
20
0.80286121058751481
30
0
10
3.7960340644980155
20
0.8535581329857661
30
0
10
3.7616955370877947
20
0.95495197778226859
30
0
10
3.7133255157596503
20
1.0871795289832378
30
0
10
3.6579803877332027
20
1.2319283253600997
30
0
10
3.5473130414180667
20
1.5213660003381468
30
0
10
3.4086155172872012
20
1.8612507474575346
30
0
10
3.2976688787340311
20
2.1080633505571611
30
0
0
SPLINE
5
108
100
AcDbEntity
8
0
100
AcDbSpline
70
0
71
3
72
14
73
10
74
0
42
0.000000001
43
0.0000000001
44
0.0000000001
40
-0.99993807485660591
40
-0.99993807485660591
40
-0.99993807485660591
40
-0.99993807485660591
40
-0.46655507063688362
40
-0.46655507063688362
40
-0.46655507063688362
40
0
40
0
40
0
40
5.4899815783674978e-05
40
5.4899815783674978e-05
40
5.4899815783674978e-05
40
5.4899815783674978e-05
10
3.2976688787340533
20
2.1080633505571709
30
0
10
3.0959511278585787
20
2.5479579487001875
30
0
10
2.9902716323329375
20
2.7951569222382382
30
0
10
2.9387581723432894
20
3.014532689457484
30
0
10
2.8936988701643998
20
3.2064227117515456
30
0
10
2.8914856691513822
20
3.3743689583819712
30
0
10
2.9021544779885047
20
3.6218853234032236
30
0
10
2.9021557276958543
20
3.62191431661374
30
0
10
2.9021569774032043
20
3.6219433098242559
30
0
10
2.9021582271105553
20
3.6219723030348088
30
0
0
SPLINE
5
109
100
AcDbEntity
8
0
100
AcDbSpline
70
0
71
3
72
17
73
13
74
0
42
0.000000001
43
0.0000000001
44
0.0000000001
40
-1.0000427160834875
40
-1.0000427160834875
40
-1.0000427160834875
40
-1.0000427160834875
40
-1
40
-1
40
-1
40
-0.58058410843364039
40
-0.58058410843364039
40
-0.58058410843364039
40
0
40
0
40
0
40
1.791452554293664e-06
40
1.791452554293664e-06
40
1.791452554293664e-06
40
1.791452554293664e-06
10
2.9021582271785156
20
3.6219723030315154
30
0
10
2.902159588488094
20
3.6220012794782477
30
0
10
2.9021609497976693
20
3.6220302559249156
30
0
10
2.9021623111072445
20
3.6220592323715848
30
0
10
2.9155806526131145
20
3.9076782158536663
30
0
10
2.9359690606972326
20
4.1101342288719911
30
0
10
3.0176478173783279
20
4.3656519408304648
30
0
10
3.1307131281574705
20
4.7193570005800733
30
0
10
3.3585911995062552
20
5.1723760686864013
30
0
10
3.8450370271339374
20
6.1082555414048763
30
0
10
3.845038527822477
20
6.1082584285991324
30
0
10
3.8450400285109971
20
6.1082613157933485
30
0
10
3.8450415292001945
20
6.108264202988873
30
0
0
SPLINE
5
110
100
AcDbEntity
8
0
100
AcDbSpline
70
0
71
3
72
11
73
7
74
0
42
0.000000001
43
0.0000000001
44
0.0000000001
40
-1.0000051547228934
40
-1.0000051547228934
40
-1.0000051547228934
40
-1.0000051547228934
40
-1
40
-1
40
-1
40
0
40
0
40
0
40
0
10
3.8450415292003544
20
6.1082642029891749
30
0
10
3.8450430311400048
20
6.1082670895294422
30
0
10
3.8450445330805221
20
6.108269976071373
30
0
10
3.8450460350210425
20
6.1082728626133109
30
0
10
4.1343808074484478
20
6.6643381283722283
30
0
10
4.2588123320005611
20
7.101800102206111
30
0
10
4.2588123320005611
20
7.5625711337857924
30
0
0
SPLINE
5
111
100
AcDbEntity
8
0
100
AcDbSpline
70
0
71
3
72
14
73
10
74
0
42
0.000000001
43
0.0000000001
44
0.0000000001
40
-1
40
-1
40
-1
40
-1
40
-0.40478484640809353
40
-0.40478484640809353
40
-0.40478484640809353
40
-0.13390536938001335
40
-0.13390536938001335
40
-0.13390536938001335
40
-0.001215516717682621
40
-0.001215516717682621
40
-0.001215516717682621
40
-0.001215516717682621
10
4.2588123320005611
20
7.5625711337857924
30
0
10
4.2588123320005611
20
7.6462467756140002
30
0
10
4.2651876633831138
20
7.7242717909416241
30
0
10
4.2761175567403225
20
7.7803822194567021
30
0
10
4.2810916972317177
20
7.8059177983818433
30
0
10
4.2861555251004377
20
7.8263230408578845
30
0
10
4.2959443431599666
20
7.8452606696257901
30
0
10
4.300739379093689
20
7.8545372349771281
30
0
10
4.306051181611819
20
7.8647856438552566
30
0
10
4.3212145005100329
20
7.8740650011801669
30
0
0
SPLINE
5
112
100
AcDbEntity
8
0
100
AcDbSpline
70
0
71
3
72
23
73
19
74
0
42
0.000000001
43
0.0000000001
44
0.0000000001
40
-0.99943632519408265
40
-0.99943632519408265
40
-0.99943632519408265
40
-0.99943632519408265
40
-0.94455470583489531
40
-0.94455470583489531
40
-0.94455470583489531
40
-0.86747465807746282
40
-0.86747465807746282
40
-0.86747465807746282
40
-0.75
40
-0.75
40
-0.75
40
-0.5
40
-0.5
40
-0.5
40
0
40
0
40
0
40
1.9985444763505863e-05
40
1.9985444763505863e-05
40
1.9985444763505863e-05
40
1.9985444763505863e-05
10
4.3212145005101643
20
7.8740650011799431
30
0
10
4.3302630605982921
20
7.8796694873513484
30
0
10
4.3416450076020521
20
7.8840795277603002
30
0
10
4.3542325769945762
20
7.8847085062337436
30
0
10
4.3719115460420408
20
7.8855918929001252
30
0
10
4.389229174983055
20
7.8779228398156231
30
0
10
4.4003363720426929
20
7.8685331896671036
30
0
10
4.417264412628322
20
7.8542227945291101
30
0
10
4.4252444444085377
20
7.8376318399599869
30
0
10
4.4323939934192111
20
7.8192532933854926
30
0
10
4.447609081353237
20
7.7801415673433212
30
0
10
4.4560162538983503
20
7.7288464598045268
30
0
10
4.4613314147631851
20
7.6659503895706509
30
0
10
4.4719617364928546
20
7.5401582491028982
30
0
10
4.4672249075219872
20
7.3707852926840882
30
0
10
4.4439788722944265
20
7.2057384425684088
30
0
10
4.4439779624203997
20
7.2057319824628188
30
0
10
4.4439770525463826
20
7.2057255223572962
30
0
10
4.4439761426721587
20
7.2057190622503056
30
0
0
SPLINE
5
113
100
AcDbEntity
8
0
100
AcDbSpline
70
0
71
3
72
14
73
10
74
0
42
0.000000001
43
0.0000000001
44
0.0000000001
40
-1.000011171588356
40
-1.000011171588356
40
-1.000011171588356
40
-1.000011171588356
40
-1
40
-1
40
-1
40
0
40
0
40
0
40
4.4193121358244568e-05
40
4.4193121358244568e-05
40
4.4193121358244568e-05
40
4.4193121358244568e-05
10
4.4439761426722528
20
7.2057190622510037
30
0
10
4.4439752271797177
20
7.2057126029425538
30
0
10
4.44397431168706
20
7.2057061436332521
30
0
10
4.4439733961944015
20
7.205699684323938
30
0
10
4.3609064172705709
20
6.6196159996946911
30
0
10
4.1206259277205941
20
6.0480457630972602
30
0
10
3.6766803547374636
20
5.3752622658960192
30
0
10
3.6766608386011108
20
5.3752326898955678
30
0
10
3.6766413224647594
20
5.3752031138951173
30
0
10
3.6766218063284564
20
5.3751735378947396
30
0
0
SPLINE
5
114
100
AcDbEntity
8
0
100
AcDbSpline
70
0
71
3
72
20
73
16
74
0
42
0.000000001
43
0.0000000001
44
0.0000000001
40
-1.0001027839559875
40
-1.0001027839559875
40
-1.0001027839559875
40
-1.0001027839559875
40
-1
40
-1
40
-1
40
-0.80887014530583445
40
-0.80887014530583445
40
-0.80887014530583445
40
-0.3979936005121375
40
-0.3979936005121375
40
-0.3979936005121375
40
0
40
0
40
0
40
0.00012845226336520967
40
0.00012845226336520967
40
0.00012845226336520967
40
0.00012845226336520967
10
3.6766218063062714
20
5.3751735379086512
30
0
10
3.6766021527093238
20
5.3751440575132294
30
0
10
3.6765824991120861
20
5.3751145771173716
30
0
10
3.676562845514848
20
5.3750850967215147
30
0
10
3.6419270768063892
20
5.3231314436588271
30
0
10
3.6013054869185273
20
5.2490049003597337
30
0
10
3.5587250164595532
20
5.1613112565728958
30
0
10
3.4671887328901003
20
4.9727940758469424
30
0
10
3.3659664757067747
20
4.7211230190587568
30
0
10
3.2831719966416668
20
4.4801131903057598
30
0
10
3.2029735203762608
20
4.2466601720703654
30
0
10
3.1400017993521336
20
4.021963296976323
30
0
10
3.1191247954029389
20
3.8775640196610577
30
0
10
3.1191177777733756
20
3.8775154810565788
30
0
10
3.1191107601438124
20
3.8774669424520996
30
0
10
3.1191037425142447
20
3.8774184038475874
30
0
0
SPLINE
5
115
100
AcDbEntity
8
0
100
AcDbSpline
70
0
71
3
72
17
73
13
74
0
42
0.000000001
43
0.0000000001
44
0.0000000001
40
-1.000089506460091
40
-1.000089506460091
40
-1.000089506460091
40
-1.000089506460091
40
-1
40
-1
40
-1
40
-0.57467852691340859
40
-0.57467852691340859
40
-0.57467852691340859
40
0
40
0
40
0
40
2.3831163232307251e-06
40
2.3831163232307251e-06
40
2.3831163232307251e-06
40
2.3831163232307251e-06
10
3.1191037425159536
20
3.8774184038473298
30
0
10
3.1190964076139021
20
3.8773699119948755
30
0
10
3.1190890727118448
20
3.8773214201423833
30
0
10
3.1190817378097866
20
3.8772729282898895
30
0
10
3.0845867667047213
20
3.6492228415397365
30
0
10
3.0764964457348758
20
3.474832506887723
30
0
10
3.1120123742729082
20
3.2665662915613769
30
0
10
3.1600001735864001
20
2.9851647414327083
30
0
10
3.2897639590875922
20
2.639414069447398
30
0
10
3.5485092598112962
20
2.0304478566330246
30
0
10
3.5485103339189568
20
2.0304453286826725
30
0
10
3.5485114080266511
20
2.0304428007322413
30
0
10
3.5485124821338139
20
2.0304402727830571
30
0
0
SPLINE
5
116
100
AcDbEntity
8
0
100
AcDbSpline
70
0
71
3
72
17
73
13
74
0
42
0.000000001
43
0.0000000001
44
0.0000000001
40
-1.0000039953394433
40
-1.0000039953394433
40
-1.0000039953394433
40
-1.0000039953394433
40
-1
40
-1
40
-1
40
-0.63174770961813875
40
-0.63174770961813875
40
-0.63174770961813875
40
-0.16276688465248187
40
-0.16276688465248187
40
-0.16276688465248187
40
0
40
0
40
0
40
0
10
3.5485124821354419
20
2.0304402727792215
30
0
10
3.5485135553157874
20
2.0304377444390882
30
0
10
3.5485146284972253
20
2.0304352160963774
30
0
10
3.5485157016786846
20
2.030432687753617
30
0
10
3.6477063853947027
20
1.7967461617107943
30
0
10
3.7388295470364858
20
1.5668283405403174
30
0
10
3.8144600507149051
20
1.3625234026823476
30
0
10
3.9107778657945969
20
1.1023346657655129
30
0
10
3.9818542978115832
20
0.8846623184441742
30
0
10
4.0129700310178515
20
0.75013878543480939
30
0
10
4.0237692165880361
20
0.70345035977906312
30
0
10
4.030124506787109
20
0.66765801883607478
30
0
10
4.030124506787109
20
0.63793996021920252
30
0
0
SPLINE
5
117
100
AcDbEntity
8
0
100
AcDbSpline
70
0
71
3
72
14
73
10
74
0
42
0.000000001
43
0.0000000001
44
0.0000000001
40
-1.0013642066598396
40
-1.0013642066598396
40
-1.0013642066598396
40
-1.0013642066598396
40
-1
40
-1
40
-1
40
-0.80167129666963977
40
-0.80167129666963977
40
-0.80167129666963977
40
-0.0048929030321000514
40
-0.0048929030321000514
40
-0.0048929030321000514
40
-0.0048929030321000514
10
0.31655422319808296
20
-11.230703159239132
30
0
10
0.31660390960427287
20
-11.230684526836811
30
0
10
0.3166535960103965
20
-11.230665894434512
30
0
10
0.3167032824165209
20
-11.230647262032218
30
0
10
0.32465594110375806
20
-11.227665015024503
30
0
10
0.33278261494838168
20
-11.225675373799556
30
0
10
0.34083673077141557
20
-11.224589056263579
30
0
10
0.37319384983631521
20
-11.220224814846372
30
0
10
0.40532143089329253
20
-11.229471082673113
30
0
10
0.41958253798922041
20
-11.25264750516971
30
0
0
SPLINE
5
118
100
AcDbEntity
8
0
100
AcDbSpline
70
0
71
3
72
11
73
7
74
0
42
0.000000001
43
0.0000000001
44
0.0000000001
40
-0.99458351860478966
40
-0.99458351860478966
40
-0.99458351860478966
40
-0.99458351860478966
40
-0.72035894651662413
40
-0.72035894651662413
40
-0.72035894651662413
40
-0.0041985004988711579
40
-0.0041985004988711579
40
-0.0041985004988711579
40
-0.0041985004988711579
10
0.41958253798923484
20
-11.252647505169699
30
0
10
0.42481740500137782
20
-11.259865728884046
30
0
10
0.42655245841548778
20
-11.268663871551272
30
0
10
0.42569433555704678
20
-11.276937968076268
30
0
10
0.42345327581407971
20
-11.2985464643996
30
0
10
0.4063080623872849
20
-11.318790762408105
30
0
10
0.38297275381963602
20
-11.326754346038133
30
0
0
SPLINE
5
119
100
AcDbEntity
8
0
100
AcDbSpline
70
0
71
3
72
14
73
10
74
0
42
0.000000001
43
0.0000000001
44
0.0000000001
40
-0.99873218033824984
40
-0.99873218033824984
40
-0.99873218033824984
40
-0.99873218033824984
40
-0.65739715160628709
40
-0.65739715160628709
40
-0.65739715160628709
40
0
40
0
40
0
40
4.1085997078330196e-05
40
4.1085997078330196e-05
40
4.1085997078330196e-05
40
4.1085997078330196e-05
10
0.3829727538196378
20
-11.32675434603814
30
0
10
0.35016856073355396
20
-11.340802407459259
30
0
10
0.32515263273789696
20
-11.350044812746983
30
0
10
0.29568668345295257
20
-11.351462940685007
30
0
10
0.23893648350641006
20
-11.354194196456014
30
0
10
0.17009255627952211
20
-11.328893866391628
30
0
10
-0.0065198160908621818
20
-11.263038405507753
30
0
10
-0.006530852131094775
20
-11.263034290374108
30
0
10
-0.0065418881713219358
20
-11.263030175240464
30
0
10
-0.0065529242115246605
20
-11.26302606010683
30
0
0
SPLINE
5
120
100
AcDbEntity
8
0
100
AcDbSpline
70
0
71
3
72
11
73
7
74
0
42
0.000000001
43
0.0000000001
44
0.0000000001
40
-1.0000575635802702
40
-1.0000575635802702
40
-1.0000575635802702
40
-1.0000575635802702
40
-1
40
-1
40
-1
40
-2.2141200445247264e-05
40
-2.2141200445247264e-05
40
-2.2141200445247264e-05
40
-2.2141200445247264e-05
10
-0.0065529242125076355
20
-11.263026060108931
30
0
10
-0.006563931099672478
20
-11.263021867009058
30
0
10
-0.0065749379869895546
20
-11.263017673909129
30
0
10
-0.0065859448743041107
20
-11.2630134808092
30
0
10
-0.19702956201032013
20
-11.190463531424054
30
0
10
-0.31259729258895619
20
-11.17271087624596
30
0
10
-0.47511856693212307
20
-11.195281778599371
30
0
0
SPLINE
5
121
100
AcDbEntity
8
0
100
AcDbSpline
70
0
71
3
72
20
73
16
74
0
42
0.000000001
43
0.0000000001
44
0.0000000001
40
-1
40
-1
40
-1
40
-1
40
-0.55614637544048151
40
-0.55614637544048151
40
-0.55614637544048151
40
-0.35573973451566809
40
-0.35573973451566809
40
-0.35573973451566809
40
-0.21746041722745507
40
-0.21746041722745507
40
-0.21746041722745507
40
0
40
0
40
0
40
0.00014782804518866967
40
0.00014782804518866967
40
0.00014782804518866967
40
0.00014782804518866967
10
-0.47511856775588268
20
-11.195281772666629
30
0
10
-0.57738953388280667
20
-11.209599707924399
30
0
10
-0.66307497055055675
20
-11.202545680622338
30
0
10
-0.71269000265573479
20
-11.184581864557973
30
0
10
-0.73509194188388272
20
-11.176470929248561
30
0
10
-0.75141306960704513
20
-11.166590470360012
30
0
10
-0.75691722362308922
20
-11.150715604819057
30
0
10
-0.76071505515240112
20
-11.139762047796617
30
0
10
-0.7566361224654965
20
-11.12730497333018
30
0
10
-0.74753467571234633
20
-11.117943056112818
30
0
10
-0.73322158502656942
20
-11.103220345124214
30
0
10
-0.7071626176579926
20
-11.091222579574158
30
0
10
-0.66575634377282955
20
-11.080113579263504
30
0
10
-0.66572875018815414
20
-11.080106176106641
30
0
10
-0.66570115660347873
20
-11.080098772949777
30
0
10
-0.66567356301881342
20
-11.080091369792912
30
0
0
SPLINE
5
122
100
AcDbEntity
8
0
100
AcDbSpline
70
0
71
3
72
14
73
10
74
0
42
0.000000001
43
0.0000000001
44
0.0000000001
40
-1.0005073238687514
40
-1.0005073238687514
40
-1.0005073238687514
40
-1.0005073238687514
40
-1
40
-1
40
-1
40
-0.93570465807376191
40
-0.93570465807376191
40
-0.93570465807376191
40
0
40
0
40
0
40
0
10
-0.66567356301724512
20
-11.080091369798131
30
0
10
-0.66564584679904326
20
-11.080084440743581
30
0
10
-0.66561813058068631
20
-11.080077511688991
30
0
10
-0.66559041436232902
20
-11.0800705826344
30
0
10
-0.66229796780357586
20
-11.079247470994712
30
0
10
-0.65905871076669564
20
-11.07831857033721
30
0
10
-0.65588005084236689
20
-11.077290942555837
30
0
10
-0.60962029378191052
20
-11.062335642949558
30
0
10
-0.57755871054792762
20
-11.026267331056742
30
0
10
-0.57755871054792762
20
-10.994165660071817
30
0
0
SPLINE
5
123
100
AcDbEntity
8
0
100
AcDbSpline
70
0
71
3
72
17
73
13
74
0
42
0.000000001
43
0.0000000001
44
0.0000000001
40
-1
40
-1
40
-1
40
-1
40
-0.69427557817901864
40
-0.69427557817901864
40
-0.69427557817901864
40
-0.54290114738109685
40
-0.54290114738109685
40
-0.54290114738109685
40
-0.34137853088384623
40
-0.34137853088384623
40
-0.34137853088384623
40
-0.00031961072444513096
40
-0.00031961072444513096
40
-0.00031961072444513096
40
-0.00031961072444513096
10
-0.57755871054792762
20
-10.994165660071817
30
0
10
-0.57755871054792762
20
-10.975601051030875
30
0
10
-0.57724826807461327
20
-10.96311467493703
30
0
10
-0.57170654212801186
20
-10.953058641341105
30
0
10
-0.56896264746036229
20
-10.94807956131668
30
0
10
-0.56277151893275268
20
-10.943379973415674
30
0
10
-0.55636946201243676
20
-10.943392320593428
30
0
10
-0.54784649512334105
20
-10.943408758214728
30
0
10
-0.54203268398269899
20
-10.947993753700631
30
0
10
-0.53530599206897023
20
-10.954023354324242
30
0
10
-0.52392167044682314
20
-10.964227911576554
30
0
10
-0.51006778188362212
20
-10.981313636056573
30
0
10
-0.4913211783555555
20
-11.006306109065175
30
0
0
SPLINE
5
124
100
AcDbEntity
8
0
100
AcDbSpline
70
0
71
3
72
11
73
7
74
0
42
0.000000001
43
0.0000000001
44
0.0000000001
40
-0.99971875751360928
40
-0.99971875751360928
40
-0.99971875751360928
40
-0.99971875751360928
40
-0.77027157095113563
40
-0.77027157095113563
40
-0.77027157095113563
40
-0.63803616048156497
40
-0.63803616048156497
40
-0.63803616048156497
40
-0.63803616048156497
10
-0.49132117835551331
20
-11.006306109065143
30
0
10
-0.47670506298922727
20
-11.025098255799747
30
0
10
-0.46546234236362566
20
-11.039535976942679
30
0
10
-0.45701972204307673
20
-11.049362814693879
30
0
10
-0.45215405609069614
20
-11.055026235296745
30
0
10
-0.44814849003822665
20
-11.059185813210084
30
0
10
-0.44538331701015815
20
-11.061542643360641
30
0
0
SPLINE
5
125
100
AcDbEntity
8
0
100
AcDbSpline
70
0
71
3
72
11
73
7
74
0
42
0.000000001
43
0.0000000001
44
0.0000000001
40
-0.2987373321506539
40
-0.2987373321506539
40
-0.2987373321506539
40
-0.2987373321506539
40
-0.27427532421590112
40
-0.27427532421590112
40
-0.27427532421590112
40
-0.001123106641756707
40
-0.001123106641756707
40
-0.001123106641756707
40
-0.001123106641756707
10
-0.44538331701016032
20
-11.061542643360642
30
0
10
-0.44522777082002607
20
-11.060895381336296
30
0
10
-0.44507359282122139
20
-11.060182418753058
30
0
10
-0.44492205569756854
20
-11.059402976904794
30
0
10
-0.44322993371473779
20
-11.05069942853331
30
0
10
-0.4422189705574146
20
-11.034432021425724
30
0
10
-0.44097813929253044
20
-11.01209748219043
30
0
0
SPLINE
5
126
100
AcDbEntity
8
0
100
AcDbSpline
70
0
71
3
72
20
73
16
74
0
42
0.000000001
43
0.0000000001
44
0.0000000001
40
-0.99866313536064177
40
-0.99866313536064177
40
-0.99866313536064177
40
-0.99866313536064177
40
-0.88869612206793969
40
-0.88869612206793969
40
-0.88869612206793969
40
-0.56432357543313705
40
-0.56432357543313705
40
-0.56432357543313705
40
-0.34842458595642434
40
-0.34842458595642434
40
-0.34842458595642434
40
0
40
0
40
0
40
0.00089248240421028113
40
0.00089248240421028113
40
0.00089248240421028113
40
0.00089248240421028113
10
-0.44097813929255203
20
-11.01209748219043
30
0
10
-0.4409740388741033
20
-11.004458850438652
30
0
10
-0.44080237049478643
20
-10.99754642788119
30
0
10
-0.4404136135485176
20
-10.991302124707847
30
0
10
-0.43926688711749634
20
-10.972883141945211
30
0
10
-0.43737429713230863
20
-10.959601474687746
30
0
10
-0.4276235937619986
20
-10.950844408165828
30
0
10
-0.4211336271289492
20
-10.945015795872719
30
0
10
-0.41139194270890511
20
-10.944196127888002
30
0
10
-0.40310737311658251
20
-10.946724396614153
30
0
10
-0.38973747390108132
20
-10.950804596277113
30
0
10
-0.37562848201156568
20
-10.96125944730754
30
0
10
-0.35628612177121077
20
-10.977378080841168
30
0
10
-0.35623736349524981
20
-10.977418712737803
30
0
10
-0.35618860521928886
20
-10.977459344634438
30
0
10
-0.35613984694326767
20
-10.977499976531121
30
0
0
SPLINE
5
127
100
AcDbEntity
8
0
100
AcDbSpline
70
0
71
3
72
17
73
13
74
0
42
0.000000001
43
0.0000000001
44
0.0000000001
40
-1.0010362276885236
40
-1.0010362276885236
40
-1.0010362276885236
40
-1.0010362276885236
40
-1
40
-1
40
-1
40
-0.62023295604511719
40
-0.62023295604511719
40
-0.62023295604511719
40
-0.3303370982651252
40
-0.3303370982651252
40
-0.3303370982651252
40
0
40
0
40
0
40
0
10
-0.35613984694388201
20
-10.977499976531641
30
0
10
-0.35609267077976825
20
-10.977542435079346
30
0
10
-0.35604549461569812
20
-10.977584893627009
30
0
10
-0.3559983184516276
20
-10.977627352174673
30
0
10
-0.33917659309372172
20
-10.992766904996788
30
0
10
-0.32563246557148123
20
-11.001745524518158
30
0
10
-0.31718012215943397
20
-11.004891362934112
30
0
10
-0.31072801057500277
20
-11.007292744361349
30
0
10
-0.30892653656925423
20
-11.006465281182317
30
0
10
-0.30804259541728946
20
-11.005768085986995
30
0
10
-0.30703534213187417
20
-11.004973630214117
30
0
10
-0.30439771750782535
20
-11.000267933585054
30
0
10
-0.30439771750782535
20
-10.989612976854481
30
0
0
SPLINE
5
128
100
AcDbEntity
8
0
100
AcDbSpline
70
0
71
3
72
11
73
7
74
0
42
0.000000001
43
0.0000000001
44
0.0000000001
40
-1
40
-1
40
-1
40
-1
40
-0.91768177225523306
40
-0.91768177225523306
40
-0.91768177225523306
40
0
40
0
40
0
40
0
10
-0.30439771750782535
20
-10.989612976854481
30
0
10
-0.30439771750782535
20
-10.986998505180898
30
0
10
-0.30425425194406602
20
-10.984412382220199
30
0
10
-0.30397149952995417
20
-10.98186615541405
30
0
10
-0.30081938190545715
20
-10.95348087560367
30
0
10
-0.27903660382296491
20
-10.929533461463794
30
0
10
-0.24887088533447568
20
-10.929533461463794
30
0
0
SPLINE
5
129
100
AcDbEntity
8
0
100
AcDbSpline
70
0
71
3
72
14
73
10
74
0
42
0.000000001
43
0.0000000001
44
0.0000000001
40
-1
40
-1
40
-1
40
-1
40
-0.65472126231542038
40
-0.65472126231542038
40
-0.65472126231542038
40
0
40
0
40
0
40
0.0025481584610110722
40
0.0025481584610110722
40
0.0025481584610110722
40
0.0025481584610110722
10
-0.24887088533447568
20
-10.929533461463794
30
0
10
-0.23778856021095671
20
-10.929533461463794
30
0
10
-0.22788738228822314
20
-10.935598231930404
30
0
10
-0.22217883028127478
20
-10.944338814670807
30
0
10
-0.21135421246366462
20
-10.960912801831279
30
0
10
-0.21157785473599822
20
-10.98541759493051
30
0
10
-0.22129686068944612
20
-11.011334944139703
30
0
10
-0.22133166356422784
20
-11.011427751805787
30
0
10
-0.22136646643900959
20
-11.011520559471872
30
0
10
-0.2214012693137894
20
-11.011613367137953
30
0
0
SPLINE
5
130
100
AcDbEntity
8
0
100
AcDbSpline
70
0
71
3
72
14
73
10
74
0
42
0.000000001
43
0.0000000001
44
0.0000000001
40
-1.0022105583914085
40
-1.0022105583914085
40
-1.0022105583914085
40
-1.0022105583914085
40
-1
40
-1
40
-1
40
-0.54426658024115659
40
-0.54426658024115659
40
-0.54426658024115659
40
0
40
0
40
0
40
0
10
-0.22140126931385837
20
-11.011613367137935
30
0
10
-0.22144152520221835
20
-11.011703942886744
30
0
10
-0.22148178109057634
20
-11.011794518635549
30
0
10
-0.22152203697893427
20
-11.011885094384354
30
0
10
-0.22905801521783345
20
-11.028841045421878
30
0
10
-0.22901780192115853
20
-11.041518124528952
30
0
10
-0.22511726772838961
20
-11.049765289303588
30
0
10
-0.22045899533894009
20
-11.059614591492027
30
0
10
-0.20956790086085406
20
-11.066113957983845
30
0
10
-0.18968600350912126
20
-11.066113957983845
30
0
0
SPLINE
5
131
100
AcDbEntity
8
0
100
AcDbSpline
70
0
71
3
72
14
73
10
74
0
42
0.000000001
43
0.0000000001
44
0.0000000001
40
-1
40
-1
40
-1
40
-1
40
-0.67715481727646898
40
-0.67715481727646898
40
-0.67715481727646898
40
0
40
0
40
0
40
0.0021430816771369383
40
0.0021430816771369383
40
0.0021430816771369383
40
0.0021430816771369383
10
-0.18968600350912126
20
-11.066113957983845
30
0
10
-0.17954173466127538
20
-11.066113957983845
30
0
10
-0.16792878846817014
20
-11.063586070848006
30
0
10
-0.15675975169274792
20
-11.059187330147228
30
0
10
-0.13333314519048545
20
-11.049961148017596
30
0
10
-0.11257183364631003
20
-11.031677466225814
30
0
10
-0.10811917214292566
20
-11.018319481715661
30
0
10
-0.10809965859895591
20
-11.018260941083751
30
0
10
-0.10808014505498617
20
-11.018202400451843
30
0
10
-0.10806063151101318
20
-11.018143859819922
30
0
0
SPLINE
5
132
100
AcDbEntity
8
0
100
AcDbSpline
70
0
71
3
72
20
73
16
74
0
42
0.000000001
43
0.0000000001
44
0.0000000001
40
-1.0015863800518552
40
-1.0015863800518552
40
-1.0015863800518552
40
-1.0015863800518552
40
-1
40
-1
40
-1
40
-0.77222952382158627
40
-0.77222952382158627
40
-0.77222952382158627
40
-0.59204631581963241
40
-0.59204631581963241
40
-0.59204631581963241
40
-0.3951920386551192
40
-0.3951920386551192
40
-0.3951920386551192
40
-0.002518457087100876
40
-0.002518457087100876
40
-0.002518457087100876
40
-0.002518457087100876
10
-0.10806063151064021
20
-11.018143859820025
30
0
10
-0.10803896465314136
20
-11.01808608153336
30
0
10
-0.10801729779562617
20
-11.018028303246652
30
0
10
-0.10799563093811097
20
-11.017970524959944
30
0
10
-0.1046437082492139
20
-11.009032064456219
30
0
10
-0.10136759564881781
20
-11.002483733612259
30
0
10
-0.096877363024838653
20
-10.997519393589803
30
0
10
-0.093325258588661184
20
-10.993592235312459
30
0
10
-0.087584881899091721
20
-10.989902130473794
30
0
10
-0.080975336275465284
20
-10.991159438434646
30
0
10
-0.073754256461464301
20
-10.9925330761479
30
0
10
-0.07010209060889433
20
-10.998033269109024
30
0
10
-0.067760441211286701
20
-11.00321274810144
30
0
10
-0.063089453773372231
20
-11.013544474675552
30
0
10
-0.06134446948322176
20
-11.028101360194086
30
0
10
-0.061316509004864864
20
-11.048406412395344
30
0
0
SPLINE
5
133
100
AcDbEntity
8
0
100
AcDbSpline
70
0
71
3
72
11
73
7
74
0
42
0.000000001
43
0.0000000001
44
0.0000000001
40
-0.99779233072324403
40
-0.99779233072324403
40
-0.99779233072324403
40
-0.99779233072324403
40
-0.50975588278943784
40
-0.50975588278943784
40
-0.50975588278943784
40
0
40
0
40
0
40
0
10
-0.061316509004879879
20
-11.048406412395346
30
0
10
-0.059148463428370553
20
-11.076016423970682
30
0
10
-0.052932456222443566
20
-11.091430558122163
30
0
10
-0.042570763119797177
20
-11.098620493693501
30
0
10
-0.031747936183213241
20
-11.106130408106416
30
0
10
-0.012007874156984961
20
-11.107312752537714
30
0
10
0.021713481200023182
20
-11.09832039110918
30
0
0
SPLINE
5
134
100
AcDbEntity
8
0
100
AcDbSpline
70
0
71
3
72
14
73
10
74
0
42
0.000000001
43
0.0000000001
44
0.0000000001
40
-0.99965193687067189
40
-0.99965193687067189
40
-0.99965193687067189
40
-0.99965193687067189
40
-0.52068679915630223
40
-0.52068679915630223
40
-0.52068679915630223
40
-0.22855429551981996
40
-0.22855429551981996
40
-0.22855429551981996
40
-0.0072095207320222185
40
-0.0072095207320222185
40
-0.0072095207320222185
40
-0.0072095207320222185
10
0.021713441277355593
20
-11.098320243317739
30
0
10
0.046712550630379747
20
-11.091508050383752
30
0
10
0.067448076607426716
20
-11.089812146002286
30
0
10
0.082615933474899095
20
-11.092705491388408
30
0
10
0.091867178821563464
20
-11.09447021321256
30
0
10
0.10048620232075382
20
-11.097857244143025
30
0
10
0.10432551861782163
20
-11.106798930275236
30
0
10
0.10723451570145691
20
-11.113573922713666
30
0
10
0.10512002247178379
20
-11.121340897429739
30
0
10
0.10098692452465333
20
-11.127087346585599
30
0
0
SPLINE
5
135
100
AcDbEntity
8
0
100
AcDbSpline
70
0
71
3
72
20
73
16
74
0
42
0.000000001
43
0.0000000001
44
0.0000000001
40
-0.99620761732303209
40
-0.99620761732303209
40
-0.99620761732303209
40
-0.99620761732303209
40
-0.97148360326803473
40
-0.97148360326803473
40
-0.97148360326803473
40
-0.77137534264345087
40
-0.77137534264345087
40
-0.77137534264345087
40
-0.44637788320571148
40
-0.44637788320571148
40
-0.44637788320571148
40
0
40
0
40
0
40
0.00063399121036432794
40
0.00063399121036432794
40
0.00063399121036432794
40
0.00063399121036432794
10
0.10098692452465587
20
-11.127087346585599
30
0
10
0.10049998133886008
20
-11.127971729023635
30
0
10
0.100112192511614
20
-11.128844150412291
30
0
10
0.099805494995108227
20
-11.129718975549627
30
0
10
0.097323183408108915
20
-11.136799530357331
30
0
10
0.099648901090740399
20
-11.145978022290764
30
0
10
0.10841415345284511
20
-11.157453649385227
30
0
10
0.1226498713593587
20
-11.176091309017638
30
0
10
0.1525917465590538
20
-11.197108457490883
30
0
10
0.18643107520572841
20
-11.212352291344295
30
0
10
0.2329087551129424
20
-11.233289409742692
30
0
10
0.28704523498456286
20
-11.242853919091813
30
0
10
0.31640701877985994
20
-11.230763772823162
30
0
10
0.31645608691929705
20
-11.230743568295159
30
0
10
0.31650515505873417
20
-11.230723363767154
30
0
10
0.31655422319822651
20
-11.230703159239125
30
0
0
SPLINE
5
136
100
AcDbEntity
8
0
100
AcDbSpline
70
0
71
3
72
14
73
10
74
0
42
0.000000001
43
0.0000000001
44
0.0000000001
40
-1.0001543583607169
40
-1.0001543583607169
40
-1.0001543583607169
40
-1.0001543583607169
40
-1
40
-1
40
-1
40
-0.57529510479334522
40
-0.57529510479334522
40
-0.57529510479334522
40
-0.00030305350323725565
40
-0.00030305350323725565
40
-0.00030305350323725565
40
-0.00030305350323725565
10
-5.1043557818066274
20
-4.6012619547932623
30
0
10
-5.1043136171232657
20
-4.6012338450043559
30
0
10
-5.1042714524401731
20
-4.6012057352156273
30
0
10
-5.1042292877570858
20
-4.6011776254269021
30
0
10
-4.9845468047208605
20
-4.5213893034027528
30
0
10
-4.8692935467357268
20
-4.4702701823184512
30
0
10
-4.745502514985156
20
-4.4504969849171845
30
0
10
-4.5779064734021038
20
-4.4237267935145477
30
0
10
-4.3981445174639795
20
-4.4545453309727794
30
0
10
-4.1718813010665077
20
-4.5370283810013463
30
0
0
SPLINE
5
137
100
AcDbEntity
8
0
100
AcDbSpline
70
0
71
3
72
17
73
13
74
0
42
0.000000001
43
0.0000000001
44
0.0000000001
40
-0.99967903796105517
40
-0.99967903796105517
40
-0.99967903796105517
40
-0.99967903796105517
40
-0.80982567342550571
40
-0.80982567342550571
40
-0.80982567342550571
40
-0.20202606293199599
40
-0.20202606293199599
40
-0.20202606293199599
40
-0.050769910885087408
40
-0.050769910885087408
40
-0.050769910885087408
40
0
40
0
40
0
40
0
10
-4.1718813010665095
20
-4.5370283810013543
30
0
10
-4.1011510957935036
20
-4.5614847453069771
30
0
10
-4.0190778495777391
20
-4.5917547782335317
30
0
10
-3.9320865135414413
20
-4.6250723382956647
30
0
10
-3.6535910531711742
20
-4.7317357101979685
30
0
10
-3.325525975741408
20
-4.8692228300650315
30
0
10
-3.1624357866597399
20
-4.9465145037451181
30
0
10
-3.1218493927048869
20
-4.9657492004186201
30
0
10
-3.0921903479373318
20
-4.9806651335559069
30
0
10
-3.0724963846831566
20
-4.9929693679440508
30
0
10
-3.0658860039094966
20
-4.9970993479477839
30
0
10
-3.0607182748844024
20
-5.0000906563406007
30
0
10
-3.0533727245808078
20
-5.0074362066441953
30
0
0
SPLINE
5
138
100
AcDbEntity
8
0
100
AcDbSpline
70
0
71
3
72
26
73
22
74
0
42
0.000000001
43
0.0000000001
44
0.0000000001
40
-1
40
-1
40
-1
40
-1
40
-0.96990948494548435
40
-0.96990948494548435
40
-0.96990948494548435
40
-0.90594108373076021
40
-0.90594108373076021
40
-0.90594108373076021
40
-0.85550346701326485
40
-0.85550346701326485
40
-0.85550346701326485
40
-0.79333716913124941
40
-0.79333716913124941
40
-0.79333716913124941
40
-0.69964561990823748
40
-0.69964561990823748
40
-0.69964561990823748
40
-0.5
40
-0.5
40
-0.5
40
0
40
0
40
0
40
0
10
-3.0533727245808091
20
-5.0074362066441944
30
0
10
-3.0497188806843138
20
-5.0110900505406901
30
0
10
-3.0463011437433956
20
-5.0148923162089325
30
0
10
-3.0430895309826509
20
-5.0191541707783607
30
0
10
-3.0362620727868221
20
-5.028214302269034
30
0
10
-3.0290098554728386
20
-5.0400131190840218
30
0
10
-3.0287839701762311
20
-5.05779467292367
30
0
10
-3.0286058648023895
20
-5.0718150201603498
30
0
10
-3.0355451405544547
20
-5.087687741803113
30
0
10
-3.0444564270744712
20
-5.0968327152006383
30
0
10
-3.0554399296340433
20
-5.1081042458032426
30
0
10
-3.0664463292587092
20
-5.1119502603231393
30
0
10
-3.0761204666078945
20
-5.1146167156443569
30
0
10
-3.0907004713133635
20
-5.118635361413693
30
0
10
-3.1044313714845768
20
-5.1193724173837358
30
0
10
-3.1200059236261244
20
-5.1192874683262382
30
0
10
-3.1531934538023108
20
-5.1191064519231002
30
0
10
-3.1941512760310182
20
-5.1136735733982821
30
0
10
-3.2416853158151531
20
-5.1044962092815434
30
0
10
-3.3607313530034042
20
-5.0815120733887618
30
0
10
-3.5182897256309813
20
-5.0344440435873725
30
0
10
-3.6458673931620695
20
-4.9753803086192754
30
0
0
SPLINE
5
139
100
AcDbEntity
8
0
100
AcDbSpline
70
0
71
3
72
14
73
10
74
0
42
0.000000001
43
0.0000000001
44
0.0000000001
40
-0.9999974153866813
40
-0.9999974153866813
40
-0.9999974153866813
40
-0.9999974153866813
40
-0.76164578696046892
40
-0.76164578696046892
40
-0.76164578696046892
40
-0.34160472367531142
40
-0.34160472367531142
40
-0.34160472367531142
40
-0.00039212116986513438
40
-0.00039212116986513438
40
-0.00039212116986513438
40
-0.00039212116986513438
10
-3.6458673934112
20
-4.9753803091576536
30
0
10
-3.8495476610729393
20
-4.8811240794590525
30
0
10
-4.0152314898442736
20
-4.8074198152917216
30
0
10
-4.1527551963940974
20
-4.7522241246823009
30
0
10
-4.3951097559476384
20
-4.6549541512173729
30
0
10
-4.5491114322263622
20
-4.6161752069327511
30
0
10
-4.6688996591919478
20
-4.6194353473081415
30
0
10
-4.7662074137071118
20
-4.6220836621498389
30
0
10
-4.8438208180385818
20
-4.6509012508923044
30
0
10
-4.9382461517728515
20
-4.7048209306794284
30
0
0
SPLINE
5
140
100
AcDbEntity
8
0
100
AcDbSpline
70
0
71
3
72
11
73
7
74
0
42
0.000000001
43
0.0000000001
44
0.0000000001
40
-0.99961774497391542
40
-0.99961774497391542
40
-0.99961774497391542
40
-0.99961774497391542
40
-0.60380146847915395
40
-0.60380146847915395
40
-0.60380146847915395
40
-0.00010604932303548196
40
-0.00010604932303548196
40
-0.00010604932303548196
40
-0.00010604932303548196
10
-4.9382461517728622
20
-4.7048209306794089
30
0
10
-5.0494933561778312
20
-4.7709194160277564
30
0
10
-5.135042818881014
20
-4.8449512361926876
30
0
10
-5.2038349296727899
20
-4.9398785892207258
30
0
10
-5.3087560373312428
20
-5.0846609328957726
30
0
10
-5.375593287650891
20
-5.2809394154954168
30
0
10
-5.4217688540458457
20
-5.5742098809923553
30
0
0
SPLINE
5
141
100
AcDbEntity
8
0
100
AcDbSpline
70
0
71
3
72
17
73
13
74
0
42
0.000000001
43
0.0000000001
44
0.0000000001
40
-1
40
-1
40
-1
40
-1
40
-0.54841843171159543
40
-0.54841843171159543
40
-0.54841843171159543
40
-0.14518558222602085
40
-0.14518558222602085
40
-0.14518558222602085
40
0
40
0
40
0
40
0.012415403441437304
40
0.012415403441437304
40
0.012415403441437304
40
0.012415403441437304
10
-5.4217691260061507
20
-5.5742098382998782
30
0
10
-5.4384277456357744
20
-5.6824908658924302
30
0
10
-5.4597245684113638
20
-5.7876591997330937
30
0
10
-5.4807490394327703
20
-5.8744016781494945
30
0
10
-5.4995225190303128
20
-5.9518570465691099
30
0
10
-5.5175809628136419
20
-6.0137484916466972
30
0
10
-5.533745647957601
20
-6.0534435481896267
30
0
10
-5.5395658067743243
20
-6.0677359102901667
30
0
10
-5.5442370485747476
20
-6.0787014014396705
30
0
10
-5.5531682992684814
20
-6.0906097356979814
30
0
10
-5.5535074396617832
20
-6.0910619228890504
30
0
10
-5.5538465800550867
20
-6.0915141100801229
30
0
10
-5.5541857204483511
20
-6.0919662972711413
30
0
0
SPLINE
5
142
100
AcDbEntity
8
0
100
AcDbSpline
70
0
71
3
72
20
73
16
74
0
42
0.000000001
43
0.0000000001
44
0.0000000001
40
-1.0116794291039342
40
-1.0116794291039342
40
-1.0116794291039342
40
-1.0116794291039342
40
-1
40
-1
40
-1
40
-0.85353727817812941
40
-0.85353727817812941
40
-0.85353727817812941
40
-0.5
40
-0.5
40
-0.5
40
0
40
0
40
0
40
0.0010029641001145853
40
0.0010029641001145853
40
0.0010029641001145853
40
0.0010029641001145853
10
-5.5541857204484
20
-6.0919662972711812
30
0
10
-5.5545579296344876
20
-6.0923916791981378
30
0
10
-5.5549301388205752
20
-6.0928170611250954
30
0
10
-5.5553023480066637
20
-6.0932424430520529
30
0
10
-5.5624024337599769
20
-6.1013568267701261
30
0
10
-5.5703596749171567
20
-6.1086280456130044
30
0
10
-5.5794908868293964
20
-6.1161811663505929
30
0
10
-5.6015321527963584
20
-6.1344131759302396
30
0
10
-5.6305400012104654
20
-6.15394690594061
30
0
10
-5.6643281091019775
20
-6.1743866255293023
30
0
10
-5.7121138872604105
20
-6.203294071575761
30
0
10
-5.7690739754025078
20
-6.2335069511713606
30
0
10
-5.8253690974670649
20
-6.2593088821176153
30
0
10
-5.8254786857348888
20
-6.2593591100737012
30
0
10
-5.8255882740027127
20
-6.2594093380297871
30
0
10
-5.825697862270502
20
-6.259459565985857
30
0
0
SPLINE
5
143
100
AcDbEntity
8
0
100
AcDbSpline
70
0
71
3
72
20
73
16
74
0
42
0.000000001
43
0.0000000001
44
0.0000000001
40
-1.0005913503279611
40
-1.0005913503279611
40
-1.0005913503279611
40
-1.0005913503279611
40
-1
40
-1
40
-1
40
-0.96418887040785917
40
-0.96418887040785917
40
-0.96418887040785917
40
-0.5817275472737734
40
-0.5817275472737734
40
-0.5817275472737734
40
-0.34185825931424035
40
-0.34185825931424035
40
-0.34185825931424035
40
-0.00092461588959398056
40
-0.00092461588959398056
40
-0.00092461588959398056
40
-0.00092461588959398056
10
-5.8256978622699265
20
-6.2594595659874548
30
0
10
-5.8258082437291225
20
-6.2595080261402742
30
0
10
-5.8259186251883879
20
-6.2595564862931221
30
0
10
-5.8260290066476523
20
-6.25960494644597
30
0
10
-5.8326708279628923
20
-6.2625208679990028
30
0
10
-5.8390713741368225
20
-6.2653431876519301
30
0
10
-5.8452346192062263
20
-6.2680796819204252
30
0
10
-5.9110578113504095
20
-6.2973053229598763
30
0
10
-5.9493673095213158
20
-6.3181315598530539
30
0
10
-5.9649736890018916
20
-6.3328181894929791
30
0
10
-5.9747615836390686
20
-6.3420292421698505
30
0
10
-5.97718189052563
20
-6.3467649919386249
30
0
10
-5.9793773736098048
20
-6.3575466080708338
30
0
10
-5.9824978816720575
20
-6.3728708527927331
30
0
10
-5.9803413931081124
20
-6.4035400258592352
30
0
10
-5.9727220648466073
20
-6.4523486916164892
30
0
0
SPLINE
5
144
100
AcDbEntity
8
0
100
AcDbSpline
70
0
71
3
72
26
73
22
74
0
42
0.000000001
43
0.0000000001
44
0.0000000001
40
-0.99929184932081672
40
-0.99929184932081672
40
-0.99929184932081672
40
-0.99929184932081672
40
-0.87002099937050914
40
-0.87002099937050914
40
-0.87002099937050914
40
-0.63883623055685612
40
-0.63883623055685612
40
-0.63883623055685612
40
-0.51271027533969737
40
-0.51271027533969737
40
-0.51271027533969737
40
-0.40214206866478386
40
-0.40214206866478386
40
-0.40214206866478386
40
-0.25151979130355617
40
-0.25151979130355617
40
-0.25151979130355617
40
0
40
0
40
0
40
0.0002537437038027013
40
0.0002537437038027013
40
0.0002537437038027013
40
0.0002537437038027013
10
-5.9727220648467787
20
-6.4523486916165185
30
0
10
-5.9683455762712834
20
-6.4774438251009201
30
0
10
-5.9657541434992893
20
-6.500168029951384
30
0
10
-5.9647996037728364
20
-6.5206759476586473
30
0
10
-5.9630925286969916
20
-6.5573517969767705
30
0
10
-5.9653668744202868
20
-6.5864653520329801
30
0
10
-5.9770956200590843
20
-6.6128064146182703
30
0
10
-5.9834943947481944
20
-6.6271771350470123
30
0
10
-5.9939047593991654
20
-6.6422128790031989
30
0
10
-6.0118719769210252
20
-6.6511732010446316
30
0
10
-6.0276229222114663
20
-6.6590282594078776
30
0
10
-6.0474115231431753
20
-6.6592019585894278
30
0
10
-6.0622055116377513
20
-6.6542501089108654
30
0
10
-6.0823587211843293
20
-6.6475044186426997
30
0
10
-6.095826425622743
20
-6.6349979734695568
30
0
10
-6.1082397523819143
20
-6.6202598891327442
30
0
10
-6.1289684082656768
20
-6.5956491877043044
30
0
10
-6.1467354138970993
20
-6.5620091850350573
30
0
10
-6.1639201172822142
20
-6.5165924689458228
30
0
10
-6.1639362902880395
20
-6.5165497260018546
30
0
10
-6.1639524632938647
20
-6.5165069830578881
30
0
10
-6.1639686362997264
20
-6.5164642401138293
30
0
0
SPLINE
5
145
100
AcDbEntity
8
0
100
AcDbSpline
70
0
71
3
72
20
73
16
74
0
42
0.000000001
43
0.0000000001
44
0.0000000001
40
-1.000268856038331
40
-1.000268856038331
40
-1.000268856038331
40
-1.000268856038331
40
-1
40
-1
40
-1
40
-0.69538854964269103
40
-0.69538854964269103
40
-0.69538854964269103
40
-0.39429172259841772
40
-0.39429172259841772
40
-0.39429172259841772
40
0
40
0
40
0
40
0.00047589562274603816
40
0.00047589562274603816
40
0.00047589562274603816
40
0.00047589562274603816
10
-6.1639686362985513
20
-6.5164642401134909
30
0
10
-6.1639845485114062
20
-6.5164213995404214
30
0
10
-6.1640004607242593
20
-6.5163785589673573
30
0
10
-6.1640163729371107
20
-6.5163357183942976
30
0
10
-6.1832385293043863
20
-6.4645837589439399
30
0
10
-6.1942118974283948
20
-6.4179735158821405
30
0
10
-6.1907185090116998
20
-6.3722311434181673
30
0
10
-6.1872654274986241
20
-6.3270165489102324
30
0
10
-6.1677828634114116
20
-6.2845601291521973
30
0
10
-6.135245131866732
20
-6.2487491070068968
30
0
10
-6.0926363858824706
20
-6.2018539279766491
30
0
10
-6.0298307058432101
20
-6.163062819622902
30
0
10
-5.9416387859314295
20
-6.1189668596670099
30
0
10
-5.9415347890347148
20
-6.118914861218653
30
0
10
-5.9414307921380001
20
-6.1188628627702952
30
0
10
-5.9413267952412872
20
-6.1188108643219392
30
0
0
SPLINE
5
146
100
AcDbEntity
8
0
100
AcDbSpline
70
0
71
3
72
20
73
16
74
0
42
0.000000001
43
0.0000000001
44
0.0000000001
40
-1.0004426405428932
40
-1.0004426405428932
40
-1.0004426405428932
40
-1.0004426405428932
40
-1
40
-1
40
-1
40
-0.86269664690322034
40
-0.86269664690322034
40
-0.86269664690322034
40
-0.47188609467021186
40
-0.47188609467021186
40
-0.47188609467021186
40
0
40
0
40
0
40
0.00012513222722747983
40
0.00012513222722747983
40
0.00012513222722747983
40
0.00012513222722747983
10
-5.9413267952416673
20
-6.1188108643212002
30
0
10
-5.9412220047287647
20
-6.1187604842669208
30
0
10
-5.9411172142158755
20
-6.1187101042126466
30
0
10
-5.9410124237029853
20
-6.1186597241583733
30
0
10
-5.9096246776227339
20
-6.1035694616197906
30
0
10
-5.8818932367754728
20
-6.088628790805017
30
0
10
-5.8573770144603721
20
-6.0731659438328727
30
0
10
-5.7875957733942629
20
-6.0291535899610871
30
0
10
-5.7435998194701634
20
-5.9826586315704064
30
0
10
-5.7084668476978884
20
-5.9077017647132521
30
0
10
-5.6660453707212559
20
-5.8171947326798676
30
0
10
-5.639140842880507
20
-5.6824707577779234
30
0
10
-5.6156823344594349
20
-5.4713441819882611
30
0
10
-5.6156760678981437
20
-5.4712877829366473
30
0
10
-5.6156698013368498
20
-5.4712313838849935
30
0
10
-5.6156635347755506
20
-5.4711749848333007
30
0
0
SPLINE
5
147
100
AcDbEntity
8
0
100
AcDbSpline
70
0
71
3
72
14
73
10
74
0
42
0.000000001
43
0.0000000001
44
0.0000000001
40
-1
40
-1
40
-1
40
-1
40
-0.62125394312136828
40
-0.62125394312136828
40
-0.62125394312136828
40
0
40
0
40
0
40
0.00013557903539710396
40
0.00013557903539710396
40
0.00013557903539710396
40
0.00013557903539710396
10
-5.6156632147316259
20
-5.4711750203936473
30
0
10
-5.5980648185444561
20
-5.3180689735652784
30
0
10
-5.5669255356347556
20
-5.1870525733673212
30
0
10
-5.5168997322251387
20
-5.0712828802776624
30
0
10
-5.4348428314030723
20
-4.8813868351052419
30
0
10
-5.3015933584936361
20
-4.734687374330167
30
0
10
-5.1044817004736203
20
-4.6013471350813333
30
0
10
-5.1044397275824958
20
-4.6013187416549846
30
0
10
-5.1043977546913677
20
-4.601290348228634
30
0
10
-5.1043557818000629
20
-4.6012619548021627
30
0
0
SPLINE
5
148
100
AcDbEntity
8
0
100
AcDbSpline
70
0
71
3
72
14
73
10
74
0
42
0.000000001
43
0.0000000001
44
0.0000000001
40
-1
40
-1
40
-1
40
-1
40
-0.80944973922733909
40
-0.80944973922733909
40
-0.80944973922733909
40
-0.5
40
-0.5
40
-0.5
40
-1.8866079029694473e-05
40
-1.8866079029694473e-05
40
-1.8866079029694473e-05
40
-1.8866079029694473e-05
10
-3.27185254164494
20
1.7174527149009575
30
0
10
-3.2946805830070076
20
1.7174527149009575
30
0
10
-3.3295114693976839
20
1.7095042454787932
30
0
10
-3.3696153702160734
20
1.6931886797140612
30
0
10
-3.4347432876480819
20
1.6666925334964162
30
0
10
-3.5140055513828483
20
1.6193406770583116
30
0
10
-3.5919946369667359
20
1.5608488628703949
30
0
10
-3.7180024065678787
20
1.4663430356695382
30
0
10
-3.8414761100431889
20
1.3418453543241293
30
0
10
-3.907188731974935
20
1.2337434265354075
30
0
0
SPLINE
5
149
100
AcDbEntity
8
0
100
AcDbSpline
70
0
71
3
72
17
73
13
74
0
42
0.000000001
43
0.0000000001
44
0.0000000001
40
-1
40
-1
40
-1
40
-1
40
-0.81786468761208364
40
-0.81786468761208364
40
-0.81786468761208364
40
-0.5
40
-0.5
40
-0.5
40
0
40
0
40
0
40
2.4148629618200776e-05
40
2.4148629618200776e-05
40
2.4148629618200776e-05
40
2.4148629618200776e-05
10
-3.9071887340694564
20
1.2337434278007113
30
0
10
-3.9716140851565989
20
1.1276773010109031
30
0
10
-4.0328935038619163
20
0.97094030195714198
30
0
10
-4.0872638627903592
20
0.77468572350538967
30
0
10
-4.1821516521463176
20
0.43217992683075157
30
0
10
-4.2569888265157267
20
-0.030809612387101715
30
0
10
-4.306027515796675
20
-0.56410535831740527
30
0
10
-4.3831651960614195
20
-1.4029776311964994
30
0
10
-4.3968282786242909
20
-2.4163146313209896
30
0
10
-4.3287061140693499
20
-3.4154397114601327
30
0
10
-4.3287028158375271
20
-3.4154880855268703
30
0
10
-4.3286995176057035
20
-3.415536459593612
30
0
10
-4.3286962193738656
20
-3.415584833660573
30
0
0
SPLINE
5
150
100
AcDbEntity
8
0
100
AcDbSpline
70
0
71
3
72
17
73
13
74
0
42
0.000000001
43
0.0000000001
44
0.0000000001
40
-1
40
-1
40
-1
40
-1
40
-0.4764551542240808
40
-0.4764551542240808
40
-0.4764551542240808
40
-0.21089127671578337
40
-0.21089127671578337
40
-0.21089127671578337
40
-0.080650415477258097
40
-0.080650415477258097
40
-0.080650415477258097
40
0
40
0
40
0
40
0
10
-4.3286964539228032
20
-3.4155848496524697
30
0
10
-4.3167357090485439
20
-3.5997803207160683
30
0
10
-4.3121621782478199
20
-3.7314815321668884
30
0
10
-4.3153411202690224
20
-3.8180872853064058
30
0
10
-4.3169536128307113
20
-3.862017351286084
30
0
10
-4.3198727736776128
20
-3.8935771232862941
30
0
10
-4.3275984854814364
20
-3.919633789468763
30
0
10
-4.3313874170501858
20
-3.9324127964498747
30
0
10
-4.3353485251439112
20
-3.9449375906732791
30
0
10
-4.3492014594462303
20
-3.9580071096741323
30
0
10
-4.3577797573508725
20
-3.9661002850991345
30
0
10
-4.3725921370193346
20
-3.9734013067678391
30
0
10
-4.3872599298920241
20
-3.9734013067678391
30
0
0
SPLINE
5
151
100
AcDbEntity
8
0
100
AcDbSpline
70
0
71
3
72
20
73
16
74
0
42
0.000000001
43
0.0000000001
44
0.0000000001
40
-1
40
-1
40
-1
40
-1
40
-0.89201934173152275
40
-0.89201934173152275
40
-0.89201934173152275
40
-0.75
40
-0.75
40
-0.75
40
-0.5
40
-0.5
40
-0.5
40
0
40
0
40
0
40
1.4953647534820398e-05
40
1.4953647534820398e-05
40
1.4953647534820398e-05
40
1.4953647534820398e-05
10
-4.3872599298920241
20
-3.9734013067678391
30
0
10
-4.4065305350645936
20
-3.9734013067678391
30
0
10
-4.4288000475390703
20
-3.9659583521142445
30
0
10
-4.4449857045287224
20
-3.9518825121133139
30
0
10
-4.4662735572610819
20
-3.9333695528175845
30
0
10
-4.478070015382805
20
-3.9083979376687226
30
0
10
-4.487769444270219
20
-3.8766882663060249
30
0
10
-4.5048435779219389
20
-3.8208689832138618
30
0
10
-4.5151739870360883
20
-3.7390757345725594
30
0
10
-4.5232259602704552
20
-3.6102441628227036
30
0
10
-4.5393299067391881
20
-3.3525810193229919
30
0
10
-4.5438000801081886
20
-2.9088634550523293
30
0
10
-4.5460768061970169
20
-2.1529903935611321
30
0
10
-4.5460768742762374
20
-2.1529677912599778
30
0
10
-4.5460769423554579
20
-2.1529451889588382
30
0
10
-4.546077010434681
20
-2.1529225866571009
30
0
0
SPLINE
5
152
100
AcDbEntity
8
0
100
AcDbSpline
70
0
71
3
72
17
73
13
74
0
42
0.000000001
43
0.0000000001
44
0.0000000001
40
-1.0000212846387782
40
-1.0000212846387782
40
-1.0000212846387782
40
-1.0000212846387782
40
-1
40
-1
40
-1
40
-0.53503981957930369
40
-0.53503981957930369
40
-0.53503981957930369
40
0
40
0
40
0
40
0.00066560760014787229
40
0.00066560760014787229
40
0.00066560760014787229
40
0.00066560760014787229
10
-4.5460770103254005
20
-2.1529225866573842
30
0
10
-4.5460770103254005
20
-2.152900008440648
30
0
10
-4.5460770103254005
20
-2.1528774302239118
30
0
10
-4.5460770103254005
20
-2.1528548520071755
30
0
10
-4.5460770103254005
20
-1.6594570300938463
30
0
10
-4.5431269805310066
20
-1.2722729241984883
30
0
10
-4.5358324625607613
20
-0.97497159542919065
30
0
10
-4.527438501651706
20
-0.63286047279179114
30
0
10
-4.5136608218432945
20
-0.41074840647703476
30
0
10
-4.4907855844808768
20
-0.27858036838307026
30
0
10
-4.4907583117759211
20
-0.27842279275443438
30
0
10
-4.4907310390709654
20
-0.27826521712580071
30
0
10
-4.4907037663660239
20
-0.27810764149725059
30
0
0
SPLINE
5
153
100
AcDbEntity
8
0
100
AcDbSpline
70
0
71
3
72
11
73
7
74
0
42
0.000000001
43
0.0000000001
44
0.0000000001
40
-1.0008408777844651
40
-1.0008408777844651
40
-1.0008408777844651
40
-1.0008408777844651
40
-1
40
-1
40
-1
40
0
40
0
40
0
40
0
10
-4.4907037663627793
20
-0.2781076414976717
30
0
10
-4.4906731403613707
20
-0.27795068324045713
30
0
10
-4.4906425143599531
20
-0.27779372498319166
30
0
10
-4.4906118883585355
20
-0.27763676672592574
30
0
10
-4.4544999121405233
20
-0.09256288860860705
30
0
10
-4.4089508886158937
20
0.19422238670319444
30
0
10
-4.3815681410737843
20
0.35851887195583848
30
0
0
SPLINE
5
154
100
AcDbEntity
8
0
100
AcDbSpline
70
0
71
3
72
11
73
7
74
0
42
0.000000001
43
0.0000000001
44
0.0000000001
40
-1
40
-1
40
-1
40
-1
40
-0.56851438511880958
40
-0.56851438511880958
40
-0.56851438511880958
40
-0.00028376945662447853
40
-0.00028376945662447853
40
-0.00028376945662447853
40
-0.00028376945662447853
10
-4.3815681410737843
20
0.35851887195583804
30
0
10
-4.3555042277994671
20
0.51490235160174147
30
0
10
-4.3090754433035219
20
0.69113467052707178
30
0
10
-4.2524487274635687
20
0.86013542385418051
30
0
10
-4.1778760592333102
20
1.0826953396392716
30
0
10
-4.0864232198377861
20
1.2918123349278305
30
0
10
-3.9969991017806694
20
1.4273755996390187
30
0
0
SPLINE
5
155
100
AcDbEntity
8
0
100
AcDbSpline
70
0
71
3
72
14
73
10
74
0
42
0.000000001
43
0.0000000001
44
0.0000000001
40
-0.99968831574996164
40
-0.99968831574996164
40
-0.99968831574996164
40
-0.99968831574996164
40
-0.80442976748582296
40
-0.80442976748582296
40
-0.80442976748582296
40
-0.28622276624833526
40
-0.28622276624833526
40
-0.28622276624833526
40
0
40
0
40
0
40
0
10
-3.9969991017806841
20
1.427375599639028
30
0
10
-3.968940251051845
20
1.4708729466877359
30
0
10
-3.9324233404539886
20
1.514466254020657
30
0
10
-3.8904398361891848
20
1.5571152732222797
30
0
10
-3.7790175909665376
20
1.670303763778378
30
0
10
-3.6293786221556275
20
1.7768706810260457
30
0
10
-3.4949272583837656
20
1.8404869493197766
30
0
10
-3.4206653491993171
20
1.8756243061018076
30
0
10
-3.3517825031742148
20
1.8985063792476571
30
0
10
-3.2900632745142802
20
1.8985063792476571
30
0
0
SPLINE
5
156
100
AcDbEntity
8
0
100
AcDbSpline
70
0
71
3
72
14
73
10
74
0
42
0.000000001
43
0.0000000001
44
0.0000000001
40
-1
40
-1
40
-1
40
-1
40
-0.47916484778407264
40
-0.47916484778407264
40
-0.47916484778407264
40
-0.17472205749418843
40
-0.17472205749418843
40
-0.17472205749418843
40
0
40
0
40
0
40
0
10
-3.2900632745142802
20
1.8985063792476571
30
0
10
-3.249286961144747
20
1.8985063792476571
30
0
10
-3.2120025824623819
20
1.8919534251185388
30
0
10
-3.1815741926226018
20
1.8801529734998839
30
0
10
-3.1637879432355591
20
1.8732552777468625
30
0
10
-3.1479245204415642
20
1.8656108856747891
30
0
10
-3.1337559255917826
20
1.8492855181426602
30
0
10
-3.1256244600983867
20
1.8399162642284967
30
0
10
-3.1175881444288991
20
1.8255851384531128
30
0
10
-3.1175881444288991
20
1.8079795470743059
30
0
0
SPLINE
5
157
100
AcDbEntity
8
0
100
AcDbSpline
70
0
71
3
72
14
73
10
74
0
42
0.000000001
43
0.0000000001
44
0.0000000001
40
-1
40
-1
40
-1
40
-1
40
-0.79599568234336893
40
-0.79599568234336893
40
-0.79599568234336893
40
-0.5
40
-0.5
40
-0.5
40
0
40
0
40
0
40
0
10
-3.1175881444288991
20
1.8079795470743059
30
0
10
-3.1175881444288991
20
1.7911867074036354
30
0
10
-3.1245752383015208
20
1.7752493432290117
30
0
10
-3.1334643692069108
20
1.7642268994780046
30
0
10
-3.1463618627404015
20
1.748234121498363
30
0
10
-3.1619733252783422
20
1.7397271853140448
30
0
10
-3.1783134319164783
20
1.7331911426587912
30
0
10
-3.205915366020335
20
1.722150369017249
30
0
10
-3.2376447161168787
20
1.7174527149009575
30
0
10
-3.27185254164494
20
1.7174527149009575
30
0
0
SPLINE
5
158
100
AcDbEntity
8
0
100
AcDbSpline
70
0
71
3
72
14
73
10
74
0
42
0.000000001
43
0.0000000001
44
0.0000000001
40
-0.99997366196867865
40
-0.99997366196867865
40
-0.99997366196867865
40
-0.99997366196867865
40
-0.42890593221586309
40
-0.42890593221586309
40
-0.42890593221586309
40
0
40
0
40
0
40
6.6063218263820314e-05
40
6.6063218263820314e-05
40
6.6063218263820314e-05
40
6.6063218263820314e-05
10
-3.0022451579987819
20
-2.6055558502815814
30
0
10
-2.6897321930313707
20
-3.4076830874903026
30
0
10
-2.4100498716127623
20
-4.2406545576665966
30
0
10
-2.2163163121482055
20
-4.9300279486060559
30
0
10
-2.0708108517720611
20
-5.4477884899234255
30
0
10
-1.9736682613476821
20
-5.8835161456278193
30
0
10
-1.9477333632827469
20
-6.1688000243421071
30
0
10
-1.9477294533389808
20
-6.1688430337235358
30
0
10
-1.9477255433952148
20
-6.1688860431049628
30
0
10
-1.9477216334514404
20
-6.1689290524864751
30
0
0
SPLINE
5
159
100
AcDbEntity
8
0
100
AcDbSpline
70
0
71
3
72
20
73
16
74
0
42
0.000000001
43
0.0000000001
44
0.0000000001
40
-1.0002010941898036
40
-1.0002010941898036
40
-1.0002010941898036
40
-1.0002010941898036
40
-1
40
-1
40
-1
40
-0.74998992956289445
40
-0.74998992956289445
40
-0.74998992956289445
40
-0.35402307314919473
40
-0.35402307314919473
40
-0.35402307314919473
40
-0.14947472833324016
40
-0.14947472833324016
40
-0.14947472833324016
40
0
40
0
40
0
40
0
10
-1.9477216334672427
20
-6.1689290524878091
30
0
10
-1.9477179713946693
20
-6.1689720818405469
30
0
10
-1.9477143093220972
20
-6.1690151111932678
30
0
10
-1.9477106472495251
20
-6.1690581405459897
30
0
10
-1.9431214772299761
20
-6.2229808882756918
30
0
10
-1.9399399692288219
20
-6.2693916899370103
30
0
10
-1.9384054851436481
20
-6.3090719708173202
30
0
10
-1.9359751636835529
20
-6.3719177436068666
30
0
10
-1.9368280025934825
20
-6.4169016834733963
30
0
10
-1.945746639097788
20
-6.4530369547948823
30
0
10
-1.9503538235260343
20
-6.4717036937366963
30
0
10
-1.9569505782563767
20
-6.4896751414656046
30
0
10
-1.9734351197716105
20
-6.5048260787516279
30
0
10
-1.9854812811174998
20
-6.5158977021219355
30
0
10
-2.0037750752050365
20
-6.5229039084754579
30
0
10
-2.0198646568778051
20
-6.5229039084754579
30
0
0
SPLINE
5
160
100
AcDbEntity
8
0
100
AcDbSpline
70
0
71
3
72
17
73
13
74
0
42
0.000000001
43
0.0000000001
44
0.0000000001
40
-1
40
-1
40
-1
40
-1
40
-0.94688388888625907
40
-0.94688388888625907
40
-0.94688388888625907
40
-0.75764105804358839
40
-0.75764105804358839
40
-0.75764105804358839
40
-0.5
40
-0.5
40
-0.5
40
0
40
0
40
0
40
0
10
-2.0198646568778051
20
-6.5229039084754579
30
0
10
-2.0252992901771618
20
-6.5229039084754579
30
0
10
-2.0306861186889642
20
-6.5221611432961568
30
0
10
-2.0356891119040963
20
-6.5208370950477272
30
0
10
-2.0535138467889773
20
-6.5161197572484966
30
0
10
-2.0652175189393969
20
-6.5054062401406902
30
0
10
-2.0736069361194924
20
-6.4950676044836442
30
0
10
-2.0850285488116302
20
-6.4809922653146632
30
0
10
-2.0919357450007414
20
-6.4656573453743222
30
0
10
-2.097747197584408
20
-6.4485862034098025
30
0
10
-2.1090253933576206
20
-6.4154565033259905
30
0
10
-2.1149441722684905
20
-6.3753276175739693
30
0
10
-2.1149441722684905
20
-6.3322180455207384
30
0
0
SPLINE
5
161
100
AcDbEntity
8
0
100
AcDbSpline
70
0
71
3
72
14
73
10
74
0
42
0.000000001
43
0.0000000001
44
0.0000000001
40
-1
40
-1
40
-1
40
-1
40
-0.81008297931006623
40
-0.81008297931006623
40
-0.81008297931006623
40
-0.5
40
-0.5
40
-0.5
40
0
40
0
40
0
40
0
10
-2.1149441722684905
20
-6.3322180455207384
30
0
10
-2.1149441722684905
20
-6.2552357488631438
30
0
10
-2.1286079103687023
20
-6.1388588698949258
30
0
10
-2.1543305888933735
20
-5.9950219699126457
30
0
10
-2.1963287455819582
20
-5.760175328367823
30
0
10
-2.2700355108448833
20
-5.4508720236868786
30
0
10
-2.365436840091431
20
-5.1041181148018246
30
0
10
-2.5192687747864846
20
-4.5449872820541195
30
0
10
-2.7295268965345225
20
-3.888067197346853
30
0
10
-2.9543643455329778
20
-3.2839584959974641
30
0
0
SPLINE
5
162
100
AcDbEntity
8
0
100
AcDbSpline
70
0
71
3
72
14
73
10
74
0
42
0.000000001
43
0.0000000001
44
0.0000000001
40
-0.99997886119780688
40
-0.99997886119780688
40
-0.99997886119780688
40
-0.99997886119780688
40
-0.83461585191922993
40
-0.83461585191922993
40
-0.83461585191922993
40
-0.19983181882723736
40
-0.19983181882723736
40
-0.19983181882723736
40
0
40
0
40
0
40
0
10
-2.9543643703098783
20
-3.2839585052496014
30
0
10
-2.9989550480563287
20
-3.1645446474132068
30
0
10
-3.043140047402046
20
-3.0402157276065491
30
0
10
-3.0858476368335888
20
-2.9147797999536702
30
0
10
-3.2497905644645262
20
-2.4332650742752646
30
0
10
-3.391884759019693
20
-1.9363995177571172
30
0
10
-3.4512739949707383
20
-1.6366413857752802
30
0
10
-3.4699698953402698
20
-1.5422766733700066
30
0
10
-3.4807491374690014
20
-1.4683011853684051
30
0
10
-3.4807491374690014
20
-1.4153201707988987
30
0
0
SPLINE
5
163
100
AcDbEntity
8
0
100
AcDbSpline
70
0
71
3
72
14
73
10
74
0
42
0.000000001
43
0.0000000001
44
0.0000000001
40
-1
40
-1
40
-1
40
-1
40
-0.83839353702749819
40
-0.83839353702749819
40
-0.83839353702749819
40
-0.32519778332806487
40
-0.32519778332806487
40
-0.32519778332806487
40
0
40
0
40
0
40
0
10
-3.4807491374690014
20
-1.4153201707988987
30
0
10
-3.4807491374690014
20
-1.406023462925351
30
0
10
-3.4801518187748917
20
-1.3969193500629884
30
0
10
-3.4789568332651202
20
-1.3880607587215046
30
0
10
-3.4751620500734881
20
-1.3599295108952243
30
0
10
-3.466584185031818
20
-1.3336402365842541
30
0
10
-3.4457727063586576
20
-1.312453397044953
30
0
10
-3.4325850548952457
20
-1.2990278899080734
30
0
10
-3.4121133515716067
20
-1.2883718728868674
30
0
10
-3.3902223052956502
20
-1.2883718728868674
30
0
0
SPLINE
5
164
100
AcDbEntity
8
0
100
AcDbSpline
70
0
71
3
72
11
73
7
74
0
42
0.000000001
43
0.0000000001
44
0.0000000001
40
-1
40
-1
40
-1
40
-1
40
-0.500602465764588
40
-0.500602465764588
40
-0.500602465764588
40
0
40
0
40
0
40
0
10
-3.3902223052956502
20
-1.2883718728868674
30
0
10
-3.366868770609539
20
-1.2883718728868674
30
0
10
-3.3460930322827269
20
-1.2969182199299287
30
0
10
-3.3295107289819525
20
-1.3112647068689165
30
0
10
-3.3128884163925778
20
-1.3256458085852321
30
0
10
-3.2996954731223007
20
-1.3479325256477326
30
0
10
-3.2996954731223007
20
-1.3743460218428845
30
0
0
SPLINE
5
165
100
AcDbEntity
8
0
100
AcDbSpline
70
0
71
3
72
14
73
10
74
0
42
0.000000001
43
0.0000000001
44
0.0000000001
40
-1
40
-1
40
-1
40
-1
40
-0.80459529897638316
40
-0.80459529897638316
40
-0.80459529897638316
40
-0.5
40
-0.5
40
-0.5
40
-0.00011267694068186887
40
-0.00011267694068186887
40
-0.00011267694068186887
40
-0.00011267694068186887
10
-3.2996954731223007
20
-1.3743460218428845
30
0
10
-3.2996954731223007
20
-1.4094284760491895
30
0
10
-3.2934712888702142
20
-1.4677396165073719
30
0
10
-3.2820792715790112
20
-1.5385984432145683
30
0
10
-3.2643214853303646
20
-1.6490526205855907
30
0
10
-3.2343757044302595
20
-1.7914371788532342
30
0
10
-3.1985212060590666
20
-1.939681739426435
30
0
10
-3.1396785079916878
20
-2.1829736641280966
30
0
10
-3.0645738341386006
20
-2.4430275339020855
30
0
10
-3.0022451579987162
20
-2.6055558502815566
30
0
0
SPLINE
5
166
100
AcDbEntity
8
0
100
AcDbSpline
70
0
71
3
72
26
73
22
74
0
42
0.000000001
43
0.0000000001
44
0.0000000001
40
-1.0092550253728665
40
-1.0092550253728665
40
-1.0092550253728665
40
-1.0092550253728665
40
-1
40
-1
40
-1
40
-0.84676834991504046
40
-0.84676834991504046
40
-0.84676834991504046
40
-0.66790553259295415
40
-0.66790553259295415
40
-0.66790553259295415
40
-0.56604505032413011
40
-0.56604505032413011
40
-0.56604505032413011
40
-0.45427641039346001
40
-0.45427641039346001
40
-0.45427641039346001
40
-0.26798947957997993
40
-0.26798947957997993
40
-0.26798947957997993
40
-0.005755755209398211
40
-0.005755755209398211
40
-0.005755755209398211
40
-0.005755755209398211
10
0.35270766986391539
20
-5.7211784324652539
30
0
10
0.35249699387046163
20
-5.7216419196508523
30
0
10
0.35228631787700621
20
-5.7221054068364543
30
0
10
0.35207564188355073
20
-5.7225688940220563
30
0
10
0.3480273198882024
20
-5.731475202411823
30
0
10
0.34402739286526623
20
-5.7393541436455227
30
0
10
0.33929456740100816
20
-5.7468323758837663
30
0
10
0.33377007885075405
20
-5.7555614973542957
30
0
10
0.32843212814701667
20
-5.7645860575391117
30
0
10
0.31347655602686975
20
-5.7730683505573079
30
0
10
0.30495951591997528
20
-5.7778989266966923
30
0
10
0.2912875835110168
20
-5.7817403774031559
30
0
10
0.27780346711043263
20
-5.7791647723564346
30
0
10
0.26300772574743098
20
-5.7763386334391758
30
0
10
0.25245865770723586
20
-5.7674247096562441
30
0
10
0.2464923279519767
20
-5.7601759749800516
30
0
10
0.23654813198593644
20
-5.7480943701940692
30
0
10
0.23376810547531193
20
-5.7382757015951835
30
0
10
0.23071106972402844
20
-5.7276034351774889
30
0
10
0.22640771968711282
20
-5.7125802225561504
30
0
10
0.22361111291637045
20
-5.6955540921715642
30
0
10
0.22105811115861826
20
-5.6741971883244959
30
0
0
SPLINE
5
167
100
AcDbEntity
8
0
100
AcDbSpline
70
0
71
3
72
17
73
13
74
0
42
0.000000001
43
0.0000000001
44
0.0000000001
40
-0.99811278026297878
40
-0.99811278026297878
40
-0.99811278026297878
40
-0.99811278026297878
40
-0.92810601270231896
40
-0.92810601270231896
40
-0.92810601270231896
40
-0.54539492378430932
40
-0.54539492378430932
40
-0.54539492378430932
40
0
40
0
40
0
40
7.7840989073994981e-06
40
7.7840989073994981e-06
40
7.7840989073994981e-06
40
7.7840989073994981e-06
10
0.22105811115861376
20
-5.6741971883244968
30
0
10
0.21782262873786198
20
-5.6561388348766961
30
0
10
0.21592752750572058
20
-5.6371499717059219
30
0
10
0.21537632569812085
20
-5.6171345190022848
30
0
10
0.21236303067893145
20
-5.5077145876683833
30
0
10
0.24793114749413978
20
-5.3682415507322041
30
0
10
0.33049222500364001
20
-5.1637297529171162
30
0
10
0.44814858218719422
20
-4.8722835429374332
30
0
10
0.66327811551879556
20
-4.4482927814176962
30
0
10
1.013639000653094
20
-3.8022372485459393
30
0
10
1.013643997486706
20
-3.8022280345265127
30
0
10
1.0136489943203268
20
-3.8022188205070697
30
0
10
1.0136539911539084
20
-3.8022096064877005
30
0
0
SPLINE
5
168
100
AcDbEntity
8
0
100
AcDbSpline
70
0
71
3
72
14
73
10
74
0
42
0.000000001
43
0.0000000001
44
0.0000000001
40
-1.0000099133723317
40
-1.0000099133723317
40
-1.0000099133723317
40
-1.0000099133723317
40
-1
40
-1
40
-1
40
-0.74828810221575293
40
-0.74828810221575293
40
-0.74828810221575293
40
-5.6924651268692762e-05
40
-5.6924651268692762e-05
40
-5.6924651268692762e-05
40
-5.6924651268692762e-05
10
1.0136539911540257
20
-3.8022096064875277
30
0
10
1.0136590008552406
20
-3.8022003994690787
30
0
10
1.0136640105565078
20
-3.8021911924505329
30
0
10
1.0136690202577754
20
-3.8021819854319872
30
0
10
1.1408441839036199
20
-3.568454657650435
30
0
10
1.2388420728392529
20
-3.3873027849106769
30
0
10
1.3170243021660151
20
-3.2388465129856083
30
0
10
1.5494264334467591
20
-2.7975498872117321
30
0
10
1.6062455197170329
20
-2.6471045980680441
30
0
10
1.7389417067660264
20
-2.2524215043519464
30
0
0
SPLINE
5
169
100
AcDbEntity
8
0
100
AcDbSpline
70
0
71
3
72
14
73
10
74
0
42
0.000000001
43
0.0000000001
44
0.0000000001
40
-0.99996391433546317
40
-0.99996391433546317
40
-0.99996391433546317
40
-0.99996391433546317
40
-0.90513261215526375
40
-0.90513261215526375
40
-0.90513261215526375
40
0
40
0
40
0
40
9.8458058514216474e-05
40
9.8458058514216474e-05
40
9.8458058514216474e-05
40
9.8458058514216474e-05
10
1.7389417067659443
20
-2.2524215043519189
30
0
10
1.7650299931559126
20
-2.1737237500890854
30
0
10
1.7885069933391651
20
-2.0960457625269435
30
0
10
1.8093737123436859
20
-2.019409669939741
30
0
10
2.0085394671677843
20
-1.2879441614621996
30
0
10
1.9703502264671315
20
-0.6531002740598435
30
0
10
1.69615927637524
20
-0.12487947314752339
30
0
10
1.6961287954874025
20
-0.12482075261360107
30
0
10
1.6960983145995643
20
-0.12476203207967697
30
0
10
1.6960678337117787
20
-0.12470331154585529
30
0
0
SPLINE
5
170
100
AcDbEntity
8
0
100
AcDbSpline
70
0
71
3
72
14
73
10
74
0
42
0.000000001
43
0.0000000001
44
0.0000000001
40
-1.000205660198608
40
-1.000205660198608
40
-1.000205660198608
40
-1.000205660198608
40
-1
40
-1
40
-1
40
-0.55107246475484895
40
-0.55107246475484895
40
-0.55107246475484895
40
0
40
0
40
0
40
0
10
1.6960678337099759
20
-0.12470331154668861
30
0
10
1.6960378719264542
20
-0.12464432428537986
30
0
10
1.6960079101429442
20
-0.12458533702409498
30
0
10
1.6959779483594344
20
-0.12452634976281002
30
0
10
1.632829280972979
20
-0.00020241084572648991
30
0
10
1.5616087626202368
20
0.089152814330353505
30
0
10
1.4777214450998057
20
0.15040693648182052
30
0
10
1.3747471626191992
20
0.22559827009420477
30
0
10
1.2510492714542689
20
0.2605940853537459
30
0
10
1.0896179805620245
20
0.2605940853537459
30
0
0
SPLINE
5
171
100
AcDbEntity
8
0
100
AcDbSpline
70
0
71
3
72
23
73
19
74
0
42
0.000000001
43
0.0000000001
44
0.0000000001
40
-1
40
-1
40
-1
40
-1
40
-0.65434596353967112
40
-0.65434596353967112
40
-0.65434596353967112
40
-0.44718658770709147
40
-0.44718658770709147
40
-0.44718658770709147
40
-0.32258048664001993
40
-0.32258048664001993
40
-0.32258048664001993
40
-0.19600797143647122
40
-0.19600797143647122
40
-0.19600797143647122
40
0
40
0
40
0
40
0.0016037590209264209
40
0.0016037590209264209
40
0.0016037590209264209
40
0.0016037590209264209
10
1.0896179805620245
20
0.2605940853537459
30
0
10
1.007328401653373
20
0.2605940853537459
30
0
10
0.94328279614679578
20
0.2657761580853405
30
0
10
0.89523095102756611
20
0.27742745183737294
30
0
10
0.86643224135693309
20
0.28441037258098795
30
0
10
0.84279093555047713
20
0.292621064367109
30
0
10
0.82257029007512372
20
0.31075763557857811
30
0
10
0.81040759754133485
20
0.3216667600934775
30
0
10
0.79951461269354496
20
0.33852456962729277
30
0
10
0.79743614616110114
20
0.35778008828459001
30
0
10
0.79532487926064499
20
0.3773394790939622
30
0
10
0.80207277336711436
20
0.39537900670575482
30
0
10
0.81105118319089697
20
0.4090803575712979
30
0
10
0.82495499077072432
20
0.43029802860181832
30
0
10
0.8443515799877902
20
0.44571015426476651
30
0
10
0.8695951858775679
20
0.46186606203422348
30
0
10
0.86977772104704854
20
0.46198288454269099
30
0
10
0.86996025621652895
20
0.4620997070511586
30
0
10
0.87014279138600825
20
0.46221652955962533
30
0
0
SPLINE
5
172
100
AcDbEntity
8
0
100
AcDbSpline
70
0
71
3
72
17
73
13
74
0
42
0.000000001
43
0.0000000001
44
0.0000000001
40
-1.0020409276968694
40
-1.0020409276968694
40
-1.0020409276968694
40
-1.0020409276968694
40
-1
40
-1
40
-1
40
-0.80671201474141219
40
-0.80671201474141219
40
-0.80671201474141219
40
-0.5
40
-0.5
40
-0.5
40
-0.00016638887814630213
40
-0.00016638887814630213
40
-0.00016638887814630213
40
-0.00016638887814630213
10
0.87014279138598882
20
0.46221652955968467
30
0
10
0.87032862533144661
20
0.46232802992695959
30
0
10
0.87051445927691318
20
0.46243953029423951
30
0
10
0.87070029322237996
20
0.46255103066151948
30
0
10
0.89623360380950434
20
0.47787101701379381
30
0
10
0.92584614594633674
20
0.48603938574171218
30
0
10
0.95934837536965867
20
0.49153865666981683
30
0
10
1.0125101705583719
20
0.50026497488205002
30
0
10
1.0757114033698207
20
0.50102635627551773
30
0
10
1.1417067808943557
20
0.49555712609392633
30
0
10
1.2492562288455531
20
0.48664418841841262
30
0
10
1.3629979064808921
20
0.46175641831718334
30
0
10
1.4470406647420455
20
0.41848409177901863
30
0
0
SPLINE
5
173
100
AcDbEntity
8
0
100
AcDbSpline
70
0
71
3
72
14
73
10
74
0
42
0.000000001
43
0.0000000001
44
0.0000000001
40
-1
40
-1
40
-1
40
-1
40
-0.60033076026537757
40
-0.60033076026537757
40
-0.60033076026537757
40
0
40
0
40
0
40
8.0325676738189183e-05
40
8.0325676738189183e-05
40
8.0325676738189183e-05
40
8.0325676738189183e-05
10
1.4470406242357858
20
0.41848401310616307
30
0
10
1.5996848271299589
20
0.34025385912289957
30
0
10
1.7227629602484422
20
0.22507203466878881
30
0
10
1.819404762470058
20
0.062762554523537642
30
0
10
1.964567414065767
20
-0.18103747791972949
30
0
10
2.0526641401440822
20
-0.52916706792259194
30
0
10
2.1131231737295733
20
-1.0320763018382635
30
0
10
2.1131312190715037
20
-1.0321432244552278
30
0
10
2.1131392644134332
20
-1.0322101470721896
30
0
10
2.1131473097553695
20
-1.0322770696892032
30
0
0
SPLINE
5
174
100
AcDbEntity
8
0
100
AcDbSpline
70
0
71
3
72
11
73
7
74
0
42
0.000000001
43
0.0000000001
44
0.0000000001
40
-1.0002724961985003
40
-1.0002724961985003
40
-1.0002724961985003
40
-1.0002724961985003
40
-1
40
-1
40
-1
40
-0.00012123811362792636
40
-0.00012123811362792636
40
-0.00012123811362792636
40
-0.00012123811362792636
10
2.1131473097497091
20
-1.0322770696897663
30
0
10
2.1131547532829345
20
-1.032344061488792
30
0
10
2.1131621968161527
20
-1.0324110532877573
30
0
10
2.1131696403493714
20
-1.032478045086723
30
0
10
2.1408258013776043
20
-1.2813834943408204
30
0
10
2.1311500574836857
20
-1.4407408876304222
30
0
10
2.0714029899349242
20
-1.7073315665769053
30
0
0
SPLINE
5
175
100
AcDbEntity
8
0
100
AcDbSpline
70
0
71
3
72
8
73
4
74
0
42
0.000000001
43
0.0000000001
44
0.0000000001
40
-0.99982769902980539
40
-0.99982769902980539
40
-0.99982769902980539
40
-0.99982769902980539
40
-0.00040060761633432346
40
-0.00040060761633432346
40
-0.00040060761633432346
40
-0.00040060761633432346
10
2.0714029899349029
20
-1.7073315665769007
30
0
10
2.0303532826400503
20
-1.8943314244455898
30
0
10
1.9666336959030943
20
-2.1720036052500737
30
0
10
1.9349488485378772
20
-2.3213569161464522
30
0
0
SPLINE
5
176
100
AcDbEntity
8
0
100
AcDbSpline
70
0
71
3
72
17
73
13
74
0
42
0.000000001
43
0.0000000001
44
0.0000000001
40
-0.99978671781892592
40
-0.99978671781892592
40
-0.99978671781892592
40
-0.99978671781892592
40
-0.799884895678455
40
-0.799884895678455
40
-0.799884895678455
40
-0.5
40
-0.5
40
-0.5
40
0
40
0
40
0
40
7.5166166981106776e-05
40
7.5166166981106776e-05
40
7.5166166981106776e-05
40
7.5166166981106776e-05
10
1.934948848537934
20
-2.3213569161464642
30
0
10
1.9228948927867002
20
-2.3805034834946794
30
0
10
1.8958011805406532
20
-2.4606979601981411
30
0
10
1.8558192651960119
20
-2.5617990369093411
30
0
10
1.7958399594359715
20
-2.7134669182616817
30
0
10
1.7067353163010071
20
-2.9106329667490858
30
0
10
1.5961767920726191
20
-3.1382534578075312
30
0
10
1.4118418592006885
20
-3.5177665548967996
30
0
10
1.1679378709521713
20
-3.9816186292998608
30
0
10
0.9012047188658715
20
-4.4558108996755035
30
0
10
0.90116468055948262
20
-4.4558820788868614
30
0
10
0.90112464225309374
20
-4.4559532580982193
30
0
10
0.90108460394672607
20
-4.4560244373095399
30
0
0
SPLINE
5
177
100
AcDbEntity
8
0
100
AcDbSpline
70
0
71
3
72
17
73
13
74
0
42
0.000000001
43
0.0000000001
44
0.0000000001
40
-1.0002988051779735
40
-1.0002988051779735
40
-1.0002988051779735
40
-1.0002988051779735
40
-1
40
-1
40
-1
40
-0.82994253351701175
40
-0.82994253351701175
40
-0.82994253351701175
40
0
40
0
40
0
40
0.00085868252820188971
40
0.00085868252820188971
40
0.00085868252820188971
40
0.00085868252820188971
10
0.90108460394614986
20
-4.4560244373093276
30
0
10
0.90104379298660486
20
-4.4560951763058734
30
0
10
0.90100298202703233
20
-4.4561659153024662
30
0
10
0.90096217106745891
20
-4.4562366542990599
30
0
10
0.87805679448932628
20
-4.4959393070344893
30
0
10
0.85401823167685786
20
-4.5395739020076702
30
0
10
0.82956822231033522
20
-4.585660533811776
30
0
10
0.71024324859507459
20
-4.8105801257109757
30
0
10
0.58101812500328642
20
-5.0948314226498246
30
0
10
0.52215767521138523
20
-5.2677339939135326
30
0
10
0.52209512625882337
20
-5.267917731461683
30
0
10
0.52203257730626118
20
-5.2681014690098333
30
0
10
0.52197002835370143
20
-5.2682852065579784
30
0
0
SPLINE
5
178
100
AcDbEntity
8
0
100
AcDbSpline
70
0
71
3
72
17
73
13
74
0
42
0.000000001
43
0.0000000001
44
0.0000000001
40
-1.0008693277519967
40
-1.0008693277519967
40
-1.0008693277519967
40
-1.0008693277519967
40
-1
40
-1
40
-1
40
-0.94900869446111125
40
-0.94900869446111125
40
-0.94900869446111125
40
0
40
0
40
0
40
0.013088582390013995
40
0.013088582390013995
40
0.013088582390013995
40
0.013088582390013995
10
0.52197002835364992
20
-5.2682852065579313
30
0
10
0.52190274619791444
20
-5.2684672641558041
30
0
10
0.5218354640421774
20
-5.2686493217536814
30
0
10
0.52176818188644025
20
-5.2688313793515578
30
0
10
0.51781793007883969
20
-5.2795202960074183
30
0
10
0.51386784690252263
20
-5.2901969076921107
30
0
10
0.50992636367311528
20
-5.3008395391957785
30
0
10
0.43657068442055136
20
-5.4989115383765634
30
0
10
0.36606863186066774
20
-5.6855492004737744
30
0
10
0.35324396338833985
20
-5.7197483163999827
30
0
10
0.35306519888018301
20
-5.7202250217550672
30
0
10
0.35288643437202599
20
-5.7207017271101526
30
0
10
0.35270766986386975
20
-5.7211784324652335
30
0
0
SPLINE
5
179
100
AcDbEntity
8
0
100
AcDbSpline
70
0
71
3
72
17
73
13
74
0
42
0.000000001
43
0.0000000001
44
0.0000000001
40
-1.0001872981332312
40
-1.0001872981332312
40
-1.0001872981332312
40
-1.0001872981332312
40
-1
40
-1
40
-1
40
-0.51203058494280018
40
-0.51203058494280018
40
-0.51203058494280018
40
0
40
0
40
0
40
0.00029103379747349892
40
0.00029103379747349892
40
0.00029103379747349892
40
0.00029103379747349892
10
-0.57725917369612401
20
0.39200315702967337
30
0
10
-0.57721994907903473
20
0.39202106392008357
30
0
10
-0.57718072446191426
20
0.39203897081050815
30
0
10
-0.57714149984479191
20
0.39205687770093356
30
0
10
-0.4679444376536393
20
0.44190771044037169
30
0
10
-0.330369879205272
20
0.47162770825894296
30
0
10
-0.19478644161685962
20
0.48180290076814142
30
0
10
-0.052517551979969844
20
0.49247981946760494
30
0
10
0.086642325200582931
20
0.48221782723910289
30
0
10
0.19032920874916778
20
0.44333524590838302
30
0
10
0.19038220813657261
20
0.44331537113810615
30
0
10
0.19043520752398441
20
0.44329549636782672
30
0
10
0.19048820691146098
20
0.44327562159752293
30
0
0
SPLINE
5
180
100
AcDbEntity
8
0
100
AcDbSpline
70
0
71
3
72
20
73
16
74
0
42
0.000000001
43
0.0000000001
44
0.0000000001
40
-1
40
-1
40
-1
40
-1
40
-0.93317543717103724
40
-0.93317543717103724
40
-0.93317543717103724
40
-0.65101181251264095
40
-0.65101181251264095
40
-0.65101181251264095
40
-0.26478253776033156
40
-0.26478253776033156
40
-0.26478253776033156
40
-0.085629826999201797
40
-0.085629826999201797
40
-0.085629826999201797
40
0
40
0
40
0
40
0
10
0.19048809441310499
20
0.44327532160207977
30
0
10
0.20113066230626964
20
0.43923848550467282
30
0
10
0.21203511343169731
20
0.43432937965374258
30
0
10
0.22335789825144745
20
0.42866683653836296
30
0
10
0.27116783326209676
20
0.40475701023228711
30
0
10
0.32719647346902442
20
0.36721037921480615
30
0
10
0.38403690027817866
20
0.32430629411034773
30
0
10
0.46184082291239309
20
0.26557861901095142
30
0
10
0.53993608856109521
20
0.19742391267426321
30
0
10
0.59288233408027058
20
0.14100164310138819
30
0
10
0.61744148593500159
20
0.11483013513436989
30
0
10
0.63651005731684696
20
0.092171385246930054
30
0
10
0.64919434359673356
20
0.068776584651304803
30
0
10
0.65525706648348492
20
0.05759454493126244
30
0
10
0.661138925959182
20
0.046385696217087172
30
0
10
0.661138925959182
20
0.027880409096308258
30
0
0
SPLINE
5
181
100
AcDbEntity
8
0
100
AcDbSpline
70
0
71
3
72
23
73
19
74
0
42
0.000000001
43
0.0000000001
44
0.0000000001
40
-1
40
-1
40
-1
40
-1
40
-0.85797873082937359
40
-0.85797873082937359
40
-0.85797873082937359
40
-0.73072705324343601
40
-0.73072705324343601
40
-0.73072705324343601
40
-0.5921934945641103
40
-0.5921934945641103
40
-0.5921934945641103
40
-0.38367008184249757
40
-0.38367008184249757
40
-0.38367008184249757
40
0
40
0
40
0
40
0.0002098680844237002
40
0.0002098680844237002
40
0.0002098680844237002
40
0.0002098680844237002
10
0.661138925959182
20
0.027880409096308258
30
0
10
0.661138925959182
20
0.01287857336313241
30
0
10
0.65959237417378447
20
-0.0016425585832604104
30
0
10
0.65280305231217117
20
-0.016721799906875556
30
0
10
0.64671979026553217
20
-0.030232866005347588
30
0
10
0.63450374566110923
20
-0.044269518009431762
30
0
10
0.61892205681972201
20
-0.051233474216663986
30
0
10
0.60195892638104032
20
-0.058814840955215129
30
0
10
0.58477861337301362
20
-0.058060864965415987
30
0
10
0.5706202942121783
20
-0.054799147139667805
30
0
10
0.54930891624741263
20
-0.04988954589327009
30
0
10
0.53116941407646612
20
-0.039672474043958635
30
0
10
0.51096634054712842
20
-0.025890365316542343
30
0
10
0.47379394453987866
20
-0.00053214431682459815
30
0
10
0.43070836917601396
20
0.038630074454843309
30
0
10
0.37891370425689352
20
0.092210762302209523
30
0
10
0.378885995832625
20
0.092239426189383814
30
0
10
0.37885828740835653
20
0.092268090076558118
30
0
10
0.37883057898403533
20
0.092296753963787032
30
0
0
SPLINE
5
182
100
AcDbEntity
8
0
100
AcDbSpline
70
0
71
3
72
14
73
10
74
0
42
0.000000001
43
0.0000000001
44
0.0000000001
40
-1
40
-1
40
-1
40
-1
40
-0.64471874668166684
40
-0.64471874668166684
40
-0.64471874668166684
40
0
40
0
40
0
40
0.00030214070528756262
40
0.00030214070528756262
40
0.00030214070528756262
40
0.00030214070528756262
10
0.37883069325852164
20
0.092296864429013942
30
0
10
0.30278025110753931
20
0.17138932426603479
30
0
10
0.21492213181213282
20
0.22640607348298603
30
0
10
0.11558863275186519
20
0.25821383583749852
30
0
10
-0.064669031899689866
20
0.31593447403164276
30
0
10
-0.28506803480592163
20
0.29696724046852085
30
0
10
-0.53645917212458438
20
0.19126869409590141
30
0
10
-0.53658022060538968
20
0.19121779871192651
30
0
10
-0.53670126908619475
20
0.19116690332795164
30
0
10
-0.53682231756699694
20
0.19111600794397801
30
0
0
SPLINE
5
183
100
AcDbEntity
8
0
100
AcDbSpline
70
0
71
3
72
26
73
22
74
0
42
0.000000001
43
0.0000000001
44
0.0000000001
40
-1.0005356004735433
40
-1.0005356004735433
40
-1.0005356004735433
40
-1.0005356004735433
40
-1
40
-1
40
-1
40
-0.74373072781249927
40
-0.74373072781249927
40
-0.74373072781249927
40
-0.60960886258915603
40
-0.60960886258915603
40
-0.60960886258915603
40
-0.52218643634667716
40
-0.52218643634667716
40
-0.52218643634667716
40
-0.42321199678110732
40
-0.42321199678110732
40
-0.42321199678110732
40
-0.25739708113378729
40
-0.25739708113378729
40
-0.25739708113378729
40
0
40
0
40
0
40
0
10
-0.53682231756691845
20
0.1911160079437742
30
0
10
-0.53694423853127982
20
0.19106723955802968
30
0
10
-0.53706615949563474
20
0.19101847117228768
30
0
10
-0.53718808045998967
20
0.19096970278654571
30
0
10
-0.59840361622761751
20
0.1664834884794949
30
0
10
-0.64506472300434858
20
0.15426091682344029
30
0
10
-0.68337643235298318
20
0.15304626252129083
30
0
10
-0.7034273650062508
20
0.15241055735377218
30
0
10
-0.72215575023831546
20
0.15374409161164265
30
0
10
-0.7415025753267025
20
0.16561962792542079
30
0
10
-0.75411309477108379
20
0.17336026138404687
30
0
10
-0.76622826110792408
20
0.18809327740942738
30
0
10
-0.77016216330544884
20
0.20441395075415572
30
0
10
-0.77461589196571101
20
0.22289124047323614
30
0
10
-0.77017505944595877
20
0.23927802069491802
30
0
10
-0.76412190676050806
20
0.25215639951443836
30
0
10
-0.75398087432482142
20
0.27373194272545398
30
0
10
-0.73821700639378607
20
0.29030522222728755
30
0
10
-0.71725891727631541
20
0.30799215927441331
30
0
10
-0.68472534848415256
20
0.33544786766080659
30
0
10
-0.63856817942055044
20
0.36380080974668361
30
0
10
-0.57725909648370466
20
0.39200298789763277
30
0
0
SPLINE
5
184
100
AcDbEntity
8
0
100
AcDbSpline
70
0
71
3
72
29
73
25
74
0
42
0.000000001
43
0.0000000001
44
0.0000000001
40
-1
40
-1
40
-1
40
-1
40
-0.98859675047618345
40
-0.98859675047618345
40
-0.98859675047618345
40
-0.95743807141189952
40
-0.95743807141189952
40
-0.95743807141189952
40
-0.91487614282379903
40
-0.91487614282379903
40
-0.91487614282379903
40
-0.82975228564759795
40
-0.82975228564759795
40
-0.82975228564759795
40
-0.65950457129519591
40
-0.65950457129519591
40
-0.65950457129519591
40
-0.31900914259039176
40
-0.31900914259039176
40
-0.31900914259039176
40
0
40
0
40
0
40
0.00012203874217400426
40
0.00012203874217400426
40
0.00012203874217400426
40
0.00012203874217400426
10
-0.56703187837457791
20
1.7123731995102698
30
0
10
-0.56703187837457791
20
1.7188973657316067
30
0
10
-0.56580615365766163
20
1.7242837076317867
30
0
10
-0.56435825017561203
20
1.7286283497462749
30
0
10
-0.56040194282488542
20
1.7404998175249793
30
0
10
-0.55540980768915515
20
1.746010190071583
30
0
10
-0.55084780810063372
20
1.7512061071966953
30
0
10
-0.54461623774731416
20
1.7583035920795576
30
0
10
-0.53814324807690173
20
1.7639049516749572
30
0
10
-0.53057164394054335
20
1.7699411699136649
30
0
10
-0.51542843566782659
20
1.7820136063910808
30
0
10
-0.49593458822628772
20
1.7951382777251794
30
0
10
-0.47171045526710009
20
1.8102589698218843
30
0
10
-0.42326218934872489
20
1.840500354015294
30
0
10
-0.35635420320777739
20
1.8780590349761184
30
0
10
-0.27774786088328524
20
1.9198689364687427
30
0
10
-0.12053517623430084
20
2.0034887394539909
30
0
10
0.082989026447084349
20
2.1037210699829432
30
0
10
0.27135009511357239
20
2.1904866222085908
30
0
10
0.44782501356189297
20
2.2717770070080952
30
0
10
0.60988861127959004
20
2.340971757015653
30
0
10
0.71136465318921627
20
2.3742922483889632
30
0
10
0.71140187863933502
20
2.3743044716710915
30
0
10
0.71143910408945799
20
2.3743166949532215
30
0
10
0.71147632953944151
20
2.3743289182353053
30
0
0
SPLINE
5
185
100
AcDbEntity
8
0
100
AcDbSpline
70
0
71
3
72
26
73
22
74
0
42
0.000000001
43
0.0000000001
44
0.0000000001
40
-1.0001321075374086
40
-1.0001321075374086
40
-1.0001321075374086
40
-1.0001321075374086
40
-1
40
-1
40
-1
40
-0.48035630371985233
40
-0.48035630371985233
40
-0.48035630371985233
40
-0.24668900862251303
40
-0.24668900862251303
40
-0.24668900862251303
40
-0.15267552175880844
40
-0.15267552175880844
40
-0.15267552175880844
40
-0.10141687099387255
40
-0.10141687099387255
40
-0.10141687099387255
40
-0.058962231077288006
40
-0.058962231077288006
40
-0.058962231077288006
40
-0.0015861784589247989
40
-0.0015861784589247989
40
-0.0015861784589247989
40
-0.0015861784589247989
10
0.71147632953776485
20
2.374328918240955
30
0
10
0.71151361905139465
20
2.3743409471163197
30
0
10
0.71155090856504488
20
2.3743529759916906
30
0
10
0.71158819807869755
20
2.3743650048670624
30
0
10
0.86168509544041327
20
2.4227833588547116
30
0
10
1.0354887264221122
20
2.4593124186655309
30
0
10
1.1618381609640904
20
2.4753511460259698
30
0
10
1.2186534958134247
20
2.4825632532177737
30
0
10
1.2648623999745123
20
2.4859504389522038
30
0
10
1.2999008788955568
20
2.4832292911590224
30
0
10
1.3139982286183565
20
2.4821344670322572
30
0
10
1.3260375217519826
20
2.4810035324665169
30
0
10
1.3410998853167901
20
2.4739557890230111
30
0
10
1.3493122861054376
20
2.4701131720549236
30
0
10
1.3600874130346037
20
2.4637643535767846
30
0
10
1.3677534813062286
20
2.4495253263966257
30
0
10
1.3741028518649723
20
2.4377319459101146
30
0
10
1.3750412052665202
20
2.4214362715703559
30
0
10
1.371794610257818
20
2.4102682069789756
30
0
10
1.3674069436466816
20
2.395174934184781
30
0
10
1.35984689635992
20
2.3875114628037952
30
0
10
1.3529927701645017
20
2.381042115111824
30
0
0
SPLINE
5
186
100
AcDbEntity
8
0
100
AcDbSpline
70
0
71
3
72
17
73
13
74
0
42
0.000000001
43
0.0000000001
44
0.0000000001
40
-0.99689674330984479
40
-0.99689674330984479
40
-0.99689674330984479
40
-0.99689674330984479
40
-0.93402396472904692
40
-0.93402396472904692
40
-0.93402396472904692
40
-0.75
40
-0.75
40
-0.75
40
-0.5
40
-0.5
40
-0.5
40
0
40
0
40
0
40
0
10
1.3529927701644557
20
2.3810421151118697
30
0
10
1.3487277186278515
20
2.3768755639183108
30
0
10
1.3446043326947856
20
2.3737139745630329
30
0
10
1.3403622750959832
20
2.3707802889624583
30
0
10
1.3279460867938007
20
2.3621936085632051
30
0
10
1.3141130093529354
20
2.3553841951687837
30
0
10
1.2972240705390763
20
2.3479988626027235
30
0
10
1.2742801310924861
20
2.3379657500989599
30
0
10
1.2461120754127577
20
2.3275426742823284
30
0
10
1.2136817126509913
20
2.3167325533617391
30
0
10
1.1488209871274586
20
2.2951123115205609
30
0
10
1.0671239026100572
20
2.272125630314811
30
0
10
0.98188403797295132
20
2.2513916091868671
30
0
0
SPLINE
5
187
100
AcDbEntity
8
0
100
AcDbSpline
70
0
71
3
72
11
73
7
74
0
42
0.000000001
43
0.0000000001
44
0.0000000001
40
-1
40
-1
40
-1
40
-1
40
-0.62231176235753671
40
-0.62231176235753671
40
-0.62231176235753671
40
0
40
0
40
0
40
0
10
0.98188403797295132
20
2.2513916091868671
30
0
10
0.92200599837071051
20
2.2368266806349708
30
0
10
0.82782148492590135
20
2.2054882082096814
30
0
10
0.71871414568421788
20
2.1642646059557924
30
0
10
0.53893946963537087
20
2.0963410382813632
30
0
10
0.31709272334229771
20
2.0014200053173945
30
0
10
0.12588531950446533
20
1.9086281769843292
30
0
0
SPLINE
5
188
100
AcDbEntity
8
0
100
AcDbSpline
70
0
71
3
72
20
73
16
74
0
42
0.000000001
43
0.0000000001
44
0.0000000001
40
-0.9999428979994277
40
-0.9999428979994277
40
-0.9999428979994277
40
-0.9999428979994277
40
-0.58193377944594804
40
-0.58193377944594804
40
-0.58193377944594804
40
-0.35053228331911984
40
-0.35053228331911984
40
-0.35053228331911984
40
-0.22608284040559759
40
-0.22608284040559759
40
-0.22608284040559759
40
-0.13306938176944938
40
-0.13306938176944938
40
-0.13306938176944938
40
0
40
0
40
0
40
0
10
0.12588538060158375
20
1.9086280518093486
30
0
10
-0.1196114995926318
20
1.7887342941540993
30
0
10
-0.26942187737867312
20
1.7158187761784751
30
0
10
-0.36304549610401071
20
1.6755770300612669
30
0
10
-0.41487366081204707
20
1.6533000034487801
30
0
10
-0.44849090653563767
20
1.64064804033323
30
0
10
-0.4779584959352764
20
1.6358691358633661
30
0
10
-0.4938063843291331
20
1.6332990055532079
30
0
10
-0.51016839746316844
20
1.6322316879571079
30
0
10
-0.52830517085939466
20
1.6403558684948321
30
0
10
-0.54186058728062625
20
1.6464278774384418
30
0
10
-0.5537901532074857
20
1.6591337407438282
30
0
10
-0.5593560459596626
20
1.6709209479573397
30
0
10
-0.56731887110762891
20
1.6877842750466603
30
0
10
-0.56703187837457791
20
1.7008906095215761
30
0
10
-0.56703187837457791
20
1.7123731995102698
30
0
0
SPLINE
5
189
100
AcDbEntity
8
0
100
AcDbSpline
70
0
71
3
72
11
73
7
74
0
42
0.000000001
43
0.0000000001
44
0.0000000001
40
-0.99995489305941088
40
-0.99995489305941088
40
-0.99995489305941088
40
-0.99995489305941088
40
-0.72592366362921967
40
-0.72592366362921967
40
-0.72592366362921967
40
-0.00037363219287416796
40
-0.00037363219287416796
40
-0.00037363219287416796
40
-0.00037363219287416796
10
-4.0898210694720749
20
4.2041324096393273
30
0
10
-3.9734985310767512
20
4.0227668440908788
30
0
10
-3.8765517142523511
20
3.8641232813954729
30
0
10
-3.7961321030635173
20
3.7220498394674149
30
0
10
-3.5832058189042835
20
3.3458832599446517
30
0
10
-3.4855600670505962
20
3.0842977213197025
30
0
10
-3.4548546286151272
20
2.8289838685038489
30
0
0
SPLINE
5
190
100
AcDbEntity
8
0
100
AcDbSpline
70
0
71
3
72
29
73
25
74
0
42
0.000000001
43
0.0000000001
44
0.0000000001
40
-0.99951665154166314
40
-0.99951665154166314
40
-0.99951665154166314
40
-0.99951665154166314
40
-0.89867137470815017
40
-0.89867137470815017
40
-0.89867137470815017
40
-0.70690217975139846
40
-0.70690217975139846
40
-0.70690217975139846
40
-0.61703287330970336
40
-0.61703287330970336
40
-0.61703287330970336
40
-0.56368277712056114
40
-0.56368277712056114
40
-0.56368277712056114
40
-0.5064829070991328
40
-0.5064829070991328
40
-0.5064829070991328
40
-0.43015654865318187
40
-0.43015654865318187
40
-0.43015654865318187
40
-0.29277497796970364
40
-0.29277497796970364
40
-0.29277497796970364
40
-0.00055819285056790029
40
-0.00055819285056790029
40
-0.00055819285056790029
40
-0.00055819285056790029
10
-3.4548546286151152
20
2.8289838685038506
30
0
10
-3.4510956838751121
20
2.8016860993028843
30
0
10
-3.4483990793133046
20
2.777377928880115
30
0
10
-3.446687634886898
20
2.7558778061363687
30
0
10
-3.443433121337323
20
2.7149927854442599
30
0
10
-3.4431025032967728
20
2.6853089699284047
30
0
10
-3.4479640757327257
20
2.6600168919091733
30
0
10
-3.4502423673172196
20
2.6481641983075228
30
0
10
-3.452647994972518
20
2.6365754459338864
30
0
10
-3.4638050753080436
20
2.6229712780973253
30
0
10
-3.4704283745484403
20
2.6148952876241527
30
0
10
-3.48227254154944
20
2.6061308946264066
30
0
10
-3.49634120044986
20
2.6036839127721549
30
0
10
-3.5114250619227021
20
2.6010603552904259
30
0
10
-3.5249700053266273
20
2.6056981327321886
30
0
10
-3.5336880076986326
20
2.6107492079472454
30
0
10
-3.5453211350768772
20
2.6174892613294896
30
0
10
-3.5517863895568569
20
2.625027997831626
30
0
10
-3.5579419654316253
20
2.6329661234513226
30
0
10
-3.5690215282373874
20
2.6472541386025878
30
0
10
-3.5781314106503106
20
2.6641853988346531
30
0
10
-3.5880466572824621
20
2.6858642722507642
30
0
10
-3.6091368332070477
20
2.731976211888258
30
0
10
-3.6322280059795871
20
2.7990556804513824
30
0
10
-3.6565785981157704
20
2.8882717268078051
30
0
0
SPLINE
5
191
100
AcDbEntity
8
0
100
AcDbSpline
70
0
71
3
72
11
73
7
74
0
42
0.000000001
43
0.0000000001
44
0.0000000001
40
-0.99920100969211156
40
-0.99920100969211156
40
-0.99920100969211156
40
-0.99920100969211156
40
-0.86321133682362949
40
-0.86321133682362949
40
-0.86321133682362949
40
-0.00060010895418747276
40
-0.00060010895418747276
40
-0.00060010895418747276
40
-0.00060010895418747276
10
-3.6565785981157717
20
2.8882717268078055
30
0
10
-3.6649561306556726
20
2.9163522400447954
30
0
10
-3.675311499783493
20
2.9473076670693206
30
0
10
-3.6872736132549453
20
2.9802488358862682
30
0
10
-3.7631518264447217
20
3.1892016297364494
30
0
10
-3.9041012072829737
20
3.4774901402491851
30
0
10
-4.0151124918019194
20
3.6498435582065079
30
0
0
SPLINE
5
192
100
AcDbEntity
8
0
100
AcDbSpline
70
0
71
3
72
14
73
10
74
0
42
0.000000001
43
0.0000000001
44
0.0000000001
40
-0.99986294001854814
40
-0.99986294001854814
40
-0.99986294001854814
40
-0.99986294001854814
40
-0.91688136668981624
40
-0.91688136668981624
40
-0.91688136668981624
40
0
40
0
40
0
40
1.3589268734506261e-05
40
1.3589268734506261e-05
40
1.3589268734506261e-05
40
1.3589268734506261e-05
10
-4.0151124918019017
20
3.6498435582065198
30
0
10
-4.0639104944468301
20
3.7224753748821571
30
0
10
-4.1100569449766358
20
3.7918362009134685
30
0
10
-4.1538058586123485
20
3.8584216641886426
30
0
10
-4.6371970756793184
20
4.5941388616387613
30
0
10
-4.8283877372125437
20
4.9933407420070317
30
0
10
-5.0628480787959838
20
5.7092821421993234
30
0
10
-5.0628515433836077
20
5.7092927215651006
30
0
10
-5.0628550079712245
20
5.7093033009308591
30
0
10
-5.0628584725585535
20
5.7093138802957428
30
0
0
SPLINE
5
193
100
AcDbEntity
8
0
100
AcDbSpline
70
0
71
3
72
11
73
7
74
0
42
0.000000001
43
0.0000000001
44
0.0000000001
40
-1.0000130611763227
40
-1.0000130611763227
40
-1.0000130611763227
40
-1.0000130611763227
40
-1
40
-1
40
-1
40
-4.3097988845202502e-05
40
-4.3097988845202502e-05
40
-4.3097988845202502e-05
40
-4.3097988845202502e-05
10
-5.0628584725585739
20
5.7093138802958867
30
0
10
-5.0628619214359123
20
5.7093244647815125
30
0
10
-5.062865370313018
20
5.709335049266425
30
0
10
-5.0628688191901263
20
5.7093456337513446
30
0
10
-5.3271639228656147
20
6.5204581933071468
30
0
10
-5.3743159316421059
20
6.7420011717218342
30
0
10
-5.4654465539727113
20
7.584941554908978
30
0
0
SPLINE
5
194
100
AcDbEntity
8
0
100
AcDbSpline
70
0
71
3
72
11
73
7
74
0
42
0.000000001
43
0.0000000001
44
0.0000000001
40
-0.99993080100520382
40
-0.99993080100520382
40
-0.99993080100520382
40
-0.99993080100520382
40
0
40
0
40
0
40
4.4451706837740586e-05
40
4.4451706837740586e-05
40
4.4451706837740586e-05
40
4.4451706837740586e-05
10
-5.4654465539734334
20
7.5849415549088981
30
0
10
-5.524837384862912
20
8.1103635700424732
30
0
10
-5.5476753388424989
20
8.6133248264131268
30
0
10
-5.5431134004046747
20
9.2291865155190926
30
0
10
-5.5431131980301345
20
9.2292138360819997
30
0
10
-5.5431129956555951
20
9.2292411566448962
30
0
10
-5.543112793281054
20
9.2292684772079223
30
0
0
SPLINE
5
195
100
AcDbEntity
8
0
100
AcDbSpline
70
0
71
3
72
17
73
13
74
0
42
0.000000001
43
0.0000000001
44
0.0000000001
40
-1.0000082845665603
40
-1.0000082845665603
40
-1.0000082845665603
40
-1.0000082845665603
40
-1
40
-1
40
-1
40
-0.56524851780473118
40
-0.56524851780473118
40
-0.56524851780473118
40
0
40
0
40
0
40
5.0183585022637434e-05
40
5.0183585022637434e-05
40
5.0183585022637434e-05
40
5.0183585022637434e-05
10
-5.5431127932125879
20
9.2292684772076932
30
0
10
-5.5431124914765357
20
9.2292957843204402
30
0
10
-5.5431121897404783
20
9.2293230914336153
30
0
10
-5.5431118880044208
20
9.2293503985468011
30
0
10
-5.5272786397709979
20
10.66225936367154
30
0
10
-5.5217853414755513
20
11.56672978190579
30
0
10
-5.5344368501686398
20
12.199683001928356
30
0
10
-5.5508858948059396
20
13.022626416982186
30
0
10
-5.5975747358822572
20
13.384689285625278
30
0
10
-5.6924793114999428
20
13.8592121637137
30
0
10
-5.6924877648886492
20
13.859254430657233
30
0
10
-5.6924962182773573
20
13.859296697600776
30
0
10
-5.6925046716660157
20
13.859338964544069
30
0
0
SPLINE
5
196
100
AcDbEntity
8
0
100
AcDbSpline
70
0
71
3
72
29
73
25
74
0
42
0.000000001
43
0.0000000001
44
0.0000000001
40
-1.0001387177926244
40
-1.0001387177926244
40
-1.0001387177926244
40
-1.0001387177926244
40
-1
40
-1
40
-1
40
-0.8068749155185353
40
-0.8068749155185353
40
-0.8068749155185353
40
-0.4617206551951199
40
-0.4617206551951199
40
-0.4617206551951199
40
-0.30529799541106722
40
-0.30529799541106722
40
-0.30529799541106722
40
-0.21359716239650584
40
-0.21359716239650584
40
-0.21359716239650584
40
-0.12581475284885832
40
-0.12581475284885832
40
-0.12581475284885832
40
0
40
0
40
0
40
0.0065915384730327112
40
0.0065915384730327112
40
0.0065915384730327112
40
0.0065915384730327112
10
-5.6925046716508119
20
13.859338964547311
30
0
10
-5.6925128816469908
20
13.859381277604543
30
0
10
-5.6925210916431528
20
13.859423590661686
30
0
10
-5.6925293016393139
20
13.859465903718824
30
0
10
-5.7040394663339784
20
13.918787521760558
30
0
10
-5.7133596047652633
20
13.97125366293186
30
0
10
-5.7204287287890807
20
14.017045602315113
30
0
10
-5.7330627078505092
20
14.098885219416321
30
0
10
-5.738940813783076
20
14.158270039294456
30
0
10
-5.7359578192009195
20
14.202123810283211
30
0
10
-5.734605936868002
20
14.221998180349495
30
0
10
-5.7325542362438959
20
14.238987275103703
30
0
10
-5.7220007355593676
20
14.257401566036377
30
0
10
-5.71581387743199
20
14.268196714387836
30
0
10
-5.7046386734072057
20
14.280265960221849
30
0
10
-5.6890236786796464
20
14.285900660133414
30
0
10
-5.6740759206582858
20
14.291294586437626
30
0
10
-5.6583976858317584
20
14.289564671491046
30
0
10
-5.647003737035833
20
14.285598080132454
30
0
10
-5.630673280180992
20
14.279912935306683
30
0
10
-5.6196915594521473
20
14.271001712690458
30
0
10
-5.6085434933929692
20
14.260596851035222
30
0
10
-5.6080933555942227
20
14.260176722423058
30
0
10
-5.6076432177954789
20
14.259756593810899
30
0
10
-5.6071930799967014
20
14.259336465198707
30
0
0
SPLINE
5
197
100
AcDbEntity
8
0
100
AcDbSpline
70
0
71
3
72
26
73
22
74
0
42
0.000000001
43
0.0000000001
44
0.0000000001
40
-1.0090977018833289
40
-1.0090977018833289
40
-1.0090977018833289
40
-1.0090977018833289
40
-1
40
-1
40
-1
40
-0.99157945274460191
40
-0.99157945274460191
40
-0.99157945274460191
40
-0.94113010636074124
40
-0.94113010636074124
40
-0.94113010636074124
40
-0.875
40
-0.875
40
-0.875
40
-0.75
40
-0.75
40
-0.75
40
-0.5
40
-0.5
40
-0.5
40
-0.00029020232527853006
40
-0.00029020232527853006
40
-0.00029020232527853006
40
-0.00029020232527853006
10
-5.6071930799968035
20
14.259336465198626
30
0
10
-5.6067788904499753
20
14.258880856697118
30
0
10
-5.6063647009031614
20
14.258425248195621
30
0
10
-5.6059505113563439
20
14.257969639694121
30
0
10
-5.6044553126645162
20
14.25632492113311
30
0
10
-5.6032001694740554
20
14.254769487317088
30
0
10
-5.602079732099412
20
14.253276159846374
30
0
10
-5.5953669459228816
20
14.244329307278541
30
0
10
-5.5922331262805711
20
14.237041135192351
30
0
10
-5.5885994916659607
20
14.228351568803637
30
0
10
-5.5838364439604087
20
14.216961095176051
30
0
10
-5.5793021599090729
20
14.20366899818282
30
0
10
-5.5744469898612454
20
14.187790204337876
30
0
10
-5.5652696833456954
20
14.157775898602592
30
0
10
-5.5551678629825325
20
14.118763158263222
30
0
10
-5.5442192728237334
20
14.072087589691501
30
0
10
-5.5223220925061351
20
13.978736452548056
30
0
10
-5.4971967865065405
20
13.855039386440216
30
0
10
-5.4720630727091448
20
13.717946402090789
30
0
10
-5.421824820563101
20
13.443919572203281
30
0
10
-5.371651147751888
20
13.117010669674627
30
0
10
-5.348645677690838
20
12.87568652798887
30
0
0
SPLINE
5
198
100
AcDbEntity
8
0
100
AcDbSpline
70
0
71
3
72
14
73
10
74
0
42
0.000000001
43
0.0000000001
44
0.0000000001
40
-0.99956913307553052
40
-0.99956913307553052
40
-0.99956913307553052
40
-0.99956913307553052
40
-0.65373424358682042
40
-0.65373424358682042
40
-0.65373424358682042
40
0
40
0
40
0
40
2.1295432539211715e-05
40
2.1295432539211715e-05
40
2.1295432539211715e-05
40
2.1295432539211715e-05
10
-5.3486456776905076
20
12.875686527988906
30
0
10
-5.3357355554864911
20
12.762484639315925
30
0
10
-5.3270211824239579
20
12.591644546497774
30
0
10
-5.3216657812405916
20
12.361805062416478
30
0
10
-5.3115424268650751
20
11.927337789625085
30
0
10
-5.3137355518838536
20
11.283155117868672
30
0
10
-5.3256439363146715
20
10.434682727172952
30
0
10
-5.3256443241201037
20
10.434655096035828
30
0
10
-5.3256447119255377
20
10.434627464898711
30
0
10
-5.3256450997309708
20
10.434599833761723
30
0
0
SPLINE
5
199
100
AcDbEntity
8
0
100
AcDbSpline
70
0
71
3
72
17
73
13
74
0
42
0.000000001
43
0.0000000001
44
0.0000000001
40
-1.0000153723964544
40
-1.0000153723964544
40
-1.0000153723964544
40
-1.0000153723964544
40
-1
40
-1
40
-1
40
-0.79029487274840349
40
-0.79029487274840349
40
-0.79029487274840349
40
0
40
0
40
0
40
1.5404849755708721e-05
40
1.5404849755708721e-05
40
1.5404849755708721e-05
40
1.5404849755708721e-05
10
-5.3256450996490816
20
10.434599833760366
30
0
10
-5.3256455895486408
20
10.434572189428179
30
0
10
-5.3256460794481999
20
10.434544545095907
30
0
10
-5.325646569347759
20
10.434516900763642
30
0
10
-5.3323288022300233
20
10.057448045264437
30
0
10
-5.3372082242839536
20
9.749492734051465
30
0
10
-5.3399496278820022
20
9.4909350329984576
30
0
10
-5.3502808831835154
20
8.5165343202936565
30
0
10
-5.3304746108326304
20
8.2457193863324072
30
0
10
-5.2621618890030692
20
7.6129278578059161
30
0
10
-5.2621605564684488
20
7.6129155143273275
30
0
10
-5.2621592239338293
20
7.6129031708487434
30
0
10
-5.2621578913991884
20
7.6128908273699709
30
0
0
SPLINE
5
200
100
AcDbEntity
8
0
100
AcDbSpline
70
0
71
3
72
17
73
13
74
0
42
0.000000001
43
0.0000000001
44
0.0000000001
40
-1.0000131001478496
40
-1.0000131001478496
40
-1.0000131001478496
40
-1.0000131001478496
40
-1
40
-1
40
-1
40
-0.9332883694555465
40
-0.9332883694555465
40
-0.9332883694555465
40
0
40
0
40
0
40
6.6305499273806119e-05
40
6.6305499273806119e-05
40
6.6305499273806119e-05
40
6.6305499273806119e-05
10
-5.2621578913992977
20
7.6128908273705953
30
0
10
-5.2621565793011378
20
7.6128784817197284
30
0
10
-5.2621552672030232
20
7.6128661360692789
30
0
10
-5.2621539551049068
20
7.6128537904188223
30
0
10
-5.2554767661969439
20
7.5500275129666203
30
0
10
-5.2490645059403427
20
7.490558297206694
30
0
10
-5.2428366765588912
20
7.4340633935251175
30
0
10
-5.1557100289080173
20
6.6437059084926826
30
0
10
-5.1059311736329223
20
6.4388063760847034
30
0
10
-4.8682600952109478
20
5.747013772820738
30
0
10
-4.8682431906066466
20
5.7469645683475052
30
0
10
-4.868226286002348
20
5.7469153638742796
30
0
10
-4.8682093813980734
20
5.7468661594011223
30
0
0
SPLINE
5
201
100
AcDbEntity
8
0
100
AcDbSpline
70
0
71
3
72
14
73
10
74
0
42
0.000000001
43
0.0000000001
44
0.0000000001
40
-1.0000808447469571
40
-1.0000808447469571
40
-1.0000808447469571
40
-1.0000808447469571
40
-1
40
-1
40
-1
40
-0.6329477006158396
40
-0.6329477006158396
40
-0.6329477006158396
40
-3.9347025356901184e-05
40
-3.9347025356901184e-05
40
-3.9347025356901184e-05
40
-3.9347025356901184e-05
10
-4.8682093814026759
20
5.7468661593995094
30
0
10
-4.8681928186791454
20
5.7468168392894432
30
0
10
-4.8681762559556265
20
5.7467675191794125
30
0
10
-4.8681596932321103
20
5.7467181990693827
30
0
10
-4.7931393144216603
20
5.523324182167153
30
0
10
-4.7331572068736758
20
5.3585313695138863
30
0
10
-4.6637161943709255
20
5.20209318762726
30
0
10
-4.5439790425576518
20
4.9323467991625254
30
0
10
-4.3950427238181282
20
4.6850020549610667
30
0
10
-4.0898210694720394
20
4.2041324096393495
30
0
0
SPLINE
5
202
100
AcDbEntity
8
0
100
AcDbSpline
70
0
71
3
72
14
73
10
74
0
42
0.000000001
43
0.0000000001
44
0.0000000001
40
-1
40
-1
40
-1
40
-1
40
-0.9395119710613431
40
-0.9395119710613431
40
-0.9395119710613431
40
-0.53123179719594293
40
-0.53123179719594293
40
-0.53123179719594293
40
-0.0031010497597533746
40
-0.0031010497597533746
40
-0.0031010497597533746
40
-0.0031010497597533746
10
-1.7062563470550371
20
-11.545040329369357
30
0
10
-1.7062563470550371
20
-11.549511693128146
30
0
10
-1.7065936198857234
20
-11.553878853682706
30
0
10
-1.7071965299874901
20
-11.558121940141739
30
0
10
-1.7112660334164091
20
-11.586761790168532
30
0
10
-1.7256647826110976
20
-11.609823177154164
30
0
10
-1.7439612783505245
20
-11.63096203102014
30
0
10
-1.76762870721155
20
-11.658306191738221
30
0
10
-1.7994392339395437
20
-11.682215086317539
30
0
10
-1.8364577834706726
20
-11.699413360690881
30
0
0
SPLINE
5
203
100
AcDbEntity
8
0
100
AcDbSpline
70
0
71
3
72
17
73
13
74
0
42
0.000000001
43
0.0000000001
44
0.0000000001
40
-0.99851428608732951
40
-0.99851428608732951
40
-0.99851428608732951
40
-0.99851428608732951
40
-0.78555717688933058
40
-0.78555717688933058
40
-0.78555717688933058
40
-0.37421553322035334
40
-0.37421553322035334
40
-0.37421553322035334
40
-0.16553292899303881
40
-0.16553292899303881
40
-0.16553292899303881
40
0
40
0
40
0
40
0
10
-1.8364577834706679
20
-11.699413360690892
30
0
10
-1.8658112245864629
20
-11.714048064718201
30
0
10
-1.8953441441107404
20
-11.725778368929696
30
0
10
-1.9239430489688567
20
-11.734636854217932
30
0
10
-1.979183846403483
20
-11.751747641984551
30
0
10
-2.0300252129132512
20
-11.759033546062684
30
0
10
-2.0739279680004956
20
-11.75235659471123
30
0
10
-2.0962007949932637
20
-11.74896923138985
30
0
10
-2.1180785093516152
20
-11.742114006004785
30
0
10
-2.1363332754926954
20
-11.724662710973577
30
0
10
-2.1508134709963147
20
-11.710819851421705
30
0
10
-2.16047100444184
20
-11.688837796018362
30
0
10
-2.16047100444184
20
-11.667962776237401
30
0
0
SPLINE
5
204
100
AcDbEntity
8
0
100
AcDbSpline
70
0
71
3
72
14
73
10
74
0
42
0.000000001
43
0.0000000001
44
0.0000000001
40
-1
40
-1
40
-1
40
-1
40
-0.84760493187189478
40
-0.84760493187189478
40
-0.84760493187189478
40
-0.5
40
-0.5
40
-0.5
40
0
40
0
40
0
40
0
10
-2.16047100444184
20
-11.667962776237401
30
0
10
-2.16047100444184
20
-11.657178780621894
30
0
10
-2.1577694092577224
20
-11.647020596667836
30
0
10
-2.1537447571814461
20
-11.638470739484394
30
0
10
-2.1445647428413106
20
-11.618968976335035
30
0
10
-2.1299575222490681
20
-11.606858147529422
30
0
10
-2.1140569279578645
20
-11.597684727746035
30
0
10
-2.0911852813940817
20
-11.584489547036158
30
0
10
-2.0637861226164858
20
-11.57743594406405
30
0
10
-2.0335227065298103
20
-11.57743594406405
30
0
0
SPLINE
5
205
100
AcDbEntity
8
0
100
AcDbSpline
70
0
71
3
72
14
73
10
74
0
42
0.000000001
43
0.0000000001
44
0.0000000001
40
-1
40
-1
40
-1
40
-1
40
-0.58710763245562525
40
-0.58710763245562525
40
-0.58710763245562525
40
0
40
0
40
0
40
0.0060967074208621921
40
0.0060967074208621921
40
0.0060967074208621921
40
0.0060967074208621921
10
-2.0335227065298103
20
-11.57743594406405
30
0
10
-2.0233957647253913
20
-11.57743594406405
30
0
10
-2.0013925506678047
20
-11.573423044537567
30
0
10
-1.9777245702563822
20
-11.565220397687412
30
0
10
-1.9440701531815425
20
-11.553556736766033
30
0
10
-1.9056056231149789
20
-11.533985696545619
30
0
10
-1.878415377836411
20
-11.513593012586691
30
0
10
-1.8780823013057399
20
-11.513343205188688
30
0
10
-1.8777492247750691
20
-11.513093397790684
30
0
10
-1.8774161482444074
20
-11.51284359039269
30
0
0
SPLINE
5
206
100
AcDbEntity
8
0
100
AcDbSpline
70
0
71
3
72
23
73
19
74
0
42
0.000000001
43
0.0000000001
44
0.0000000001
40
-1.0042273059315741
40
-1.0042273059315741
40
-1.0042273059315741
40
-1.0042273059315741
40
-1
40
-1
40
-1
40
-0.77915356250398404
40
-0.77915356250398404
40
-0.77915356250398404
40
-0.51815657817815675
40
-0.51815657817815675
40
-0.51815657817815675
40
-0.37337207725018118
40
-0.37337207725018118
40
-0.37337207725018118
40
-0.23137542240993503
40
-0.23137542240993503
40
-0.23137542240993503
40
0
40
0
40
0
40
0
10
-1.8774161482440752
20
-11.512843590393171
30
0
10
-1.8770697277182362
20
-11.512612643375945
30
0
10
-1.8767233071923897
20
-11.512381696358716
30
0
10
-1.8763768866665429
20
-11.512150749341485
30
0
10
-1.8579255213535741
20
-11.499849839132839
30
0
10
-1.8423364763784396
20
-11.489796934153368
30
0
10
-1.8283143153863983
20
-11.481769504324618
30
0
10
-1.8117428833354736
20
-11.472282663599698
30
0
10
-1.7984143800700079
20
-11.464681741568308
30
0
10
-1.7783618661288982
20
-11.461936388565274
30
0
10
-1.767238008775472
20
-11.460413441603102
30
0
10
-1.7520329688972625
20
-11.461351722563727
30
0
10
-1.7384653724911565
20
-11.469314250259346
30
0
10
-1.7251590220769779
20
-11.477123458355546
30
0
10
-1.7168708317109553
20
-11.489821871484734
30
0
10
-1.7128455809384566
20
-11.500096580057168
30
0
10
-1.7062866651749786
20
-11.516838629641084
30
0
10
-1.7062563470550371
20
-11.530086027115143
30
0
10
-1.7062563470550371
20
-11.545040329369357
30
0
0
SPLINE
5
207
100
AcDbEntity
8
0
100
AcDbSpline
70
0
71
3
72
17
73
13
74
0
42
0.000000001
43
0.0000000001
44
0.0000000001
40
-0.999909338483154
40
-0.999909338483154
40
-0.999909338483154
40
-0.999909338483154
40
-0.96947563087917132
40
-0.96947563087917132
40
-0.96947563087917132
40
-0.63280870002478973
40
-0.63280870002478973
40
-0.63280870002478973
40
-0.35380399273975999
40
-0.35380399273975999
40
-0.35380399273975999
40
-8.8827473254497164e-05
40
-8.8827473254497164e-05
40
-8.8827473254497164e-05
40
-8.8827473254497164e-05
10
-2.3922351449883683
20
-8.2374348432371178
30
0
10
-2.3848316003451013
20
-8.2229156168946638
30
0
10
-2.3773622991587584
20
-8.208789617263637
30
0
10
-2.3698218847314059
20
-8.1950559065216435
30
0
10
-2.2864075266893216
20
-8.0431294207673094
30
0
10
-2.1941101605844842
20
-7.937716494190898
30
0
10
-2.084436594339476
20
-7.8845888211637725
30
0
10
-1.9935472362149953
20
-7.8405605264213953
30
0
10
-1.8919805897637216
20
-7.8356512422837525
30
0
10
-1.7870183217899405
20
-7.8679756328659822
30
0
10
-1.6539497928594777
20
-7.908955683948963
30
0
10
-1.5133697260035839
20
-8.0063398655433513
30
0
10
-1.3560244923131493
20
-8.1571097315818601
30
0
0
SPLINE
5
208
100
AcDbEntity
8
0
100
AcDbSpline
70
0
71
3
72
17
73
13
74
0
42
0.000000001
43
0.0000000001
44
0.0000000001
40
-0.99988051306489212
40
-0.99988051306489212
40
-0.99988051306489212
40
-0.99988051306489212
40
-0.88633036195889936
40
-0.88633036195889936
40
-0.88633036195889936
40
-0.46326855751878632
40
-0.46326855751878632
40
-0.46326855751878632
40
0
40
0
40
0
40
0.00016700202346614968
40
0.00016700202346614968
40
0.00016700202346614968
40
0.00016700202346614968
10
-1.3560244923131439
20
-8.157109731581853
30
0
10
-1.3182883674331085
20
-8.1927530036837108
30
0
10
-1.2838873955898673
20
-8.2269531542791388
30
0
10
-1.2526080646404338
20
-8.2603801349201849
30
0
10
-1.1360684558045586
20
-8.384921393643701
30
0
10
-1.0622748674877212
20
-8.5002147192801409
30
0
10
-1.0261041710291108
20
-8.6343051755330311
30
0
10
-0.98649590056610736
20
-8.7811392588592785
30
0
10
-0.99182348759851768
20
-8.9464724202432286
30
0
10
-1.0238061372400309
20
-9.1703509677338175
30
0
10
-1.0238175418496727
20
-9.1704308000013093
30
0
10
-1.0238289464593147
20
-9.1705106322688028
30
0
10
-1.0238403510689651
20
-9.1705904645363567
30
0
0
SPLINE
5
209
100
AcDbEntity
8
0
100
AcDbSpline
70
0
71
3
72
14
73
10
74
0
42
0.000000001
43
0.0000000001
44
0.0000000001
40
-1.0004489049128762
40
-1.0004489049128762
40
-1.0004489049128762
40
-1.0004489049128762
40
-1
40
-1
40
-1
40
-0.70691581315792773
40
-0.70691581315792773
40
-0.70691581315792773
40
-0.001155388237127498
40
-0.001155388237127498
40
-0.001155388237127498
40
-0.001155388237127498
10
-1.023840351066976
20
-9.1705904645366196
30
0
10
-1.0238526133981485
20
-9.1706701696892416
30
0
10
-1.0238648757293265
20
-9.170749874841901
30
0
10
-1.0238771380605047
20
-9.1708295799945585
30
0
10
-1.0320195851294018
20
-9.2237554859423874
30
0
10
-1.0428812792261717
20
-9.2838512737844372
30
0
10
-1.0555741191914336
20
-9.3461102404772571
30
0
10
-1.086139071275191
20
-9.4960327431605265
30
0
10
-1.1267402329043066
20
-9.6574325136594759
30
0
10
-1.1673221753125025
20
-9.762459855002815
30
0
0
SPLINE
5
210
100
AcDbEntity
8
0
100
AcDbSpline
70
0
71
3
72
11
73
7
74
0
42
0.000000001
43
0.0000000001
44
0.0000000001
40
-0.99975730292769138
40
-0.99975730292769138
40
-0.99975730292769138
40
-0.99975730292769138
40
-0.50033047669930608
40
-0.50033047669930608
40
-0.50033047669930608
40
-0.00022342458507972648
40
-0.00022342458507972648
40
-0.00022342458507972648
40
-0.00022342458507972648
10
-1.1673221753125098
20
-9.7624598550028114
30
0
10
-1.2922157457652794
20
-10.109902193441089
30
0
10
-1.3600649992120208
20
-10.310652848606749
30
0
10
-1.3926998061109526
20
-10.448271482727765
30
0
10
-1.4253790620447904
20
-10.586077555232919
30
0
10
-1.4240411326985771
20
-10.658545277269035
30
0
10
-1.4106973256408324
20
-10.765359439367673
30
0
0
SPLINE
5
211
100
AcDbEntity
8
0
100
AcDbSpline
70
0
71
3
72
17
73
13
74
0
42
0.000000001
43
0.0000000001
44
0.0000000001
40
-0.99972311709136596
40
-0.99972311709136596
40
-0.99972311709136596
40
-0.99972311709136596
40
-0.7942077179688245
40
-0.7942077179688245
40
-0.7942077179688245
40
-0.43706251647394889
40
-0.43706251647394889
40
-0.43706251647394889
40
-0.23059864572730099
40
-0.23059864572730099
40
-0.23059864572730099
40
0
40
0
40
0
40
0
10
-1.4106973256410316
20
-10.765359439367698
30
0
10
-1.405956407717349
20
-10.801403135847908
30
0
10
-1.4025268236379249
20
-10.832111668383964
30
0
10
-1.4006036344263366
20
-10.858659444619828
30
0
10
-1.3972615111527618
20
-10.904794240034086
30
0
10
-1.3970469965930996
20
-10.93809674083022
30
0
10
-1.4080274784960247
20
-10.969030494982514
30
0
10
-1.4143752406578916
20
-10.986913144930702
30
0
10
-1.4266387276532764
20
-11.004557124818122
30
0
10
-1.4434067582022152
20
-11.01529894285685
30
0
10
-1.462134902366693
20
-11.027296435122308
30
0
10
-1.4824214600169709
20
-11.030060293637145
30
0
10
-1.5008587701016105
20
-11.030060293637145
30
0
0
SPLINE
5
212
100
AcDbEntity
8
0
100
AcDbSpline
70
0
71
3
72
17
73
13
74
0
42
0.000000001
43
0.0000000001
44
0.0000000001
40
-1
40
-1
40
-1
40
-1
40
-0.95242301208807034
40
-0.95242301208807034
40
-0.95242301208807034
40
-0.73007423233441826
40
-0.73007423233441826
40
-0.73007423233441826
40
-0.47069408223117537
40
-0.47069408223117537
40
-0.47069408223117537
40
0
40
0
40
0
40
0
10
-1.5008587701016105
20
-11.030060293637145
30
0
10
-1.5048853151917443
20
-11.030060293637145
30
0
10
-1.5089683262461315
20
-11.029869614221806
30
0
10
-1.5131063629849626
20
-11.029432687623846
30
0
10
-1.5324452799663828
20
-11.027390732044845
30
0
10
-1.5536649497556634
20
-11.018469429449635
30
0
10
-1.5686361708495777
20
-11.003368850605709
30
0
10
-1.5861007936771496
20
-10.985753325971292
30
0
10
-1.5949759892819735
20
-10.963684655871596
30
0
10
-1.6009631659030501
20
-10.938911348535852
30
0
10
-1.6118280243114205
20
-10.893955521516753
30
0
10
-1.6141490183616356
20
-10.835096669967657
30
0
10
-1.6141490183616356
20
-10.748320766335725
30
0
0
SPLINE
5
213
100
AcDbEntity
8
0
100
AcDbSpline
70
0
71
3
72
14
73
10
74
0
42
0.000000001
43
0.0000000001
44
0.0000000001
40
-1
40
-1
40
-1
40
-1
40
-0.713954520239233
40
-0.713954520239233
40
-0.713954520239233
40
0
40
0
40
0
40
3.3877166028985737e-06
40
3.3877166028985737e-06
40
3.3877166028985737e-06
40
3.3877166028985737e-06
10
-1.6141490183616356
20
-10.748320766335725
30
0
10
-1.6141490183616356
20
-10.673707771701457
30
0
10
-1.6099088236373345
20
-10.602669360791413
30
0
10
-1.5983913276736124
20
-10.524557235019349
30
0
10
-1.569644261605609
20
-10.32959346447803
30
0
10
-1.4966271803735129
20
-10.092527055780648
30
0
10
-1.3339135971604539
20
-9.6271662077912961
30
0
10
-1.3339128260003841
20
-9.6271640022734957
30
0
10
-1.3339120548403096
20
-9.6271617967556828
30
0
10
-1.3339112836802385
20
-9.6271595912378771
30
0
0
SPLINE
5
214
100
AcDbEntity
8
0
100
AcDbSpline
70
0
71
3
72
17
73
13
74
0
42
0.000000001
43
0.0000000001
44
0.0000000001
40
-1.0000048439035387
40
-1.0000048439035387
40
-1.0000048439035387
40
-1.0000048439035387
40
-1
40
-1
40
-1
40
-0.54471376915140401
40
-0.54471376915140401
40
-0.54471376915140401
40
0
40
0
40
0
40
0.00044339760282905414
40
0.00044339760282905414
40
0.00044339760282905414
40
0.00044339760282905414
10
-1.3339112836796794
20
-9.6271595912362837
30
0
10
-1.3339105118337025
20
-9.6271573859620663
30
0
10
-1.3339097399871827
20
-9.6271551806862945
30
0
10
-1.3339089681406702
20
-9.627152975410544
30
0
10
-1.2624431796769655
20
-9.4229650083713885
30
0
10
-1.2181132603812672
20
-9.2245991382122199
30
0
10
-1.2019953289666405
20
-9.0497980364494719
30
0
10
-1.1827115057870532
20
-8.8406624190258292
30
0
10
-1.2052337763189442
20
-8.665479670535543
30
0
10
-1.2628957997754482
20
-8.5568089340213618
30
0
10
-1.2629482846448983
20
-8.5567100202289339
30
0
10
-1.2630007695143486
20
-8.5566111064365096
30
0
10
-1.2630532543838346
20
-8.5565121926440213
30
0
0
SPLINE
5
215
100
AcDbEntity
8
0
100
AcDbSpline
70
0
71
3
72
20
73
16
74
0
42
0.000000001
43
0.0000000001
44
0.0000000001
40
-1.0005092128489081
40
-1.0005092128489081
40
-1.0005092128489081
40
-1.0005092128489081
40
-1
40
-1
40
-1
40
-0.82800014464716543
40
-0.82800014464716543
40
-0.82800014464716543
40
-0.4619104455340276
40
-0.4619104455340276
40
-0.4619104455340276
40
-0.14371794329694756
40
-0.14371794329694756
40
-0.14371794329694756
40
0
40
0
40
0
40
0
10
-1.2630532543818977
20
-8.5565121926431633
30
0
10
-1.2631042566473396
20
-8.5564125063970717
30
0
10
-1.2631552589127464
20
-8.5563128201510494
30
0
10
-1.2632062611781529
20
-8.5562131339050271
30
0
10
-1.2782858332611
20
-8.5267394248338118
30
0
10
-1.3031500170381471
20
-8.4900678834076722
30
0
10
-1.3344302236472232
20
-8.4509026546391528
30
0
10
-1.4010079623448661
20
-8.3675421960727707
30
0
10
-1.4964983828392324
20
-8.2722826825378082
30
0
10
-1.5898883221131774
20
-8.1932560758507282
30
0
10
-1.6710596266686817
20
-8.1245688831053897
30
0
10
-1.7518129787257568
20
-8.0677838738892493
30
0
10
-1.8064238099878236
20
-8.0415979229473482
30
0
10
-1.8310898731274037
20
-8.0297705197678706
30
0
10
-1.8509171414942391
20
-8.0252893701960204
30
0
10
-1.8559680610537441
20
-8.0252893701960204
30
0
0
SPLINE
5
216
100
AcDbEntity
8
0
100
AcDbSpline
70
0
71
3
72
17
73
13
74
0
42
0.000000001
43
0.0000000001
44
0.0000000001
40
-1
40
-1
40
-1
40
-1
40
-0.87031738716027696
40
-0.87031738716027696
40
-0.87031738716027696
40
-0.5
40
-0.5
40
-0.5
40
0
40
0
40
0
40
0.0005530565541593997
40
0.0005530565541593997
40
0.0005530565541593997
40
0.0005530565541593997
10
-1.8559680610537441
20
-8.0252893701960204
30
0
10
-1.865632477491447
20
-8.0252893701960204
30
0
10
-1.8775234010904351
20
-8.0271849160130184
30
0
10
-1.8911365309631978
20
-8.0315712535975283
30
0
10
-1.9300097351280874
20
-8.0440967343688481
30
0
10
-1.9816327648730512
20
-8.0774875008060025
30
0
10
-2.0331938264410843
20
-8.1266688210708953
30
0
10
-2.1028112186508072
20
-8.1930731028709403
30
0
10
-2.1731759997872548
20
-8.2873760842210409
30
0
10
-2.2254603270189115
20
-8.3919447386843551
30
0
10
-2.2255207564099249
20
-8.3920655974663827
30
0
10
-2.2255811858009387
20
-8.3921864562484085
30
0
10
-2.2256416151919645
20
-8.392307315030461
30
0
0
SPLINE
5
217
100
AcDbEntity
8
0
100
AcDbSpline
70
0
71
3
72
20
73
16
74
0
42
0.000000001
43
0.0000000001
44
0.0000000001
40
-1.0005978014422083
40
-1.0005978014422083
40
-1.0005978014422083
40
-1.0005978014422083
40
-1
40
-1
40
-1
40
-0.96290358512816843
40
-0.96290358512816843
40
-0.96290358512816843
40
-0.57760418666669011
40
-0.57760418666669011
40
-0.57760418666669011
40
-0.17572174719630268
40
-0.17572174719630268
40
-0.17572174719630268
40
0
40
0
40
0
40
0
10
-2.2256416151946956
20
-8.3923073150290204
30
0
10
-2.2257042120083312
20
-8.3924270654551076
30
0
10
-2.2257668088219735
20
-8.3925468158812055
30
0
10
-2.225829405635614
20
-8.3926665663073017
30
0
10
-2.2301041067217491
20
-8.4008442553416458
30
0
10
-2.234712293417513
20
-8.4091017202838216
30
0
10
-2.23962946536659
20
-8.4174393802281831
30
0
10
-2.2907013385019557
20
-8.5040379200665406
30
0
10
-2.3751793797342051
20
-8.6009831362903135
30
0
10
-2.4674960339009164
20
-8.6887023388205069
30
0
10
-2.5637859381374821
20
-8.780196920026702
30
0
10
-2.6672404874794715
20
-8.8606122645909586
30
0
10
-2.7539272185896793
20
-8.9039299990710141
30
0
10
-2.7918307006863237
20
-8.9228705330178375
30
0
10
-2.8261862158074762
20
-8.9358260136630285
30
0
10
-2.8621110520847859
20
-8.9358260136630285
30
0
0
SPLINE
5
218
100
AcDbEntity
8
0
100
AcDbSpline
70
0
71
3
72
14
73
10
74
0
42
0.000000001
43
0.0000000001
44
0.0000000001
40
-1
40
-1
40
-1
40
-1
40
-0.69511082324404549
40
-0.69511082324404549
40
-0.69511082324404549
40
-0.40403281922317325
40
-0.40403281922317325
40
-0.40403281922317325
40
-0.00042599331277712028
40
-0.00042599331277712028
40
-0.00042599331277712028
40
-0.00042599331277712028
10
-2.8621110520847859
20
-8.9358260136630285
30
0
10
-2.9156779741525294
20
-8.9358260136630285
30
0
10
-2.9623464978726437
20
-8.9217899358138908
30
0
10
-2.996310553427838
20
-8.8926603311808918
30
0
10
-3.0287360714624558
20
-8.8648502683091692
30
0
10
-3.046750583805947
20
-8.823876105748063
30
0
10
-3.0486221728380691
20
-8.7810543635788747
30
0
10
-3.0512173057516825
20
-8.7216780204745703
30
0
10
-3.02687949634727
20
-8.6583891260850319
30
0
10
-2.9803461790039907
20
-8.5956033916649108
30
0
0
SPLINE
5
219
100
AcDbEntity
8
0
100
AcDbSpline
70
0
71
3
72
14
73
10
74
0
42
0.000000001
43
0.0000000001
44
0.0000000001
40
-0.99972350468202387
40
-0.99972350468202387
40
-0.99972350468202387
40
-0.99972350468202387
40
-0.67525419572859879
40
-0.67525419572859879
40
-0.67525419572859879
40
0
40
0
40
0
40
0.00011814214322493366
40
0.00011814214322493366
40
0.00011814214322493366
40
0.00011814214322493366
10
-2.9803461790040116
20
-8.5956033916648948
30
0
10
-2.9267056380682197
20
-8.5216514270394335
30
0
10
-2.8846219682080481
20
-8.4548483997113237
30
0
10
-2.8501590515924167
20
-8.3850028308804365
30
0
10
-2.7784381571977788
20
-8.2396469771689347
30
0
10
-2.7384490204208305
20
-8.0788692875558894
30
0
10
-2.701827664866705
20
-7.8103126801589697
30
0
10
-2.7018212105016723
20
-7.8102653481487296
30
0
10
-2.7018147561366397
20
-7.8102180161384895
30
0
10
-2.7018083017716275
20
-7.8101706841284013
30
0
0
SPLINE
5
220
100
AcDbEntity
8
0
100
AcDbSpline
70
0
71
3
72
14
73
10
74
0
42
0.000000001
43
0.0000000001
44
0.0000000001
40
-1.0002119865023382
40
-1.0002119865023382
40
-1.0002119865023382
40
-1.0002119865023382
40
-1
40
-1
40
-1
40
-0.33863848556521137
40
-0.33863848556521137
40
-0.33863848556521137
40
-0.00073016592404657565
40
-0.00073016592404657565
40
-0.00073016592404657565
40
-0.00073016592404657565
10
-2.7018083017746886
20
-7.8101706841278631
30
0
10
-2.7018015460229439
20
-7.8101233938656467
30
0
10
-2.7017947902712036
20
-7.810076103603464
30
0
10
-2.7017880345194629
20
-7.8100288133412814
30
0
10
-2.6804306563209499
20
-7.6605271659516871
30
0
10
-2.647252816934722
20
-7.4980138651598782
30
0
10
-2.6133302106848446
20
-7.3776983949102313
30
0
10
-2.5959981908657888
20
-7.31622581525213
30
0
10
-2.5791800061539369
20
-7.2665144594301001
30
0
10
-2.5606015854906712
20
-7.2311306049846253
30
0
0
SPLINE
5
221
100
AcDbEntity
8
0
100
AcDbSpline
70
0
71
3
72
14
73
10
74
0
42
0.000000001
43
0.0000000001
44
0.0000000001
40
-0.99963507352450753
40
-0.99963507352450753
40
-0.99963507352450753
40
-0.99963507352450753
40
-0.46526524763949778
40
-0.46526524763949778
40
-0.46526524763949778
40
-0.15237570623152313
40
-0.15237570623152313
40
-0.15237570623152313
40
0
40
0
40
0
40
0
10
-2.5606015854906543
20
-7.2311306049846351
30
0
10
-2.5068033250983532
20
-7.1261648393194363
30
0
10
-2.4242638888746062
20
-7.0142195815662545
30
0
10
-2.3458754138620148
20
-6.9301637708295312
30
0
10
-2.2999766134240605
20
-6.8809465755462256
30
0
10
-2.2565644962921771
20
-6.8415578865125211
30
0
10
-2.2159095331680194
20
-6.8178613323314909
30
0
10
-2.1961107610838395
20
-6.8063212240800617
30
0
10
-2.1769914813183791
20
-6.7971185658622613
30
0
10
-2.1518924701805204
20
-6.7971185658622613
30
0
0
SPLINE
5
222
100
AcDbEntity
8
0
100
AcDbSpline
70
0
71
3
72
23
73
19
74
0
42
0.000000001
43
0.0000000001
44
0.0000000001
40
-1
40
-1
40
-1
40
-1
40
-0.93227640332204664
40
-0.93227640332204664
40
-0.93227640332204664
40
-0.82106757283366227
40
-0.82106757283366227
40
-0.82106757283366227
40
-0.69874649617417062
40
-0.69874649617417062
40
-0.69874649617417062
40
-0.5
40
-0.5
40
-0.5
40
0
40
0
40
0
40
0.00071535475585923639
40
0.00071535475585923639
40
0.00071535475585923639
40
0.00071535475585923639
10
-2.1518924701805204
20
-6.7971185658622613
30
0
10
-2.1462512737772754
20
-6.7971185658622613
30
0
10
-2.1399666448961896
20
-6.7977081072920829
30
0
10
-2.1329771353451146
20
-6.7998721097056842
30
0
10
-2.1214996707538774
20
-6.8034256152694086
30
0
10
-2.1079308158808425
20
-6.8132358999971467
30
0
10
-2.1011606820126478
20
-6.8257654781114603
30
0
10
-2.0937140605505791
20
-6.8395470409451082
30
0
10
-2.0937998272472571
20
-6.8525101672449749
30
0
10
-2.0951131666223874
20
-6.8621017467502279
30
0
10
-2.0972470719657919
20
-6.8776860832481121
30
0
10
-2.1026156798226117
20
-6.8885308079689462
30
0
10
-2.1090482418770704
20
-6.9002263753406901
30
0
10
-2.1252310732182114
20
-6.9296497050518564
30
0
10
-2.1517580667947933
20
-6.9624025374572245
30
0
10
-2.1873535442542575
20
-7.0003710467473192
30
0
10
-2.187402396008129
20
-7.000423155284782
30
0
10
-2.1874512477619987
20
-7.0004752638222438
30
0
10
-2.1875000995157223
20
-7.0005273723595449
30
0
0
SPLINE
5
223
100
AcDbEntity
8
0
100
AcDbSpline
70
0
71
3
72
11
73
7
74
0
42
0.000000001
43
0.0000000001
44
0.0000000001
40
-1.0002520667449839
40
-1.0002520667449839
40
-1.0002520667449839
40
-1.0002520667449839
40
-1
40
-1
40
-1
40
-0.00021174827450068682
40
-0.00021174827450068682
40
-0.00021174827450068682
40
-0.00021174827450068682
10
-2.1875000995135689
20
-7.0005273723619048
30
0
10
-2.1875494454552649
20
-7.0005790134636792
30
0
10
-2.1875987913969617
20
-7.0006306545654535
30
0
10
-2.1876481373386567
20
-7.0006822956672279
30
0
10
-2.373070227513856
20
-7.1947286691063894
30
0
10
-2.4898037114457345
20
-7.5118663479757135
30
0
10
-2.5167102369787888
20
-7.9282897737157434
30
0
0
SPLINE
5
224
100
AcDbEntity
8
0
100
AcDbSpline
70
0
71
3
72
17
73
13
74
0
42
0.000000001
43
0.0000000001
44
0.0000000001
40
-0.99974325326784585
40
-0.99974325326784585
40
-0.99974325326784585
40
-0.99974325326784585
40
-0.89529431515710134
40
-0.89529431515710134
40
-0.89529431515710134
40
-0.42146318493878809
40
-0.42146318493878809
40
-0.42146318493878809
40
0
40
0
40
0
40
0.00046684197330727479
40
0.00046684197330727479
40
0.00046684197330727479
40
0.00046684197330727479
10
-2.5167102369787639
20
-7.9282897737157452
30
0
10
-2.5186195157023397
20
-7.9645506153934251
30
0
10
-2.52053296482599
20
-7.997751966601724
30
0
10
-2.5225913492135112
20
-8.0283909781025802
30
0
10
-2.5319291808698656
20
-8.1673844203607402
30
0
10
-2.5441415385044004
20
-8.2550637910901905
30
0
10
-2.5741830616217878
20
-8.3328573071905545
30
0
10
-2.6009043874401918
20
-8.4020530627504293
30
0
10
-2.6406590721003949
20
-8.4600362061390264
30
0
10
-2.6989678424896839
20
-8.5358376076451012
30
0
10
-2.6990316039981974
20
-8.5359204976061687
30
0
10
-2.6990953655067105
20
-8.5360033875672361
30
0
10
-2.6991591270152155
20
-8.5360862775282929
30
0
0
SPLINE
5
225
100
AcDbEntity
8
0
100
AcDbSpline
70
0
71
3
72
17
73
13
74
0
42
0.000000001
43
0.0000000001
44
0.0000000001
40
-1.0007504072165396
40
-1.0007504072165396
40
-1.0007504072165396
40
-1.0007504072165396
40
-1
40
-1
40
-1
40
-0.86770946154447048
40
-0.86770946154447048
40
-0.86770946154447048
40
-0.26651691406692751
40
-0.26651691406692751
40
-0.26651691406692751
40
-0.17170472634832437
40
-0.17170472634832437
40
-0.17170472634832437
40
-0.17170472634832437
10
-2.6991591270173094
20
-8.5360862775269322
30
0
10
-2.6992240379776686
20
-8.5361682703189654
30
0
10
-2.6992889489381469
20
-8.5362502631111496
30
0
10
-2.6993538598986269
20
-8.5363322559033357
30
0
10
-2.7104947837160971
20
-8.5504050017780333
30
0
10
-2.7213420034747373
20
-8.564576563733846
30
0
10
-2.7317680569683436
20
-8.5786139590025527
30
0
10
-2.7791491148515211
20
-8.6424067103215059
30
0
10
-2.8181478404909717
20
-8.7043537444123427
30
0
10
-2.8357216059964347
20
-8.7388696012604239
30
0
10
-2.8384931093376151
20
-8.7443129885952793
30
0
10
-2.8406965030701161
20
-8.7489885166522452
30
0
10
-2.84228677480675
20
-8.7526946842397919
30
0
0
SPLINE
5
226
100
AcDbEntity
8
0
100
AcDbSpline
70
0
71
3
72
14
73
10
74
0
42
0.000000001
43
0.0000000001
44
0.0000000001
40
-0.74486490533379734
40
-0.74486490533379734
40
-0.74486490533379734
40
-0.74486490533379734
40
-0.61572710095709593
40
-0.61572710095709593
40
-0.61572710095709593
40
-0.41048473397139729
40
-0.41048473397139729
40
-0.41048473397139729
40
0
40
0
40
0
40
0
10
-2.84228677480675
20
-8.7526946842397901
30
0
10
-2.8291782553100102
20
-8.7479126774119091
30
0
10
-2.8084051578903928
20
-8.7364358504907358
30
0
10
-2.784751349221116
20
-8.7193053073423101
30
0
10
-2.7471576817204082
20
-8.6920792503367466
30
0
10
-2.7014283392088365
20
-8.6508986511891361
30
0
10
-2.654204178411919
20
-8.6010831421151046
30
0
10
-2.559755856818084
20
-8.5014521239670362
30
0
10
-2.4587550371958495
20
-8.3668794597676541
30
0
10
-2.3922349405937422
20
-8.2374349474608515
30
0
0
SPLINE
5
227
100
AcDbEntity
8
0
100
AcDbSpline
70
0
71
3
72
14
73
10
74
0
42
0.000000001
43
0.0000000001
44
0.0000000001
40
-1.0001866329608156
40
-1.0001866329608156
40
-1.0001866329608156
40
-1.0001866329608156
40
-1
40
-1
40
-1
40
-0.94087687700503531
40
-0.94087687700503531
40
-0.94087687700503531
40
-0.00029724665763414466
40
-0.00029724665763414466
40
-0.00029724665763414466
40
-0.00029724665763414466
10
-2.4629701903593713
20
-10.676875990068176
30
0
10
-2.463028818331217
20
-10.67685474804939
30
0
10
-2.4630874463028785
20
-10.676833506030672
30
0
10
-2.4631460742745448
20
-10.67681226401195
30
0
10
-2.4823339386927548
20
-10.669860139222743
30
0
10
-2.5012647388142919
20
-10.662527705140649
30
0
10
-2.5199216535090758
20
-10.654827663448613
30
0
10
-2.8167313116953814
20
-10.532329019914968
30
0
10
-3.0456889825371283
20
-10.316825251951165
30
0
10
-3.1323538394548125
20
-10.057131340319206
30
0
0
SPLINE
5
228
100
AcDbEntity
8
0
100
AcDbSpline
70
0
71
3
72
14
73
10
74
0
42
0.000000001
43
0.0000000001
44
0.0000000001
40
-0.99967309133798377
40
-0.99967309133798377
40
-0.99967309133798377
40
-0.99967309133798377
40
-0.36279845550973866
40
-0.36279845550973866
40
-0.36279845550973866
40
-0.12277204134472158
40
-0.12277204134472158
40
-0.12277204134472158
40
-0.001808149545200147
40
-0.001808149545200147
40
-0.001808149545200147
40
-0.001808149545200147
10
-3.1323538394548467
20
-10.057131340319216
30
0
10
-3.1870510390892295
20
-9.8989813983714274
30
0
10
-3.2117815157953276
20
-9.7000948771112903
30
0
10
-3.20462396431365
20
-9.5587309882284845
30
0
10
-3.2019264139329318
20
-9.5054535213109421
30
0
10
-3.1955986636531692
20
-9.4608689732658764
30
0
10
-3.1797627766060934
20
-9.4246599555641453
30
0
10
-3.1717821110865265
20
-9.4064120318317688
30
0
10
-3.1610948614041652
20
-9.3887154961985502
30
0
10
-3.1411172362388027
20
-9.3763481543566503
30
0
0
SPLINE
5
229
100
AcDbEntity
8
0
100
AcDbSpline
70
0
71
3
72
17
73
13
74
0
42
0.000000001
43
0.0000000001
44
0.0000000001
40
-0.99570017516064746
40
-0.99570017516064746
40
-0.99570017516064746
40
-0.99570017516064746
40
-0.86422733101452465
40
-0.86422733101452465
40
-0.86422733101452465
40
-0.70947702634326182
40
-0.70947702634326182
40
-0.70947702634326182
40
-0.47181049938531044
40
-0.47181049938531044
40
-0.47181049938531044
40
0
40
0
40
0
40
0
10
-3.1411172362388045
20
-9.3763481543566449
30
0
10
-3.1317567965759086
20
-9.3703049273842947
30
0
10
-3.1189602578094928
20
-9.3654196089983923
30
0
10
-3.1048247109928497
20
-9.3659340442622785
30
0
10
-3.088186444811134
20
-9.3665395610466557
30
0
10
-3.0732090324195078
20
-9.3750912756026761
30
0
10
-3.0641259193378385
20
-9.3840817998591408
30
0
10
-3.0501760150408961
20
-9.397889505634609
30
0
10
-3.0446050899522334
20
-9.4122665114701238
30
0
10
-3.0397820651536254
20
-9.427724115625109
30
0
10
-3.0302074996146517
20
-9.4584102203492915
30
0
10
-3.0265344800821983
20
-9.4960687758993512
30
0
10
-3.0265344800821983
20
-9.5418597137419408
30
0
0
SPLINE
5
230
100
AcDbEntity
8
0
100
AcDbSpline
70
0
71
3
72
11
73
7
74
0
42
0.000000001
43
0.0000000001
44
0.0000000001
40
-1
40
-1
40
-1
40
-1
40
-0.74544896215237033
40
-0.74544896215237033
40
-0.74544896215237033
40
0
40
0
40
0
40
0
10
-3.0265344800821983
20
-9.5418597137419408
30
0
10
-3.0265344800821983
20
-9.6453523366842511
30
0
10
-3.0077350265724312
20
-9.7496841653449078
30
0
10
-2.9730792683552645
20
-9.8501462183180468
30
0
10
-2.8715903912560719
20
-10.144347859598922
30
0
10
-2.6331875740681734
20
-10.403755262199214
30
0
10
-2.3456713127834825
20
-10.510362415259827
30
0
0
SPLINE
5
231
100
AcDbEntity
8
0
100
AcDbSpline
70
0
71
3
72
14
73
10
74
0
42
0.000000001
43
0.0000000001
44
0.0000000001
40
-0.99995885654316652
40
-0.99995885654316652
40
-0.99995885654316652
40
-0.99995885654316652
40
-0.72837394000605937
40
-0.72837394000605937
40
-0.72837394000605937
40
-0.18635529592363489
40
-0.18635529592363489
40
-0.18635529592363489
40
-0.011258384621542173
40
-0.011258384621542173
40
-0.011258384621542173
40
-0.011258384621542173
10
-2.3456713117553405
20
-10.510362412484087
30
0
10
-2.311697701778106
20
-10.522945475962183
30
0
10
-2.2781162310494469
20
-10.536191800020154
30
0
10
-2.2466545065998376
20
-10.549318070839762
30
0
10
-2.1838644170613328
20
-10.575514973091256
30
0
10
-2.1303765718553844
20
-10.600558867901039
30
0
10
-2.0961659347891608
20
-10.621133202205243
30
0
10
-2.0851143280790021
20
-10.627779656950102
30
0
10
-2.0763952148366971
20
-10.63328279827453
30
0
10
-2.0671987194732986
20
-10.641951676556635
30
0
0
SPLINE
5
232
100
AcDbEntity
8
0
100
AcDbSpline
70
0
71
3
72
29
73
25
74
0
42
0.000000001
43
0.0000000001
44
0.0000000001
40
-0.9952100033889506
40
-0.9952100033889506
40
-0.9952100033889506
40
-0.9952100033889506
40
-0.96153182431796935
40
-0.96153182431796935
40
-0.96153182431796935
40
-0.86876761218772347
40
-0.86876761218772347
40
-0.86876761218772347
40
-0.80750109887170185
40
-0.80750109887170185
40
-0.80750109887170185
40
-0.73943313603395155
40
-0.73943313603395155
40
-0.73943313603395155
40
-0.64736723244475625
40
-0.64736723244475625
40
-0.64736723244475625
40
-0.5
40
-0.5
40
-0.5
40
0
40
0
40
0
40
0.00025325257909739496
40
0.00025325257909739496
40
0.00025325257909739496
40
0.00025325257909739496
10
-2.0671987194732577
20
-10.641951676556589
30
0
10
-2.0638184033162315
20
-10.64479524698738
30
0
10
-2.0606331631544532
20
-10.647685224575685
30
0
10
-2.0575982148470877
20
-10.650741196904601
30
0
10
-2.0492386598962282
20
-10.65915866106697
30
0
10
-2.0407158214590884
20
-10.66823346359865
30
0
10
-2.0365668836513313
20
-10.685845141078184
30
0
10
-2.0338267002593851
20
-10.69747684740155
30
0
10
-2.0354358072635717
20
-10.71406736020851
30
0
10
-2.0427256711333421
20
-10.726134040458861
30
0
10
-2.0508248129993123
20
-10.739540292886174
30
0
10
-2.0619643029064698
20
-10.745953408663389
30
0
10
-2.0707981240988009
20
-10.749660395576873
30
0
10
-2.0827463842833449
20
-10.754674312338224
30
0
10
-2.0929113146005465
20
-10.755949637120136
30
0
10
-2.1036999189262149
20
-10.756720048028736
30
0
10
-2.1209689262289566
20
-10.757953222515917
30
0
10
-2.1397945749749194
20
-10.75687074140267
30
0
10
-2.1616597848780641
20
-10.754319800247302
30
0
10
-2.2358459168302325
20
-10.74566475151955
30
0
10
-2.344190557521646
20
-10.71879821341372
30
0
10
-2.4627937846054939
20
-10.67693825091354
30
0
10
-2.4628525865225481
20
-10.676917497295756
30
0
10
-2.462911388439613
20
-10.676896743677968
30
0
10
-2.4629701903565069
20
-10.676875990060241
30
0
0
SPLINE
5
233
100
AcDbEntity
8
0
100
AcDbSpline
70
0
71
3
72
11
73
7
74
0
42
0.000000001
43
0.0000000001
44
0.0000000001
40
-0.9994484284674251
40
-0.9994484284674251
40
-0.9994484284674251
40
-0.9994484284674251
40
-0.62121260972971015
40
-0.62121260972971015
40
-0.62121260972971015
40
0
40
0
40
0
40
0
10
0.39654744565151245
20
-7.8456837722413182
30
0
10
0.42876687187425344
20
-7.9065809390143409
30
0
10
0.45216866257213356
20
-7.9647750112999196
30
0
10
0.46765406093064432
20
-8.0398974340568596
30
0
10
0.49308720144890222
20
-8.1632781240343419
30
0
10
0.49896111083713818
20
-8.3308242349910682
30
0
10
0.50179328215042274
20
-8.653691764705485
30
0
0
SPLINE
5
234
100
AcDbEntity
8
0
100
AcDbSpline
70
0
71
3
72
20
73
16
74
0
42
0.000000001
43
0.0000000001
44
0.0000000001
40
-0.99992502888360435
40
-0.99992502888360435
40
-0.99992502888360435
40
-0.99992502888360435
40
-0.67289410375867265
40
-0.67289410375867265
40
-0.67289410375867265
40
-0.30710452820087863
40
-0.30710452820087863
40
-0.30710452820087863
40
-0.15258776402046687
40
-0.15258776402046687
40
-0.15258776402046687
40
-0.0678947221979736
40
-0.0678947221979736
40
-0.0678947221979736
40
-0.0032003616823652104
40
-0.0032003616823652104
40
-0.0032003616823652104
40
-0.0032003616823652104
10
0.50179338093986736
20
-8.6536917636384736
30
0
10
0.5032844032569197
20
-8.7909156804569903
30
0
10
0.50331923024657943
20
-8.9029302907142611
30
0
10
0.50138978378689902
20
-8.9915299811552227
30
0
10
0.49923166555609766
20
-9.0906302211358003
30
0
10
0.49503099822204222
20
-9.1594683637518646
30
0
10
0.48625624043933896
20
-9.2057686060357202
30
0
10
0.48254960889582754
20
-9.2253267457327333
30
0
10
0.4790399254764372
20
-9.2407066239551927
30
0
10
0.46915578596307894
20
-9.2570757870623517
30
0
10
0.46373813535652852
20
-9.2660479799696223
30
0
10
0.4553316314441484
20
-9.2769229025604627
30
0
10
0.43958242305614514
20
-9.2832243281362636
30
0
10
0.42755209632134217
20
-9.2880377896579027
30
0
10
0.41246215016631022
20
-9.2878011396045608
30
0
10
0.40159915817336239
20
-9.2840835397204433
30
0
0
SPLINE
5
235
100
AcDbEntity
8
0
100
AcDbSpline
70
0
71
3
72
20
73
16
74
0
42
0.000000001
43
0.0000000001
44
0.0000000001
40
-0.99676631648162417
40
-0.99676631648162417
40
-0.99676631648162417
40
-0.99676631648162417
40
-0.96819307761296891
40
-0.96819307761296891
40
-0.96819307761296891
40
-0.87528455128509597
40
-0.87528455128509597
40
-0.87528455128509597
40
-0.75
40
-0.75
40
-0.75
40
-0.5
40
-0.5
40
-0.5
40
0
40
0
40
0
40
0
10
0.40159915817339242
20
-9.2840835397203456
30
0
10
0.39620467110185009
20
-9.2823297797623017
30
0
10
0.3914863706076529
20
-9.279847789151999
30
0
10
0.38755013117084131
20
-9.2771782892115411
30
0
10
0.3747510849363942
20
-9.2684981634952948
30
0
10
0.36920787526410476
20
-9.2590253286923616
30
0
10
0.36452102724011953
20
-9.2501229305019272
30
0
10
0.35820094366076932
20
-9.2381182953329901
30
0
10
0.35412688752608229
20
-9.2256880762442126
30
0
10
0.35025996449522717
20
-9.211043133701823
30
0
10
0.34254368385409761
20
-9.1818197729758442
30
0
10
0.33651235196396301
20
-9.1439675490291172
30
0
10
0.33125350576409157
20
-9.096053616985845
30
0
10
0.32073581336434887
20
-9.0002257528993024
30
0
10
0.31392849655063332
20
-8.8650107099784314
30
0
10
0.3116400908469853
20
-8.6956686879084888
30
0
0
SPLINE
5
236
100
AcDbEntity
8
0
100
AcDbSpline
70
0
71
3
72
14
73
10
74
0
42
0.000000001
43
0.0000000001
44
0.0000000001
40
-0.99999793462497766
40
-0.99999793462497766
40
-0.99999793462497766
40
-0.99999793462497766
40
-0.78192469744544402
40
-0.78192469744544402
40
-0.78192469744544402
40
-0.42410083018715405
40
-0.42410083018715405
40
-0.42410083018715405
40
-6.2190338349439435e-05
40
-6.2190338349439435e-05
40
-6.2190338349439435e-05
40
-6.2190338349439435e-05
10
0.31164009065641929
20
-8.6956686879110823
30
0
10
0.30965972442287826
20
-8.5501144642789324
30
0
10
0.30613247423917317
20
-8.4331172941048962
30
0
10
0.29652864514329141
20
-8.334614965206022
30
0
10
0.2807702728091982
20
-8.1729881433345923
30
0
10
0.24977079804784852
20
-8.0625103636305813
30
0
10
0.18179038750527002
20
-7.9478416034869097
30
0
10
0.10123030345131714
20
-7.8119535604196972
30
0
10
-0.03482063889804498
20
-7.6687565268322508
30
0
10
-0.2622441982792672
20
-7.4432581087808805
30
0
0
SPLINE
5
237
100
AcDbEntity
8
0
100
AcDbSpline
70
0
71
3
72
14
73
10
74
0
42
0.000000001
43
0.0000000001
44
0.0000000001
40
-0.99992326785274777
40
-0.99992326785274777
40
-0.99992326785274777
40
-0.99992326785274777
40
-0.53437515977566552
40
-0.53437515977566552
40
-0.53437515977566552
40
0
40
0
40
0
40
4.0867449482706792e-05
40
4.0867449482706792e-05
40
4.0867449482706792e-05
40
4.0867449482706792e-05
10
-0.2622441982792133
20
-7.4432581087808263
30
0
10
-0.46635307361008854
20
-7.2433974356430966
30
0
10
-0.59893530477811829
20
-7.1014149608975794
30
0
10
-0.69954173047056689
20
-6.955494533000401
30
0
10
-0.81502190077116088
20
-6.7880010975868945
30
0
10
-0.8863885678725324
20
-6.6173343174553532
30
0
10
-0.97442408837988748
20
-6.3556731870584908
30
0
10
-0.97443078641573788
20
-6.3556532790074911
30
0
10
-0.97443748445158807
20
-6.3556333709564923
30
0
10
-0.97444418248743769
20
-6.3556134629054943
30
0
0
SPLINE
5
238
100
AcDbEntity
8
0
100
AcDbSpline
70
0
71
3
72
14
73
10
74
0
42
0.000000001
43
0.0000000001
44
0.0000000001
40
-1.0000768154284796
40
-1.0000768154284796
40
-1.0000768154284796
40
-1.0000768154284796
40
-1
40
-1
40
-1
40
-0.63921418090144089
40
-0.63921418090144089
40
-0.63921418090144089
40
0
40
0
40
0
40
0
10
-0.97444418251715181
20
-6.3556134629157235
30
0
10
-0.97445082712714914
20
-6.3555935290857288
30
0
10
-0.97445747173707664
20
-6.3555735952559465
30
0
10
-0.97446411634700347
20
-6.3555536614261658
30
0
10
-1.0062669151957926
20
-6.2601452648798013
30
0
10
-1.0289839275016393
20
-6.1713685127014211
30
0
10
-1.0460439800648693
20
-6.0441349240711171
30
0
10
-1.0762697454582744
20
-5.8187116678503603
30
0
10
-1.0900468460468102
20
-5.4716484122789693
30
0
10
-1.1133319078787007
20
-4.726526433658468
30
0
0
SPLINE
5
239
100
AcDbEntity
8
0
100
AcDbSpline
70
0
71
3
72
8
73
4
74
0
42
0.000000001
43
0.0000000001
44
0.0000000001
40
-0.99999748557972712
40
-0.99999748557972712
40
-0.99999748557972712
40
-0.99999748557972712
40
0
40
0
40
0
40
0
10
-1.1133319089504188
20
-4.7265264337054633
30
0
10
-1.1542957085533674
20
-3.4247901188036627
30
0
10
-1.1767075011202066
20
-3.1512301853622029
30
0
10
-1.3132110476690084
20
-2.20480559595718
30
0
0
SPLINE
5
240
100
AcDbEntity
8
0
100
AcDbSpline
70
0
71
3
72
8
73
4
74
0
42
0.000000001
43
0.0000000001
44
0.0000000001
40
-0.99992272774477997
40
-0.99992272774477997
40
-0.99992272774477997
40
-0.99992272774477997
40
-9.9400171420171451e-05
40
-9.9400171420171451e-05
40
-9.9400171420171451e-05
40
-9.9400171420171451e-05
10
-1.3132113755356618
20
-2.2048056445076338
30
0
10
-1.422300698677321
20
-1.4684795199375589
30
0
10
-1.5033790550829211
20
-1.0946627263301874
30
0
10
-1.6758300581907677
20
-0.53644373708246129
30
0
0
SPLINE
5
241
100
AcDbEntity
8
0
100
AcDbSpline
70
0
71
3
72
14
73
10
74
0
42
0.000000001
43
0.0000000001
44
0.0000000001
40
-0.99980697829337473
40
-0.99980697829337473
40
-0.99980697829337473
40
-0.99980697829337473
40
-0.38720070799593487
40
-0.38720070799593487
40
-0.38720070799593487
40
-0.090042449082282178
40
-0.090042449082282178
40
-0.090042449082282178
40
-0.00017129247147630393
40
-0.00017129247147630393
40
-0.00017129247147630393
40
-0.00017129247147630393
10
-1.6758300581907741
20
-0.53644373708246329
30
0
10
-1.731773753752254
20
-0.36021396925011645
30
0
10
-1.780811148912766
20
-0.19447820405193139
30
0
10
-1.8106283002285175
20
-0.084336392773559879
30
0
10
-1.8250917708137133
20
-0.030909664285805827
30
0
10
-1.8349381620187319
20
0.0084874677451970432
30
0
10
-1.8393555054350861
20
0.033314610089507694
30
0
10
-1.8406914661565756
20
0.040823215120312714
30
0
10
-1.8417761194883813
20
0.046132425034768804
30
0
10
-1.8417831590895135
20
0.055144962686865383
30
0
0
SPLINE
5
242
100
AcDbEntity
8
0
100
AcDbSpline
70
0
71
3
72
26
73
22
74
0
42
0.000000001
43
0.0000000001
44
0.0000000001
40
-0.99790765461420583
40
-0.99790765461420583
40
-0.99790765461420583
40
-0.99790765461420583
40
-0.97730438075725867
40
-0.97730438075725867
40
-0.97730438075725867
40
-0.91448462297585653
40
-0.91448462297585653
40
-0.91448462297585653
40
-0.82896924595171306
40
-0.82896924595171306
40
-0.82896924595171306
40
-0.65793849190342613
40
-0.65793849190342613
40
-0.65793849190342613
40
-0.31587698380685231
40
-0.31587698380685231
40
-0.31587698380685231
40
-0.080317394338248901
40
-0.080317394338248901
40
-0.080317394338248901
40
-0.0017579218331841364
40
-0.0017579218331841364
40
-0.0017579218331841364
40
-0.0017579218331841364
10
-1.841782810357709
20
0.055144970077750786
30
0
10
-1.841783138261373
20
0.055160441896403574
30
0
10
-1.8418699737395132
20
0.05671202756418512
30
0
10
-1.8422864969570993
20
0.059179708750093145
30
0
10
-1.8435564838446568
20
0.066703713694976935
30
0
10
-1.8477654205267011
20
0.082178107186595434
30
0
10
-1.8546670815561113
20
0.10178159492600948
30
0
10
-1.8640621853557244
20
0.1284674610329378
30
0
10
-1.8783036718113155
20
0.16353657440177571
30
0
10
-1.8963576866696858
20
0.20460331913781257
30
0
10
-1.9324657163864258
20
0.28673680860988632
30
0
10
-1.9838394043508021
20
0.39310864637443244
30
0
10
-2.0434629268063134
20
0.510601601364716
30
0
10
-2.1627099717173364
20
0.74558751134528323
30
0
10
-2.3150870298990025
20
1.0254224524709357
30
0
10
-2.4461225603363053
20
1.250183292631349
30
0
10
-2.5363597692154092
20
1.404964143395351
30
0
10
-2.6171306618928747
20
1.5343519460800117
30
0
10
-2.667633048457676
20
1.6022717064916541
30
0
10
-2.6844756692897458
20
1.6249230473377041
30
0
10
-2.6987847719506495
20
1.6410697907812919
30
0
10
-2.7045473920332079
20
1.6461694523723009
30
0
0
SPLINE
5
243
100
AcDbEntity
8
0
100
AcDbSpline
70
0
71
3
72
26
73
22
74
0
42
0.000000001
43
0.0000000001
44
0.0000000001
40
-0.99900872474118296
40
-0.99900872474118296
40
-0.99900872474118296
40
-0.99900872474118296
40
-0.70546653638940771
40
-0.70546653638940771
40
-0.70546653638940771
40
-0.56339831004112184
40
-0.56339831004112184
40
-0.56339831004112184
40
-0.47768211209432698
40
-0.47768211209432698
40
-0.47768211209432698
40
-0.39039762516664456
40
-0.39039762516664456
40
-0.39039762516664456
40
-0.26277245453764886
40
-0.26277245453764886
40
-0.26277245453764886
40
0
40
0
40
0
40
9.2116147210169399e-05
40
9.2116147210169399e-05
40
9.2116147210169399e-05
40
9.2116147210169399e-05
10
-2.7045473920332181
20
1.6461694523722887
30
0
10
-2.758978399599215
20
1.6908955970049189
30
0
10
-2.7949273266166599
20
1.728993317368092
30
0
10
-2.8158490480254912
20
1.7636403879506224
30
0
10
-2.8259747198050569
20
1.7804088391686985
30
0
10
-2.8338649594102527
20
1.796230023976642
30
0
10
-2.8341041768758055
20
1.8181900677832283
30
0
10
-2.8342485076115143
20
1.8314395572027069
30
0
10
-2.8297062075391604
20
1.8484273035915111
30
0
10
-2.8183284245496947
20
1.8608068116736152
30
0
10
-2.8067424702680261
20
1.8734128189073267
30
0
10
-2.7913314197393335
20
1.8788640770376219
30
0
10
-2.7786828393908749
20
1.8804627482410416
30
0
10
-2.7601884049042051
20
1.8828002848675118
30
0
10
-2.7444755469742557
20
1.8793724975379384
30
0
10
-2.7273576178120664
20
1.8739184789690024
30
0
10
-2.6921128440704818
20
1.862688986860275
30
0
10
-2.6507748339453654
20
1.8400925757038074
30
0
10
-2.5993856123551335
20
1.8037441018960825
30
0
10
-2.5993684179540142
20
1.8037319400026077
30
0
10
-2.5993512235528908
20
1.8037197781091301
30
0
10
-2.5993340291516929
20
1.8037076162156001
30
0
0
SPLINE
5
244
100
AcDbEntity
8
0
100
AcDbSpline
70
0
71
3
72
20
73
16
74
0
42
0.000000001
43
0.0000000001
44
0.0000000001
40
-1.00007248520804
40
-1.00007248520804
40
-1.00007248520804
40
-1.00007248520804
40
-1
40
-1
40
-1
40
-0.89869684570787012
40
-0.89869684570787012
40
-0.89869684570787012
40
-0.75
40
-0.75
40
-0.75
40
-0.5
40
-0.5
40
-0.5
40
0
40
0
40
0
40
0
10
-2.5993340291519575
20
1.8037076162153587
30
0
10
-2.5993168690380806
20
1.8036954061343307
30
0
10
-2.5992997089242049
20
1.8036831960533037
30
0
10
-2.599282548810335
20
1.8036709859722808
30
0
10
-2.5687517365377777
20
1.7819471387783461
30
0
10
-2.538741738328826
20
1.7494658810761081
30
0
10
-2.5049232874951559
20
1.7066154084514129
30
0
10
-2.4552832047076834
20
1.6437177606841054
30
0
10
-2.3989439745302654
20
1.5584699056840712
30
0
10
-2.3377099200376783
20
1.4561282723904589
30
0
10
-2.2347587541923586
20
1.2840640419650999
30
0
10
-2.118377032400907
20
1.0639356970768661
30
0
10
-2.0027084081148536
20
0.82545840996858233
30
0
10
-1.7713711595427459
20
0.34850383575201455
30
0
10
-1.5432332589494377
20
-0.20059179934698326
30
0
10
-1.4347973717338638
20
-0.5835781244062419
30
0
0
SPLINE
5
245
100
AcDbEntity
8
0
100
AcDbSpline
70
0
71
3
72
11
73
7
74
0
42
0.000000001
43
0.0000000001
44
0.0000000001
40
-0.99997284187301128
40
-0.99997284187301128
40
-0.99997284187301128
40
-0.99997284187301128
40
-0.94748449733205775
40
-0.94748449733205775
40
-0.94748449733205775
40
-1.0362060425035049e-05
40
-1.0362060425035049e-05
40
-1.0362060425035049e-05
40
-1.0362060425035049e-05
10
-1.4347973076353957
20
-0.58357810613906935
30
0
10
-1.4210670952830993
20
-0.63175681047227938
30
0
10
-1.407587080371453
20
-0.68149343647140959
30
0
10
-1.3943571677458422
20
-0.73276385398647859
30
0
10
-1.1555422435127165
20
-1.6582530254386951
30
0
10
-0.99710370228710277
20
-3.0850935762484779
30
0
10
-0.93233241099388586
20
-4.855445357807076
30
0
0
SPLINE
5
246
100
AcDbEntity
8
0
100
AcDbSpline
70
0
71
3
72
14
73
10
74
0
42
0.000000001
43
0.0000000001
44
0.0000000001
40
-1
40
-1
40
-1
40
-1
40
-0.52680492768797393
40
-0.52680492768797393
40
-0.52680492768797393
40
0
40
0
40
0
40
8.7471151059524383e-06
40
8.7471151059524383e-06
40
8.7471151059524383e-06
40
8.7471151059524383e-06
10
-0.93233244846755725
20
-4.8554453591784101
30
0
10
-0.91079086936700349
20
-5.4241430474330192
30
0
10
-0.89832702280023013
20
-5.7308622278458339
30
0
10
-0.87759376381947063
20
-5.9280163457261326
30
0
10
-0.85451156445351284
20
-6.147506714266636
30
0
10
-0.82287604246765367
20
-6.2295422120820847
30
0
10
-0.75345152202361276
20
-6.4019065387017724
30
0
10
-0.75345036716125069
20
-6.4019094059462578
30
0
10
-0.75344921229886352
20
-6.4019122731908054
30
0
10
-0.75344805743574883
20
-6.4019151404371568
30
0
0
SPLINE
5
247
100
AcDbEntity
8
0
100
AcDbSpline
70
0
71
3
72
14
73
10
74
0
42
0.000000001
43
0.0000000001
44
0.0000000001
40
-1.0000072401919355
40
-1.0000072401919355
40
-1.0000072401919355
40
-1.0000072401919355
40
-1
40
-1
40
-1
40
-0.59063647590444535
40
-0.59063647590444535
40
-0.59063647590444535
40
-0.00029511429885071264
40
-0.00029511429885071264
40
-0.00029511429885071264
40
-0.00029511429885071264
10
-0.7534480574364758
20
-6.4019151404353538
30
0
10
-0.75344690375590784
20
-6.4019180081556222
30
0
10
-0.75344575007535164
20
-6.4019208758758621
30
0
10
-0.75344459639478634
20
-6.4019237435961243
30
0
10
-0.68896087261899464
20
-6.5622118569816639
30
0
10
-0.61852231808065972
20
-6.7063948864130785
30
0
10
-0.54653830866834097
20
-6.8278973388400965
30
0
10
-0.44273048107992391
20
-7.0031154982075217
30
0
10
-0.33438715331620689
20
-7.1308975093127467
30
0
10
-0.24248668756254255
20
-7.1914121645359952
30
0
0
SPLINE
5
248
100
AcDbEntity
8
0
100
AcDbSpline
70
0
71
3
72
11
73
7
74
0
42
0.000000001
43
0.0000000001
44
0.0000000001
40
-0.99979403508619846
40
-0.99979403508619846
40
-0.99979403508619846
40
-0.99979403508619846
40
-0.45360371698357072
40
-0.45360371698357072
40
-0.45360371698357072
40
-0.00045056215683376554
40
-0.00045056215683376554
40
-0.00045056215683376554
40
-0.00045056215683376554
10
-0.24248668756254724
20
-7.1914121645360023
30
0
10
-0.11110453154317031
20
-7.2764495486550951
30
0
10
0.03623214618207854
20
-7.4049470001129887
30
0
10
0.16020881117653474
20
-7.5359169687531402
30
0
10
0.26306749432254239
20
-7.6445777276677465
30
0
10
0.34940768056591959
20
-7.7537719336835034
30
0
10
0.3965474456514716
20
-7.8456837722413351
30
0
0
SPLINE
5
249
100
AcDbEntity
8
0
100
AcDbSpline
70
0
71
3
72
17
73
13
74
0
42
0.000000001
43
0.0000000001
44
0.0000000001
40
-1.0063096832418612
40
-1.0063096832418612
40
-1.0063096832418612
40
-1.0063096832418612
40
-1
40
-1
40
-1
40
-0.85786093660107465
40
-0.85786093660107465
40
-0.85786093660107465
40
-0.5
40
-0.5
40
-0.5
40
-0.0026105086995183322
40
-0.0026105086995183322
40
-0.0026105086995183322
40
-0.0026105086995183322
10
-2.916251168092892
20
-7.8065773043373134
30
0
10
-2.9163660720488953
20
-7.8068358382383209
30
0
10
-2.9164809760049026
20
-7.8070943721393373
30
0
10
-2.9165958799609104
20
-7.8073529060403546
30
0
10
-2.917988114167942
20
-7.8104854330061757
30
0
10
-2.9202582716102223
20
-7.8166398476749661
30
0
10
-2.9226485380288612
20
-7.8245383119064673
30
0
10
-2.9286664683489696
20
-7.844424131750813
30
0
10
-2.9357704257948956
20
-7.8754988820669229
30
0
10
-2.9425226705846153
20
-7.9112460603654391
30
0
10
-2.9519075887402373
20
-7.9609309211893153
30
0
10
-2.9608628722561434
20
-8.0201373898275126
30
0
10
-2.9675648023220105
20
-8.0758280014249433
30
0
0
SPLINE
5
250
100
AcDbEntity
8
0
100
AcDbSpline
70
0
71
3
72
11
73
7
74
0
42
0.000000001
43
0.0000000001
44
0.0000000001
40
-0.99742644122664958
40
-0.99742644122664958
40
-0.99742644122664958
40
-0.99742644122664958
40
-0.24615261814684378
40
-0.24615261814684378
40
-0.24615261814684378
40
-0.01785375035621721
40
-0.01785375035621721
40
-0.01785375035621721
40
-0.01785375035621721
10
-2.9675648023219927
20
-8.0758280014249451
30
0
10
-2.9745776621829512
20
-8.1630582156669114
30
0
10
-2.9864749205237553
20
-8.251412359713898
30
0
10
-2.9986524252393201
20
-8.3071108108865541
30
0
10
-3.0023529541991629
20
-8.3240365880795917
30
0
10
-3.005679870779598
20
-8.3373625807238234
30
0
10
-3.0107426966587982
20
-8.3501617653499025
30
0
0
SPLINE
5
251
100
AcDbEntity
8
0
100
AcDbSpline
70
0
71
3
72
23
73
19
74
0
42
0.000000001
43
0.0000000001
44
0.0000000001
40
-0.99365770359454142
40
-0.99365770359454142
40
-0.99365770359454142
40
-0.99365770359454142
40
-0.95879229820918055
40
-0.95879229820918055
40
-0.95879229820918055
40
-0.80034436214251881
40
-0.80034436214251881
40
-0.80034436214251881
40
-0.6865931151848701
40
-0.6865931151848701
40
-0.6865931151848701
40
-0.54999756093220686
40
-0.54999756093220686
40
-0.54999756093220686
40
-0.35697591352823915
40
-0.35697591352823915
40
-0.35697591352823915
40
0
40
0
40
0
40
0
10
-3.010742696658796
20
-8.3501617653499025
30
0
10
-3.0121407719020579
20
-8.3549451141829714
30
0
10
-3.0136462186235407
20
-8.3595356695102883
30
0
10
-3.0152825151590372
20
-8.3639585186321703
30
0
10
-3.0227187633820773
20
-8.3840584230259587
30
0
10
-3.0321327813014589
20
-8.401905403435121
30
0
10
-3.0511552411138894
20
-8.4151575854141321
30
0
10
-3.0648116419328644
20
-8.4246714501096491
30
0
10
-3.0848000614910034
20
-8.4293072582546316
30
0
10
-3.1015695079186081
20
-8.4260222837313421
30
0
10
-3.1217067098443314
20
-8.4220775980446714
30
0
10
-3.1354802075129089
20
-8.4108540054993011
30
0
10
-3.1461289610928453
20
-8.3991182152577917
30
0
10
-3.161176595476292
20
-8.3825345015461927
30
0
10
-3.171623527627359
20
-8.3626111739986637
30
0
10
-3.1806178319802902
20
-8.3391156878851387
30
0
10
-3.1972519766791954
20
-8.2956629315131458
30
0
10
-3.2075881444288994
20
-8.2396190443348747
30
0
10
-3.2075881444288994
20
-8.1760547485414268
30
0
0
SPLINE
5
252
100
AcDbEntity
8
0
100
AcDbSpline
70
0
71
3
72
17
73
13
74
0
42
0.000000001
43
0.0000000001
44
0.0000000001
40
-1
40
-1
40
-1
40
-1
40
-0.81392547244730684
40
-0.81392547244730684
40
-0.81392547244730684
40
-0.3223531412864386
40
-0.3223531412864386
40
-0.3223531412864386
40
-0.11443232922253281
40
-0.11443232922253281
40
-0.11443232922253281
40
0
40
0
40
0
40
0
10
-3.2075881444288994
20
-8.1760547485414268
30
0
10
-3.2075881444288994
20
-8.1400440656355215
30
0
10
-3.2031029974328336
20
-8.1011669408098168
30
0
10
-3.1955749445032993
20
-8.0611015161254702
30
0
10
-3.1756873082086123
20
-7.9552565384701737
30
0
10
-3.1351106812207279
20
-7.8417296299054691
30
0
10
-3.0894761052379596
20
-7.7628202642586279
30
0
10
-3.0701740056382487
20
-7.7294438955236471
30
0
10
-3.0509188032045187
20
-7.7020679325981645
30
0
10
-3.0253191656794094
20
-7.6824248703460789
30
0
10
-3.0112300222205506
20
-7.6716140171935878
30
0
10
-2.9936574757411747
20
-7.662128377155919
30
0
10
-2.9713754493008269
20
-7.662128377155919
30
0
0
SPLINE
5
253
100
AcDbEntity
8
0
100
AcDbSpline
70
0
71
3
72
17
73
13
74
0
42
0.000000001
43
0.0000000001
44
0.0000000001
40
-1
40
-1
40
-1
40
-1
40
-0.77335393502316752
40
-0.77335393502316752
40
-0.77335393502316752
40
-0.5
40
-0.5
40
-0.5
40
0
40
0
40
0
40
0.0057698489435493838
40
0.0057698489435493838
40
0.0057698489435493838
40
0.0057698489435493838
10
-2.9713754493008269
20
-7.662128377155919
30
0
10
-2.956118520283983
20
-7.662128377155919
30
0
10
-2.9386988272937238
20
-7.6678715240564905
30
0
10
-2.9264166758422676
20
-7.6787870996653229
30
0
10
-2.9116033834511144
20
-7.6919521883511655
30
0
10
-2.905322811584385
20
-7.709070499558015
30
0
10
-2.9029971360155411
20
-7.7241873907555014
30
0
10
-2.8987431720683112
20
-7.7518381564124965
30
0
10
-2.904813546554462
20
-7.7779832504925714
30
0
10
-2.9159359485589844
20
-7.8057892555038819
30
0
10
-2.9160410217367931
20
-7.8060519384484026
30
0
10
-2.916146094914601
20
-7.8063146213929233
30
0
10
-2.9162511680924093
20
-7.8065773043374431
30
0
0
SPLINE
5
254
100
AcDbEntity
8
0
100
AcDbSpline
70
0
71
3
72
14
73
10
74
0
42
0.000000001
43
0.0000000001
44
0.0000000001
40
-1.0000686558662002
40
-1.0000686558662002
40
-1.0000686558662002
40
-1.0000686558662002
40
-1
40
-1
40
-1
40
-0.43280871726238629
40
-0.43280871726238629
40
-0.43280871726238629
40
-0.0004080988384000985
40
-0.0004080988384000985
40
-0.0004080988384000985
40
-0.0004080988384000985
10
-3.8804525453861576
20
-6.2247776460866824
30
0
10
-3.8804140994717504
20
-6.2248098406328927
30
0
10
-3.8803756535573339
20
-6.2248420351791118
30
0
10
-3.8803372076429143
20
-6.2248742297253337
30
0
10
-3.5632480473198855
20
-6.4904041769877061
30
0
10
-3.3860103291142387
20
-6.6254584547225441
30
0
10
-3.2458253464840832
20
-6.6913779421104076
30
0
10
-3.1389547456341118
20
-6.7416319357457271
30
0
10
-3.0530153167113436
20
-6.7542001768105511
30
0
10
-2.9300465382773915
20
-6.7561444348655311
30
0
0
SPLINE
5
255
100
AcDbEntity
8
0
100
AcDbSpline
70
0
71
3
72
26
73
22
74
0
42
0.000000001
43
0.0000000001
44
0.0000000001
40
-0.99934222105194359
40
-0.99934222105194359
40
-0.99934222105194359
40
-0.99934222105194359
40
-0.80446117547801299
40
-0.80446117547801299
40
-0.80446117547801299
40
-0.50972895444145361
40
-0.50972895444145361
40
-0.50972895444145361
40
-0.38312561109226301
40
-0.38312561109226301
40
-0.38312561109226301
40
-0.31137126021044753
40
-0.31137126021044753
40
-0.31137126021044753
40
-0.24504480395504186
40
-0.24504480395504186
40
-0.24504480395504186
40
-0.13719406166290499
40
-0.13719406166290499
40
-0.13719406166290499
40
-0.0033316289994717203
40
-0.0033316289994717203
40
-0.0033316289994717203
40
-0.0033316289994717203
10
-2.9300465382773915
20
-6.7561444348655293
30
0
10
-2.8950278675797247
20
-6.7561479821114716
30
0
10
-2.8649103992495157
20
-6.7566730778650932
30
0
10
-2.8393564559941149
20
-6.7577510680288855
30
0
10
-2.8007094422236074
20
-6.7593813878698654
30
0
10
-2.7735571613782528
20
-6.7616802873872084
30
0
10
-2.751182154949289
20
-6.767390887704388
30
0
10
-2.7415708860781636
20
-6.7698438977286841
30
0
10
-2.7326146235257105
20
-6.7718684644157863
30
0
10
-2.7205801258583624
20
-6.7812588676213617
30
0
10
-2.713759393123623
20
-6.7865810200125205
30
0
10
-2.7049490289496205
20
-6.7960986165751365
30
0
10
-2.7016324715716951
20
-6.810427006582203
30
0
10
-2.6985667968754279
20
-6.8236715181879077
30
0
10
-2.7020910712723127
20
-6.8377706139013803
30
0
10
-2.7068085845025474
20
-6.8462924298001724
30
0
10
-2.7144795401419475
20
-6.8601494066726048
30
0
10
-2.7225049830615102
20
-6.8649183173283967
30
0
10
-2.7296687847945935
20
-6.8695166790057884
30
0
10
-2.7385603687255742
20
-6.8752240841410694
30
0
10
-2.7475468384779407
20
-6.8793253026674446
30
0
10
-2.7581056109207638
20
-6.8835820258201998
30
0
0
SPLINE
5
256
100
AcDbEntity
8
0
100
AcDbSpline
70
0
71
3
72
11
73
7
74
0
42
0.000000001
43
0.0000000001
44
0.0000000001
40
-0.99816754362481208
40
-0.99816754362481208
40
-0.99816754362481208
40
-0.99816754362481208
40
-0.71707883976691733
40
-0.71707883976691733
40
-0.71707883976691733
40
0
40
0
40
0
40
0
10
-2.7581056109207442
20
-6.883582025820246
30
0
10
-2.7976050351765216
20
-6.9010280432508999
30
0
10
-2.8427834732183976
20
-6.9127798841644861
30
0
10
-2.8918815346899556
20
-6.9199031290640614
30
0
10
-3.017134454752616
20
-6.9380750730726897
30
0
10
-3.1684322745233797
20
-6.9262725198435149
30
0
10
-3.3115310917043321
20
-6.8853871435060983
30
0
0
SPLINE
5
257
100
AcDbEntity
8
0
100
AcDbSpline
70
0
71
3
72
14
73
10
74
0
42
0.000000001
43
0.0000000001
44
0.0000000001
40
-1
40
-1
40
-1
40
-1
40
-0.81638324751102798
40
-0.81638324751102798
40
-0.81638324751102798
40
-0.5
40
-0.5
40
-0.5
40
-0.00020563165143208371
40
-0.00020563165143208371
40
-0.00020563165143208371
40
-0.00020563165143208371
10
-3.3115310917043304
20
-6.8853871435060983
30
0
10
-3.3346823810237565
20
-6.8787724894148354
30
0
10
-3.3594804211500917
20
-6.8673067316803351
30
0
10
-3.3886008907940117
20
-6.8514996391964962
30
0
10
-3.4387772969775541
20
-6.8242630216986218
30
0
10
-3.5007284571319111
20
-6.7838281635411759
30
0
10
-3.5719501740460395
20
-6.7323293836186515
30
0
10
-3.6844599649336129
20
-6.6509761502076366
30
0
10
-3.8196296863039443
20
-6.5421187607842679
30
0
10
-3.9616789305444429
20
-6.4161164527238403
30
0
0
SPLINE
5
258
100
AcDbEntity
8
0
100
AcDbSpline
70
0
71
3
72
17
73
13
74
0
42
0.000000001
43
0.0000000001
44
0.0000000001
40
-0.99986953860424466
40
-0.99986953860424466
40
-0.99986953860424466
40
-0.99986953860424466
40
-0.55037597986491771
40
-0.55037597986491771
40
-0.55037597986491771
40
-0.26768059334235583
40
-0.26768059334235583
40
-0.26768059334235583
40
0
40
0
40
0
40
0.00045441907159225877
40
0.00045441907159225877
40
0.00045441907159225877
40
0.00045441907159225877
10
-3.9616789305445623
20
-6.4161164527239762
30
0
10
-4.1641016791430125
20
-6.240275580569806
30
0
10
-4.2822032222139086
20
-6.1400554549323214
30
0
10
-4.3600883804150596
20
-6.0882613773317624
30
0
10
-4.4090718963608673
20
-6.0556870578511122
30
0
10
-4.4403932054495625
20
-6.0429153469878196
30
0
10
-4.4682376464134244
20
-6.038439297732495
30
0
10
-4.4946031862624372
20
-6.0342009847722684
30
0
10
-4.521293236412899
20
-6.037083839835037
30
0
10
-4.5615469185595554
20
-6.0441874308020935
30
0
10
-4.5616172586462858
20
-6.0441998437585758
30
0
10
-4.5616875987330205
20
-6.044212256715058
30
0
10
-4.5617579388196789
20
-6.0442246696715269
30
0
0
LINE
5
259
100
AcDbEntity
8
0
100
AcDbLine
10
-4.5617579388196781
20
-6.0442246696715269
30
0
11
-4.8643762495503182
21
-6.0946610547933346
31
0
0
LINE
5
260
100
AcDbEntity
8
0
100
AcDbLine
10
-4.8643762495503182
20
-6.0946610547933346
30
0
11
-4.6649246287815105
21
-5.8952094340245269
31
0
0
SPLINE
5
261
100
AcDbEntity
8
0
100
AcDbSpline
70
0
71
3
72
20
73
16
74
0
42
0.000000001
43
0.0000000001
44
0.0000000001
40
-1
40
-1
40
-1
40
-1
40
-0.84948811610061847
40
-0.84948811610061847
40
-0.84948811610061847
40
-0.64938475698280551
40
-0.64938475698280551
40
-0.64938475698280551
40
-0.41249568211746596
40
-0.41249568211746596
40
-0.41249568211746596
40
0
40
0
40
0
40
7.384183248319173e-05
40
7.384183248319173e-05
40
7.384183248319173e-05
40
7.384183248319173e-05
10
-4.6649246287815105
20
-5.8952094340245269
30
0
10
-4.64384179693148
20
-5.8741266021744956
30
0
10
-4.6231682704457491
20
-5.8556393315716493
30
0
10
-4.5997809154384193
20
-5.8411247645743556
30
0
10
-4.5686877673320812
20
-5.8218278589941921
30
0
10
-4.5313929952937757
20
-5.8108010597542439
30
0
10
-4.4918050091478348
20
-5.8139453918789163
30
0
10
-4.4449394220070797
20
-5.8176677578170342
30
0
10
-4.396899940921573
20
-5.8379990222913243
30
0
10
-4.3379451310692518
20
-5.8734965668192824
30
0
10
-4.2352869374908337
20
-5.9353085514026951
30
0
10
-4.0968000254990473
20
-6.0460558146854364
30
0
10
-3.880568526956989
20
-6.2246818352201805
30
0
10
-3.8805298664327843
20
-6.2247137721749581
30
0
10
-3.8804912059085748
20
-6.2247457091297402
30
0
10
-3.8804525453844394
20
-6.2247776460844628
30
0
0
SPLINE
5
262
100
AcDbEntity
8
0
100
AcDbSpline
70
0
71
3
72
14
73
10
74
0
42
0.000000001
43
0.0000000001
44
0.0000000001
40
-1.0000449909446993
40
-1.0000449909446993
40
-1.0000449909446993
40
-1.0000449909446993
40
-1
40
-1
40
-1
40
-0.51232033247996056
40
-0.51232033247996056
40
-0.51232033247996056
40
-6.6013363262873524e-05
40
-6.6013363262873524e-05
40
-6.6013363262873524e-05
40
-6.6013363262873524e-05
10
2.2367423092523384
20
-3.8639390548816817
30
0
10
2.2367568521482188
20
-3.8639705986276751
30
0
10
2.2367713950440611
20
-3.8640021423735869
30
0
10
2.2367859379399042
20
-3.8640336861195004
30
0
10
2.3957243973686855
20
-4.2087734431903785
30
0
10
2.4792232739588185
20
-4.4838357007635832
30
0
10
2.4821445637387671
20
-4.7590817299215171
30
0
10
2.485213060144984
20
-5.0481976735343981
30
0
10
2.3991901991576703
20
-5.3336368782825732
30
0
10
2.2275438242126859
20
-5.6957668922775087
30
0
0
SPLINE
5
263
100
AcDbEntity
8
0
100
AcDbSpline
70
0
71
3
72
17
73
13
74
0
42
0.000000001
43
0.0000000001
44
0.0000000001
40
-0.99985571564199538
40
-0.99985571564199538
40
-0.99985571564199538
40
-0.99985571564199538
40
-0.74890000925827283
40
-0.74890000925827283
40
-0.74890000925827283
40
-0.23037683424888286
40
-0.23037683424888286
40
-0.23037683424888286
40
0
40
0
40
0
40
0.0018667414655548567
40
0.0018667414655548567
40
0.0018667414655548567
40
0.0018667414655548567
10
2.2275438242127463
20
-5.6957668922775371
30
0
10
2.1908377046536787
20
-5.7746169633350339
30
0
10
2.1603884886722904
20
-5.8752288475753822
30
0
10
2.1381991254238066
20
-5.9838090702646829
30
0
10
2.0923515961970844
20
-6.208156874996388
30
0
10
2.0818938831131337
20
-6.4675923330580325
30
0
10
2.1109306359158611
20
-6.6439139048934353
30
0
10
2.1238314964944429
20
-6.722252554903613
30
0
10
2.145556014363478
20
-6.7838996556002877
30
0
10
2.1686149072844985
20
-6.8157050251465234
30
0
10
2.1688613690781957
20
-6.8160449724481751
30
0
10
2.1691078308718938
20
-6.8163849197498276
30
0
10
2.169354292665596
20
-6.8167248670514864
30
0
0
SPLINE
5
264
100
AcDbEntity
8
0
100
AcDbSpline
70
0
71
3
72
14
73
10
74
0
42
0.000000001
43
0.0000000001
44
0.0000000001
40
-1.0055415107296
40
-1.0055415107296
40
-1.0055415107296
40
-1.0055415107296
40
-1
40
-1
40
-1
40
-0.73617616703267241
40
-0.73617616703267241
40
-0.73617616703267241
40
-0.00056727540936615459
40
-0.00056727540936615459
40
-0.00056727540936615459
40
-0.00056727540936615459
10
2.169354292665469
20
-6.816724867051474
30
0
10
2.1695813513515412
20
-6.8170780694520294
30
0
10
2.1698084100376169
20
-6.817431271852592
30
0
10
2.1700354687236927
20
-6.8177844742531537
30
0
10
2.1802428346118847
20
-6.8336625989681199
30
0
10
2.1956289041150723
20
-6.8562627409614008
30
0
10
2.2141251984522738
20
-6.8828171021088158
30
0
10
2.2656976376193305
20
-6.9568575098752907
30
0
10
2.34168120524666
20
-7.0621170163219684
30
0
10
2.4055754564739411
20
-7.1529098981855803
30
0
0
SPLINE
5
265
100
AcDbEntity
8
0
100
AcDbSpline
70
0
71
3
72
14
73
10
74
0
42
0.000000001
43
0.0000000001
44
0.0000000001
40
-0.99964743075178275
40
-0.99964743075178275
40
-0.99964743075178275
40
-0.99964743075178275
40
-0.92077874553177286
40
-0.92077874553177286
40
-0.92077874553177286
40
-0.4842522107338697
40
-0.4842522107338697
40
-0.4842522107338697
40
0
40
0
40
0
40
0
10
2.4055754564738603
20
-7.1529098981856372
30
0
10
2.416798423928471
20
-7.1684788900729828
30
0
10
2.4272943871983168
20
-7.1832237470102962
30
0
10
2.4371234122178618
20
-7.1973304825722977
30
0
10
2.4915256153261662
20
-7.2754091823124272
30
0
10
2.5263178235994195
20
-7.3351967435390888
30
0
10
2.5466753892821181
20
-7.4032344979674507
30
0
10
2.5692586583417429
20
-7.4787108559179618
30
0
10
2.5732658772398969
20
-7.5598670506456616
30
0
10
2.5732658772398969
20
-7.6843649610692433
30
0
0
SPLINE
5
266
100
AcDbEntity
8
0
100
AcDbSpline
70
0
71
3
72
11
73
7
74
0
42
0.000000001
43
0.0000000001
44
0.0000000001
40
-1
40
-1
40
-1
40
-1
40
-0.3744306423977023
40
-0.3744306423977023
40
-0.3744306423977023
40
-0.0021677633579971073
40
-0.0021677633579971073
40
-0.0021677633579971073
40
-0.0021677633579971073
10
2.5732658772398969
20
-7.6843649610692433
30
0
10
2.5732658772398969
20
-7.7845094487763777
30
0
10
2.5624133529824973
20
-7.8972180418940967
30
0
10
2.5460514817084512
20
-7.9877326117885783
30
0
10
2.5363148837870009
20
-8.0415958868586817
30
0
10
2.5252816958412074
20
-8.086763242445322
30
0
10
2.5105655304383885
20
-8.1206579429463268
30
0
0
SPLINE
5
267
100
AcDbEntity
8
0
100
AcDbSpline
70
0
71
3
72
14
73
10
74
0
42
0.000000001
43
0.0000000001
44
0.0000000001
40
-0.99911146944101636
40
-0.99911146944101636
40
-0.99911146944101636
40
-0.99911146944101636
40
-0.60756325927844301
40
-0.60756325927844301
40
-0.60756325927844301
40
0
40
0
40
0
40
4.1597006441519124e-06
40
4.1597006441519124e-06
40
4.1597006441519124e-06
40
4.1597006441519124e-06
10
2.5105655304384147
20
-8.1206579429463375
30
0
10
2.4769933232550505
20
-8.2033016798691438
30
0
10
2.4133373637160802
20
-8.2967232654967731
30
0
10
2.3240657739625683
20
-8.4014906713134749
30
0
10
2.1855435265767569
20
-8.5640576934375563
30
0
10
1.9847695950642605
20
-8.7527536417006626
30
0
10
1.7370855088078263
20
-8.9531272845148564
30
0
10
1.737083823344278
20
-8.9531286480359302
30
0
10
1.7370821378805812
20
-8.9531300115571231
30
0
10
1.7370804524124586
20
-8.9531313750818953
30
0
0
SPLINE
5
268
100
AcDbEntity
8
0
100
AcDbSpline
70
0
71
3
72
14
73
10
74
0
42
0.000000001
43
0.0000000001
44
0.0000000001
40
-1.0000039393596158
40
-1.0000039393596158
40
-1.0000039393596158
40
-1.0000039393596158
40
-1
40
-1
40
-1
40
-0.30279285329039235
40
-0.30279285329039235
40
-0.30279285329039235
40
-0.00043281108157266921
40
-0.00043281108157266921
40
-0.00043281108157266921
40
-0.00043281108157266921
10
1.7370804524159853
20
-8.9531313750790407
30
0
10
1.737078766559208
20
-8.9531327381121795
30
0
10
1.737077080701797
20
-8.9531341011458316
30
0
10
1.7370753948444826
20
-8.9531354641794039
30
0
10
1.4405941440744359
20
-9.1928437094828475
30
0
10
1.2124725789496833
20
-9.4176694469223641
30
0
10
1.0909304455415592
20
-9.5792277598886812
30
0
10
1.0382208817327749
20
-9.6492912676398817
30
0
10
1.0061740360450044
20
-9.7083448342241461
30
0
10
0.99658029408714754
20
-9.744432735653616
30
0
0
SPLINE
5
269
100
AcDbEntity
8
0
100
AcDbSpline
70
0
71
3
72
14
73
10
74
0
42
0.000000001
43
0.0000000001
44
0.0000000001
40
-0.99957402385507321
40
-0.99957402385507321
40
-0.99957402385507321
40
-0.99957402385507321
40
-0.72826539569809734
40
-0.72826539569809734
40
-0.72826539569809734
40
-0.34267827750229884
40
-0.34267827750229884
40
-0.34267827750229884
40
-0.001480903238709638
40
-0.001480903238709638
40
-0.001480903238709638
40
-0.001480903238709638
10
0.99658029408696436
20
-9.7444327356535698
30
0
10
0.98823404459286346
20
-9.7770462124996484
30
0
10
0.98918615590990078
20
-9.8289611147564457
30
0
10
1.0004923919421382
20
-9.8870423978722499
30
0
10
1.0165609519393883
20
-9.9695882230082624
30
0
10
1.0521096482449224
20
-10.064875869129397
30
0
10
1.0960033864071379
20
-10.144733007654795
30
0
10
1.1348439687316658
20
-10.215396794631292
30
0
10
1.1813085223445015
20
-10.273957987266611
30
0
10
1.2198716407428685
20
-10.301524138211693
30
0
0
SPLINE
5
270
100
AcDbEntity
8
0
100
AcDbSpline
70
0
71
3
72
11
73
7
74
0
42
0.000000001
43
0.0000000001
44
0.0000000001
40
-0.99918777901984579
40
-0.99918777901984579
40
-0.99918777901984579
40
-0.99918777901984579
40
-0.79216158565807526
40
-0.79216158565807526
40
-0.79216158565807526
40
-0.00024816004394495318
40
-0.00024816004394495318
40
-0.00024816004394495318
40
-0.00024816004394495318
10
1.2198716407428809
20
-10.301524138211676
30
0
10
1.2691715908707071
20
-10.334419055385991
30
0
10
1.3144580816662206
20
-10.368240144676365
30
0
10
1.3556415209830588
20
-10.402972301590085
30
0
10
1.5131757826065517
20
-10.535829216523778
30
0
10
1.6116648426076856
20
-10.68311295052235
30
0
10
1.6392662613467008
20
-10.840574648378402
30
0
0
SPLINE
5
271
100
AcDbEntity
8
0
100
AcDbSpline
70
0
71
3
72
14
73
10
74
0
42
0.000000001
43
0.0000000001
44
0.0000000001
40
-0.99969292226310091
40
-0.99969292226310091
40
-0.99969292226310091
40
-0.99969292226310091
40
-0.54088348717510049
40
-0.54088348717510049
40
-0.54088348717510049
40
0
40
0
40
0
40
0.00034442767016010863
40
0.00034442767016010863
40
0.00034442767016010863
40
0.00034442767016010863
10
1.6392662613468785
20
-10.840574648378368
30
0
10
1.6523570355154842
20
-10.912632283733956
30
0
10
1.6548367714058083
20
-10.973581153260318
30
0
10
1.6399794483447734
20
-11.039687499578108
30
0
10
1.6224643754348229
20
-11.117619269036844
30
0
10
1.5833947325968523
20
-11.200267472007269
30
0
10
1.516533377491575
20
-11.329037489247066
30
0
10
1.5164910395995901
20
-11.329119028890888
30
0
10
1.5164487017076056
20
-11.329200568534711
30
0
10
1.5164063638156235
20
-11.329282108178528
30
0
0
SPLINE
5
272
100
AcDbEntity
8
0
100
AcDbSpline
70
0
71
3
72
11
73
7
74
0
42
0.000000001
43
0.0000000001
44
0.0000000001
40
-1.0002069187404745
40
-1.0002069187404745
40
-1.0002069187404745
40
-1.0002069187404745
40
-1
40
-1
40
-1
40
-2.2219148691499243e-05
40
-2.2219148691499243e-05
40
-2.2219148691499243e-05
40
-2.2219148691499243e-05
10
1.5164063638183962
20
-11.329282108180029
30
0
10
1.5163630301864572
20
-11.329363123231046
30
0
10
1.5163196965545112
20
-11.329444138282076
30
0
10
1.5162763629225653
20
-11.329525153333107
30
0
10
1.3033143247913554
20
-11.727671572447973
30
0
10
1.0101691313454177
20
-12.035250420582425
30
0
10
0.64699362430103191
20
-12.235469045742105
30
0
0
SPLINE
5
273
100
AcDbEntity
8
0
100
AcDbSpline
70
0
71
3
72
14
73
10
74
0
42
0.000000001
43
0.0000000001
44
0.0000000001
40
-1
40
-1
40
-1
40
-1
40
-0.34229975691573483
40
-0.34229975691573483
40
-0.34229975691573483
40
0
40
0
40
0
40
0.00014243307325282988
40
0.00014243307325282988
40
0.00014243307325282988
40
0.00014243307325282988
10
0.64699362029227747
20
-12.23546903847183
30
0
10
0.36318646767260593
20
-12.392154237313939
30
0
10
0.017624178556139545
20
-12.634763259506588
30
0
10
-0.23136290478223281
20
-12.842874652005213
30
0
10
-0.36094810563635982
20
-12.951186120356832
30
0
10
-0.46486038002204266
20
-13.051150032221756
30
0
10
-0.51826020202203604
20
-13.120425476978502
30
0
10
-0.51828419477053889
20
-13.120456602706289
30
0
10
-0.51830818751904129
20
-13.120487728434076
30
0
10
-0.51833218026775996
20
-13.120518854162144
30
0
0
SPLINE
5
274
100
AcDbEntity
8
0
100
AcDbSpline
70
0
71
3
72
17
73
13
74
0
42
0.000000001
43
0.0000000001
44
0.0000000001
40
-1.0000884308467997
40
-1.0000884308467997
40
-1.0000884308467997
40
-1.0000884308467997
40
-1
40
-1
40
-1
40
-0.72196506325045784
40
-0.72196506325045784
40
-0.72196506325045784
40
0
40
0
40
0
40
0.00044995074552968027
40
0.00044995074552968027
40
0.00044995074552968027
40
0.00044995074552968027
10
-0.51833218026399264
20
-13.120518854164413
30
0
10
-0.51835633612201626
20
-13.120549854182206
30
0
10
-0.5183804919799524
20
-13.120580854199892
30
0
10
-0.5184046478378912
20
-13.120611854217579
30
0
10
-0.59167305442597318
20
-13.214639642672283
30
0
10
-0.64659109995539088
20
-13.31329930547623
30
0
10
-0.68312861585039075
20
-13.413306236398972
30
0
10
-0.77800449829357676
20
-13.672991263947006
30
0
10
-0.7505237085817128
20
-13.940996436829742
30
0
10
-0.59416992791597356
20
-14.169272956601722
30
0
10
-0.59406750375558348
20
-14.169422495875891
30
0
10
-0.5939650795951934
20
-14.169572035150059
30
0
10
-0.59386265543480699
20
-14.169721574424226
30
0
0
SPLINE
5
275
100
AcDbEntity
8
0
100
AcDbSpline
70
0
71
3
72
20
73
16
74
0
42
0.000000001
43
0.0000000001
44
0.0000000001
40
-1.0016690218191806
40
-1.0016690218191806
40
-1.0016690218191806
40
-1.0016690218191806
40
-1
40
-1
40
-1
40
-0.72312061631210378
40
-0.72312061631210378
40
-0.72312061631210378
40
-0.20888134902656746
40
-0.20888134902656746
40
-0.20888134902656746
40
-0.058120381119161235
40
-0.058120381119161235
40
-0.058120381119161235
40
0
40
0
40
0
40
0
10
-0.59386265543446404
20
-14.169721574424059
30
0
10
-0.59376387457535884
20
-14.169873544976523
30
0
10
-0.59366509371622533
20
-14.170025515529035
30
0
10
-0.59356631285709005
20
-14.170177486081551
30
0
10
-0.57706785729191468
20
-14.19555972541259
30
0
10
-0.5612651592183634
20
-14.220249492609851
30
0
10
-0.54700205340477426
20
-14.242936998724304
30
0
10
-0.52051164091865032
20
-14.28507378177199
30
0
10
-0.49974324563404121
20
-14.319384889227795
30
0
10
-0.48829804139220018
20
-14.341371026713189
30
0
10
-0.48494261877248057
20
-14.347816764288499
30
0
10
-0.48245709802688008
20
-14.352271988165223
30
0
10
-0.47976512236633545
20
-14.360494177794243
30
0
10
-0.47872732953755465
20
-14.363663942498633
30
0
10
-0.47703187837457789
20
-14.366690220299668
30
0
10
-0.47703187837457789
20
-14.376809290551746
30
0
0
SPLINE
5
276
100
AcDbEntity
8
0
100
AcDbSpline
70
0
71
3
72
23
73
19
74
0
42
0.000000001
43
0.0000000001
44
0.0000000001
40
-1
40
-1
40
-1
40
-1
40
-0.94131320305110378
40
-0.94131320305110378
40
-0.94131320305110378
40
-0.80865797122910255
40
-0.80865797122910255
40
-0.80865797122910255
40
-0.66763049528646623
40
-0.66763049528646623
40
-0.66763049528646623
40
-0.44774378269625464
40
-0.44774378269625464
40
-0.44774378269625464
40
0
40
0
40
0
40
0.0012094825388234928
40
0.0012094825388234928
40
0.0012094825388234928
40
0.0012094825388234928
10
-0.47703187837457789
20
-14.376809290551746
30
0
10
-0.47703187837457789
20
-14.382656385161027
30
0
10
-0.47752736218148406
20
-14.38865501667286
30
0
10
-0.47886102669253405
20
-14.394878473409017
30
0
10
-0.48187563277233364
20
-14.408945932173003
30
0
10
-0.49068366528595148
20
-14.42514388794269
30
0
10
-0.50477540516178387
20
-14.434938525373679
30
0
10
-0.51975651430488545
20
-14.44535132987218
30
0
10
-0.53663503748261654
20
-14.447253174533937
30
0
10
-0.55002292733984337
20
-14.446106089806312
30
0
10
-0.57089700928415077
20
-14.444317582367356
30
0
10
-0.5876680212041645
20
-14.436697518996789
30
0
10
-0.60537314129173647
20
-14.426677250234567
30
0
10
-0.64142514892657065
20
-14.406273502384684
30
0
10
-0.68022744266529123
20
-14.373016275573923
30
0
10
-0.71937671077972931
20
-14.329517088780102
30
0
10
-0.7194758258151589
20
-14.329406960962958
30
0
10
-0.7195749408505836
20
-14.329296833145817
30
0
10
-0.71967405588597422
20
-14.32918670532872
30
0
0
SPLINE
5
277
100
AcDbEntity
8
0
100
AcDbSpline
70
0
71
3
72
14
73
10
74
0
42
0.000000001
43
0.0000000001
44
0.0000000001
40
-1.0006652694746097
40
-1.0006652694746097
40
-1.0006652694746097
40
-1.0006652694746097
40
-1
40
-1
40
-1
40
-0.68706529338627143
40
-0.68706529338627143
40
-0.68706529338627143
40
0
40
0
40
0
40
0
10
-0.71967405588659439
20
-14.329186705328926
30
0
10
-0.7197709762439648
20
-14.329074641165718
30
0
10
-0.71986789660147477
20
-14.328962577002349
30
0
10
-0.71996481695898595
20
-14.328850512838974
30
0
10
-0.76753617927613804
20
-14.273846125159766
30
0
10
-0.80655582105126622
20
-14.217430029110714
30
0
10
-0.8373009895558825
20
-14.156040256746406
30
0
10
-0.90480369146906137
20
-14.021255648107703
30
0
10
-0.93124653576138083
20
-13.86472074314063
30
0
10
-0.93124653576138083
20
-13.648379975778141
30
0
0
SPLINE
5
278
100
AcDbEntity
8
0
100
AcDbSpline
70
0
71
3
72
17
73
13
74
0
42
0.000000001
43
0.0000000001
44
0.0000000001
40
-1
40
-1
40
-1
40
-1
40
-0.81057600446066869
40
-0.81057600446066869
40
-0.81057600446066869
40
-0.43687196999999267
40
-0.43687196999999267
40
-0.43687196999999267
40
0
40
0
40
0
40
5.2396652859739785e-05
40
5.2396652859739785e-05
40
5.2396652859739785e-05
40
5.2396652859739785e-05
10
-0.93124653576138083
20
-13.648379975778141
30
0
10
-0.93124653576138083
20
-13.595588022921405
30
0
10
-0.93093787943575446
20
-13.551349381605675
30
0
10
-0.92890746909685518
20
-13.511834863797556
30
0
10
-0.92490178579840621
20
-13.433878875789707
30
0
10
-0.91338273245965396
20
-13.372756133802511
30
0
10
-0.88427166472787078
20
-13.309899934328095
30
0
10
-0.85023989537022548
20
-13.236419026553765
30
0
10
-0.79513888352842499
20
-13.162430034591573
30
0
10
-0.70343002758768514
20
-13.042809787712349
30
0
10
-0.70341905450091957
20
-13.042795474990481
30
0
10
-0.70340808141418043
20
-13.042781162268646
30
0
10
-0.70339710832765057
20
-13.042766849547084
30
0
0
SPLINE
5
279
100
AcDbEntity
8
0
100
AcDbSpline
70
0
71
3
72
17
73
13
74
0
42
0.000000001
43
0.0000000001
44
0.0000000001
40
-1.000051442382631
40
-1.000051442382631
40
-1.000051442382631
40
-1.000051442382631
40
-1
40
-1
40
-1
40
-0.67481489914283088
40
-0.67481489914283088
40
-0.67481489914283088
40
0
40
0
40
0
40
3.1542249176730133e-06
40
3.1542249176730133e-06
40
3.1542249176730133e-06
40
3.1542249176730133e-06
10
-0.70339710832750224
20
-13.042766849547196
30
0
10
-0.70338610088635356
20
-13.042752563293789
30
0
10
-0.70337509344540794
20
-13.042738277040646
30
0
10
-0.70336408600447609
20
-13.042723990787522
30
0
10
-0.63322297091697333
20
-12.951689777588847
30
0
10
-0.57321028904423488
20
-12.879634580396887
30
0
10
-0.49396511920836744
20
-12.804975215988151
30
0
10
-0.32951779013520799
20
-12.650044220285245
30
0
10
-0.086519012507769569
20
-12.486372226530014
30
0
10
0.50967982911136378
20
-12.099150298468103
30
0
10
0.50968261498761191
20
-12.099148489084561
30
0
10
0.50968540086385739
20
-12.099146679701018
30
0
10
0.5096881867402614
20
-12.099144870317376
30
0
0
SPLINE
5
280
100
AcDbEntity
8
0
100
AcDbSpline
70
0
71
3
72
14
73
10
74
0
42
0.000000001
43
0.0000000001
44
0.0000000001
40
-1.0000046724790506
40
-1.0000046724790506
40
-1.0000046724790506
40
-1.0000046724790506
40
-1
40
-1
40
-1
40
-0.57101177343195364
40
-0.57101177343195364
40
-0.57101177343195364
40
0
40
0
40
0
40
0
10
0.50968818673700278
20
-12.099144870319495
30
0
10
0.50969097341372516
20
-12.099143062170475
30
0
10
0.50969376008742873
20
-12.099141254023415
30
0
10
0.50969654676119214
20
-12.099139445876318
30
0
10
0.7628474036755829
20
-11.934881256275377
30
0
10
0.9617324875318759
20
-11.767129932106807
30
0
10
1.1055295869217154
20
-11.598203885801562
30
0
10
1.2969330606110778
20
-11.373352117604361
30
0
10
1.3906219050794886
20
-11.148013848712912
30
0
10
1.3906219050794886
20
-10.921322728594456
30
0
0
SPLINE
5
281
100
AcDbEntity
8
0
100
AcDbSpline
70
0
71
3
72
17
73
13
74
0
42
0.000000001
43
0.0000000001
44
0.0000000001
40
-1
40
-1
40
-1
40
-1
40
-0.74554332194925843
40
-0.74554332194925843
40
-0.74554332194925843
40
-0.43796881117167136
40
-0.43796881117167136
40
-0.43796881117167136
40
0
40
0
40
0
40
3.6834358176654291e-05
40
3.6834358176654291e-05
40
3.6834358176654291e-05
40
3.6834358176654291e-05
10
1.3906219050794886
20
-10.921322728594456
30
0
10
1.3906219050794886
20
-10.858907218439771
30
0
10
1.3901979704583556
20
-10.812699117985495
30
0
10
1.3864631328602137
20
-10.777482504742103
30
0
10
1.3819486478960852
20
-10.734914423320321
30
0
10
1.3739698473962481
20
-10.709636467326405
30
0
10
1.3555715112138813
20
-10.681285464157696
30
0
10
1.329373314864787
20
-10.640915229569885
30
0
10
1.276270731932857
20
-10.592956548566894
30
0
10
1.1787021324068288
20
-10.50932632040173
30
0
10
1.1786939153439329
20
-10.509319277204961
30
0
10
1.1786856982809983
20
-10.50931223400816
30
0
10
1.178677481218664
20
-10.509305190811874
30
0
0
SPLINE
5
282
100
AcDbEntity
8
0
100
AcDbSpline
70
0
71
3
72
14
73
10
74
0
42
0.000000001
43
0.0000000001
44
0.0000000001
40
-1.0000316253910504
40
-1.0000316253910504
40
-1.0000316253910504
40
-1.0000316253910504
40
-1
40
-1
40
-1
40
-0.55329002008606365
40
-0.55329002008606365
40
-0.55329002008606365
40
0
40
0
40
0
40
0
10
1.1786774812181924
20
-10.509305190811435
30
0
10
1.178669274335959
20
-10.509298135772324
30
0
10
1.1786610674538611
20
-10.509291080733327
30
0
10
1.1786528605717514
20
-10.509284025694319
30
0
10
1.060615081699491
20
-10.40781295262869
30
0
10
0.9642012739039868
20
-10.305961834650475
30
0
10
0.89289507061367657
20
-10.207951413808152
30
0
10
0.8045759991249275
20
-10.086556795029004
30
0
10
0.75324625465258344
20
-9.9709980485206238
30
0
10
0.75324625465258344
20
-9.8651002221727246
30
0
0
SPLINE
5
283
100
AcDbEntity
8
0
100
AcDbSpline
70
0
71
3
72
14
73
10
74
0
42
0.000000001
43
0.0000000001
44
0.0000000001
40
-1
40
-1
40
-1
40
-1
40
-0.84828468265283274
40
-0.84828468265283274
40
-0.84828468265283274
40
-0.5
40
-0.5
40
-0.5
40
-4.2426680263406284e-05
40
-4.2426680263406284e-05
40
-4.2426680263406284e-05
40
-4.2426680263406284e-05
10
0.75324625465258344
20
-9.8651002221727246
30
0
10
0.75324625465258344
20
-9.8213396353195019
30
0
10
0.75769464772486006
20
-9.7779965752977684
30
0
10
0.76864727010605416
20
-9.7339174474578645
30
0
10
0.79379061539874829
20
-9.6327273677758978
30
0
10
0.85242488024604446
20
-9.5299038075257982
30
0
10
0.96189485784880169
20
-9.400161611848457
30
0
10
1.1190374112817218
20
-9.2139185855575914
30
0
10
1.3826958462218431
20
-8.9689691802273863
30
0
10
1.8200725049810609
20
-8.5839844157530774
30
0
0
SPLINE
5
284
100
AcDbEntity
8
0
100
AcDbSpline
70
0
71
3
72
14
73
10
74
0
42
0.000000001
43
0.0000000001
44
0.0000000001
40
-1
40
-1
40
-1
40
-1
40
-0.71756717747339549
40
-0.71756717747339549
40
-0.71756717747339549
40
0
40
0
40
0
40
0.00022817392429954372
40
0.00022817392429954372
40
0.00022817392429954372
40
0.00022817392429954372
10
1.8200726663993021
20
-8.5839845991206953
30
0
10
1.9205641023308833
20
-8.4949415546243561
30
0
10
2.0055212601837362
20
-8.4109450973369313
30
0
10
2.0763177496033332
20
-8.3297659159126098
30
0
10
2.2561879099954019
20
-8.1235168136902072
30
0
10
2.344727418950074
20
-7.9373855427283573
30
0
10
2.3697570196119906
20
-7.7246339371020651
30
0
10
2.3697653300407571
20
-7.7245632984575519
30
0
10
2.3697736404695235
20
-7.7244926598130368
30
0
10
2.3697819508982967
20
-7.7244220211684613
30
0
0
SPLINE
5
285
100
AcDbEntity
8
0
100
AcDbSpline
70
0
71
3
72
17
73
13
74
0
42
0.000000001
43
0.0000000001
44
0.0000000001
40
-1.0002817792322334
40
-1.0002817792322334
40
-1.0002817792322334
40
-1.0002817792322334
40
-1
40
-1
40
-1
40
-0.70172074038229271
40
-0.70172074038229271
40
-0.70172074038229271
40
0
40
0
40
0
40
0.00073691060952129836
40
0.00073691060952129836
40
0.00073691060952129836
40
0.00073691060952129836
10
2.3697819508957489
20
-7.7244220211681904
30
0
10
2.3697909308568161
20
-7.724351464331237
30
0
10
2.3697999108178869
20
-7.7242809074942533
30
0
10
2.3698088907789576
20
-7.7242103506572688
30
0
10
2.3789438551909887
20
-7.652435630277024
30
0
10
2.3801808450718669
20
-7.5864929930732634
30
0
10
2.3737949486587073
20
-7.5265082515438602
30
0
10
2.3587717252378435
20
-7.3853903699600005
30
0
10
2.303442276253898
20
-7.2776554212827991
30
0
10
2.2037346417343531
20
-7.1955432516784681
30
0
10
2.2036205744351571
20
-7.1954493139026603
30
0
10
2.2035065071359616
20
-7.1953553761268516
30
0
10
2.2033924398368141
20
-7.1952614383510811
30
0
0
SPLINE
5
286
100
AcDbEntity
8
0
100
AcDbSpline
70
0
71
3
72
23
73
19
74
0
42
0.000000001
43
0.0000000001
44
0.0000000001
40
-1.0011735048219212
40
-1.0011735048219212
40
-1.0011735048219212
40
-1.0011735048219212
40
-1
40
-1
40
-1
40
-0.98559213711961013
40
-0.98559213711961013
40
-0.98559213711961013
40
-0.75367445149473511
40
-0.75367445149473511
40
-0.75367445149473511
40
-0.44321820595303885
40
-0.44321820595303885
40
-0.44321820595303885
40
0
40
0
40
0
40
0.00027619047305093734
40
0.00027619047305093734
40
0.00027619047305093734
40
0.00027619047305093734
10
2.2033924398372697
20
-7.1952614383504425
30
0
10
2.2032802453273335
20
-7.1951652716276389
30
0
10
2.203168050817466
20
-7.1950691049048956
30
0
10
2.2030558563076017
20
-7.1949729381821541
30
0
10
2.201276837786629
20
-7.1934480651641772
30
0
10
2.19951237342914
20
-7.191881388453786
30
0
10
2.1977571861828284
20
-7.1902730647854423
30
0
10
2.1695046294100351
20
-7.1643845130970689
30
0
10
2.1418048497166939
20
-7.1272480195745445
30
0
10
2.1122980131790006
20
-7.0815268341662847
30
0
10
2.0727987328001771
20
-7.0203222411430364
30
0
10
2.0315088248611128
20
-6.944219409842578
30
0
10
1.9942472301752487
20
-6.8653212915443946
30
0
10
1.9410512729839158
20
-6.7526835754495691
30
0
10
1.8961573777509348
20
-6.6357296623956898
30
0
10
1.8785919326931912
20
-6.5457067564747557
30
0
10
1.8785818734313287
20
-6.5456552027577102
30
0
10
1.8785718141694723
20
-6.5456036490406948
30
0
10
1.878561754907661
20
-6.5455520953239148
30
0
0
SPLINE
5
287
100
AcDbEntity
8
0
100
AcDbSpline
70
0
71
3
72
14
73
10
74
0
42
0.000000001
43
0.0000000001
44
0.0000000001
40
-1
40
-1
40
-1
40
-1
40
-0.59223662655650222
40
-0.59223662655650222
40
-0.59223662655650222
40
0
40
0
40
0
40
0.00022802530586435779
40
0.00022802530586435779
40
0.00022802530586435779
40
0.00022802530586435779
10
1.87856202569919
20
-6.5455520424862677
30
0
10
1.8601905529053655
20
-6.4496121290074084
30
0
10
1.864817163159725
20
-6.3263915447299333
30
0
10
1.8857617620089002
20
-6.1891081803703587
30
0
10
1.9161817540308996
20
-5.9897174506340409
30
0
10
1.982090871583664
20
-5.761717197843585
30
0
10
2.0728731195889711
20
-5.5581448841347152
30
0
10
2.0729073777794174
20
-5.5580680627379566
30
0
10
2.0729416359698627
20
-5.5579912413411998
30
0
10
2.0729758941603049
20
-5.5579144199444519
30
0
0
SPLINE
5
288
100
AcDbEntity
8
0
100
AcDbSpline
70
0
71
3
72
17
73
13
74
0
42
0.000000001
43
0.0000000001
44
0.0000000001
40
-1.000453739397789
40
-1.000453739397789
40
-1.000453739397789
40
-1.000453739397789
40
-1
40
-1
40
-1
40
-0.92215703085863865
40
-0.92215703085863865
40
-0.92215703085863865
40
0
40
0
40
0
40
0.00025028622812382892
40
0.00025028622812382892
40
0.00025028622812382892
40
0.00025028622812382892
10
2.0729758941652565
20
-5.5579144199466182
30
0
10
2.0730110116048488
20
-5.5578379878722117
30
0
10
2.073046129044454
20
-5.5577615557977778
30
0
10
2.0730812464840596
20
-5.557685123723342
30
0
10
2.0788577946731133
20
-5.5451126364883416
30
0
10
2.0847038345686824
20
-5.5317311952768025
30
0
10
2.0905748343968895
20
-5.5176696901650706
30
0
10
2.1601249020455069
20
-5.3510918226162234
30
0
10
2.2317421311606256
20
-5.0899618732072476
30
0
10
2.2561059684871121
20
-4.9234756514762594
30
0
10
2.2561128053305746
20
-4.9234289330459333
30
0
10
2.256119642174037
20
-4.923382214615609
30
0
10
2.2561264790174929
20
-4.9233354961853237
30
0
0
SPLINE
5
289
100
AcDbEntity
8
0
100
AcDbSpline
70
0
71
3
72
20
73
16
74
0
42
0.000000001
43
0.0000000001
44
0.0000000001
40
-1.0001423911479639
40
-1.0001423911479639
40
-1.0001423911479639
40
-1.0001423911479639
40
-1
40
-1
40
-1
40
-0.91081225186192993
40
-0.91081225186192993
40
-0.91081225186192993
40
-0.50349537348344453
40
-0.50349537348344453
40
-0.50349537348344453
40
0
40
0
40
0
40
3.4708718415577347e-05
40
3.4708718415577347e-05
40
3.4708718415577347e-05
40
3.4708718415577347e-05
10
2.256126479013874
20
-4.9233354961846487
30
0
10
2.2561336098935469
20
-4.9232888213358734
30
0
10
2.2561407407732328
20
-4.9232421464870235
30
0
10
2.2561478716529173
20
-4.9231954716381772
30
0
10
2.2606093235562632
20
-4.8939932409980971
30
0
10
2.2646610769141708
20
-4.8672533480527242
30
0
10
2.2682383568720685
20
-4.8425258895049526
30
0
10
2.2845756513542774
20
-4.7295965753762941
30
0
10
2.2908278605411141
20
-4.6601825461484134
30
0
10
2.2828502352755606
20
-4.5845342009793324
30
0
10
2.2729888776304237
20
-4.4910232422487733
30
0
10
2.2400681827219877
20
-4.3829913772636768
30
0
10
2.171393255063311
20
-4.1746774300323581
30
0
10
2.1713885145293079
20
-4.1746630504125486
30
0
10
2.171383773995307
20
-4.1746486707927453
30
0
10
2.1713790334612884
20
-4.1746342911728895
30
0
0
SPLINE
5
290
100
AcDbEntity
8
0
100
AcDbSpline
70
0
71
3
72
38
73
34
74
0
42
0.000000001
43
0.0000000001
44
0.0000000001
40
-1.0000279697570247
40
-1.0000279697570247
40
-1.0000279697570247
40
-1.0000279697570247
40
-1
40
-1
40
-1
40
-0.7186035667024786
40
-0.7186035667024786
40
-0.7186035667024786
40
-0.52554302514571216
40
-0.52554302514571216
40
-0.52554302514571216
40
-0.45202874204124255
40
-0.45202874204124255
40
-0.45202874204124255
40
-0.41607729730411624
40
-0.41607729730411624
40
-0.41607729730411624
40
-0.39110037383748658
40
-0.39110037383748658
40
-0.39110037383748658
40
-0.36262761572815871
40
-0.36262761572815871
40
-0.36262761572815871
40
-0.31861185342284537
40
-0.31861185342284537
40
-0.31861185342284537
40
-0.24129749253396046
40
-0.24129749253396046
40
-0.24129749253396046
40
0
40
0
40
0
40
9.2181272006923161e-05
40
9.2181272006923161e-05
40
9.2181272006923161e-05
40
9.2181272006923161e-05
10
2.171379033461454
20
-4.1746342911730929
30
0
10
2.1713743219759936
20
-4.1746199020418207
30
0
10
2.1713696104905877
20
-4.1746055129107171
30
0
10
2.1713648990051806
20
-4.1745911237796092
30
0
10
2.1238477439768939
20
-4.0294711638283554
30
0
10
2.0889257251110589
20
-3.9167627503686706
30
0
10
2.0666248205085074
20
-3.8364831412202105
30
0
10
2.0513246098081739
20
-3.7814048851224142
30
0
10
2.0419273568682215
20
-3.7425935949085218
30
0
10
2.0383188841356641
20
-3.714704717071037
30
0
10
2.0369448369901577
20
-3.7040850904799245
30
0
10
2.0356930528651809
20
-3.6958334445671346
30
0
10
2.0378438406516062
20
-3.682696132240407
30
0
10
2.0388956624878478
20
-3.676271457494718
30
0
10
2.0400625211444425
20
-3.6673782895997364
30
0
10
2.0501031575394135
20
-3.655994205835063
30
0
10
2.0570787939464386
20
-3.6480852221764923
30
0
10
2.0705634084856901
20
-3.6407299837955467
30
0
10
2.082667243343181
20
-3.639908421925635
30
0
10
2.0964651621522385
20
-3.6389718721369828
30
0
10
2.1056117672991008
20
-3.6434793845276867
30
0
10
2.1114717148292104
20
-3.6469396254735087
30
0
10
2.1205305512305359
20
-3.6522887785975433
30
0
10
2.1245173169933662
20
-3.657006534598652
30
0
10
2.1285698710214453
20
-3.6616650797827237
30
0
10
2.1356882442640868
20
-3.6698478857757264
30
0
10
2.1414642829702415
20
-3.6785557203552579
30
0
10
2.148238505777162
20
-3.6896122167403296
30
0
10
2.1693808001502024
20
-3.7241194521782957
30
0
10
2.1979562403777413
20
-3.7808260501621209
30
0
10
2.2366982436742231
20
-3.8638446286545811
30
0
10
2.2367129321987735
20
-3.8638761040643317
30
0
10
2.2367276207233253
20
-3.8639075794740845
30
0
10
2.2367423092478624
20
-3.8639390548838088
30
0
0
SPLINE
5
291
100
AcDbEntity
8
0
100
AcDbSpline
70
0
71
3
72
14
73
10
74
0
42
0.000000001
43
0.0000000001
44
0.0000000001
40
-1
40
-1
40
-1
40
-1
40
-0.60504547548827814
40
-0.60504547548827814
40
-0.60504547548827814
40
0
40
0
40
0
40
0.00020522091406590813
40
0.00020522091406590813
40
0.00020522091406590813
40
0.00020522091406590813
10
1.6080146175132717
20
-5.5191181551170168
30
0
10
1.6152673619946492
20
-5.6387884390597423
30
0
10
1.6169056571837217
20
-5.7314222435052455
30
0
10
1.6093865518226889
20
-5.820818308528227
30
0
10
1.5978677556168803
20
-5.9577674540924663
30
0
10
1.5649456940750459
20
-6.0845672306049039
30
0
10
1.501305417713193
20
-6.2865559338403498
30
0
10
1.5012839286795345
20
-6.2866241381645702
30
0
10
1.5012624396458754
20
-6.2866923424887924
30
0
10
1.5012409506122169
20
-6.286760546813011
30
0
0
LINE
5
292
100
AcDbEntity
8
0
100
AcDbLine
10
1.5012409506122166
20
-6.286760546813011
30
0
11
1.3809854910862769
21
-6.6561166010712522
31
0
0
LINE
5
293
100
AcDbEntity
8
0
100
AcDbLine
10
1.3809854910862769
20
-6.6561166010712522
30
0
11
1.4673451845981467
21
-6.7699543788823391
31
0
0
SPLINE
5
294
100
AcDbEntity
8
0
100
AcDbSpline
70
0
71
3
72
14
73
10
74
0
42
0.000000001
43
0.0000000001
44
0.0000000001
40
-1.0011040989566273
40
-1.0011040989566273
40
-1.0011040989566273
40
-1.0011040989566273
40
-1
40
-1
40
-1
40
-0.51161083104655225
40
-0.51161083104655225
40
-0.51161083104655225
40
0
40
0
40
0
40
0
10
1.4673451845981469
20
-6.7699543788823409
30
0
10
1.4674809031434681
20
-6.7701453901683477
30
0
10
1.4676166216888016
20
-6.7703364014543732
30
0
10
1.4677523402341357
20
-6.7705274127403987
30
0
10
1.5334373927655576
20
-6.8629730422290667
30
0
10
1.5677110786099409
20
-6.9740437856604656
30
0
10
1.5698689347884738
20
-7.0812092352499114
30
0
10
1.5721293915368164
20
-7.193470129244389
30
0
10
1.5389595888951413
20
-7.3032156462602522
30
0
10
1.4628890270155481
20
-7.3792862081398463
30
0
0
SPLINE
5
295
100
AcDbEntity
8
0
100
AcDbSpline
70
0
71
3
72
26
73
22
74
0
42
0.000000001
43
0.0000000001
44
0.0000000001
40
-1
40
-1
40
-1
40
-1
40
-0.75964145892432655
40
-0.75964145892432655
40
-0.75964145892432655
40
-0.59672262770918338
40
-0.59672262770918338
40
-0.59672262770918338
40
-0.50029278574611902
40
-0.50029278574611902
40
-0.50029278574611902
40
-0.40523238190614758
40
-0.40523238190614758
40
-0.40523238190614758
40
-0.26270222654355246
40
-0.26270222654355246
40
-0.26270222654355246
40
0
40
0
40
0
40
0.0012227221421833578
40
0.0012227221421833578
40
0.0012227221421833578
40
0.0012227221421833578
10
1.4628890270155481
20
-7.3792862081398463
30
0
10
1.4326728828683795
20
-7.4095023522870154
30
0
10
1.4064688612095089
20
-7.4310992071032684
30
0
10
1.3821561518842451
20
-7.4454442174442672
30
0
10
1.3656766119052666
20
-7.4551674929645193
30
0
10
1.3505187829082761
20
-7.4626849076618091
30
0
10
1.3294256452925672
20
-7.4634096087056605
30
0
10
1.3169408520270056
20
-7.4638385511833834
30
0
10
1.3006523982893414
20
-7.4604332213586728
30
0
10
1.287855842721193
20
-7.449741823624243
30
0
10
1.2752410160730816
20
-7.4392022586352429
30
0
10
1.2689996058419575
20
-7.4241215973381545
30
0
10
1.2670814900126668
20
-7.4119366074486601
30
0
10
1.264205536028582
20
-7.3936668712400389
30
0
10
1.2675627871231128
20
-7.3789726165945675
30
0
10
1.2725110210986879
20
-7.3633413711991018
30
0
10
1.2816312811554809
20
-7.3345308857366343
30
0
10
1.2988996428166861
20
-7.3023439584912024
30
0
10
1.3255226325301654
20
-7.263043354628449
30
0
10
1.3256395325282608
20
-7.2628707879645926
30
0
10
1.3257564325263573
20
-7.2626982213007363
30
0
10
1.3258733325244907
20
-7.2625256546368231
30
0
0
SPLINE
5
296
100
AcDbEntity
8
0
100
AcDbSpline
70
0
71
3
72
20
73
16
74
0
42
0.000000001
43
0.0000000001
44
0.0000000001
40
-1.0011617591255011
40
-1.0011617591255011
40
-1.0011617591255011
40
-1.0011617591255011
40
-1
40
-1
40
-1
40
-0.95977055811478507
40
-0.95977055811478507
40
-0.95977055811478507
40
-0.48460409834239149
40
-0.48460409834239149
40
-0.48460409834239149
40
0
40
0
40
0
40
0.00028706013878026197
40
0.00028706013878026197
40
0.00028706013878026197
40
0.00028706013878026197
10
1.3258733325238501
20
-7.2625256546364625
30
0
10
1.3259949823131338
20
-7.2623564027557199
30
0
10
1.3261166321024196
20
-7.2621871508749756
30
0
10
1.326238281891706
20
-7.2620178989942303
30
0
10
1.330104708493967
20
-7.2566385228519543
30
0
10
1.3337763855093019
20
-7.2513056995689746
30
0
10
1.3372551343596222
20
-7.2460213328309049
30
0
10
1.3783440657039947
20
-7.1836055070724463
30
0
10
1.392319112084405
20
-7.1296659737458938
30
0
10
1.3857312905899988
20
-7.0790979381389727
30
0
10
1.3790126234162541
20
-7.0275255327297694
30
0
10
1.3499714605751372
20
-6.9753538227989926
30
0
10
1.2911409908898883
20
-6.9205806268851378
30
0
10
1.2911030909673975
20
-6.9205453407504054
30
0
10
1.2910651910449442
20
-6.9205100546157086
30
0
10
1.2910272911225931
20
-6.920474768481105
30
0
0
SPLINE
5
297
100
AcDbEntity
8
0
100
AcDbSpline
70
0
71
3
72
14
73
10
74
0
42
0.000000001
43
0.0000000001
44
0.0000000001
40
-1
40
-1
40
-1
40
-1
40
-0.57430443171526691
40
-0.57430443171526691
40
-0.57430443171526691
40
0
40
0
40
0
40
0.00022351738183964043
40
0.00022351738183964043
40
0.00022351738183964043
40
0.00022351738183964043
10
1.2910274738464527
20
-6.9204745722219165
30
0
10
1.2225014305617121
20
-6.8562314066424719
30
0
10
1.180596652523547
20
-6.7766091724816029
30
0
10
1.1702388064482341
20
-6.6850667543271189
30
0
10
1.1562650718189413
20
-6.5615671918395728
30
0
10
1.1958649749131318
20
-6.4197371209565173
30
0
10
1.2815556010511273
20
-6.2483558686805285
30
0
10
1.2815881643737821
20
-6.2482907420352189
30
0
10
1.2816207276964378
20
-6.2482256153899076
30
0
10
1.2816532910191221
20
-6.2481604887445386
30
0
0
SPLINE
5
298
100
AcDbEntity
8
0
100
AcDbSpline
70
0
71
3
72
14
73
10
74
0
42
0.000000001
43
0.0000000001
44
0.0000000001
40
-1.0001735976241954
40
-1.0001735976241954
40
-1.0001735976241954
40
-1.0001735976241954
40
-1
40
-1
40
-1
40
-0.4865674214686555
40
-0.4865674214686555
40
-0.4865674214686555
40
-0.00013816538593035177
40
-0.00013816538593035177
40
-0.00013816538593035177
40
-0.00013816538593035177
10
1.2816532910187011
20
-6.2481604887443947
30
0
10
1.2816864850882908
20
-6.2480956812751955
30
0
10
1.2817196791578815
20
-6.2480308738059946
30
0
10
1.2817528732274723
20
-6.2479660663367946
30
0
10
1.3791202873516242
20
-6.0578677816182118
30
0
10
1.4303935631302476
20
-5.9296108905781191
30
0
10
1.4484690106369509
20
-5.8089843025663503
30
0
10
1.4655938033589055
20
-5.6947019139454271
30
0
10
1.4539422159205384
20
-5.5841209093003075
30
0
10
1.4190393338735945
20
-5.4270244660920444
30
0
0
SPLINE
5
299
100
AcDbEntity
8
0
100
AcDbSpline
70
0
71
3
72
11
73
7
74
0
42
0.000000001
43
0.0000000001
44
0.0000000001
40
-0.99971122971805459
40
-0.99971122971805459
40
-0.99971122971805459
40
-0.99971122971805459
40
-0.83883823492964071
40
-0.83883823492964071
40
-0.83883823492964071
40
-0.00088688085469030631
40
-0.00088688085469030631
40
-0.00088688085469030631
40
-0.00088688085469030631
10
1.4190393338735703
20
-5.4270244660920506
30
0
10
1.4134581489261755
20
-5.4026239355677514
30
0
10
1.4060741302948052
20
-5.3751484960914437
30
0
10
1.3972560960887637
20
-5.3456602011107215
30
0
10
1.3513249333541484
20
-5.1920622853079044
30
0
10
1.2663465221026327
20
-4.9843292671369319
30
0
10
1.1954982358608321
20
-4.8462742290984995
30
0
0
SPLINE
5
300
100
AcDbEntity
8
0
100
AcDbSpline
70
0
71
3
72
20
73
16
74
0
42
0.000000001
43
0.0000000001
44
0.0000000001
40
-0.99955465126532261
40
-0.99955465126532261
40
-0.99955465126532261
40
-0.99955465126532261
40
-0.56511552578783242
40
-0.56511552578783242
40
-0.56511552578783242
40
-0.3583921367629434
40
-0.3583921367629434
40
-0.3583921367629434
40
-0.24641770937967211
40
-0.24641770937967211
40
-0.24641770937967211
40
-0.14311595905508948
40
-0.14311595905508948
40
-0.14311595905508948
40
0
40
0
40
0
40
0
10
1.1954982358608566
20
-4.846274229098487
30
0
10
1.1183151025205289
20
-4.7037767201628258
30
0
10
1.0738135240119264
20
-4.6193694088426867
30
0
10
1.0509556185232405
20
-4.5648815403696767
30
0
10
1.0400789193230056
20
-4.5389540486431823
30
0
10
1.0331885241975416
20
-4.5205056855959951
30
0
10
1.0321820724566801
20
-4.4985491416557259
30
0
10
1.0316369147079441
20
-4.4866560924626739
30
0
10
1.0334871744928087
20
-4.4718806800860653
30
0
10
1.0422689915210346
20
-4.4584573809926162
30
0
10
1.0503706366130947
20
-4.4460737473015302
30
0
10
1.0633064410608144
20
-4.4380126918467724
30
0
10
1.0735617825041017
20
-4.4344462588971743
30
0
10
1.087769702713409
20
-4.4295052635085792
30
0
10
1.0982210244441011
20
-4.4297232928480437
30
0
10
1.1078287134313647
20
-4.4297232928480437
30
0
0
SPLINE
5
301
100
AcDbEntity
8
0
100
AcDbSpline
70
0
71
3
72
20
73
16
74
0
42
0.000000001
43
0.0000000001
44
0.0000000001
40
-1
40
-1
40
-1
40
-1
40
-0.95724969366878332
40
-0.95724969366878332
40
-0.95724969366878332
40
-0.875
40
-0.875
40
-0.875
40
-0.75
40
-0.75
40
-0.75
40
-0.5
40
-0.5
40
-0.5
40
0
40
0
40
0
40
0
10
1.1078287134313647
20
-4.4297232928480437
30
0
10
1.117522918933783
20
-4.4297232928480437
30
0
10
1.1242010212755653
20
-4.4321266909585546
30
0
10
1.1292934672749442
20
-4.4343642442801192
30
0
10
1.1390911075591708
20
-4.4386691976491184
30
0
10
1.1443450711558742
20
-4.4431991136951643
30
0
10
1.1497162315839529
20
-4.4479068312954091
30
0
10
1.1578791197791787
20
-4.4550614439605987
30
0
10
1.1652632998145895
20
-4.4631482786716585
30
0
10
1.1734891652072426
20
-4.4729239447904643
30
0
10
1.1899408959925484
20
-4.492475277028074
30
0
10
1.2090948024190586
20
-4.5186294828149753
30
0
10
1.2309408395849033
20
-4.5506703373248802
30
0
10
1.2746329139165928
20
-4.6147520463446918
30
0
10
1.3285299268488704
20
-4.7019597684002932
30
0
10
1.3836391821283884
20
-4.7984009651394484
30
0
0
SPLINE
5
302
100
AcDbEntity
8
0
100
AcDbSpline
70
0
71
3
72
11
73
7
74
0
42
0.000000001
43
0.0000000001
44
0.0000000001
40
-0.99993378565880053
40
-0.99993378565880053
40
-0.99993378565880053
40
-0.99993378565880053
40
-0.5122976136989873
40
-0.5122976136989873
40
-0.5122976136989873
40
-0.00012449538252384845
40
-0.00012449538252384845
40
-0.00012449538252384845
40
-0.00012449538252384845
10
1.3836392307542944
20
-4.7984009371958694
30
0
10
1.4705942406689063
20
-4.9500171539463471
30
0
10
1.5221291289744368
20
-5.0485425925566831
30
0
10
1.5541825086828815
20
-5.1486775086066139
30
0
10
1.5878487549169875
20
-5.2538510276249619
30
0
10
1.5986354769549154
20
-5.3573654112124647
30
0
10
1.6080147715531825
20
-5.5191181464748897
30
0
0
SPLINE
5
303
100
AcDbEntity
8
0
100
AcDbSpline
70
0
71
3
72
11
73
7
74
0
42
0.000000001
43
0.0000000001
44
0.0000000001
40
-0.99970649168300818
40
-0.99970649168300818
40
-0.99970649168300818
40
-0.99970649168300818
40
0
40
0
40
0
40
0.00019674033595239247
40
0.00019674033595239247
40
0.00019674033595239247
40
0.00019674033595239247
10
3.0759685203705134
20
-13.112709889358122
30
0
10
2.9508099058499484
20
-13.469493614709876
30
0
10
2.7383244177891868
20
-13.820090362239005
30
0
10
2.4572683330924532
20
-14.138006261322193
30
0
10
2.4572136956104913
20
-14.13806806437556
30
0
10
2.457159058128529
20
-14.138129867428926
30
0
10
2.4571044206466417
20
-14.138191670482209
30
0
0
SPLINE
5
304
100
AcDbEntity
8
0
100
AcDbSpline
70
0
71
3
72
23
73
19
74
0
42
0.000000001
43
0.0000000001
44
0.0000000001
40
-1.0002585054307926
40
-1.0002585054307926
40
-1.0002585054307926
40
-1.0002585054307926
40
-1
40
-1
40
-1
40
-0.58883699962198122
40
-0.58883699962198122
40
-0.58883699962198122
40
-0.36801606965915346
40
-0.36801606965915346
40
-0.36801606965915346
40
-0.2446993015518498
40
-0.2446993015518498
40
-0.2446993015518498
40
-0.1406165612168204
40
-0.1406165612168204
40
-0.1406165612168204
40
0
40
0
40
0
40
0
10
2.4571044206476964
20
-14.13819167048343
30
0
10
2.4570491066609619
20
-14.138252868936839
30
0
10
2.4569937926741638
20
-14.138314067390317
30
0
10
2.4569384786873685
20
-14.138375265843793
30
0
10
2.3682371975034489
20
-14.236512853536642
30
0
10
2.3004732954874045
20
-14.30481390874457
30
0
10
2.2478468843882258
20
-14.346894973149222
30
0
10
2.2195831227442002
20
-14.369495206553294
30
0
10
2.1965930144723829
20
-14.385178871285779
30
0
10
2.1700434481772537
20
-14.393146560374772
30
0
10
2.1552169246646637
20
-14.39759609180236
30
0
10
2.1371951797614481
20
-14.399730261534323
30
0
10
2.1187119838725699
20
-14.392376436785261
30
0
10
2.1031116587279013
20
-14.386169606655235
30
0
10
2.0904584811916544
20
-14.372901810887418
30
0
10
2.0838981297807826
20
-14.359993907972941
30
0
10
2.0750350459226778
20
-14.342555234524184
30
0
10
2.0735243876797433
20
-14.325980494151443
30
0
10
2.0735243876797433
20
-14.308519042291721
30
0
0
SPLINE
5
305
100
AcDbEntity
8
0
100
AcDbSpline
70
0
71
3
72
23
73
19
74
0
42
0.000000001
43
0.0000000001
44
0.0000000001
40
-1
40
-1
40
-1
40
-1
40
-0.96823825119184792
40
-0.96823825119184792
40
-0.96823825119184792
40
-0.875
40
-0.875
40
-0.875
40
-0.75
40
-0.75
40
-0.75
40
-0.5
40
-0.5
40
-0.5
40
0
40
0
40
0
40
0.0002487568161539961
40
0.0002487568161539961
40
0.0002487568161539961
40
0.0002487568161539961
10
2.0735243876797433
20
-14.308519042291721
30
0
10
2.0735243876797433
20
-14.303603485545285
30
0
10
2.0741252333334126
20
-14.29988555534405
30
0
10
2.0748050317614712
20
-14.296681943097315
30
0
10
2.0768006150959404
20
-14.287277574175866
30
0
10
2.0795709974244465
20
-14.28154173250074
30
0
10
2.0826685175531647
20
-14.275235404094966
30
0
10
2.0868212125162349
20
-14.266780815547399
30
0
10
2.0918941142470828
20
-14.258183778001115
30
0
10
2.0980716047232293
20
-14.248487463836026
30
0
10
2.1104265856755213
20
-14.229094835505846
30
0
10
2.1271859332206571
20
-14.205649111932816
30
0
10
2.1475878322913289
20
-14.178835187439935
30
0
10
2.1883916304326725
20
-14.125207338454169
30
0
10
2.2435970008842672
20
-14.058528402181372
30
0
10
2.3035475572827577
20
-13.991660473890748
30
0
10
2.3035770025682925
20
-13.991627631072268
30
0
10
2.3036064478538272
20
-13.991594788253787
30
0
10
2.3036358931393495
20
-13.99156194543532
30
0
0
SPLINE
5
306
100
AcDbEntity
8
0
100
AcDbSpline
70
0
71
3
72
20
73
16
74
0
42
0.000000001
43
0.0000000001
44
0.0000000001
40
-1.0000369865815415
40
-1.0000369865815415
40
-1.0000369865815415
40
-1.0000369865815415
40
-1
40
-1
40
-1
40
-0.84434160318443507
40
-0.84434160318443507
40
-0.84434160318443507
40
-0.45414471868499678
40
-0.45414471868499678
40
-0.45414471868499678
40
0
40
0
40
0
40
3.7821809025810323e-05
40
3.7821809025810323e-05
40
3.7821809025810323e-05
40
3.7821809025810323e-05
10
2.3036358931550915
20
-13.991561945449366
30
0
10
2.3036655294762656
20
-13.991529278140799
30
0
10
2.3036951657975351
20
-13.991496610832128
30
0
10
2.3037248021187948
20
-13.991463943523467
30
0
10
2.4274275692101548
20
-13.85510975707049
30
0
10
2.5325213572631302
20
-13.725354098421993
30
0
10
2.6194746026317812
20
-13.598017599056874
30
0
10
2.8374447612231233
20
-13.278816667068561
30
0
10
2.9421820369007987
20
-12.976377694532092
30
0
10
2.9434575176911624
20
-12.613546360891668
30
0
10
2.9449420320164648
20
-12.191252025667497
30
0
10
2.8032819613205326
20
-11.684932071042027
30
0
10
2.5229400511879425
20
-10.98819997085956
30
0
10
2.5229166332506519
20
-10.988141770397766
30
0
10
2.5228932153133727
20
-10.988083569935998
30
0
10
2.5228697973762317
20
-10.988025369474572
30
0
0
SPLINE
5
307
100
AcDbEntity
8
0
100
AcDbSpline
70
0
71
3
72
11
73
7
74
0
42
0.000000001
43
0.0000000001
44
0.0000000001
40
-1
40
-1
40
-1
40
-1
40
-0.30079340465776783
40
-0.30079340465776783
40
-0.30079340465776783
40
0
40
0
40
0
40
0
10
2.5228701624989047
20
-10.988025222560911
30
0
10
2.3184965537078703
20
-10.473897862945966
30
0
10
2.1873188294096351
20
-10.0582455502506
30
0
10
2.1434064298935289
20
-9.7798276290672721
30
0
10
2.1245156467614321
20
-9.6600543389004638
30
0
10
2.1207213585259845
20
-9.5660608716362585
30
0
10
2.1386055402158939
20
-9.4945241448766229
30
0
0
SPLINE
5
308
100
AcDbEntity
8
0
100
AcDbSpline
70
0
71
3
72
26
73
22
74
0
42
0.000000001
43
0.0000000001
44
0.0000000001
40
-1
40
-1
40
-1
40
-1
40
-0.88352541487083092
40
-0.88352541487083092
40
-0.88352541487083092
40
-0.7500702914116677
40
-0.7500702914116677
40
-0.7500702914116677
40
-0.67522761332438708
40
-0.67522761332438708
40
-0.67522761332438708
40
-0.60214765276343363
40
-0.60214765276343363
40
-0.60214765276343363
40
-0.48515983844006416
40
-0.48515983844006416
40
-0.48515983844006416
40
-0.29693867587424833
40
-0.29693867587424833
40
-0.29693867587424833
40
-0.00038612751128032141
40
-0.00038612751128032141
40
-0.00038612751128032141
40
-0.00038612751128032141
10
2.1386055402158939
20
-9.4945241448766229
30
0
10
2.1447965560749389
20
-9.4697600814404428
30
0
10
2.1512145523912913
20
-9.4490319023767615
30
0
10
2.1583850122282429
20
-9.4314518166333041
30
0
10
2.1666008354633131
20
-9.4113087741771846
30
0
10
2.1744402810761021
20
-9.3949230696462642
30
0
10
2.1912336365027785
20
-9.3803428714819503
30
0
10
2.2006514817051666
20
-9.3721661821996207
30
0
10
2.2150997502214125
20
-9.3644211456512529
30
0
10
2.2318277489529512
20
-9.3642749627894446
30
0
10
2.2481617647686187
20
-9.3641322228708752
30
0
10
2.2628241029662384
20
-9.3714820520624258
30
0
10
2.2722537327668677
20
-9.3794523045077902
30
0
10
2.2873488665324921
20
-9.3922112387769285
30
0
10
2.294468505305634
20
-9.4062674226013669
30
0
10
2.3013438586862018
20
-9.422223433826229
30
0
10
2.312405583480583
20
-9.447894987739998
30
0
10
2.3207155045363992
20
-9.4800279600935582
30
0
10
2.3282425368368402
20
-9.5208802157733192
30
0
10
2.340101780398391
20
-9.5852451382031845
30
0
10
2.3491757793427497
20
-9.670612284577432
30
0
10
2.3546551024047337
20
-9.7758535350077036
30
0
0
SPLINE
5
309
100
AcDbEntity
8
0
100
AcDbSpline
70
0
71
3
72
14
73
10
74
0
42
0.000000001
43
0.0000000001
44
0.0000000001
40
-0.99947092536019599
40
-0.99947092536019599
40
-0.99947092536019599
40
-0.99947092536019599
40
-0.75424263632906707
40
-0.75424263632906707
40
-0.75424263632906707
40
0
40
0
40
0
40
1.0512084252175424e-05
40
1.0512084252175424e-05
40
1.0512084252175424e-05
40
1.0512084252175424e-05
10
2.3546551024046845
20
-9.7758535350077054
30
0
10
2.3590498542286813
20
-9.8383312964393905
30
0
10
2.3655411744600019
20
-9.8966788767871403
30
0
10
2.3763811539636119
20
-9.958372553130042
30
0
10
2.409721413159883
20
-10.148122280918569
30
0
10
2.4850477586519069
20
-10.372299180700367
30
0
10
2.6701632582664385
20
-10.831659864929021
30
0
10
2.6701658426086743
20
-10.83166627792642
30
0
10
2.6701684269509038
20
-10.831672690923805
30
0
10
2.6701710112931112
20
-10.831679103921132
30
0
0
SPLINE
5
310
100
AcDbEntity
8
0
100
AcDbSpline
70
0
71
3
72
17
73
13
74
0
42
0.000000001
43
0.0000000001
44
0.0000000001
40
-1.0000067423026089
40
-1.0000067423026089
40
-1.0000067423026089
40
-1.0000067423026089
40
-1
40
-1
40
-1
40
-0.65126869451158775
40
-0.65126869451158775
40
-0.65126869451158775
40
0
40
0
40
0
40
0.00016694461980459754
40
0.00016694461980459754
40
0.00016694461980459754
40
0.00016694461980459754
10
2.6701710112931711
20
-10.831679103921298
30
0
10
2.6701735897208279
20
-10.831685519294872
30
0
10
2.6701761681485454
20
-10.831691934668598
30
0
10
2.6701787465762754
20
-10.831698350042354
30
0
10
2.8036210399838346
20
-11.16371548483021
30
0
10
2.8984166088021963
20
-11.40627369416255
30
0
10
2.9668697790129306
20
-11.601276439630469
30
0
10
3.0947086225486036
20
-11.965451325762931
30
0
10
3.1304415601384394
20
-12.165880058715961
30
0
10
3.1513445773591604
20
-12.461508445123298
30
0
10
3.1513498976809431
20
-12.461583689674221
30
0
10
3.1513552180027244
20
-12.46165893422514
30
0
10
3.1513605383245062
20
-12.461734178776053
30
0
0
SPLINE
5
311
100
AcDbEntity
8
0
100
AcDbSpline
70
0
71
3
72
14
73
10
74
0
42
0.000000001
43
0.0000000001
44
0.0000000001
40
-1.0002505823601309
40
-1.0002505823601309
40
-1.0002505823601309
40
-1.0002505823601309
40
-1
40
-1
40
-1
40
-0.79414379651602118
40
-0.79414379651602118
40
-0.79414379651602118
40
-0.0004594916965357874
40
-0.0004594916965357874
40
-0.0004594916965357874
40
-0.0004594916965357874
10
3.1513605383245848
20
-12.46173417877608
30
0
10
3.1513651016130053
20
-12.461809473035014
30
0
10
3.1513696649014276
20
-12.461884767293979
30
0
10
3.1513742281898498
20
-12.461960061552945
30
0
10
3.1551425037000631
20
-12.52413660747146
30
0
10
3.1577671631453748
20
-12.578431904652652
30
0
10
3.158822810046078
20
-12.627634299206763
30
0
10
3.1628928859648
20
-12.817335496723379
30
0
10
3.1419654294747987
20
-12.932989032892879
30
0
10
3.0759685203705871
20
-13.112709889358147
30
0
0
SPLINE
5
312
100
AcDbEntity
8
0
100
AcDbSpline
70
0
71
3
72
20
73
16
74
0
42
0.000000001
43
0.0000000001
44
0.0000000001
40
-1
40
-1
40
-1
40
-1
40
-0.96220972851055719
40
-0.96220972851055719
40
-0.96220972851055719
40
-0.875
40
-0.875
40
-0.875
40
-0.75
40
-0.75
40
-0.75
40
-0.5
40
-0.5
40
-0.5
40
-0.00038735179447822347
40
-0.00038735179447822347
40
-0.00038735179447822347
40
-0.00038735179447822347
10
-2.9304013003448115
20
-11.213221286677246
30
0
10
-2.9248948521907532
20
-11.213221286677246
30
0
10
-2.9188097922381218
20
-11.214174730839172
30
0
10
-2.9130556030298171
20
-11.21627317196722
30
0
10
-2.8997764902085508
20
-11.221115806694614
30
0
10
-2.8904142221069691
20
-11.231494611081503
30
0
10
-2.8857918770907549
20
-11.239751075627707
30
0
10
-2.8791665482783069
20
-11.251585283644422
30
0
10
-2.8783622349302038
20
-11.260396173325631
30
0
10
-2.8777674941786673
20
-11.268524296929961
30
0
10
-2.8765780126755942
20
-11.284780544138624
30
0
10
-2.8787090267151618
20
-11.299782386509365
30
0
10
-2.8822915721235525
20
-11.317695113551318
30
0
10
-2.8894511121187625
20
-11.353492813527369
30
0
10
-2.9039332445808412
20
-11.39869911355011
30
0
10
-2.925411270467551
20
-11.448833000911133
30
0
0
SPLINE
5
313
100
AcDbEntity
8
0
100
AcDbSpline
70
0
71
3
72
14
73
10
74
0
42
0.000000001
43
0.0000000001
44
0.0000000001
40
-0.99980029874687837
40
-0.99980029874687837
40
-0.99980029874687837
40
-0.99980029874687837
40
-0.87558992121696455
40
-0.87558992121696455
40
-0.87558992121696455
40
-0.5
40
-0.5
40
-0.5
40
-0.00011877210719383246
40
-0.00011877210719383246
40
-0.00011877210719383246
40
-0.00011877210719383246
10
-2.9254112704675044
20
-11.448833000911154
30
0
10
-2.934684555988873
20
-11.470820854280493
30
0
10
-2.9430284852196191
20
-11.498509872257207
30
0
10
-2.9498630225897378
20
-11.530588824971908
30
0
10
-2.9705294387414729
20
-11.62758982893339
30
0
10
-2.9772436747730096
20
-11.76413615274776
30
0
10
-2.9696836742321104
20
-11.913236163415483
30
0
10
-2.959621896373402
20
-12.111676782295557
30
0
10
-2.9246925323844657
20
-12.333162554728032
30
0
10
-2.8690998539862811
20
-12.520003001348849
30
0
0
SPLINE
5
314
100
AcDbEntity
8
0
100
AcDbSpline
70
0
71
3
72
11
73
7
74
0
42
0.000000001
43
0.0000000001
44
0.0000000001
40
-0.9997830955469682
40
-0.9997830955469682
40
-0.9997830955469682
40
-0.9997830955469682
40
-0.59720934864601594
40
-0.59720934864601594
40
-0.59720934864601594
40
-3.2486122624799617e-05
40
-3.2486122624799617e-05
40
-3.2486122624799617e-05
40
-3.2486122624799617e-05
10
-2.8690998539862727
20
-12.520003001348844
30
0
10
-2.8441124853826927
20
-12.602079905358568
30
0
10
-2.8187868907156806
20
-12.663220914690609
30
0
10
-2.7795356970601022
20
-12.725754134990156
30
0
10
-2.721310577170942
20
-12.818515753425141
30
0
10
-2.6300402843018218
20
-12.916253748350334
30
0
10
-2.4620771592608044
20
-13.078799731914154
30
0
0
SPLINE
5
315
100
AcDbEntity
8
0
100
AcDbSpline
70
0
71
3
72
14
73
10
74
0
42
0.000000001
43
0.0000000001
44
0.0000000001
40
-1
40
-1
40
-1
40
-1
40
-0.85441327598894057
40
-0.85441327598894057
40
-0.85441327598894057
40
0
40
0
40
0
40
0.00039820577533300808
40
0.00039820577533300808
40
0.00039820577533300808
40
0.00039820577533300808
10
-2.4620771705388287
20
-13.078799743578797
30
0
10
-2.4232178039266068
20
-13.116341843526197
30
0
10
-2.3871348791403797
20
-13.150342601624729
30
0
10
-2.3530387403204411
20
-13.181354359265869
30
0
10
-2.152936747054186
20
-13.363354865289539
30
0
10
-2.023344307609046
20
-13.442335907863317
30
0
10
-1.7888234918763097
20
-13.538450996278378
30
0
10
-1.7887129046865349
20
-13.538496318897137
30
0
10
-1.7886023174967602
20
-13.538541641515897
30
0
10
-1.7884917303069443
20
-13.538586964134673
30
0
0
SPLINE
5
316
100
AcDbEntity
8
0
100
AcDbSpline
70
0
71
3
72
17
73
13
74
0
42
0.000000001
43
0.0000000001
44
0.0000000001
40
-1.0005744965123875
40
-1.0005744965123875
40
-1.0005744965123875
40
-1.0005744965123875
40
-1
40
-1
40
-1
40
-0.48086747044809963
40
-0.48086747044809963
40
-0.48086747044809963
40
0
40
0
40
0
40
0.0046979402203967246
40
0.0046979402203967246
40
0.0046979402203967246
40
0.0046979402203967246
10
-1.7884917303062833
20
-13.538586964133328
30
0
10
-1.7883818792799415
20
-13.538634043144615
30
0
10
-1.7882720282534685
20
-13.53868112215596
30
0
10
-1.7881621772269964
20
-13.538728201167306
30
0
10
-1.6881570294054609
20
-13.58158755023368
30
0
10
-1.578620577133117
20
-13.631700834931586
30
0
10
-1.4845389920877206
20
-13.677185022166631
30
0
10
-1.3973921244938559
20
-13.719316587453019
30
0
10
-1.3242984947256504
20
-13.756907928447891
30
0
10
-1.2816281413307988
20
-13.782984255522521
30
0
10
-1.2812431531260351
20
-13.783219526092099
30
0
10
-1.2808581649212738
20
-13.783454796661676
30
0
10
-1.2804731767165818
20
-13.783690067231216
30
0
0
SPLINE
5
317
100
AcDbEntity
8
0
100
AcDbSpline
70
0
71
3
72
20
73
16
74
0
42
0.000000001
43
0.0000000001
44
0.0000000001
40
-1.0024637590559435
40
-1.0024637590559435
40
-1.0024637590559435
40
-1.0024637590559435
40
-1
40
-1
40
-1
40
-0.93567233929188887
40
-0.93567233929188887
40
-0.93567233929188887
40
-0.38260188048010407
40
-0.38260188048010407
40
-0.38260188048010407
40
0
40
0
40
0
40
0.00095406102675495283
40
0.00095406102675495283
40
0.00095406102675495283
40
0.00095406102675495283
10
-1.2804731767163178
20
-13.783690067231319
30
0
10
-1.2801030251376062
20
-13.783948051664966
30
0
10
-1.2797328735589226
20
-13.784206036098595
30
0
10
-1.2793627219802368
20
-13.784464020532223
30
0
10
-1.268536736630711
20
-13.79200940426068
30
0
10
-1.2580049780166502
20
-13.800108026820649
30
0
10
-1.2477761415164799
20
-13.808687292354071
30
0
10
-1.1598315896085534
20
-13.882449314361487
30
0
10
-1.0930519632628604
20
-13.990714488065043
30
0
10
-1.0614380870428932
20
-14.097858434731892
30
0
10
-1.0395683084309406
20
-14.171978241392452
30
0
10
-1.0337443636928361
20
-14.246484211050529
30
0
10
-1.0581477582918233
20
-14.310820433175129
30
0
10
-1.0581955372056975
20
-14.310946395766253
30
0
10
-1.0582433161195715
20
-14.311072358357375
30
0
10
-1.0582910950334352
20
-14.311198320948469
30
0
0
SPLINE
5
318
100
AcDbEntity
8
0
100
AcDbSpline
70
0
71
3
72
29
73
25
74
0
42
0.000000001
43
0.0000000001
44
0.0000000001
40
-1.0027474795989344
40
-1.0027474795989344
40
-1.0027474795989344
40
-1.0027474795989344
40
-1
40
-1
40
-1
40
-0.98182894128196507
40
-0.98182894128196507
40
-0.98182894128196507
40
-0.81840569268294205
40
-0.81840569268294205
40
-0.81840569268294205
40
-0.70169601283050098
40
-0.70169601283050098
40
-0.70169601283050098
40
-0.56394491891741982
40
-0.56394491891741982
40
-0.56394491891741982
40
-0.36753403267926787
40
-0.36753403267926787
40
-0.36753403267926787
40
0
40
0
40
0
40
0.00068819679167484576
40
0.00068819679167484576
40
0.00068819679167484576
40
0.00068819679167484576
10
-1.0582910950351572
20
-14.311198320947813
30
0
10
-1.0583411286522248
20
-14.311323404990484
30
0
10
-1.0583911622692599
20
-14.31144848903307
30
0
10
-1.0584411958862918
20
-14.311573573075652
30
0
10
-1.0589326734112927
20
-14.312802266888154
30
0
10
-1.0594416847178521
20
-14.314023600898826
30
0
10
-1.0599717840497085
20
-14.315239954200308
30
0
10
-1.0647392858357319
20
-14.326179350250749
30
0
10
-1.0703877458383664
20
-14.337606502994021
30
0
10
-1.0845975846601787
20
-14.347944683538993
30
0
10
-1.0947456251248353
20
-14.355327756339248
30
0
10
-1.1111166873300695
20
-14.360277904343317
30
0
10
-1.1253057102488422
20
-14.358292957847302
30
0
10
-1.1420528509409416
20
-14.355950148308875
30
0
10
-1.1529687155105852
20
-14.347634912788653
30
0
10
-1.1607835250255305
20
-14.340131387820447
30
0
10
-1.1719261854502914
20
-14.329432569052118
30
0
10
-1.1789948007762114
20
-14.318020935410912
30
0
10
-1.1864049271172799
20
-14.304367268293928
30
0
10
-1.2002711321375732
20
-14.278817832453187
30
0
10
-1.2137883890490806
20
-14.24497767317529
30
0
10
-1.2292480014103111
20
-14.200316570798405
30
0
10
-1.2292761996881656
20
-14.200235109106824
30
0
10
-1.2293043979660188
20
-14.200153647415249
30
0
10
-1.2293325962438484
20
-14.200072185723739
30
0
0
SPLINE
5
319
100
AcDbEntity
8
0
100
AcDbSpline
70
0
71
3
72
17
73
13
74
0
42
0.000000001
43
0.0000000001
44
0.0000000001
40
-1.0003742311230974
40
-1.0003742311230974
40
-1.0003742311230974
40
-1.0003742311230974
40
-1
40
-1
40
-1
40
-0.8662413796856594
40
-0.8662413796856594
40
-0.8662413796856594
40
0
40
0
40
0
40
9.8799229840403099e-06
40
9.8799229840403099e-06
40
9.8799229840403099e-06
40
9.8799229840403099e-06
10
-1.229332596241576
20
-14.200072185723011
30
0
10
-1.2293598563336579
20
-14.199990405446764
30
0
10
-1.2293871164257131
20
-14.199908625170599
30
0
10
-1.2294143765177672
20
-14.199826844894435
30
0
10
-1.2383567245646241
20
-14.172999800753866
30
0
10
-1.2496451705822909
20
-14.146680956353929
30
0
10
-1.2631988192233645
20
-14.120958199030991
30
0
10
-1.350974330596215
20
-13.954373669821763
30
0
10
-1.5355080006747235
20
-13.812231144867566
30
0
10
-1.7833014516647991
20
-13.732174799163085
30
0
10
-1.7833043753751705
20
-13.732173854579734
30
0
10
-1.7833072990853673
20
-13.732172909996441
30
0
10
-1.7833102228004476
20
-13.732171965411569
30
0
0
SPLINE
5
320
100
AcDbEntity
8
0
100
AcDbSpline
70
0
71
3
72
17
73
13
74
0
42
0.000000001
43
0.0000000001
44
0.0000000001
40
-1.000004721399159
40
-1.000004721399159
40
-1.000004721399159
40
-1.000004721399159
40
-1
40
-1
40
-1
40
-0.75205203702400081
40
-0.75205203702400081
40
-0.75205203702400081
40
0
40
0
40
0
40
0.00011297814070829556
40
0.00011297814070829556
40
0.00011297814070829556
40
0.00011297814070829556
10
-1.7833102227947533
20
-13.732171965413404
30
0
10
-1.7833131461198179
20
-13.732171019631769
30
0
10
-1.7833160694440162
20
-13.73217007385041
30
0
10
-1.7833189927680373
20
-13.73216912806911
30
0
10
-1.938909647233418
20
-13.681830975153838
30
0
10
-2.0834065902622321
20
-13.62262320508038
30
0
10
-2.2152366436723558
20
-13.555613832918988
30
0
10
-2.6150909478501374
20
-13.352367416901636
30
0
10
-2.8998505060872217
20
-13.077012822903749
30
0
10
-3.0181211052487171
20
-12.758040600922744
30
0
10
-3.0181380789202499
20
-12.757994823444971
30
0
10
-3.018155052591823
20
-12.757949045967093
30
0
10
-3.0181720262633975
20
-12.757903268489212
30
0
0
SPLINE
5
321
100
AcDbEntity
8
0
100
AcDbSpline
70
0
71
3
72
11
73
7
74
0
42
0.000000001
43
0.0000000001
44
0.0000000001
40
-1
40
-1
40
-1
40
-1
40
-0.33894961117412126
40
-0.33894961117412126
40
-0.33894961117412126
40
-0.00099966446843905462
40
-0.00099966446843905462
40
-0.00099966446843905462
40
-0.00099966446843905462
10
-3.0181718027635114
20
-12.757903185618535
30
0
10
-3.1077831354194334
20
-12.513789555279988
30
0
10
-3.16934245553057
20
-12.178611778903914
30
0
10
-3.1814531171445068
20
-11.906410865245403
30
0
10
-3.187644471867511
20
-11.767253115973794
30
0
10
-3.1815538358231641
20
-11.645426926334283
30
0
10
-3.1559732297705039
20
-11.55612308982985
30
0
0
SPLINE
5
322
100
AcDbEntity
8
0
100
AcDbSpline
70
0
71
3
72
14
73
10
74
0
42
0.000000001
43
0.0000000001
44
0.0000000001
40
-0.99875472450548985
40
-0.99875472450548985
40
-0.99875472450548985
40
-0.99875472450548985
40
-0.71658486627650297
40
-0.71658486627650297
40
-0.71658486627650297
40
-0.26000526412123309
40
-0.26000526412123309
40
-0.26000526412123309
40
0
40
0
40
0
40
0
10
-3.1559732297705088
20
-11.556123089829848
30
0
10
-3.1414801655293263
20
-11.498255759169627
30
0
10
-3.1257846879060542
20
-11.447374690184553
30
0
10
-3.1088015060465555
20
-11.403572566467229
30
0
10
-3.0813209861022615
20
-11.332696263994903
30
0
10
-3.0517974239664869
20
-11.279878150206358
30
0
10
-3.0117528423041025
20
-11.245793426150781
30
0
10
-2.9889489281944841
20
-11.226383431401267
30
0
10
-2.9606373770583829
20
-11.213221286677246
30
0
10
-2.9304013003448115
20
-11.213221286677246
30
0
0
SPLINE
5
323
100
AcDbEntity
8
0
100
AcDbSpline
70
0
71
3
72
14
73
10
74
0
42
0.000000001
43
0.0000000001
44
0.0000000001
40
-0.99591474316774586
40
-0.99591474316774586
40
-0.99591474316774586
40
-0.99591474316774586
40
-0.42661382862294916
40
-0.42661382862294916
40
-0.42661382862294916
40
-0.1452553744084879
40
-0.1452553744084879
40
-0.1452553744084879
40
0
40
0
40
0
40
0
10
-0.67607265198359712
20
-11.777370136598405
30
0
10
-0.61876613744049147
20
-11.802035145756804
30
0
10
-0.56829234304000364
20
-11.830731404025071
30
0
10
-0.53260273799880731
20
-11.857641029928157
30
0
10
-0.5149643119057371
20
-11.870940236997999
30
0
10
-0.50096200785433576
20
-11.882759459290259
30
0
10
-0.48960124295841623
20
-11.899376788539492
30
0
10
-0.48373608364365206
20
-11.907955725285877
30
0
10
-0.47703187837457789
20
-11.918448529344015
30
0
10
-0.47703187837457789
20
-11.936571086060168
30
0
0
SPLINE
5
324
100
AcDbEntity
8
0
100
AcDbSpline
70
0
71
3
72
23
73
19
74
0
42
0.000000001
43
0.0000000001
44
0.0000000001
40
-1
40
-1
40
-1
40
-1
40
-0.96241054907253298
40
-0.96241054907253298
40
-0.96241054907253298
40
-0.90634396973369791
40
-0.90634396973369791
40
-0.90634396973369791
40
-0.8126879394673957
40
-0.8126879394673957
40
-0.8126879394673957
40
-0.62537587893479141
40
-0.62537587893479141
40
-0.62537587893479141
40
-0.25075175786958265
40
-0.25075175786958265
40
-0.25075175786958265
40
0
40
0
40
0
40
0
10
-0.47703187837457789
20
-11.936571086060168
30
0
10
-0.47703187837457789
20
-11.946142570594295
30
0
10
-0.47995280833216053
20
-11.95737386719791
30
0
10
-0.48567910276166154
20
-11.966289688777954
30
0
10
-0.49422016236821592
20
-11.979588090474561
30
0
10
-0.50635907077333397
20
-11.986249957423654
30
0
10
-0.51593991973276543
20
-11.989678005753643
30
0
10
-0.53194418271265176
20
-11.995404365412709
30
0
10
-0.54471022022144389
20
-11.995196014814656
30
0
10
-0.55856565768220723
20
-11.994478738153207
30
0
10
-0.58627653260373391
20
-11.993044184830307
30
0
10
-0.61799538493910477
20
-11.986222262459322
30
0
10
-0.65435271969629771
20
-11.97615587428032
30
0
10
-0.72706738921068381
20
-11.956023097922316
30
0
10
-0.81580942379156862
20
-11.922204923510616
30
0
10
-0.89112112441891811
20
-11.884924064089253
30
0
10
-0.94153042872841963
20
-11.859970409187868
30
0
10
-0.98536488605654982
20
-11.83443629918987
30
0
10
-1.0166758422725861
20
-11.805971793538927
30
0
0
SPLINE
5
325
100
AcDbEntity
8
0
100
AcDbSpline
70
0
71
3
72
20
73
16
74
0
42
0.000000001
43
0.0000000001
44
0.0000000001
40
-1
40
-1
40
-1
40
-1
40
-0.85509339665885054
40
-0.85509339665885054
40
-0.85509339665885054
40
-0.58215022751528112
40
-0.58215022751528112
40
-0.58215022751528112
40
-0.4200737536660093
40
-0.4200737536660093
40
-0.4200737536660093
40
-0.25
40
-0.25
40
-0.25
40
-0.0005945175115767235
40
-0.0005945175115767235
40
-0.0005945175115767235
40
-0.0005945175115767235
10
-1.0166758422725868
20
-11.805971793538927
30
0
10
-1.0334383024639764
20
-11.790733193364936
30
0
10
-1.0471629418437169
20
-11.775181862041025
30
0
10
-1.0580233791742975
20
-11.759522910727155
30
0
10
-1.0784798809136631
20
-11.730028024376042
30
0
10
-1.0901702758365248
20
-11.70032950350318
30
0
10
-1.0870825709171954
20
-11.668527466560542
30
0
10
-1.0852490598343489
20
-11.64964308844967
30
0
10
-1.0763032263079177
20
-11.629134097093546
30
0
10
-1.0595966517528481
20
-11.615725752260813
30
0
10
-1.0420657308363177
20
-11.6016558044023
30
0
10
-1.0192521418523703
20
-11.597544447020731
30
0
10
-0.99902995841648368
20
-11.599943689123293
30
0
10
-0.96937503925299451
20
-11.603462069363029
30
0
10
-0.94185295726442397
20
-11.618171452394693
30
0
10
-0.91259229905246309
20
-11.642069000907357
30
0
0
SPLINE
5
326
100
AcDbEntity
8
0
100
AcDbSpline
70
0
71
3
72
11
73
7
74
0
42
0.000000001
43
0.0000000001
44
0.0000000001
40
-0.99841365496211343
40
-0.99841365496211343
40
-0.99841365496211343
40
-0.99841365496211343
40
-0.63404616898021182
40
-0.63404616898021182
40
-0.63404616898021182
40
-0.0043061965285765341
40
-0.0043061965285765341
40
-0.0043061965285765341
40
-0.0043061965285765341
10
-0.9125922990525257
20
-11.642069000907435
30
0
10
-0.89913921503819438
20
-11.652805143465521
30
0
10
-0.87501439529634673
20
-11.668693452925814
30
0
10
-0.84633419417447042
20
-11.685719061024741
30
0
10
-0.79676591555672704
20
-11.715144589886897
30
0
10
-0.73283610200163674
20
-11.748963957217073
30
0
10
-0.67607265198358935
20
-11.777370136598389
30
0
0
SPLINE
5
327
100
AcDbEntity
8
0
100
AcDbSpline
70
0
71
3
72
14
73
10
74
0
42
0.000000001
43
0.0000000001
44
0.0000000001
40
-1
40
-1
40
-1
40
-1
40
-0.57166527391623256
40
-0.57166527391623256
40
-0.57166527391623256
40
0
40
0
40
0
40
0.00014766109307446214
40
0.00014766109307446214
40
0.00014766109307446214
40
0.00014766109307446214
10
5.6463270489410462
20
-5.3169696880550239
30
0
10
5.6463270489410462
20
-5.5649324168422076
30
0
10
5.643884386677394
20
-5.7259673595540326
30
0
10
5.6314639102114512
20
-5.8607127778784154
30
0
10
5.6148872596419501
20
-6.0405470798497714
30
0
10
5.5801648532403689
20
-6.1717532911589057
30
0
10
5.5122871007194316
20
-6.3910506454573177
30
0
10
5.5122696221107441
20
-6.3911071148084613
30
0
10
5.5122521435020575
20
-6.3911635841596039
30
0
10
5.5122346648933904
20
-6.3912200535106756
30
0
0
SPLINE
5
328
100
AcDbEntity
8
0
100
AcDbSpline
70
0
71
3
72
14
73
10
74
0
42
0.000000001
43
0.0000000001
44
0.0000000001
40
-1.00011248029619
40
-1.00011248029619
40
-1.00011248029619
40
-1.00011248029619
40
-1
40
-1
40
-1
40
-0.67529954507945711
40
-0.67529954507945711
40
-0.67529954507945711
40
-8.0022168234679701e-05
40
-8.0022168234679701e-05
40
-8.0022168234679701e-05
40
-8.0022168234679701e-05
10
5.5122346648904141
20
-6.391220053509735
30
0
10
5.5122167418399064
20
-6.3912763830970407
30
0
10
5.5121988187894173
20
-6.3913327126842931
30
0
10
5.5121808957389264
20
-6.39138904227155
30
0
10
5.4597768992626783
20
-6.5560873169111868
30
0
10
5.4012639423750528
20
-6.6984002991517881
30
0
10
5.3330716272621048
20
-6.8218011855477698
30
0
10
5.1912646732556986
20
-7.078415201254975
30
0
10
5.0059430372223011
20
-7.2526459399035774
30
0
10
4.7554925923201052
20
-7.3699658058122788
30
0
0
SPLINE
5
329
100
AcDbEntity
8
0
100
AcDbSpline
70
0
71
3
72
14
73
10
74
0
42
0.000000001
43
0.0000000001
44
0.0000000001
40
-0.99988889386282387
40
-0.99988889386282387
40
-0.99988889386282387
40
-0.99988889386282387
40
-0.93430328460532475
40
-0.93430328460532475
40
-0.93430328460532475
40
-0.50486459837730469
40
-0.50486459837730469
40
-0.50486459837730469
40
-0.00027482465840923719
40
-0.00027482465840923719
40
-0.00027482465840923719
40
-0.00027482465840923719
10
4.7554925923201719
20
-7.3699658058124218
30
0
10
4.7380735539325833
20
-7.3782158602799974
30
0
10
4.7211206616610495
20
-7.3859299524206827
30
0
10
4.7044845064448992
20
-7.3930949716404131
30
0
10
4.5955549909492088
20
-7.4400097823032025
30
0
10
4.4984612125810237
20
-7.4629917107192218
30
0
10
4.3828918710490754
20
-7.4563520901564946
30
0
10
4.2470980784481842
20
-7.4485505465490656
30
0
10
4.0878647980656497
20
-7.4026107827637899
30
0
10
3.838919020898754
20
-7.3173338665818752
30
0
0
SPLINE
5
330
100
AcDbEntity
8
0
100
AcDbSpline
70
0
71
3
72
14
73
10
74
0
42
0.000000001
43
0.0000000001
44
0.0000000001
40
-0.99946369730898099
40
-0.99946369730898099
40
-0.99946369730898099
40
-0.99946369730898099
40
-0.57485634716781042
40
-0.57485634716781042
40
-0.57485634716781042
40
0
40
0
40
0
40
0.00062371998008753024
40
0.00062371998008753024
40
0.00062371998008753024
40
0.00062371998008753024
10
3.8389190208987474
20
-7.3173338665818948
30
0
10
3.7314777730763105
20
-7.2828069122539771
30
0
10
3.6542680358827275
20
-7.2611392541608639
30
0
10
3.5818559651800732
20
-7.249847292837833
30
0
10
3.4838205957001396
20
-7.2345596261585836
30
0
10
3.3920728999190168
20
-7.2374390127716044
30
0
10
3.239233574221327
20
-7.2555724920916695
30
0
10
3.239066037851674
20
-7.2555923692880695
30
0
10
3.2388985014820224
20
-7.2556122464844677
30
0
10
3.2387309651123415
20
-7.2556321236808712
30
0
0
SPLINE
5
331
100
AcDbEntity
8
0
100
AcDbSpline
70
0
71
3
72
26
73
22
74
0
42
0.000000001
43
0.0000000001
44
0.0000000001
40
-1.0005053203351162
40
-1.0005053203351162
40
-1.0005053203351162
40
-1.0005053203351162
40
-1
40
-1
40
-1
40
-0.72618788306970239
40
-0.72618788306970239
40
-0.72618788306970239
40
-0.47526759341412561
40
-0.47526759341412561
40
-0.47526759341412561
40
-0.34511359223668853
40
-0.34511359223668853
40
-0.34511359223668853
40
-0.25780128520188272
40
-0.25780128520188272
40
-0.25780128520188272
40
-0.15255706111049033
40
-0.15255706111049033
40
-0.15255706111049033
40
0
40
0
40
0
40
0
10
3.238730965112619
20
-7.2556321236830223
30
0
10
3.2385630239837107
20
-7.2556482276268905
30
0
10
3.2383950828548422
20
-7.2556643315707543
30
0
10
3.2382271417259711
20
-7.2556804355146181
30
0
10
3.1468771159598328
20
-7.2644400270264393
30
0
10
3.0761769530678387
20
-7.2701645310562126
30
0
10
3.0221230006660154
20
-7.2723443630159537
30
0
10
2.972588182609929
20
-7.2743419519936454
30
0
10
2.9379161262321998
20
-7.2740323490781025
30
0
10
2.9091352891773825
20
-7.2679447083233732
30
0
10
2.8942064800919867
20
-7.2647870091072333
30
0
10
2.8794702248298902
20
-7.2607293792397316
30
0
10
2.8650188582038476
20
-7.2469241061051788
30
0
10
2.8553243259688728
20
-7.2376629982197578
30
0
10
2.847545569955344
20
-7.2222200821477793
30
0
10
2.8465575251643664
20
-7.2079288727981989
30
0
10
2.8453665589543844
20
-7.1907025814493215
30
0
10
2.8509634543560018
20
-7.1778212635278811
30
0
10
2.8567084277392065
20
-7.167647815794612
30
0
10
2.8650360700689048
20
-7.1529008660123514
30
0
10
2.875448277240324
20
-7.1415151374593115
30
0
10
2.8879768287773149
20
-7.1289865859223198
30
0
0
SPLINE
5
332
100
AcDbEntity
8
0
100
AcDbSpline
70
0
71
3
72
17
73
13
74
0
42
0.000000001
43
0.0000000001
44
0.0000000001
40
-1
40
-1
40
-1
40
-1
40
-0.89912740568454819
40
-0.89912740568454819
40
-0.89912740568454819
40
-0.75
40
-0.75
40
-0.75
40
-0.5
40
-0.5
40
-0.5
40
-1.1276757411591965e-05
40
-1.1276757411591965e-05
40
-1.1276757411591965e-05
40
-1.1276757411591965e-05
10
2.8879768287773158
20
-7.1289865859223198
30
0
10
2.9041486524360649
20
-7.1128147622635707
30
0
10
2.922980332240007
20
-7.1041130298720274
30
0
10
2.9442955469737155
20
-7.0966832045850623
30
0
10
2.9758074030573072
20
-7.0856991451658162
30
0
10
3.0138836125771329
20
-7.0787117168282609
30
0
10
3.0584378090002518
20
-7.0738205375802146
30
0
10
3.1331293055407423
20
-7.0656208722913378
30
0
10
3.2255794533684683
20
-7.0639902407688737
30
0
10
3.3256665900236881
20
-7.0680400093040561
30
0
10
3.5258363487006861
20
-7.076139363701393
30
0
10
3.7553085147760998
20
-7.1067645051222588
30
0
10
3.9254198994157234
20
-7.1587412024526973
30
0
0
SPLINE
5
333
100
AcDbEntity
8
0
100
AcDbSpline
70
0
71
3
72
14
73
10
74
0
42
0.000000001
43
0.0000000001
44
0.0000000001
40
-1
40
-1
40
-1
40
-1
40
-0.48091917798859302
40
-0.48091917798859302
40
-0.48091917798859302
40
0
40
0
40
0
40
0.00011646484642190364
40
0.00011646484642190364
40
0.00011646484642190364
40
0.00011646484642190364
10
3.925419898960345
20
-7.1587412039349454
30
0
10
4.1478989883664683
20
-7.2266558733326036
30
0
10
4.3038926533464732
20
-7.2565744218701127
30
0
10
4.430543678698232
20
-7.2488762254241461
30
0
10
4.5478836080902711
20
-7.2417439829104602
30
0
10
4.6422608363697755
20
-7.2041100341826478
30
0
10
4.7516769375561809
20
-7.1283604256689825
30
0
10
4.7517045093888051
20
-7.1283413374771669
30
0
10
4.7517320812214443
20
-7.1283222492853398
30
0
10
4.7517596530539228
20
-7.1283031610936227
30
0
0
SPLINE
5
334
100
AcDbEntity
8
0
100
AcDbSpline
70
0
71
3
72
17
73
13
74
0
42
0.000000001
43
0.0000000001
44
0.0000000001
40
-1.0000867698969125
40
-1.0000867698969125
40
-1.0000867698969125
40
-1.0000867698969125
40
-1
40
-1
40
-1
40
-0.68634699924151776
40
-0.68634699924151776
40
-0.68634699924151776
40
0
40
0
40
0
40
0.00013278323056849922
40
0.00013278323056849922
40
0.00013278323056849922
40
0.00013278323056849922
10
4.7517596530745285
20
-7.1283031611227621
30
0
10
4.7517873055841431
20
-7.128284199401886
30
0
10
4.7518149580938669
20
-7.1282652376809317
30
0
10
4.7518426106035854
20
-7.1282462759599818
30
0
10
4.850037656038948
20
-7.0609125305185909
30
0
10
4.9310316367623619
20
-6.9950889214792751
30
0
10
4.9995466745853498
20
-6.9252797941582118
30
0
10
5.1494737930857628
20
-6.7725209015583783
30
0
10
5.2415978816299429
20
-6.6001429666903642
30
0
10
5.3215996565585328
20
-6.3416756938441479
30
0
10
5.3216153740781458
20
-6.3416249141654006
30
0
10
5.3216310915977596
20
-6.3415741344866472
30
0
10
5.3216468091173716
20
-6.3415233548079044
30
0
0
SPLINE
5
335
100
AcDbEntity
8
0
100
AcDbSpline
70
0
71
3
72
11
73
7
74
0
42
0.000000001
43
0.0000000001
44
0.0000000001
40
-1.0001070141723063
40
-1.0001070141723063
40
-1.0001070141723063
40
-1.0001070141723063
40
-1
40
-1
40
-1
40
-6.1259284965633275e-05
40
-6.1259284965633275e-05
40
-6.1259284965633275e-05
40
-6.1259284965633275e-05
10
5.3216468090965234
20
-6.3415233548011374
30
0
10
5.3216628867501532
20
-6.3414726858321231
30
0
10
5.3216789644038212
20
-6.3414220168629862
30
0
10
5.3216950420574891
20
-6.3413713478938503
30
0
10
5.4700648498995381
20
-5.8737816504522407
30
0
10
5.5015151749052613
20
-5.4451413297995268
30
0
10
5.4427621711859153
20
-4.880118156666021
30
0
0
SPLINE
5
336
100
AcDbEntity
8
0
100
AcDbSpline
70
0
71
3
72
8
73
4
74
0
42
0.000000001
43
0.0000000001
44
0.0000000001
40
-0.99994460678488761
40
-0.99994460678488761
40
-0.99994460678488761
40
-0.99994460678488761
40
0
40
0
40
0
40
0
10
5.442762171186037
20
-4.8801181566660086
30
0
10
5.374786156447767
20
-4.2548014754893844
30
0
10
5.2669881138984245
20
-3.8234785180554582
30
0
10
4.9760812412703848
20
-2.9871212592498382
30
0
0
SPLINE
5
337
100
AcDbEntity
8
0
100
AcDbSpline
70
0
71
3
72
8
73
4
74
0
42
0.000000001
43
0.0000000001
44
0.0000000001
40
-0.99997820363151613
40
-0.99997820363151613
40
-0.99997820363151613
40
-0.99997820363151613
40
-3.9488747670343462e-05
40
-3.9488747670343462e-05
40
-3.9488747670343462e-05
40
-3.9488747670343462e-05
10
4.9760812181862386
20
-2.9871212673068439
30
0
10
4.7400694156512282
20
-2.3108635296953066
30
0
10
4.4587224122037767
20
-1.6618399615691748
30
0
10
3.9901948717871809
20
-0.69293789542010387
30
0
0
SPLINE
5
338
100
AcDbEntity
8
0
100
AcDbSpline
70
0
71
3
72
14
73
10
74
0
42
0.000000001
43
0.0000000001
44
0.0000000001
40
-1
40
-1
40
-1
40
-1
40
-0.40657703471501411
40
-0.40657703471501411
40
-0.40657703471501411
40
0
40
0
40
0
40
1.5113712210988823e-05
40
1.5113712210988823e-05
40
1.5113712210988823e-05
40
1.5113712210988823e-05
10
3.9901950345396768
20
-0.69293781671616883
30
0
10
3.6872690286326626
20
-0.071001238216812868
30
0
10
3.1844238726304401
20
0.67613774532598703
30
0
10
2.6891902549734104
20
1.2757134855493226
30
0
10
2.3498865415394556
20
1.6865060244427126
30
0
10
2.0130769196301452
20
2.0285547390987726
30
0
10
1.7511822310738234
20
2.2127841062211506
30
0
10
1.7511722539219767
20
2.2127911246314147
30
0
10
1.7511622767701245
20
2.2127981430416837
30
0
10
1.7511522996182507
20
2.2128051614519673
30
0
0
SPLINE
5
339
100
AcDbEntity
8
0
100
AcDbSpline
70
0
71
3
72
29
73
25
74
0
42
0.000000001
43
0.0000000001
44
0.0000000001
40
-1.0000643816206809
40
-1.0000643816206809
40
-1.0000643816206809
40
-1.0000643816206809
40
-1
40
-1
40
-1
40
-0.8164807137358201
40
-0.8164807137358201
40
-0.8164807137358201
40
-0.60293218521751035
40
-0.60293218521751035
40
-0.60293218521751035
40
-0.48799283655619452
40
-0.48799283655619452
40
-0.48799283655619452
40
-0.38645215103474695
40
-0.38645215103474695
40
-0.38645215103474695
40
-0.25318732893698281
40
-0.25318732893698281
40
-0.25318732893698281
40
0
40
0
40
0
40
9.8779389547196032e-06
40
9.8779389547196032e-06
40
9.8779389547196032e-06
40
9.8779389547196032e-06
10
1.7511522996183961
20
2.212805161451914
30
0
10
1.7511423339080807
20
2.2128121960709604
30
0
10
1.751132368197877
20
2.2128192306899273
30
0
10
1.7511224024876773
20
2.2128262653088915
30
0
10
1.7209025702101353
20
2.2341579116224501
30
0
10
1.6964851155710123
20
2.2546781449772721
30
0
10
1.6773559070357136
20
2.2742858002893782
30
0
10
1.6550965880421089
20
2.297101854257499
30
0
10
1.6393166864640938
20
2.3175037665564924
30
0
10
1.6313962822717754
20
2.3431089842704202
30
0
10
1.6271332414289472
20
2.3568906153909444
30
0
10
1.6251214637742062
20
2.3741551452766099
30
0
10
1.6325119483250177
20
2.391921327759698
30
0
10
1.6390409123078946
20
2.4076164780232303
30
0
10
1.6534043337806679
20
2.4201470215747083
30
0
10
1.6670370817353886
20
2.4257955391282584
30
0
10
1.6849290796233267
20
2.4332088107939391
30
0
10
1.7013297192795114
20
2.4329132549944488
30
0
10
1.7181122125089356
20
2.4306832930147575
30
0
10
1.7499969557350492
20
2.4264466301927041
30
0
10
1.7855833592388346
20
2.4129598150181395
30
0
10
1.8299460667823235
20
2.3895461638146314
30
0
10
1.8299476857424029
20
2.3895453093634784
30
0
10
1.8299493047026127
20
2.3895444549122566
30
0
10
1.8299509236619635
20
2.3895436004614878
30
0
0
SPLINE
5
340
100
AcDbEntity
8
0
100
AcDbSpline
70
0
71
3
72
17
73
13
74
0
42
0.000000001
43
0.0000000001
44
0.0000000001
40
-1.0000039950606439
40
-1.0000039950606439
40
-1.0000039950606439
40
-1.0000039950606439
40
-1
40
-1
40
-1
40
-0.57039376325253877
40
-0.57039376325253877
40
-0.57039376325253877
40
0
40
0
40
0
40
1.0304604191315239e-05
40
1.0304604191315239e-05
40
1.0304604191315239e-05
40
1.0304604191315239e-05
10
1.8299509236591929
20
2.3895436004629529
30
0
10
1.8299525424167942
20
2.3895427456134333
30
0
10
1.8299541611706993
20
2.389541890765865
30
0
10
1.8299557799246777
20
2.3895410359182585
30
0
10
2.0127453472705099
20
2.293011713836751
30
0
10
2.2312677276696573
20
2.1025212050814148
30
0
10
2.4823772004874347
20
1.829332944241828
30
0
10
2.8157784990190708
20
1.4666173529681661
30
0
10
3.204835565643974
20
0.95782230161170834
30
0
10
3.6263876936435202
20
0.33069845687164368
30
0
10
3.6263952936464445
20
0.33068715069445376
30
0
10
3.6264028936493795
20
0.33067584451724785
30
0
10
3.6264104936525934
20
0.33066453833962806
30
0
0
SPLINE
5
341
100
AcDbEntity
8
0
100
AcDbSpline
70
0
71
3
72
14
73
10
74
0
42
0.000000001
43
0.0000000001
44
0.0000000001
40
-1.000021621162128
40
-1.000021621162128
40
-1.000021621162128
40
-1.000021621162128
40
-1
40
-1
40
-1
40
-0.6002564482205669
40
-0.6002564482205669
40
-0.6002564482205669
40
-4.2326430816377535e-05
40
-4.2326430816377535e-05
40
-4.2326430816377535e-05
40
-4.2326430816377535e-05
10
3.6264104936524837
20
0.33066453833968101
30
0
10
3.6264180730935367
20
0.33065321839525053
30
0
10
3.6264256525348064
20
0.33064189845049641
30
0
10
3.6264332319760832
20
0.33063057850573269
30
0
10
3.7665666721331448
20
0.12134037567375903
30
0
10
3.8540232542795043
20
-0.0092472012474107742
30
0
10
3.9306963970950362
20
-0.1384871603900768
30
0
10
4.0458209635202556
20
-0.33254069354065102
30
0
10
4.135077754312702
20
-0.52107164027689667
30
0
10
4.3400522941561004
20
-0.96381603528506055
30
0
0
SPLINE
5
342
100
AcDbEntity
8
0
100
AcDbSpline
70
0
71
3
72
11
73
7
74
0
42
0.000000001
43
0.0000000001
44
0.0000000001
40
-0.99998516321023678
40
-0.99998516321023678
40
-0.99998516321023678
40
-0.99998516321023678
40
-0.69798433948901983
40
-0.69798433948901983
40
-0.69798433948901983
40
0
40
0
40
0
40
0
10
4.3400522941561652
20
-0.96381603528503046
30
0
10
4.6372924165360541
20
-1.59820689177091
30
0
10
4.8740370928897008
20
-2.137791542093431
30
0
10
5.0598258656914634
20
-2.6149050799680156
30
0
10
5.4892208993560807
20
-3.717609945111287
30
0
10
5.6463270489410462
20
-4.4882856441889079
30
0
10
5.6463270489410462
20
-5.3169696880550239
30
0
0
LWPOLYLINE
5
343
100
AcDbEntity
8
0
100
AcDbPolyline
90
4
70
1
43
0.0
10
8.1592812053387949
20
15.999999999999998
10
-8.1592812053387949
20
15.999999999999998
10
-8.1592812053387931
20
-15.999999999999998
10
8.1592812053387966
20
-15.999999999999998
0
ENDSEC
0
SECTION
2
OBJECTS
0
DICTIONARY
5
C
100
AcDbDictionary
3
ACAD_GROUP
350
D
3
ACAD_MLINESTYLE
350
17
0
DICTIONARY
5
D
100
AcDbDictionary
0
DICTIONARY
5
1A
330
C
100
AcDbDictionary
0
DICTIONARY
5
17
100
AcDbDictionary
0
ENDSEC
0
EOF
