0
SECTION
2
HEADER
9
$INSUNITS
70
1
9
$ACADVER
1
AC1014
9
$HANDSEED
5
FFFF
0
ENDSEC
0
SECTION
2
TABLES
0
TABLE
2
VPORT
5
8
100
AcDbSymbolTable
0
ENDTAB
0
TABLE
2
LTYPE
5
5
100
AcDbSymbolTable
0
LTYPE
5
14
100
AcDbSymbolTableRecord
100
AcDbLinetypeTableRecord
2
BYBLOCK
70
0
0
LTYPE
5
15
100
AcDbSymbolTableRecord
100
AcDbLinetypeTableRecord
2
BYLAYER
70
0
0
ENDTAB
0
TABLE
2
LAYER
5
2
100
AcDbSymbolTable
70
2
0
LAYER
5
50
100
AcDbSymbolTableRecord
100
AcDbLayerTableRecord
2
0
70
0
6
CONTINUOUS
0
ENDTAB
0
TABLE
2
STYLE
5
3
100
AcDbSymbolTable
70
1
0
STYLE
5
11
100
AcDbSymbolTableRecord
100
AcDbTextStyleTableRecord
2
STANDARD
70
0
0
ENDTAB
0
TABLE
2
VIEW
5
6
100
AcDbSymbolTable
70
0
0
ENDTAB
0
TABLE
2
UCS
5
7
100
AcDbSymbolTable
70
0
0
ENDTAB
0
TABLE
2
APPID
5
9
100
AcDbSymbolTable
70
2
0
APPID
5
12
100
AcDbSymbolTableRecord
100
AcDbRegAppTableRecord
2
ACAD
70
0
0
ENDTAB
0
TABLE
2
DIMSTYLE
5
A
100
AcDbSymbolTable
70
1
0
ENDTAB
0
TABLE
2
BLOCK_RECORD
5
1
100
AcDbSymbolTable
70
1
0
BLOCK_RECORD
5
1F
100
AcDbSymbolTableRecord
100
AcDbBlockTableRecord
2
*MODEL_SPACE
0
BLOCK_RECORD
5
1B
100
AcDbSymbolTableRecord
100
AcDbBlockTableRecord
2
*PAPER_SPACE
0
ENDTAB
0
ENDSEC
0
SECTION
2
BLOCKS
0
BLOCK
5
20
100
AcDbEntity
100
AcDbBlockBegin
2
*MODEL_SPACE
0
ENDBLK
5
21
100
AcDbEntity
100
AcDbBlockEnd
0
BLOCK
5
1C
100
AcDbEntity
100
AcDbBlockBegin
2
*PAPER_SPACE
0
ENDBLK
5
1D
100
AcDbEntity
100
AcDbBlockEnd
0
ENDSEC
0
SECTION
2
ENTITIES
0
LWPOLYLINE
5
100
100
AcDbEntity
8
0
100
AcDbPolyline
90
18
70
1
43
0.0
10
14.863567687282437
20
24.969126840840957
10
14.864568420298687
20
25.574347232497601
10
14.076289204791053
20
25.57565065361139
10
13.312101552454273
20
25.576914250833191
10
13.310240223164158
20
24.451225592033413
10
13.310240224213501
20
23.325535394378154
10
14.074428921239273
20
23.325535405929585
10
14.86270921435076
20
23.325535405929578
10
14.86270921435076
20
23.930756624942585
10
14.068381316613817
20
23.930756624942585
10
14.068381348091302
20
24.063506867275049
10
14.068381316613817
20
24.063507312807737
10
14.068381316613817
20
24.168931446332387
10
14.715903061906918
20
24.168931446332387
10
14.715903061906918
20
24.450063459799985
10
14.716367913566053
20
24.731195088951317
10
14.06884705345546
20
24.732265765868945
10
14.069240875416618
20
24.970440261666301
0
LWPOLYLINE
5
101
100
AcDbEntity
8
0
100
AcDbPolyline
90
10
70
1
43
0.0
10
6.5972380227220109
20
24.721259559530196
10
6.5972005280051382
20
25.57460712565625
10
6.2418851332363925
20
25.574591513670399
10
5.443587478216326
20
23.325535405929578
10
6.3183640656096403
20
23.325535405929578
10
6.3798946664618317
20
23.653524241077928
10
6.5972380227209086
20
23.653524241077992
10
6.5972380227214398
20
24.168931446332387
10
6.5028119951168337
20
24.168931446332387
10
6.5972380227217799
20
24.498016701035759
0
SPLINE
5
102
100
AcDbEntity
8
0
100
AcDbSpline
70
0
71
3
72
8
73
4
74
0
42
0.000000001
43
0.0000000001
44
0.0000000001
40
-1
40
-1
40
-1
40
-1
40
0
40
0
40
0
40
0
10
15.961578217059108
20
17.54103476264223
30
0
10
15.913921872065186
20
17.948797596770042
30
0
10
15.809710398435607
20
18.232167681073392
30
0
10
15.651755502691772
20
18.38349455827311
30
0
0
SPLINE
5
103
100
AcDbEntity
8
0
100
AcDbSpline
70
0
71
3
72
8
73
4
74
0
42
0.000000001
43
0.0000000001
44
0.0000000001
40
-1
40
-1
40
-1
40
-1
40
0
40
0
40
0
40
0
10
15.651755502691772
20
18.38349455827311
30
0
10
15.575135013880612
20
18.456902092803464
30
0
10
15.51244228062898
20
18.541532675774448
30
0
10
15.51244228062898
20
18.571560869205502
30
0
0
SPLINE
5
104
100
AcDbEntity
8
0
100
AcDbSpline
70
0
71
3
72
8
73
4
74
0
42
0.000000001
43
0.0000000001
44
0.0000000001
40
-1
40
-1
40
-1
40
-1
40
0
40
0
40
0
40
0
10
15.51244228062898
20
18.571560869205502
30
0
10
15.51244228062898
20
18.601586090430935
30
0
10
15.61092036960761
20
18.754749790707002
30
0
10
15.731282808604346
20
18.911922996371413
30
0
0
LINE
5
105
100
AcDbEntity
8
0
100
AcDbLine
10
15.731282808604345
20
18.911922996371413
30
0
11
15.950123336579715
21
19.197691650614278
31
0
0
LINE
5
106
100
AcDbEntity
8
0
100
AcDbLine
10
15.950123336579715
20
19.197691650614278
30
0
11
16.211549626752468
21
18.970951000087226
31
0
0
SPLINE
5
107
100
AcDbEntity
8
0
100
AcDbSpline
70
0
71
3
72
8
73
4
74
0
42
0.000000001
43
0.0000000001
44
0.0000000001
40
-1
40
-1
40
-1
40
-1
40
0
40
0
40
0
40
0
10
16.211549626752468
20
18.970951000087226
30
0
10
16.355336018281136
20
18.846243196466492
30
0
10
16.511136064946726
20
18.701898030280294
30
0
10
16.557772943411209
20
18.650181652402402
30
0
0
SPLINE
5
108
100
AcDbEntity
8
0
100
AcDbSpline
70
0
71
3
72
8
73
4
74
0
42
0.000000001
43
0.0000000001
44
0.0000000001
40
-1
40
-1
40
-1
40
-1
40
0
40
0
40
0
40
0
10
16.557772943411209
20
18.650181652402402
30
0
10
16.64040620420208
20
18.55855152518415
30
0
10
16.634301293847987
20
18.539648297408093
30
0
10
16.318379613537815
20
17.909094874029069
30
0
0
LINE
5
109
100
AcDbEntity
8
0
100
AcDbLine
10
16.318379613537815
20
17.909094874029069
30
0
11
15.994186284972805
21
17.262039765019118
31
0
0
LINE
5
110
100
AcDbEntity
8
0
100
AcDbLine
10
15.994186284972805
20
17.262039765019118
30
0
11
15.961578217059108
21
17.54103476264223
31
0
0
SPLINE
5
111
100
AcDbEntity
8
0
100
AcDbSpline
70
0
71
3
72
8
73
4
74
0
42
0.000000001
43
0.0000000001
44
0.0000000001
40
-1
40
-1
40
-1
40
-1
40
0
40
0
40
0
40
0
10
14.899558619691568
20
20.186226436105212
30
0
10
14.976122636595854
20
20.186226436105212
30
0
10
15.270035134251673
20
19.110356360524396
30
0
10
15.351669733952486
20
18.531254788722624
30
0
0
SPLINE
5
112
100
AcDbEntity
8
0
100
AcDbSpline
70
0
71
3
72
8
73
4
74
0
42
0.000000001
43
0.0000000001
44
0.0000000001
40
-1
40
-1
40
-1
40
-1
40
0
40
0
40
0
40
0
10
15.351669733952486
20
18.531254788722624
30
0
10
15.369351385216598
20
18.405836627957484
30
0
10
15.429927908063116
20
18.24954022295249
30
0
10
15.487874028931353
20
18.179839028836714
30
0
0
SPLINE
5
113
100
AcDbEntity
8
0
100
AcDbSpline
70
0
71
3
72
8
73
4
74
0
42
0.000000001
43
0.0000000001
44
0.0000000001
40
-1
40
-1
40
-1
40
-1
40
0
40
0
40
0
40
0
10
15.487874028931353
20
18.179839028836714
30
0
10
15.545270291758941
20
18.110797664369727
30
0
10
15.616115785040405
20
18.008877761277152
30
0
10
15.645305816485166
20
17.953348043582167
30
0
0
SPLINE
5
114
100
AcDbEntity
8
0
100
AcDbSpline
70
0
71
3
72
8
73
4
74
0
42
0.000000001
43
0.0000000001
44
0.0000000001
40
-1
40
-1
40
-1
40
-1
40
0
40
0
40
0
40
0
10
15.645305816485166
20
17.953348043582167
30
0
10
15.703828545244686
20
17.842030026302819
30
0
10
15.777349023588801
20
17.187481986911823
30
0
10
15.731330363894351
20
17.187481986911823
30
0
0
SPLINE
5
115
100
AcDbEntity
8
0
100
AcDbSpline
70
0
71
3
72
8
73
4
74
0
42
0.000000001
43
0.0000000001
44
0.0000000001
40
-1
40
-1
40
-1
40
-1
40
0
40
0
40
0
40
0
10
15.731330363894351
20
17.187481986911823
30
0
10
15.715464730267211
20
17.187481986911823
30
0
10
15.668884323709605
20
17.303059174852041
30
0
10
15.627817358586686
20
17.444322163804941
30
0
0
SPLINE
5
116
100
AcDbEntity
8
0
100
AcDbSpline
70
0
71
3
72
8
73
4
74
0
42
0.000000001
43
0.0000000001
44
0.0000000001
40
-1
40
-1
40
-1
40
-1
40
0
40
0
40
0
40
0
10
15.627817358586686
20
17.444322163804941
30
0
10
15.521046815913838
20
17.811603557317987
30
0
10
15.443311749993235
20
17.834548984744274
30
0
10
15.481168733040979
20
17.48760936652986
30
0
0
SPLINE
5
117
100
AcDbEntity
8
0
100
AcDbSpline
70
0
71
3
72
8
73
4
74
0
42
0.000000001
43
0.0000000001
44
0.0000000001
40
-1
40
-1
40
-1
40
-1
40
0
40
0
40
0
40
0
10
15.481168733040979
20
17.48760936652986
30
0
10
15.605989480475467
20
16.343717393011499
30
0
10
15.622895386071413
20
15.43171393016298
30
0
10
15.528631884669263
20
14.927354413217264
30
0
0
SPLINE
5
118
100
AcDbEntity
8
0
100
AcDbSpline
70
0
71
3
72
8
73
4
74
0
42
0.000000001
43
0.0000000001
44
0.0000000001
40
-1
40
-1
40
-1
40
-1
40
0
40
0
40
0
40
0
10
15.528631884669263
20
14.927354413217264
30
0
10
15.506863450670544
20
14.810870702561372
30
0
10
15.513265581587149
20
14.786727476268146
30
0
10
15.555506567932012
20
14.826031923455346
30
0
0
SPLINE
5
119
100
AcDbEntity
8
0
100
AcDbSpline
70
0
71
3
72
8
73
4
74
0
42
0.000000001
43
0.0000000001
44
0.0000000001
40
-1
40
-1
40
-1
40
-1
40
0
40
0
40
0
40
0
10
15.555506567932012
20
14.826031923455346
30
0
10
15.653687436348132
20
14.917391579961709
30
0
10
15.748839627232202
20
15.370227912395164
30
0
10
15.778650849652623
20
15.887998021121627
30
0
0
SPLINE
5
120
100
AcDbEntity
8
0
100
AcDbSpline
70
0
71
3
72
8
73
4
74
0
42
0.000000001
43
0.0000000001
44
0.0000000001
40
-1
40
-1
40
-1
40
-1
40
0
40
0
40
0
40
0
10
15.778650849652623
20
15.887998021121627
30
0
10
15.794623482682267
20
16.165441527408401
30
0
10
15.816929885899143
20
16.383203144741827
30
0
10
15.82822426727477
20
16.371911735571825
30
0
0
SPLINE
5
121
100
AcDbEntity
8
0
100
AcDbSpline
70
0
71
3
72
8
73
4
74
0
42
0.000000001
43
0.0000000001
44
0.0000000001
40
-1
40
-1
40
-1
40
-1
40
0
40
0
40
0
40
0
10
15.82822426727477
20
16.371911735571825
30
0
10
15.904241398344023
20
16.295894604502571
30
0
10
15.931588662301175
20
15.917396106960148
30
0
10
15.885641335541733
20
15.577161784636109
30
0
0
SPLINE
5
122
100
AcDbEntity
8
0
100
AcDbSpline
70
0
71
3
72
8
73
4
74
0
42
0.000000001
43
0.0000000001
44
0.0000000001
40
-1
40
-1
40
-1
40
-1
40
0
40
0
40
0
40
0
10
15.885641335541733
20
15.577161784636109
30
0
10
15.748818821792833
20
14.563975525690063
30
0
10
15.432148145665115
20
13.737220864582557
30
0
10
14.827536132982539
20
12.8147017382322
30
0
0
SPLINE
5
123
100
AcDbEntity
8
0
100
AcDbSpline
70
0
71
3
72
8
73
4
74
0
42
0.000000001
43
0.0000000001
44
0.0000000001
40
-1
40
-1
40
-1
40
-1
40
0
40
0
40
0
40
0
10
14.827536132982539
20
12.8147017382322
30
0
10
14.578001637516083
20
12.433965169854027
30
0
10
14.501642702799934
20
12.273103457008778
30
0
10
14.448365916968831
20
12.015933365291266
30
0
0
SPLINE
5
124
100
AcDbEntity
8
0
100
AcDbSpline
70
0
71
3
72
8
73
4
74
0
42
0.000000001
43
0.0000000001
44
0.0000000001
40
-1
40
-1
40
-1
40
-1
40
0
40
0
40
0
40
0
10
14.448365916968831
20
12.015933365291266
30
0
10
14.411671066320524
20
11.838825576498859
30
0
10
14.330348548210349
20
11.577910505693636
30
0
10
14.267646898341846
20
11.436127380756329
30
0
0
SPLINE
5
125
100
AcDbEntity
8
0
100
AcDbSpline
70
0
71
3
72
8
73
4
74
0
42
0.000000001
43
0.0000000001
44
0.0000000001
40
-1
40
-1
40
-1
40
-1
40
0
40
0
40
0
40
0
10
14.267646898341846
20
11.436127380756329
30
0
10
14.129697918661002
20
11.124206289217629
30
0
10
14.128696285365319
20
11.091749803790814
30
0
10
14.247373483772586
20
10.779510686250223
30
0
0
SPLINE
5
126
100
AcDbEntity
8
0
100
AcDbSpline
70
0
71
3
72
8
73
4
74
0
42
0.000000001
43
0.0000000001
44
0.0000000001
40
-1
40
-1
40
-1
40
-1
40
0
40
0
40
0
40
0
10
14.247373483772586
20
10.779510686250223
30
0
10
14.363241947864067
20
10.474651555276916
30
0
10
14.367768617031194
20
10.058902404634281
30
0
10
14.257832675367546
20
9.81874819012085
30
0
0
SPLINE
5
127
100
AcDbEntity
8
0
100
AcDbSpline
70
0
71
3
72
8
73
4
74
0
42
0.000000001
43
0.0000000001
44
0.0000000001
40
-1
40
-1
40
-1
40
-1
40
0
40
0
40
0
40
0
10
14.257832675367546
20
9.81874819012085
30
0
10
14.00532002986467
20
9.2671395203518667
30
0
10
13.105538276546829
20
8.7143776348003179
30
0
10
12.255995714911183
20
8.5889654184464277
30
0
0
SPLINE
5
128
100
AcDbEntity
8
0
100
AcDbSpline
70
0
71
3
72
8
73
4
74
0
42
0.000000001
43
0.0000000001
44
0.0000000001
40
-1
40
-1
40
-1
40
-1
40
0
40
0
40
0
40
0
10
12.255995714911183
20
8.5889654184464277
30
0
10
11.99829062618114
20
8.5509211864443007
30
0
10
11.67147581225473
20
8.519178030367522
30
0
10
11.529737270401803
20
8.5184765898399828
30
0
0
SPLINE
5
129
100
AcDbEntity
8
0
100
AcDbSpline
70
0
71
3
72
8
73
4
74
0
42
0.000000001
43
0.0000000001
44
0.0000000001
40
-1
40
-1
40
-1
40
-1
40
0
40
0
40
0
40
0
10
11.529737270401803
20
8.5184765898399828
30
0
10
11.346655348302811
20
8.5175373728624315
30
0
10
11.238113371077361
20
8.4906240509265487
30
0
10
11.154894585778333
20
8.4255297755297853
30
0
0
SPLINE
5
130
100
AcDbEntity
8
0
100
AcDbSpline
70
0
71
3
72
8
73
4
74
0
42
0.000000001
43
0.0000000001
44
0.0000000001
40
-1
40
-1
40
-1
40
-1
40
0
40
0
40
0
40
0
10
11.154894585778333
20
8.4255297755297853
30
0
10
11.012341659584107
20
8.314024509296047
30
0
10
10.904474373035573
20
8.3078007107169487
30
0
10
10.80682552942636
20
8.4054495543261609
30
0
0
SPLINE
5
131
100
AcDbEntity
8
0
100
AcDbSpline
70
0
71
3
72
8
73
4
74
0
42
0.000000001
43
0.0000000001
44
0.0000000001
40
-1
40
-1
40
-1
40
-1
40
0
40
0
40
0
40
0
10
10.80682552942636
20
8.4054495543261609
30
0
10
10.696538867498941
20
8.5157362162535808
30
0
10
10.714633655344953
20
8.5547226374388856
30
0
10
10.926192279538663
20
8.6626523403055486
30
0
0
SPLINE
5
132
100
AcDbEntity
8
0
100
AcDbSpline
70
0
71
3
72
8
73
4
74
0
42
0.000000001
43
0.0000000001
44
0.0000000001
40
-1
40
-1
40
-1
40
-1
40
0
40
0
40
0
40
0
10
10.926192279538663
20
8.6626523403055486
30
0
10
11.068540123544752
20
8.7352692681396107
30
0
10
11.10542816755869
20
8.7748709358893286
30
0
10
11.066756800169651
20
8.8135423032783642
30
0
0
SPLINE
5
133
100
AcDbEntity
8
0
100
AcDbSpline
70
0
71
3
72
8
73
4
74
0
42
0.000000001
43
0.0000000001
44
0.0000000001
40
-1
40
-1
40
-1
40
-1
40
0
40
0
40
0
40
0
10
11.066756800169651
20
8.8135423032783642
30
0
10
10.967274105689711
20
8.9130249977583063
30
0
10
11.010808001481523
20
9.0905488953382374
30
0
10
11.171958018272411
20
9.242532629981115
30
0
0
SPLINE
5
134
100
AcDbEntity
8
0
100
AcDbSpline
70
0
71
3
72
8
73
4
74
0
42
0.000000001
43
0.0000000001
44
0.0000000001
40
-1
40
-1
40
-1
40
-1
40
0
40
0
40
0
40
0
10
11.171958018272411
20
9.242532629981115
30
0
10
11.352002346222484
20
9.4123377095524869
30
0
10
11.843477351783102
20
9.6810459035068952
30
0
10
12.255992742705558
20
9.8352171814898952
30
0
0
SPLINE
5
135
100
AcDbEntity
8
0
100
AcDbSpline
70
0
71
3
72
8
73
4
74
0
42
0.000000001
43
0.0000000001
44
0.0000000001
40
-1
40
-1
40
-1
40
-1
40
0
40
0
40
0
40
0
10
12.255992742705558
20
9.8352171814898952
30
0
10
12.558227416111839
20
9.9481728840687165
30
0
10
12.719044545872713
20
10.0922683849824
30
0
10
12.956464331210993
20
10.462854871150633
30
0
0
SPLINE
5
136
100
AcDbEntity
8
0
100
AcDbSpline
70
0
71
3
72
8
73
4
74
0
42
0.000000001
43
0.0000000001
44
0.0000000001
40
-1
40
-1
40
-1
40
-1
40
0
40
0
40
0
40
0
10
12.956464331210993
20
10.462854871150633
30
0
10
13.039326451835006
20
10.592193371135368
30
0
10
13.28280062003175
20
10.856151980500758
30
0
10
13.497515726599387
20
11.049431540099695
30
0
0
SPLINE
5
137
100
AcDbEntity
8
0
100
AcDbSpline
70
0
71
3
72
8
73
4
74
0
42
0.000000001
43
0.0000000001
44
0.0000000001
40
-1
40
-1
40
-1
40
-1
40
0
40
0
40
0
40
0
10
13.497515726599387
20
11.049431540099695
30
0
10
13.741301976386774
20
11.268878398022599
30
0
10
13.919678896981123
20
11.472569593926492
30
0
10
13.972506879762832
20
11.591841233458791
30
0
0
SPLINE
5
138
100
AcDbEntity
8
0
100
AcDbSpline
70
0
71
3
72
8
73
4
74
0
42
0.000000001
43
0.0000000001
44
0.0000000001
40
-1
40
-1
40
-1
40
-1
40
0
40
0
40
0
40
0
10
13.972506879762832
20
11.591841233458791
30
0
10
14.143370064536766
20
11.977580023904121
30
0
10
14.490217544376792
20
13.758787188598767
30
0
10
14.551183426160204
20
14.563583194547538
30
0
0
SPLINE
5
139
100
AcDbEntity
8
0
100
AcDbSpline
70
0
71
3
72
8
73
4
74
0
42
0.000000001
43
0.0000000001
44
0.0000000001
40
-1
40
-1
40
-1
40
-1
40
0
40
0
40
0
40
0
10
14.551183426160204
20
14.563583194547538
30
0
10
14.624721737738067
20
15.534362023633717
30
0
10
14.335832267588776
20
16.948861430500976
30
0
10
14.036138829992014
20
17.085410501332362
30
0
0
SPLINE
5
140
100
AcDbEntity
8
0
100
AcDbSpline
70
0
71
3
72
8
73
4
74
0
42
0.000000001
43
0.0000000001
44
0.0000000001
40
-1
40
-1
40
-1
40
-1
40
0
40
0
40
0
40
0
10
14.036138829992014
20
17.085410501332362
30
0
10
13.758644796209619
20
17.211845156421315
30
0
10
12.889146846006602
20
17.257718178040129
30
0
10
10.850332675367547
20
17.25349467384677
30
0
0
SPLINE
5
141
100
AcDbEntity
8
0
100
AcDbSpline
70
0
71
3
72
8
73
4
74
0
42
0.000000001
43
0.0000000001
44
0.0000000001
40
-1
40
-1
40
-1
40
-1
40
0
40
0
40
0
40
0
10
10.850332675367547
20
17.25349467384677
30
0
10
8.5198381334971724
20
17.248661867500246
30
0
10
8.5844568559939098
20
17.258211564173909
30
0
10
8.3666060724917219
20
16.886477806634364
30
0
0
SPLINE
5
142
100
AcDbEntity
8
0
100
AcDbSpline
70
0
71
3
72
8
73
4
74
0
42
0.000000001
43
0.0000000001
44
0.0000000001
40
-1
40
-1
40
-1
40
-1
40
0
40
0
40
0
40
0
10
8.3666060724917219
20
16.886477806634364
30
0
10
8.1236966233637613
20
16.471982926765548
30
0
10
7.9218749447980938
20
15.451877373124105
30
0
10
7.9218749447980938
20
14.638586803498612
30
0
0
SPLINE
5
143
100
AcDbEntity
8
0
100
AcDbSpline
70
0
71
3
72
8
73
4
74
0
42
0.000000001
43
0.0000000001
44
0.0000000001
40
-1
40
-1
40
-1
40
-1
40
0
40
0
40
0
40
0
10
7.9218749447980938
20
14.638586803498612
30
0
10
7.9218749447980938
20
13.838653325952608
30
0
10
8.1429238215529587
20
12.943627101635039
30
0
10
8.5305796846265203
20
12.173959593970109
30
0
0
SPLINE
5
144
100
AcDbEntity
8
0
100
AcDbSpline
70
0
71
3
72
8
73
4
74
0
42
0.000000001
43
0.0000000001
44
0.0000000001
40
-1
40
-1
40
-1
40
-1
40
0
40
0
40
0
40
0
10
8.5305796846265203
20
12.173959593970109
30
0
10
8.6820908385749984
20
11.873136718235777
30
0
10
8.7149247941162074
20
11.750438125617665
30
0
10
8.7586399944511548
20
11.321712325215552
30
0
0
SPLINE
5
145
100
AcDbEntity
8
0
100
AcDbSpline
70
0
71
3
72
8
73
4
74
0
42
0.000000001
43
0.0000000001
44
0.0000000001
40
-1
40
-1
40
-1
40
-1
40
0
40
0
40
0
40
0
10
8.7586399944511548
20
11.321712325215552
30
0
10
8.8400308732907078
20
10.523455171642148
30
0
10
8.9343062635153565
20
10.179799840643549
30
0
10
9.1319163267101633
20
9.9610722564819358
30
0
0
SPLINE
5
146
100
AcDbEntity
8
0
100
AcDbSpline
70
0
71
3
72
8
73
4
74
0
42
0.000000001
43
0.0000000001
44
0.0000000001
40
-1
40
-1
40
-1
40
-1
40
0
40
0
40
0
40
0
10
9.1319163267101633
20
9.9610722564819358
30
0
10
9.2983747027475978
20
9.7768222575722543
30
0
10
9.3022653199109406
20
9.7753450713765471
30
0
10
9.3664917112651587
20
9.8720755034475829
30
0
0
SPLINE
5
147
100
AcDbEntity
8
0
100
AcDbSpline
70
0
71
3
72
8
73
4
74
0
42
0.000000001
43
0.0000000001
44
0.0000000001
40
-1
40
-1
40
-1
40
-1
40
0
40
0
40
0
40
0
10
9.3664917112651587
20
9.8720755034475829
30
0
10
9.4310599062662703
20
9.9693230992973962
30
0
10
9.4341242502658176
20
9.9683868545254697
30
0
10
9.6373815041484381
20
9.7894749369185856
30
0
0
SPLINE
5
148
100
AcDbEntity
8
0
100
AcDbSpline
70
0
71
3
72
8
73
4
74
0
42
0.000000001
43
0.0000000001
44
0.0000000001
40
-1
40
-1
40
-1
40
-1
40
0
40
0
40
0
40
0
10
9.6373815041484381
20
9.7894749369185856
30
0
10
9.750450150541015
20
9.6899446871486425
30
0
10
9.9905538375588208
20
9.5309584360528756
30
0
10
10.170939969155787
20
9.4361658820494476
30
0
0
SPLINE
5
149
100
AcDbEntity
8
0
100
AcDbSpline
70
0
71
3
72
8
73
4
74
0
42
0.000000001
43
0.0000000001
44
0.0000000001
40
-1
40
-1
40
-1
40
-1
40
0
40
0
40
0
40
0
10
10.170939969155787
20
9.4361658820494476
30
0
10
10.351329072958379
20
9.3413733280460178
30
0
10
10.49891988768726
20
9.2454126972319006
30
0
10
10.49891988768726
20
9.2229190450606424
30
0
0
SPLINE
5
150
100
AcDbEntity
8
0
100
AcDbSpline
70
0
71
3
72
8
73
4
74
0
42
0.000000001
43
0.0000000001
44
0.0000000001
40
-1
40
-1
40
-1
40
-1
40
0
40
0
40
0
40
0
10
10.49891988768726
20
9.2229190450606424
30
0
10
10.49891988768726
20
9.2004253928893824
30
0
10
10.380765797470026
20
9.1261261966714766
30
0
10
10.236358214965696
20
9.0578100503770305
30
0
0
SPLINE
5
151
100
AcDbEntity
8
0
100
AcDbSpline
70
0
71
3
72
8
73
4
74
0
42
0.000000001
43
0.0000000001
44
0.0000000001
40
-1
40
-1
40
-1
40
-1
40
0
40
0
40
0
40
0
10
10.236358214965696
20
9.0578100503770305
30
0
10
9.9111721697218815
20
8.9039716594240499
30
0
10
9.8230016898513242
20
8.9312357016237005
30
0
10
9.4504267981198549
20
9.300853248758127
30
0
0
SPLINE
5
152
100
AcDbEntity
8
0
100
AcDbSpline
70
0
71
3
72
8
73
4
74
0
42
0.000000001
43
0.0000000001
44
0.0000000001
40
-1
40
-1
40
-1
40
-1
40
0
40
0
40
0
40
0
10
9.4504267981198549
20
9.300853248758127
30
0
10
8.9757596153695509
20
9.7717487025700951
30
0
10
8.7836837990488057
20
10.128686820507561
30
0
10
8.6733703872707615
20
10.744869629688909
30
0
0
SPLINE
5
153
100
AcDbEntity
8
0
100
AcDbSpline
70
0
71
3
72
8
73
4
74
0
42
0.000000001
43
0.0000000001
44
0.0000000001
40
-1
40
-1
40
-1
40
-1
40
0
40
0
40
0
40
0
10
8.6733703872707615
20
10.744869629688909
30
0
10
8.5403136580489409
20
11.488087479495483
30
0
10
8.5226557844298299
20
11.564841717559784
30
0
10
8.4847244962414567
20
11.564841717559784
30
0
0
SPLINE
5
154
100
AcDbEntity
8
0
100
AcDbSpline
70
0
71
3
72
8
73
4
74
0
42
0.000000001
43
0.0000000001
44
0.0000000001
40
-1
40
-1
40
-1
40
-1
40
0
40
0
40
0
40
0
10
8.4847244962414567
20
11.564841717559784
30
0
10
8.4629263401864883
20
11.564841717559784
30
0
10
8.4376625923725737
20
11.542550175371034
30
0
10
8.4285825041876912
20
11.515303966405133
30
0
0
SPLINE
5
155
100
AcDbEntity
8
0
100
AcDbSpline
70
0
71
3
72
8
73
4
74
0
42
0.000000001
43
0.0000000001
44
0.0000000001
40
-1
40
-1
40
-1
40
-1
40
0
40
0
40
0
40
0
10
8.4285825041876912
20
11.515303966405133
30
0
10
8.4020436801605811
20
11.435690466529429
30
0
10
8.2616069643714738
20
11.515110773039497
30
0
10
8.2316917147541755
20
11.626651705740738
30
0
0
SPLINE
5
156
100
AcDbEntity
8
0
100
AcDbSpline
70
0
71
3
72
8
73
4
74
0
42
0.000000001
43
0.0000000001
44
0.0000000001
40
-1
40
-1
40
-1
40
-1
40
0
40
0
40
0
40
0
10
8.2316917147541755
20
11.626651705740738
30
0
10
8.2166196600289574
20
11.68285016970138
30
0
10
8.2040234525895031
20
11.838156830233196
30
0
10
8.2036489546807321
20
11.971775306318172
30
0
0
SPLINE
5
157
100
AcDbEntity
8
0
100
AcDbSpline
70
0
71
3
72
8
73
4
74
0
42
0.000000001
43
0.0000000001
44
0.0000000001
40
-1
40
-1
40
-1
40
-1
40
0
40
0
40
0
40
0
10
8.2036489546807321
20
11.971775306318172
30
0
10
8.2027572929931836
20
12.310175777771477
30
0
10
8.140052670919049
20
12.455091607437708
30
0
10
7.9945215946884067
20
12.455091607437708
30
0
0
SPLINE
5
158
100
AcDbEntity
8
0
100
AcDbSpline
70
0
71
3
72
8
73
4
74
0
42
0.000000001
43
0.0000000001
44
0.0000000001
40
-1
40
-1
40
-1
40
-1
40
0
40
0
40
0
40
0
10
7.9945215946884067
20
12.455091607437708
30
0
10
7.8699326792926882
20
12.455091607437708
30
0
10
7.7916953106214359
20
12.567381535956489
30
0
10
7.6561865117588566
20
12.940684618066125
30
0
0
SPLINE
5
159
100
AcDbEntity
8
0
100
AcDbSpline
70
0
71
3
72
8
73
4
74
0
42
0.000000001
43
0.0000000001
44
0.0000000001
40
-1
40
-1
40
-1
40
-1
40
0
40
0
40
0
40
0
10
7.6561865117588566
20
12.940684618066125
30
0
10
7.4098471373394483
20
13.619304550815338
30
0
10
6.9436953237052474
20
15.55306314142727
30
0
10
6.8417189487057923
20
16.319375028941387
30
0
0
SPLINE
5
160
100
AcDbEntity
8
0
100
AcDbSpline
70
0
71
3
72
8
73
4
74
0
42
0.000000001
43
0.0000000001
44
0.0000000001
40
-1
40
-1
40
-1
40
-1
40
0
40
0
40
0
40
0
10
6.8417189487057923
20
16.319375028941387
30
0
10
6.7468580339729849
20
17.032213965053138
30
0
10
6.8624173886794502
20
17.572248866117725
30
0
10
7.1846104228587233
20
17.92178916425415
30
0
0
SPLINE
5
161
100
AcDbEntity
8
0
100
AcDbSpline
70
0
71
3
72
8
73
4
74
0
42
0.000000001
43
0.0000000001
44
0.0000000001
40
-1
40
-1
40
-1
40
-1
40
0
40
0
40
0
40
0
10
7.1846104228587233
20
17.92178916425415
30
0
10
7.2910718561465568
20
18.037286102642494
30
0
10
7.4344272778595748
20
18.16087338474253
30
0
10
7.5031773661752954
20
18.196423936225145
30
0
0
SPLINE
5
162
100
AcDbEntity
8
0
100
AcDbSpline
70
0
71
3
72
8
73
4
74
0
42
0.000000001
43
0.0000000001
44
0.0000000001
40
-1
40
-1
40
-1
40
-1
40
0
40
0
40
0
40
0
10
7.5031773661752954
20
18.196423936225145
30
0
10
7.6117906763357466
20
18.25258970592391
30
0
10
7.6324237277856515
20
18.299722942727794
30
0
10
7.6605645706447252
20
18.555956789673377
30
0
0
SPLINE
5
163
100
AcDbEntity
8
0
100
AcDbSpline
70
0
71
3
72
8
73
4
74
0
42
0.000000001
43
0.0000000001
44
0.0000000001
40
-1
40
-1
40
-1
40
-1
40
0
40
0
40
0
40
0
10
7.6605645706447252
20
18.555956789673377
30
0
10
7.6783799711619709
20
18.718147078433081
30
0
10
7.7118886173800973
20
18.924644036447134
30
0
10
7.7350302103776416
20
19.014841560554054
30
0
0
SPLINE
5
164
100
AcDbEntity
8
0
100
AcDbSpline
70
0
71
3
72
8
73
4
74
0
42
0.000000001
43
0.0000000001
44
0.0000000001
40
-1
40
-1
40
-1
40
-1
40
0
40
0
40
0
40
0
10
7.7350302103776416
20
19.014841560554054
30
0
10
7.7581718033751867
20
19.105039084660977
30
0
10
7.8643211550723731
20
19.526735618759563
30
0
10
7.9709163376133381
20
19.951948272112727
30
0
0
SPLINE
5
165
100
AcDbEntity
8
0
100
AcDbSpline
70
0
71
3
72
8
73
4
74
0
42
0.000000001
43
0.0000000001
44
0.0000000001
40
-1
40
-1
40
-1
40
-1
40
0
40
0
40
0
40
0
10
7.9709163376133381
20
19.951948272112727
30
0
10
8.189189174314297
20
20.822646993388307
30
0
10
8.32622271466259
20
21.111158993423199
30
0
10
8.6621859775032579
20
21.407348200587897
30
0
0
SPLINE
5
166
100
AcDbEntity
8
0
100
AcDbSpline
70
0
71
3
72
8
73
4
74
0
42
0.000000001
43
0.0000000001
44
0.0000000001
40
-1
40
-1
40
-1
40
-1
40
0
40
0
40
0
40
0
10
8.6621859775032579
20
21.407348200587897
30
0
10
9.0602772545267776
20
21.758312185218781
30
0
10
9.6101234063600387
20
21.957426184459916
30
0
10
10.299785083006748
20
22.00036861133232
30
0
0
LINE
5
167
100
AcDbEntity
8
0
100
AcDbLine
10
10.299785083006748
20
22.00036861133232
30
0
11
10.733198051679743
21
22.027353266203207
31
0
0
LINE
5
168
100
AcDbEntity
8
0
100
AcDbLine
10
10.733198051679743
20
22.027353266203207
30
0
11
10.730368511924585
21
21.821334833294802
31
0
0
SPLINE
5
169
100
AcDbEntity
8
0
100
AcDbSpline
70
0
71
3
72
8
73
4
74
0
42
0.000000001
43
0.0000000001
44
0.0000000001
40
-1
40
-1
40
-1
40
-1
40
0
40
0
40
0
40
0
10
10.730368511924585
20
21.821334833294802
30
0
10
10.728811076176996
20
21.708022466040966
30
0
10
10.700215485857273
20
20.729747734368114
30
0
10
10.666819783452903
20
19.647389333907562
30
0
0
SPLINE
5
170
100
AcDbEntity
8
0
100
AcDbSpline
70
0
71
3
72
8
73
4
74
0
42
0.000000001
43
0.0000000001
44
0.0000000001
40
-1
40
-1
40
-1
40
-1
40
0
40
0
40
0
40
0
10
10.666819783452903
20
19.647389333907562
30
0
10
10.63342110884291
20
18.565030933447012
30
0
10
10.609554297672823
20
17.674730516073456
30
0
10
10.61378077407181
20
17.668949576132508
30
0
0
SPLINE
5
171
100
AcDbEntity
8
0
100
AcDbSpline
70
0
71
3
72
8
73
4
74
0
42
0.000000001
43
0.0000000001
44
0.0000000001
40
-1
40
-1
40
-1
40
-1
40
0
40
0
40
0
40
0
10
10.61378077407181
20
17.668949576132508
30
0
10
10.618010222676423
20
17.663168636191561
30
0
10
10.977100217486511
20
17.652626222839093
30
0
10
11.411761512522078
20
17.645522651394948
30
0
0
LINE
5
172
100
AcDbEntity
8
0
100
AcDbLine
10
11.411761512522078
20
17.645522651394945
30
0
11
12.202056127225664
21
17.632608417953602
31
0
0
LINE
5
173
100
AcDbEntity
8
0
100
AcDbLine
10
12.202056127225664
20
17.632608417953602
30
0
11
12.190809301140035
21
17.937167356158763
31
0
0
SPLINE
5
174
100
AcDbEntity
8
0
100
AcDbSpline
70
0
71
3
72
8
73
4
74
0
42
0.000000001
43
0.0000000001
44
0.0000000001
40
-1
40
-1
40
-1
40
-1
40
0
40
0
40
0
40
0
10
12.190809301140035
20
17.937167356158763
30
0
10
12.184621169028439
20
18.104677892987514
30
0
10
12.131481104656093
20
19.085125306972358
30
0
10
12.07271762724093
20
20.1159426896869
30
0
0
SPLINE
5
175
100
AcDbEntity
8
0
100
AcDbSpline
70
0
71
3
72
8
73
4
74
0
42
0.000000001
43
0.0000000001
44
0.0000000001
40
-1
40
-1
40
-1
40
-1
40
0
40
0
40
0
40
0
10
12.07271762724093
20
20.1159426896869
30
0
10
12.013951177620143
20
21.146760072401442
30
0
10
11.973145766592234
20
21.998921147192867
30
0
10
11.98203860582273
20
22.009638920677212
30
0
0
SPLINE
5
176
100
AcDbEntity
8
0
100
AcDbSpline
70
0
71
3
72
8
73
4
74
0
42
0.000000001
43
0.0000000001
44
0.0000000001
40
-1
40
-1
40
-1
40
-1
40
0
40
0
40
0
40
0
10
11.98203860582273
20
22.009638920677212
30
0
10
12.015571029685857
20
22.050040111740099
30
0
10
12.973720957070705
20
21.918918288380262
30
0
10
13.327814674224896
20
21.82547214352504
30
0
0
SPLINE
5
177
100
AcDbEntity
8
0
100
AcDbSpline
70
0
71
3
72
8
73
4
74
0
42
0.000000001
43
0.0000000001
44
0.0000000001
40
-1
40
-1
40
-1
40
-1
40
0
40
0
40
0
40
0
10
13.327814674224896
20
21.82547214352504
30
0
10
13.890048979103844
20
21.677093694305483
30
0
10
14.109537447905499
20
21.546278008125043
30
0
10
14.36382747237222
20
21.207996424896741
30
0
0
SPLINE
5
178
100
AcDbEntity
8
0
100
AcDbSpline
70
0
71
3
72
8
73
4
74
0
42
0.000000001
43
0.0000000001
44
0.0000000001
40
-1
40
-1
40
-1
40
-1
40
0
40
0
40
0
40
0
10
14.36382747237222
20
21.207996424896741
30
0
10
14.598970548201628
20
20.895189616081741
30
0
10
14.831854747755907
20
20.473980523705681
30
0
10
14.791804276956787
20
20.433930052906561
30
0
0
SPLINE
5
179
100
AcDbEntity
8
0
100
AcDbSpline
70
0
71
3
72
8
73
4
74
0
42
0.000000001
43
0.0000000001
44
0.0000000001
40
-1
40
-1
40
-1
40
-1
40
0
40
0
40
0
40
0
10
14.791804276956787
20
20.433930052906561
30
0
10
14.778542295457299
20
20.420671043612696
30
0
10
14.708600352685885
20
20.456402899638451
30
0
10
14.636372783788719
20
20.513341442799753
30
0
0
SPLINE
5
180
100
AcDbEntity
8
0
100
AcDbSpline
70
0
71
3
72
8
73
4
74
0
42
0.000000001
43
0.0000000001
44
0.0000000001
40
-1
40
-1
40
-1
40
-1
40
0
40
0
40
0
40
0
10
14.636372783788719
20
20.513341442799753
30
0
10
14.451462955230252
20
20.659110295480414
30
0
10
14.4411702071503
20
20.552405141331313
30
0
10
14.601488006366141
20
20.151674545712652
30
0
0
SPLINE
5
181
100
AcDbEntity
8
0
100
AcDbSpline
70
0
71
3
72
8
73
4
74
0
42
0.000000001
43
0.0000000001
44
0.0000000001
40
-1
40
-1
40
-1
40
-1
40
0
40
0
40
0
40
0
10
14.601488006366141
20
20.151674545712652
30
0
10
14.756423141194812
20
19.764396152753484
30
0
10
14.880057978584853
20
19.174315253372352
30
0
10
14.973334707719447
20
18.376917067224621
30
0
0
SPLINE
5
182
100
AcDbEntity
8
0
100
AcDbSpline
70
0
71
3
72
8
73
4
74
0
42
0.000000001
43
0.0000000001
44
0.0000000001
40
-1
40
-1
40
-1
40
-1
40
0
40
0
40
0
40
0
10
14.973334707719447
20
18.376917067224621
30
0
10
15.084007756378139
20
17.430807544827314
30
0
10
15.060571915023703
20
14.983110018539753
30
0
10
14.929869172657011
20
13.837324750038158
30
0
0
LINE
5
183
100
AcDbEntity
8
0
100
AcDbLine
10
14.929869172657007
20
13.837324750038155
30
0
11
14.908490097595189
21
13.649903407726423
31
0
0
LINE
5
184
100
AcDbEntity
8
0
100
AcDbLine
10
14.908490097595189
20
13.649903407726423
30
0
11
14.977531462062178
21
13.805135763117608
31
0
0
SPLINE
5
185
100
AcDbEntity
8
0
100
AcDbSpline
70
0
71
3
72
8
73
4
74
0
42
0.000000001
43
0.0000000001
44
0.0000000001
40
-1
40
-1
40
-1
40
-1
40
0
40
0
40
0
40
0
10
14.977531462062178
20
13.805135763117608
30
0
10
15.133976477348433
20
14.156899271061661
30
0
10
15.189610222240296
20
14.591040430112823
30
0
10
15.216591904905552
20
15.670616846108217
30
0
0
SPLINE
5
186
100
AcDbEntity
8
0
100
AcDbSpline
70
0
71
3
72
8
73
4
74
0
42
0.000000001
43
0.0000000001
44
0.0000000001
40
-1
40
-1
40
-1
40
-1
40
0
40
0
40
0
40
0
10
15.216591904905552
20
15.670616846108217
30
0
10
15.248177534084197
20
16.934502705125798
30
0
10
15.145131165059682
20
18.306692764918814
30
0
10
14.925336559078632
20
19.549033105359563
30
0
0
SPLINE
5
187
100
AcDbEntity
8
0
100
AcDbSpline
70
0
71
3
72
8
73
4
74
0
42
0.000000001
43
0.0000000001
44
0.0000000001
40
-1
40
-1
40
-1
40
-1
40
0
40
0
40
0
40
0
10
14.925336559078632
20
19.549033105359563
30
0
10
14.847128912463635
20
19.991077359168045
30
0
10
14.839234734323195
20
20.186226436105212
30
0
10
14.899558619691568
20
20.186226436105212
30
0
0
LINE
5
188
100
AcDbEntity
8
0
100
AcDbLine
10
6.1794580357174924
20
18.696301367088104
30
0
11
6.5001144395885575
21
18.994695950826674
31
0
0
LINE
5
189
100
AcDbEntity
8
0
100
AcDbLine
10
6.5001144395885575
20
18.994695950826674
30
0
11
6.8207738156652464
21
19.29309350677087
31
0
0
LINE
5
190
100
AcDbEntity
8
0
100
AcDbLine
10
6.8207738156652464
20
19.29309350677087
30
0
11
7.1123620485221819
21
18.978259653719505
31
0
0
SPLINE
5
191
100
AcDbEntity
8
0
100
AcDbSpline
70
0
71
3
72
8
73
4
74
0
42
0.000000001
43
0.0000000001
44
0.0000000001
40
-1
40
-1
40
-1
40
-1
40
0
40
0
40
0
40
0
10
7.1123620485221819
20
18.978259653719505
30
0
10
7.3389184223004822
20
18.733641186357069
30
0
10
7.4042237242966351
20
18.630731538791309
30
0
10
7.4052075243585644
20
18.516830674823694
30
0
0
SPLINE
5
192
100
AcDbEntity
8
0
100
AcDbSpline
70
0
71
3
72
8
73
4
74
0
42
0.000000001
43
0.0000000001
44
0.0000000001
40
-1
40
-1
40
-1
40
-1
40
0
40
0
40
0
40
0
10
7.4052075243585644
20
18.516830674823694
30
0
10
7.4062329352992489
20
18.39720831502763
30
0
10
7.3803063856309219
20
18.359401859475511
30
0
10
7.2642922834638064
20
18.311347238927823
30
0
0
SPLINE
5
193
100
AcDbEntity
8
0
100
AcDbSpline
70
0
71
3
72
8
73
4
74
0
42
0.000000001
43
0.0000000001
44
0.0000000001
40
-1
40
-1
40
-1
40
-1
40
0
40
0
40
0
40
0
10
7.2642922834638064
20
18.311347238927823
30
0
10
7.1860965256713074
20
18.278956142024761
30
0
10
7.0399412862593813
20
18.159098977984304
30
0
10
6.9395045137737617
20
18.044996004034168
30
0
0
LINE
5
194
100
AcDbEntity
8
0
100
AcDbLine
10
6.9395045137737625
20
18.044996004034164
30
0
11
6.7568892279579202
21
17.837536051397567
31
0
0
LINE
5
195
100
AcDbEntity
8
0
100
AcDbLine
10
6.7568892279579202
20
17.837536051397567
30
0
11
6.46817511794052
21
18.266915737037209
31
0
0
LINE
5
196
100
AcDbEntity
8
0
100
AcDbLine
10
6.46817511794052
20
18.266915737037209
30
0
11
6.1794580357174924
21
18.696301367088104
31
0
0
LINE
5
197
100
AcDbEntity
8
0
100
AcDbLine
10
10.405209216531393
20
23.325535405929578
30
0
11
10.405209216531393
21
25.583579463480898
31
0
0
LINE
5
198
100
AcDbEntity
8
0
100
AcDbLine
10
10.405209216531393
20
25.583579463480898
30
0
11
11.026110323224358
21
25.58332670057926
31
0
0
SPLINE
5
199
100
AcDbEntity
8
0
100
AcDbSpline
70
0
71
3
72
8
73
4
74
0
42
0.000000001
43
0.0000000001
44
0.0000000001
40
0
40
0
40
0
40
0
40
0.087678496354855445
40
0.087678496354855445
40
0.087678496354855445
40
0.087678496354855445
10
11.026110323224358
20
25.58332670057926
30
0
10
11.071952481936053
20
25.582667351330795
30
0
10
11.114782294439458
20
25.5819359818646
30
0
10
11.154894585777551
20
25.581094588984907
30
0
0
LINE
5
200
100
AcDbEntity
8
0
100
AcDbLine
10
11.154894585777551
20
25.581094588984904
30
0
11
11.154894585778024
21
23.32715730385431
31
0
0
SPLINE
5
201
100
AcDbEntity
8
0
100
AcDbSpline
70
0
71
3
72
8
73
4
74
0
42
0.000000001
43
0.0000000001
44
0.0000000001
40
-0.087716477042079494
40
-0.087716477042079494
40
-0.087716477042079494
40
-0.087716477042079494
40
0
40
0
40
0
40
0
10
11.154894585778024
20
23.32715730385431
30
0
10
11.114759810074126
20
23.326826159853773
30
0
10
11.071906907911705
20
23.326639752352424
30
0
10
11.026040210608627
20
23.326563788504632
30
0
0
LINE
5
202
100
AcDbEntity
8
0
100
AcDbLine
10
11.026040210608627
20
23.326563788504632
30
0
11
10.405209216531393
21
23.325535405929578
31
0
0
LWPOLYLINE
5
203
100
AcDbEntity
8
0
100
AcDbPolyline
90
10
70
1
43
0.0
10
6.7253503341515906
20
24.721259559531873
10
6.7253503341513596
20
24.498016701034263
10
6.8197763617545624
20
24.168931446332387
10
6.7253503341510195
20
24.168931446332387
10
6.7253503341504883
20
23.653524241077864
10
6.9426936904095662
20
23.653524241077928
10
7.0042242912617585
20
23.325535405929578
10
7.8790008786550718
20
23.325535405929578
10
7.0807032236350063
20
25.574591513670399
10
6.7253128408067981
20
25.574575898389696
0
LINE
5
204
100
AcDbEntity
8
0
100
AcDbLine
10
11.283006898626311
20
23.328925771760115
30
0
11
11.28300689797665
21
24.032302588014865
31
0
0
ARC
5
205
100
AcDbEntity
8
0
100
AcDbCircle
10
11.23109253471616
20
24.450243278240311
30
0
40
0.42115261088928713
210
-0
220
0
230
1
100
AcDbArc
50
-82.919291995325679
51
82.919292101185633
0
LINE
5
206
100
AcDbEntity
8
0
100
AcDbLine
10
11.28300689720446
20
24.868183968561674
30
0
11
11.283006896548024
21
25.577695519629916
31
0
0
SPLINE
5
207
100
AcDbEntity
8
0
100
AcDbSpline
70
0
71
3
72
8
73
4
74
0
42
0.000000001
43
0.0000000001
44
0.0000000001
40
0.18855849678877584
40
0.18855849678877584
40
0.18855849678877584
40
0.18855849678877584
40
1
40
1
40
1
40
1
10
11.283006896548024
20
25.577695519629916
30
0
10
11.599974273421141
20
25.567099952048604
30
0
10
11.713239401632892
20
25.543335786477197
30
0
10
11.856501220784459
20
25.476279033246342
30
0
0
SPLINE
5
208
100
AcDbEntity
8
0
100
AcDbSpline
70
0
71
3
72
8
73
4
74
0
42
0.000000001
43
0.0000000001
44
0.0000000001
40
0
40
0
40
0
40
0
40
1
40
1
40
1
40
1
10
11.856501220784308
20
25.476279033245504
30
0
10
12.30317963567337
20
25.274723633310106
30
0
10
12.532102530482828
20
24.928690482516167
30
0
10
12.535397184720749
20
24.45006197368274
30
0
0
SPLINE
5
209
100
AcDbEntity
8
0
100
AcDbSpline
70
0
71
3
72
8
73
4
74
0
42
0.000000001
43
0.0000000001
44
0.0000000001
40
-1
40
-1
40
-1
40
-1
40
0
40
0
40
0
40
0
10
12.535397184728158
20
24.450061973697185
30
0
10
12.532673594754662
20
23.971429874614476
30
0
10
12.304163722444947
20
23.625123837310309
30
0
10
11.857726105550151
20
23.423035639257538
30
0
0
SPLINE
5
210
100
AcDbEntity
8
0
100
AcDbSpline
70
0
71
3
72
8
73
4
74
0
42
0.000000001
43
0.0000000001
44
0.0000000001
40
-1
40
-1
40
-1
40
-1
40
-0.18857492376217178
40
-0.18857492376217178
40
-0.18857492376217178
40
-0.18857492376217178
10
11.857726105550013
20
23.423035639257272
30
0
10
11.713625472475902
20
23.357808716160189
30
0
10
11.600068785027821
20
23.33548741475175
30
0
10
11.283006898626311
20
23.328925771760115
30
0
0
SPLINE
5
211
100
AcDbEntity
8
0
100
AcDbSpline
70
0
71
3
72
8
73
4
74
0
42
0.000000001
43
0.0000000001
44
0.0000000001
40
-1
40
-1
40
-1
40
-1
40
0
40
0
40
0
40
0
10
17.257804645484121
20
10.093665321626229
30
0
10
16.764795981820914
20
10.003182465779291
30
0
10
16.057274321572585
20
10.002255137624241
30
0
10
15.688622741266332
20
10.091605583127988
30
0
0
SPLINE
5
212
100
AcDbEntity
8
0
100
AcDbSpline
70
0
71
3
72
8
73
4
74
0
42
0.000000001
43
0.0000000001
44
0.0000000001
40
-1
40
-1
40
-1
40
-1
40
0
40
0
40
0
40
0
10
15.688622741266332
20
10.091605583127988
30
0
10
15.138229703598043
20
10.225007088202327
30
0
10
14.647560165761851
20
10.554589025565765
30
0
10
14.486083206352189
20
10.899347044851302
30
0
0
LINE
5
213
100
AcDbEntity
8
0
100
AcDbLine
10
14.486083206352189
20
10.899347044851302
30
0
11
14.378114864812396
21
11.129865368727948
31
0
0
LINE
5
214
100
AcDbEntity
8
0
100
AcDbLine
10
14.378114864812396
20
11.129865368727948
30
0
11
14.561217592350769
21
11.506152545285246
31
0
0
LINE
5
215
100
AcDbEntity
8
0
100
AcDbLine
10
14.561217592350769
20
11.506152545285246
30
0
11
14.744323292094755
21
11.882439721842546
31
0
0
LINE
5
216
100
AcDbEntity
8
0
100
AcDbLine
10
14.744323292094755
20
11.882439721842546
30
0
11
14.929247981681357
21
11.74296897288162
31
0
0
SPLINE
5
217
100
AcDbEntity
8
0
100
AcDbSpline
70
0
71
3
72
8
73
4
74
0
42
0.000000001
43
0.0000000001
44
0.0000000001
40
-1
40
-1
40
-1
40
-1
40
0
40
0
40
0
40
0
10
14.929247981681357
20
11.74296897288162
30
0
10
15.246848958169748
20
11.503435949343844
30
0
10
16.216908513494641
20
10.947312499230234
30
0
10
16.956315995689753
20
10.58087818432036
30
0
0
SPLINE
5
218
100
AcDbEntity
8
0
100
AcDbSpline
70
0
71
3
72
8
73
4
74
0
42
0.000000001
43
0.0000000001
44
0.0000000001
40
-1
40
-1
40
-1
40
-1
40
0
40
0
40
0
40
0
10
16.956315995689753
20
10.58087818432036
30
0
10
17.346319638773313
20
10.387598095177227
30
0
10
17.665899870996288
20
10.215839842586325
30
0
10
17.666601288912148
20
10.199186573516124
30
0
0
SPLINE
5
219
100
AcDbEntity
8
0
100
AcDbSpline
70
0
71
3
72
8
73
4
74
0
42
0.000000001
43
0.0000000001
44
0.0000000001
40
-1
40
-1
40
-1
40
-1
40
0
40
0
40
0
40
0
10
17.666601288912148
20
10.199186573516126
30
0
10
17.667255255926754
20
10.182536280815668
30
0
10
17.48329676638561
20
10.135051420244652
30
0
10
17.257804645484118
20
10.093665321626229
30
0
0
LWPOLYLINE
5
220
100
AcDbEntity
8
0
100
AcDbPolyline
90
4
70
1
43
0.0
10
9.4681025049727179
20
23.325535405929578
10
9.4681025049727179
20
25.574591513670399
10
8.6247034923642882
20
25.574591513670399
10
8.6247034923642882
20
23.325535405929578
0
SPLINE
5
221
100
AcDbEntity
8
0
100
AcDbSpline
70
0
71
3
72
8
73
4
74
0
42
0.000000001
43
0.0000000001
44
0.0000000001
40
-1
40
-1
40
-1
40
-1
40
0
40
0
40
0
40
0
10
19.443882688233291
20
25.591134810180076
30
0
10
19.724577787473994
20
25.592704134750161
30
0
10
20.244835632308718
20
25.460235902242122
30
0
10
20.244835632308718
20
25.387199893414916
30
0
0
SPLINE
5
222
100
AcDbEntity
8
0
100
AcDbSpline
70
0
71
3
72
8
73
4
74
0
42
0.000000001
43
0.0000000001
44
0.0000000001
40
-1
40
-1
40
-1
40
-1
40
0
40
0
40
0
40
0
10
20.244835632308718
20
25.387199893414916
30
0
10
20.244835632308718
20
25.362884279195427
30
0
10
20.194082249053384
20
25.228231475552892
30
0
10
20.132052317656161
20
25.087970119895676
30
0
0
LINE
5
223
100
AcDbEntity
8
0
100
AcDbLine
10
20.132052317656164
20
25.087970119895676
30
0
11
20.019271975209225
21
24.832954877256405
31
0
0
LINE
5
224
100
AcDbEntity
8
0
100
AcDbLine
10
20.019271975209225
20
24.832954877256405
30
0
11
19.839206841819781
21
24.897157490965625
31
0
0
SPLINE
5
225
100
AcDbEntity
8
0
100
AcDbSpline
70
0
71
3
72
8
73
4
74
0
42
0.000000001
43
0.0000000001
44
0.0000000001
40
-1
40
-1
40
-1
40
-1
40
0
40
0
40
0
40
0
10
19.839206841819781
20
24.897157490965625
30
0
10
19.620859699978187
20
24.975008472905603
30
0
10
19.46423635235443
20
24.982323070949143
30
0
10
19.423597384841528
20
24.916565993697965
30
0
0
SPLINE
5
226
100
AcDbEntity
8
0
100
AcDbSpline
70
0
71
3
72
8
73
4
74
0
42
0.000000001
43
0.0000000001
44
0.0000000001
40
-1
40
-1
40
-1
40
-1
40
0
40
0
40
0
40
0
10
19.423597384841528
20
24.916565993697965
30
0
10
19.36705711723399
20
24.825081504555346
30
0
10
19.504396794761671
20
24.733195767653321
30
0
10
19.745481309635785
20
24.701214835126542
30
0
0
SPLINE
5
227
100
AcDbEntity
8
0
100
AcDbSpline
70
0
71
3
72
8
73
4
74
0
42
0.000000001
43
0.0000000001
44
0.0000000001
40
-1
40
-1
40
-1
40
-1
40
0
40
0
40
0
40
0
10
19.745481309635785
20
24.701214835126542
30
0
10
20.05765503865263
20
24.659806066356719
30
0
10
20.224380913196331
20
24.501304284777856
30
0
10
20.269041274920074
20
24.203489281136189
30
0
0
SPLINE
5
228
100
AcDbEntity
8
0
100
AcDbSpline
70
0
71
3
72
8
73
4
74
0
42
0.000000001
43
0.0000000001
44
0.0000000001
40
-1
40
-1
40
-1
40
-1
40
0
40
0
40
0
40
0
10
20.269041274920074
20
24.203489281136189
30
0
10
20.326975506965812
20
23.817164966182709
30
0
10
20.145659075008172
20
23.510011292466778
30
0
10
19.766072750206941
20
23.351450066775396
30
0
0
SPLINE
5
229
100
AcDbEntity
8
0
100
AcDbSpline
70
0
71
3
72
8
73
4
74
0
42
0.000000001
43
0.0000000001
44
0.0000000001
40
-1
40
-1
40
-1
40
-1
40
0
40
0
40
0
40
0
10
19.766072750206941
20
23.351450066775396
30
0
10
19.527452193796091
20
23.2517712067242
30
0
10
19.057151181109152
20
23.261983705252277
30
0
10
18.772800268949499
20
23.373016390791612
30
0
0
SPLINE
5
230
100
AcDbEntity
8
0
100
AcDbSpline
70
0
71
3
72
8
73
4
74
0
42
0.000000001
43
0.0000000001
44
0.0000000001
40
-1
40
-1
40
-1
40
-1
40
0
40
0
40
0
40
0
10
18.772800268949499
20
23.373016390791612
30
0
10
18.64609514314866
20
23.422491725628127
30
0
10
18.524674598949368
20
23.480726150442013
30
0
10
18.502971553474403
20
23.502429195916971
30
0
0
SPLINE
5
231
100
AcDbEntity
8
0
100
AcDbSpline
70
0
71
3
72
8
73
4
74
0
42
0.000000001
43
0.0000000001
44
0.0000000001
40
-1
40
-1
40
-1
40
-1
40
0
40
0
40
0
40
0
10
18.502971553474403
20
23.502429195916971
30
0
10
18.458043693244392
20
23.547354083941364
30
0
10
18.669117847921193
20
24.100222968895412
30
0
10
18.729459566523325
20
24.09567846649454
30
0
0
SPLINE
5
232
100
AcDbEntity
8
0
100
AcDbSpline
70
0
71
3
72
8
73
4
74
0
42
0.000000001
43
0.0000000001
44
0.0000000001
40
-1
40
-1
40
-1
40
-1
40
0
40
0
40
0
40
0
10
18.729459566523325
20
24.09567846649454
30
0
10
18.751147750970162
20
24.094046725606322
30
0
10
18.842688712019658
20
24.059673167551278
30
0
10
18.932883263920953
20
24.019295754133392
30
0
0
SPLINE
5
233
100
AcDbEntity
8
0
100
AcDbSpline
70
0
71
3
72
8
73
4
74
0
42
0.000000001
43
0.0000000001
44
0.0000000001
40
-1
40
-1
40
-1
40
-1
40
0
40
0
40
0
40
0
10
18.932883263920953
20
24.019295754133392
30
0
10
19.209901744803329
20
23.895283446628955
30
0
10
19.285226351961914
20
23.884414090657714
30
0
10
19.380467709014738
20
23.954709725898532
30
0
0
SPLINE
5
234
100
AcDbEntity
8
0
100
AcDbSpline
70
0
71
3
72
8
73
4
74
0
42
0.000000001
43
0.0000000001
44
0.0000000001
40
-1
40
-1
40
-1
40
-1
40
0
40
0
40
0
40
0
10
19.380467709014738
20
23.954709725898532
30
0
10
19.500307039821443
20
24.043156620892226
30
0
10
19.443980771018925
20
24.092917287468754
30
0
10
19.119392139105763
20
24.18534099358893
30
0
0
SPLINE
5
235
100
AcDbEntity
8
0
100
AcDbSpline
70
0
71
3
72
8
73
4
74
0
42
0.000000001
43
0.0000000001
44
0.0000000001
40
-1
40
-1
40
-1
40
-1
40
0
40
0
40
0
40
0
10
19.119392139105763
20
24.18534099358893
30
0
10
18.718822042590851
20
24.299402356660309
30
0
10
18.558040579297483
20
24.494893237244373
30
0
10
18.558040579297483
20
24.867884237763363
30
0
0
SPLINE
5
236
100
AcDbEntity
8
0
100
AcDbSpline
70
0
71
3
72
8
73
4
74
0
42
0.000000001
43
0.0000000001
44
0.0000000001
40
-1
40
-1
40
-1
40
-1
40
0
40
0
40
0
40
0
10
18.558040579297483
20
24.867884237763363
30
0
10
18.558040579297483
20
25.254924854272517
30
0
10
18.966567270270961
20
25.588468741734296
30
0
10
19.443882688233291
20
25.591134810180076
30
0
0
LWPOLYLINE
5
237
100
AcDbEntity
8
0
100
AcDbPolyline
90
4
70
1
43
0.0
10
2.767785059019761
20
25.574597458081652
10
2.767785059019761
20
23.325541350340828
10
3.5174704282666998
20
23.325541350340828
10
3.5174704282666998
20
25.574597458081652
0
SPLINE
5
238
100
AcDbEntity
8
0
100
AcDbSpline
70
0
71
3
72
8
73
4
74
0
42
0.000000001
43
0.0000000001
44
0.0000000001
40
-1
40
-1
40
-1
40
-1
40
0
40
0
40
0
40
0
10
5.1655911416832749
20
10.184293815548799
30
0
10
5.393428536086021
20
10.254702394603365
30
0
10
6.8429672750683617
20
10.97290616186854
30
0
10
7.3415785463350067
20
11.262428711815987
30
0
0
SPLINE
5
239
100
AcDbEntity
8
0
100
AcDbSpline
70
0
71
3
72
8
73
4
74
0
42
0.000000001
43
0.0000000001
44
0.0000000001
40
-1
40
-1
40
-1
40
-1
40
0
40
0
40
0
40
0
10
7.3415785463350067
20
11.262428711815987
30
0
10
7.6280218912547806
20
11.428756310805918
30
0
10
7.8915822250663989
20
11.564122443798489
30
0
10
7.9272694980077709
20
11.563305087251569
30
0
0
SPLINE
5
240
100
AcDbEntity
8
0
100
AcDbSpline
70
0
71
3
72
8
73
4
74
0
42
0.000000001
43
0.0000000001
44
0.0000000001
40
-1
40
-1
40
-1
40
-1
40
0
40
0
40
0
40
0
10
7.9272694980077709
20
11.563305087251569
30
0
10
8.0166377767452701
20
11.561185904640826
30
0
10
8.3310584932147353
20
11.184536118997256
30
0
10
8.4188455585596476
20
10.974436847765501
30
0
0
SPLINE
5
241
100
AcDbEntity
8
0
100
AcDbSpline
70
0
71
3
72
8
73
4
74
0
42
0.000000001
43
0.0000000001
44
0.0000000001
40
-1
40
-1
40
-1
40
-1
40
0
40
0
40
0
40
0
10
8.4188455585596476
20
10.974436847765501
30
0
10
8.5494531903463269
20
10.661847009961138
30
0
10
8.4245432767430906
20
10.471602072305496
30
0
10
7.9453018695356556
20
10.253210347379529
30
0
0
SPLINE
5
242
100
AcDbEntity
8
0
100
AcDbSpline
70
0
71
3
72
8
73
4
74
0
42
0.000000001
43
0.0000000001
44
0.0000000001
40
-1
40
-1
40
-1
40
-1
40
0
40
0
40
0
40
0
10
7.9453018695356556
20
10.253210347379529
30
0
10
7.7906788162976293
20
10.182748268623712
30
0
10
7.5087175574606064
20
10.090595033215433
30
0
10
7.3187193128718535
20
10.0484283520112
30
0
0
SPLINE
5
243
100
AcDbEntity
8
0
100
AcDbSpline
70
0
71
3
72
8
73
4
74
0
42
0.000000001
43
0.0000000001
44
0.0000000001
40
-1
40
-1
40
-1
40
-1
40
0
40
0
40
0
40
0
10
7.3187193128718535
20
10.0484283520112
30
0
10
6.6411634297364461
20
9.8980496084059126
30
0
10
4.6466054008561173
20
10.023910627809203
30
0
10
5.1655911416832749
20
10.184293815548799
30
0
0
SPLINE
5
244
100
AcDbEntity
8
0
100
AcDbSpline
70
0
71
3
72
8
73
4
74
0
42
0.000000001
43
0.0000000001
44
0.0000000001
40
-1
40
-1
40
-1
40
-1
40
0
40
0
40
0
40
0
10
13.732762829625672
20
11.799116909346635
30
0
10
13.83622530743771
20
11.799116909346635
30
0
10
13.769502263358348
20
11.574216054101555
30
0
10
13.624283268718353
20
11.43346428451618
30
0
0
SPLINE
5
245
100
AcDbEntity
8
0
100
AcDbSpline
70
0
71
3
72
8
73
4
74
0
42
0.000000001
43
0.0000000001
44
0.0000000001
40
-1
40
-1
40
-1
40
-1
40
0
40
0
40
0
40
0
10
13.624283268718353
20
11.43346428451618
30
0
10
13.466800953668915
20
11.280826664635766
30
0
10
13.340440603720596
20
11.243792982546195
30
0
10
13.284723637071229
20
11.333942951363113
30
0
0
SPLINE
5
246
100
AcDbEntity
8
0
100
AcDbSpline
70
0
71
3
72
8
73
4
74
0
42
0.000000001
43
0.0000000001
44
0.0000000001
40
-1
40
-1
40
-1
40
-1
40
0
40
0
40
0
40
0
10
13.284723637071229
20
11.333942951363113
30
0
10
13.252689204843186
20
11.385778217466013
30
0
10
13.650801287306081
20
11.799116909346635
30
0
10
13.732762829625672
20
11.799116909346635
30
0
0
LINE
5
247
100
AcDbEntity
8
0
100
AcDbLine
10
3.9108775092249584
20
23.325535405929578
30
0
11
3.6455827396962812
21
23.73615463811068
31
0
0
LINE
5
248
100
AcDbEntity
8
0
100
AcDbLine
10
3.6455827396962812
20
23.73615463811068
30
0
11
3.6455827396962812
21
24.540811126965579
31
0
0
ARC
5
249
100
AcDbEntity
8
0
100
AcDbCircle
10
3.557502966272089
20
24.84096764207613
30
0
40
0.31281301131789335
210
-0
220
0
230
1
100
AcDbArc
50
-73.645876892873687
51
73.645876892873872
0
LINE
5
250
100
AcDbEntity
8
0
100
AcDbLine
10
3.6455827396962812
20
25.141124157186685
30
0
11
3.6455827396962812
21
25.574597458081652
31
0
0
LINE
5
251
100
AcDbEntity
8
0
100
AcDbLine
10
3.6455827396962812
20
25.574597458081652
30
0
11
3.9819526263273763
21
25.574597458081652
31
0
0
ARC
5
252
100
AcDbEntity
8
0
100
AcDbCircle
10
3.9301769635927686
20
24.834251770060277
30
0
40
0.74215393081451764
210
0
220
-0
230
1
100
AcDbArc
50
19.925404847301923
51
85.999564945457919
0
SPLINE
5
253
100
AcDbEntity
8
0
100
AcDbSpline
70
0
71
3
72
8
73
4
74
0
42
0.000000001
43
0.0000000001
44
0.0000000001
40
-0.5015363153465211
40
-0.5015363153465211
40
-0.5015363153465211
40
-0.5015363153465211
40
-0.2879111137471782
40
-0.2879111137471782
40
-0.2879111137471782
40
-0.2879111137471782
10
4.6279034159470154
20
25.087175186747228
30
0
10
4.6387248092587745
20
25.062167718143897
30
0
10
4.6462202621836939
20
25.037097962437716
30
0
10
4.6512013689579117
20
25.010081983309561
30
0
0
ARC
5
254
100
AcDbEntity
8
0
100
AcDbCircle
10
3.9301769635927686
20
24.834251770060277
30
0
40
0.74215393081450831
210
0
220
0
230
1
100
AcDbArc
50
-60.41539579568974
51
13.704756070072689
0
LINE
5
255
100
AcDbEntity
8
0
100
AcDbLine
10
4.2965844516499319
20
24.188854210629607
30
0
11
4.855060460810301
21
23.325535405929578
31
0
0
LINE
5
256
100
AcDbEntity
8
0
100
AcDbLine
10
4.855060460810301
20
23.325535405929578
30
0
11
3.9108775092249584
21
23.325535405929578
31
0
0
SPLINE
5
257
100
AcDbEntity
8
0
100
AcDbSpline
70
0
71
3
72
8
73
4
74
0
42
0.000000001
43
0.0000000001
44
0.0000000001
40
-1
40
-1
40
-1
40
-1
40
0
40
0
40
0
40
0
10
9.046102805900361
20
10.979510402767659
30
0
10
8.9721691909743502
20
11.068596321970769
30
0
10
8.9585802668560905
20
11.525534298166956
30
0
10
9.0291285395750371
20
11.550319520875219
30
0
0
SPLINE
5
258
100
AcDbEntity
8
0
100
AcDbSpline
70
0
71
3
72
8
73
4
74
0
42
0.000000001
43
0.0000000001
44
0.0000000001
40
-1
40
-1
40
-1
40
-1
40
0
40
0
40
0
40
0
10
9.0291285395750371
20
11.550319520875219
30
0
10
9.0582829045522928
20
11.560561741459541
30
0
10
9.1470359367253824
20
11.480689659694447
30
0
10
9.2263581604498182
20
11.372828317557165
30
0
0
SPLINE
5
259
100
AcDbEntity
8
0
100
AcDbSpline
70
0
71
3
72
8
73
4
74
0
42
0.000000001
43
0.0000000001
44
0.0000000001
40
-1
40
-1
40
-1
40
-1
40
0
40
0
40
0
40
0
10
9.2263581604498182
20
11.372828317557165
30
0
10
9.3386986164642316
20
11.220065865040494
30
0
10
9.360407606350444
20
11.157706018818878
30
0
10
9.3245568620996906
20
11.090718448438883
30
0
0
SPLINE
5
260
100
AcDbEntity
8
0
100
AcDbSpline
70
0
71
3
72
8
73
4
74
0
42
0.000000001
43
0.0000000001
44
0.0000000001
40
-1
40
-1
40
-1
40
-1
40
0
40
0
40
0
40
0
10
9.3245568620996906
20
11.090718448438883
30
0
10
9.2511731052143347
20
10.95360465853871
30
0
10
9.1133014028797454
20
10.898538604921255
30
0
10
9.046102805900361
20
10.979510402767659
30
0
0
LWPOLYLINE
5
261
100
AcDbEntity
8
0
100
AcDbPolyline
90
4
70
1
43
0.0
10
15.696879528493044
20
25.574597458081652
10
15.696879528493044
20
23.325541350340828
10
16.446564897739986
20
23.325541350340828
10
16.446564897739986
20
25.574597458081652
0
LINE
5
262
100
AcDbEntity
8
0
100
AcDbLine
10
16.839971978698241
20
23.325535405929578
30
0
11
16.574677209169565
21
23.73615463811068
31
0
0
LINE
5
263
100
AcDbEntity
8
0
100
AcDbLine
10
16.574677209169565
20
23.73615463811068
30
0
11
16.574677209169568
21
24.540811126965576
31
0
0
ARC
5
264
100
AcDbEntity
8
0
100
AcDbCircle
10
16.486597435745381
20
24.84096764207613
30
0
40
0.31281301131789524
210
-0
220
0
230
1
100
AcDbArc
50
-73.645876892874753
51
73.64587689287535
0
LINE
5
265
100
AcDbEntity
8
0
100
AcDbLine
10
16.574677209169565
20
25.141124157186685
30
0
11
16.574677209169565
21
25.574597458081652
31
0
0
LINE
5
266
100
AcDbEntity
8
0
100
AcDbLine
10
16.574677209169565
20
25.574597458081652
30
0
11
16.911047095800658
21
25.574597458081652
31
0
0
ARC
5
267
100
AcDbEntity
8
0
100
AcDbCircle
10
16.859271433066056
20
24.834251770060284
30
0
40
0.7421539308145072
210
0
220
-0
230
1
100
AcDbArc
50
19.925404847301884
51
85.999564945458289
0
SPLINE
5
268
100
AcDbEntity
8
0
100
AcDbSpline
70
0
71
3
72
8
73
4
74
0
42
0.000000001
43
0.0000000001
44
0.0000000001
40
-0.5015363153465211
40
-0.5015363153465211
40
-0.5015363153465211
40
-0.5015363153465211
40
-0.2879111137471782
40
-0.2879111137471782
40
-0.2879111137471782
40
-0.2879111137471782
10
17.556997885420298
20
25.087175186747228
30
0
10
17.567819278732063
20
25.062167718143897
30
0
10
17.575314731656981
20
25.037097962437716
30
0
10
17.580295838431198
20
25.010081983309561
30
0
0
ARC
5
269
100
AcDbEntity
8
0
100
AcDbCircle
10
16.859271433066056
20
24.834251770060284
30
0
40
0.74215393081450909
210
0
220
0
230
1
100
AcDbArc
50
-60.4153957956905
51
13.704756070072234
0
LINE
5
270
100
AcDbEntity
8
0
100
AcDbLine
10
17.225678921123212
20
24.188854210629607
30
0
11
17.784154930283584
21
23.325535405929578
31
0
0
LINE
5
271
100
AcDbEntity
8
0
100
AcDbLine
10
17.784154930283584
20
23.325535405929578
30
0
11
16.839971978698241
21
23.325535405929578
31
0
0
SPLINE
5
272
100
AcDbEntity
8
0
100
AcDbSpline
70
0
71
3
72
8
73
4
74
0
42
0.000000001
43
0.0000000001
44
0.0000000001
40
-0.32589873240473333
40
-0.32589873240473333
40
-0.32589873240473333
40
-0.32589873240473333
40
0
40
0
40
0
40
0
10
5.7499936153232571
20
18.601708857734131
30
0
10
5.5968235724128013
20
18.514922839010953
30
0
10
5.4548231298555887
20
18.45346618748265
30
0
10
5.3290832565067952
20
18.420849238570202
30
0
0
SPLINE
5
273
100
AcDbEntity
8
0
100
AcDbSpline
70
0
71
3
72
8
73
4
74
0
42
0.000000001
43
0.0000000001
44
0.0000000001
40
-1
40
-1
40
-1
40
-1
40
0
40
0
40
0
40
0
10
5.3290832565067952
20
18.420849238570202
30
0
10
5.0698534262910453
20
18.35360605850644
30
0
10
4.7343033000322725
20
18.345839685207878
30
0
10
4.5482878109812415
20
18.402775256163562
30
0
0
SPLINE
5
274
100
AcDbEntity
8
0
100
AcDbSpline
70
0
71
3
72
8
73
4
74
0
42
0.000000001
43
0.0000000001
44
0.0000000001
40
-1
40
-1
40
-1
40
-1
40
0
40
0
40
0
40
0
10
4.5482878109812415
20
18.402775256163562
30
0
10
4.0950829250502636
20
18.541497009306948
30
0
10
3.6407456287760955
20
18.921986884618232
30
0
10
3.4723790967273023
20
19.303811280255221
30
0
0
SPLINE
5
275
100
AcDbEntity
8
0
100
AcDbSpline
70
0
71
3
72
8
73
4
74
0
42
0.000000001
43
0.0000000001
44
0.0000000001
40
-1
40
-1
40
-1
40
-1
40
-0.048007488868041841
40
-0.048007488868041841
40
-0.048007488868041841
40
-0.048007488868041841
10
3.4723790967273023
20
19.303811280255221
30
0
10
3.1907374136580189
20
19.942526753338381
30
0
10
3.2907981920978742
20
20.479633943247681
30
0
10
3.8022464944300038
20
21.047466786082065
30
0
0
LINE
5
276
100
AcDbEntity
8
0
100
AcDbLine
10
3.8022464944300038
20
21.047466786082065
30
0
11
4.0046119035478451
21
20.786460482605296
31
0
0
LINE
5
277
100
AcDbEntity
8
0
100
AcDbLine
10
4.0046119035478451
20
20.786460482605296
30
0
11
4.0164813069472922
21
20.771151593725229
31
0
0
SPLINE
5
278
100
AcDbEntity
8
0
100
AcDbSpline
70
0
71
3
72
8
73
4
74
0
42
0.000000001
43
0.0000000001
44
0.0000000001
40
-0.089992297286025119
40
-0.089992297286025119
40
-0.089992297286025119
40
-0.089992297286025119
40
0
40
0
40
0
40
0
10
4.0164813072399257
20
20.771151593951608
30
0
10
3.9965095532862782
20
20.747675740179947
30
0
10
3.9778565076493653
20
20.723658373229629
30
0
10
3.961048340177765
20
20.699404487140793
30
0
0
SPLINE
5
279
100
AcDbEntity
8
0
100
AcDbSpline
70
0
71
3
72
8
73
4
74
0
42
0.000000001
43
0.0000000001
44
0.0000000001
40
-1
40
-1
40
-1
40
-1
40
0
40
0
40
0
40
0
10
3.961048340177765
20
20.699404487140793
30
0
10
3.6006208528363524
20
20.179304169204197
30
0
10
3.8847429051628715
20
19.400672489373761
30
0
10
4.5576502587005159
20
19.064414978176195
30
0
0
SPLINE
5
280
100
AcDbEntity
8
0
100
AcDbSpline
70
0
71
3
72
8
73
4
74
0
42
0.000000001
43
0.0000000001
44
0.0000000001
40
-1
40
-1
40
-1
40
-1
40
0
40
0
40
0
40
0
10
4.5576502587005159
20
19.064414978176195
30
0
10
4.7836003025312808
20
18.951506830887382
30
0
10
4.9048841252718152
20
18.921160611454436
30
0
10
5.1297493140493948
20
18.9213924434932
30
0
0
SPLINE
5
281
100
AcDbEntity
8
0
100
AcDbSpline
70
0
71
3
72
8
73
4
74
0
42
0.000000001
43
0.0000000001
44
0.0000000001
40
-1
40
-1
40
-1
40
-1
40
-0.64634921191869699
40
-0.64634921191869699
40
-0.64634921191869699
40
-0.64634921191869699
10
5.1297493140493948
20
18.9213924434932
30
0
10
5.2606246215571382
20
18.921512271499431
30
0
10
5.3731765927880266
20
18.929665565793883
30
0
10
5.470073001509606
20
18.946622961069579
30
0
0
LINE
5
282
100
AcDbEntity
8
0
100
AcDbLine
10
5.470073001509606
20
18.946622961069579
30
0
11
5.7499936153232571
21
18.601708857734131
31
0
0
SPLINE
5
283
100
AcDbEntity
8
0
100
AcDbSpline
70
0
71
3
72
8
73
4
74
0
42
0.000000001
43
0.0000000001
44
0.0000000001
40
-1
40
-1
40
-1
40
-1
40
-0.21930624292548001
40
-0.21930624292548001
40
-0.21930624292548001
40
-0.21930624292548001
10
4.4828190376757036
20
21.001841270529585
30
0
10
4.5449449554190045
20
21.163741310071803
30
0
10
4.3058931702443193
20
21.052784763318506
30
0
10
4.1091837097131672
20
20.868092810171916
30
0
0
LINE
5
284
100
AcDbEntity
8
0
100
AcDbLine
10
4.109183709713168
20
20.868092810171916
30
0
11
3.8909740108756457
21
21.142111283723068
31
0
0
SPLINE
5
285
100
AcDbEntity
8
0
100
AcDbSpline
70
0
71
3
72
8
73
4
74
0
42
0.000000001
43
0.0000000001
44
0.0000000001
40
-0.98609342100248976
40
-0.98609342100248976
40
-0.98609342100248976
40
-0.98609342100248976
40
0
40
0
40
0
40
0
10
3.8909740108756461
20
21.142111283723068
30
0
10
4.0824500406872488
20
21.340234410421854
30
0
10
4.0907205521559646
20
21.361545409892351
30
0
10
4.0216516128749049
20
21.43818186174337
30
0
0
SPLINE
5
286
100
AcDbEntity
8
0
100
AcDbSpline
70
0
71
3
72
8
73
4
74
0
42
0.000000001
43
0.0000000001
44
0.0000000001
40
-1
40
-1
40
-1
40
-1
40
0
40
0
40
0
40
0
10
4.0216516128749049
20
21.43818186174337
30
0
10
3.7367359816464663
20
21.754317540858555
30
0
10
4.0494744297320864
20
22.241494737085187
30
0
10
4.4481185370018874
20
22.102526290874913
30
0
0
SPLINE
5
287
100
AcDbEntity
8
0
100
AcDbSpline
70
0
71
3
72
8
73
4
74
0
42
0.000000001
43
0.0000000001
44
0.0000000001
40
-1
40
-1
40
-1
40
-1
40
0
40
0
40
0
40
0
10
4.4481185370018874
20
22.102526290874913
30
0
10
4.5850361613307973
20
22.054795640740366
30
0
10
4.6888553038178546
20
21.894251953897008
30
0
10
4.6888553038178546
20
21.730248619705961
30
0
0
SPLINE
5
288
100
AcDbEntity
8
0
100
AcDbSpline
70
0
71
3
72
8
73
4
74
0
42
0.000000001
43
0.0000000001
44
0.0000000001
40
-1
40
-1
40
-1
40
-1
40
0
40
0
40
0
40
0
10
4.6888553038178546
20
21.730248619705961
30
0
10
4.6888553038178546
20
21.660187788709539
30
0
10
4.7211988454309148
20
21.638743325123968
30
0
10
4.8268785886393264
20
21.638743325123968
30
0
0
SPLINE
5
289
100
AcDbEntity
8
0
100
AcDbSpline
70
0
71
3
72
8
73
4
74
0
42
0.000000001
43
0.0000000001
44
0.0000000001
40
-1
40
-1
40
-1
40
-1
40
0
40
0
40
0
40
0
10
4.8268785886393264
20
21.638743325123968
30
0
10
4.944937568276556
20
21.638743325123968
30
0
10
5.0108759500708704
20
21.579441878490648
30
0
10
5.2827673762498302
20
21.228757281188532
30
0
0
SPLINE
5
290
100
AcDbEntity
8
0
100
AcDbSpline
70
0
71
3
72
8
73
4
74
0
42
0.000000001
43
0.0000000001
44
0.0000000001
40
-1
40
-1
40
-1
40
-1
40
0
40
0
40
0
40
0
10
5.2827673762498302
20
21.228757281188532
30
0
10
5.4575954833277356
20
21.003267929229665
30
0
10
5.77764852945689
20
20.600658899655894
30
0
10
5.9939983491183675
20
20.334075832723478
30
0
0
SPLINE
5
291
100
AcDbEntity
8
0
100
AcDbSpline
70
0
71
3
72
8
73
4
74
0
42
0.000000001
43
0.0000000001
44
0.0000000001
40
-1
40
-1
40
-1
40
-1
40
0
40
0
40
0
40
0
10
5.9939983491183675
20
20.334075832723478
30
0
10
6.2432712904898136
20
20.026928103418793
30
0
10
6.3873608469922498
20
19.808200519257188
30
0
10
6.3873608469922498
20
19.736959722627571
30
0
0
LINE
5
292
100
AcDbEntity
8
0
100
AcDbLine
10
6.3873608469922498
20
19.736959722627571
30
0
11
6.3873608469922498
21
19.624539017061288
31
0
0
LINE
5
293
100
AcDbEntity
8
0
100
AcDbLine
10
6.3873608469922498
20
19.624539017061288
30
0
11
6.5572134818536263
21
19.770551590603201
31
0
0
SPLINE
5
294
100
AcDbEntity
8
0
100
AcDbSpline
70
0
71
3
72
8
73
4
74
0
42
0.000000001
43
0.0000000001
44
0.0000000001
40
-1
40
-1
40
-1
40
-1
40
0
40
0
40
0
40
0
10
6.5572134818536263
20
19.770551590603201
30
0
10
6.650629904652603
20
19.850857614389572
30
0
10
6.8267420045605798
20
20.019405450981502
30
0
10
6.9485727131361452
20
20.145105971281033
30
0
0
SPLINE
5
295
100
AcDbEntity
8
0
100
AcDbSpline
70
0
71
3
72
8
73
4
74
0
42
0.000000001
43
0.0000000001
44
0.0000000001
40
-1
40
-1
40
-1
40
-1
40
0
40
0
40
0
40
0
10
6.9485727131361452
20
20.145105971281033
30
0
10
7.1922192692591498
20
20.396486206440724
30
0
10
7.3767962107875995
20
20.447233645284808
30
0
10
7.4306198824537368
20
20.277642564518445
30
0
0
SPLINE
5
296
100
AcDbEntity
8
0
100
AcDbSpline
70
0
71
3
72
8
73
4
74
0
42
0.000000001
43
0.0000000001
44
0.0000000001
40
-1
40
-1
40
-1
40
-1
40
0
40
0
40
0
40
0
10
7.4306198824537368
20
20.277642564518445
30
0
10
7.4739041129730337
20
20.141271826024571
30
0
10
7.3687296447208999
20
20.000891582142337
30
0
10
6.7987735496277644
20
19.434288134994397
30
0
0
SPLINE
5
297
100
AcDbEntity
8
0
100
AcDbSpline
70
0
71
3
72
8
73
4
74
0
42
0.000000001
43
0.0000000001
44
0.0000000001
40
-1
40
-1
40
-1
40
-1
40
-0.40348861955353654
40
-0.40348861955353654
40
-0.40348861955353654
40
-0.40348861955353654
10
6.7987735496277644
20
19.434288134994397
30
0
10
6.4737094374572557
20
19.111135267753795
30
0
10
6.1507869400240516
20
18.848515537658457
30
0
10
5.8612243125980816
20
18.667954620934811
30
0
0
LINE
5
298
100
AcDbEntity
8
0
100
AcDbLine
10
5.8612243125980816
20
18.667954620934811
30
0
11
5.6117382069823147
21
18.981248678016929
31
0
0
SPLINE
5
299
100
AcDbEntity
8
0
100
AcDbSpline
70
0
71
3
72
8
73
4
74
0
42
0.000000001
43
0.0000000001
44
0.0000000001
40
-0.45833862547289028
40
-0.45833862547289028
40
-0.45833862547289028
40
-0.45833862547289028
40
0
40
0
40
0
40
0
10
5.6117382069823156
20
18.981248678016929
30
0
10
5.7167217311087093
20
19.015640143850714
30
0
10
5.7977913068781861
20
19.065507728311029
30
0
10
5.8607543709421641
20
19.132529014488135
30
0
0
SPLINE
5
300
100
AcDbEntity
8
0
100
AcDbSpline
70
0
71
3
72
8
73
4
74
0
42
0.000000001
43
0.0000000001
44
0.0000000001
40
-1
40
-1
40
-1
40
-1
40
0
40
0
40
0
40
0
10
5.8607543709421641
20
19.132529014488135
30
0
10
5.9947295117021593
20
19.275138412589236
30
0
10
5.9526906353398079
20
19.331099100099866
30
0
10
5.6963230391410908
20
19.351411153342255
30
0
0
SPLINE
5
301
100
AcDbEntity
8
0
100
AcDbSpline
70
0
71
3
72
8
73
4
74
0
42
0.000000001
43
0.0000000001
44
0.0000000001
40
-1
40
-1
40
-1
40
-1
40
0
40
0
40
0
40
0
10
5.6963230391410908
20
19.351411153342255
30
0
10
5.5124534825514298
20
19.365983877522446
30
0
10
5.5080635348430587
20
19.370596740652708
30
0
10
5.4595868610965974
20
19.600270958131802
30
0
0
SPLINE
5
302
100
AcDbEntity
8
0
100
AcDbSpline
70
0
71
3
72
8
73
4
74
0
42
0.000000001
43
0.0000000001
44
0.0000000001
40
-1
40
-1
40
-1
40
-1
40
0
40
0
40
0
40
0
10
5.4595868610965974
20
19.600270958131802
30
0
10
5.4172745418167301
20
19.800734338726766
30
0
10
5.3903939141427273
20
19.840145785316473
30
0
10
5.2720882414386079
20
19.875167284197808
30
0
0
SPLINE
5
303
100
AcDbEntity
8
0
100
AcDbSpline
70
0
71
3
72
8
73
4
74
0
42
0.000000001
43
0.0000000001
44
0.0000000001
40
-1
40
-1
40
-1
40
-1
40
0
40
0
40
0
40
0
10
5.2720882414386079
20
19.875167284197808
30
0
10
5.014659567831707
20
19.951371664221444
30
0
10
4.9942524040093152
20
19.975871555189691
30
0
10
4.9699873172854581
20
20.237847703403098
30
0
0
LINE
5
304
100
AcDbEntity
8
0
100
AcDbLine
10
4.9699873172854581
20
20.237847703403098
30
0
11
4.9465603925478954
21
20.490785374310367
31
0
0
LINE
5
305
100
AcDbEntity
8
0
100
AcDbLine
10
4.9465603925478954
20
20.490785374310367
30
0
11
4.7160955683725048
21
20.547661501153545
31
0
0
SPLINE
5
306
100
AcDbEntity
8
0
100
AcDbSpline
70
0
71
3
72
8
73
4
74
0
42
0.000000001
43
0.0000000001
44
0.0000000001
40
-1
40
-1
40
-1
40
-1
40
0
40
0
40
0
40
0
10
4.7160955683725048
20
20.547661501153545
30
0
10
4.4061599101914153
20
20.62414824071158
30
0
10
4.3670813506317305
20
20.70023373251021
30
0
10
4.4828190376757036
20
21.001841270529585
30
0
0
LINE
5
307
100
AcDbEntity
8
0
100
AcDbLine
10
16.979339664486901
20
18.568992708800558
30
0
11
17.229343771374431
21
18.894891309268957
31
0
0
SPLINE
5
308
100
AcDbEntity
8
0
100
AcDbSpline
70
0
71
3
72
8
73
4
74
0
42
0.000000001
43
0.0000000001
44
0.0000000001
40
-0.80629392963977953
40
-0.80629392963977953
40
-0.80629392963977953
40
-0.80629392963977953
40
0
40
0
40
0
40
0
10
17.22934377135784
20
18.894891309282194
30
0
10
17.506340357334469
20
18.847486998868789
30
0
10
17.832016244241238
20
18.882723998846338
30
0
10
18.066729045046252
20
18.993759706054743
30
0
0
SPLINE
5
309
100
AcDbEntity
8
0
100
AcDbSpline
70
0
71
3
72
8
73
4
74
0
42
0.000000001
43
0.0000000001
44
0.0000000001
40
-1
40
-1
40
-1
40
-1
40
0
40
0
40
0
40
0
10
18.066729045046252
20
18.993759706054743
30
0
10
18.540923647102151
20
19.218089897819798
30
0
10
18.933498510485364
20
19.807484217701525
30
0
10
18.932446349694054
20
20.293407143154329
30
0
0
SPLINE
5
310
100
AcDbEntity
8
0
100
AcDbSpline
70
0
71
3
72
8
73
4
74
0
42
0.000000001
43
0.0000000001
44
0.0000000001
40
-1
40
-1
40
-1
40
-1
40
-0.51186646416924375
40
-0.51186646416924375
40
-0.51186646416924375
40
-0.51186646416924375
10
18.932446349694054
20
20.293407143154329
30
0
10
18.93207493638435
20
20.459848183398353
30
0
10
18.839665096108959
20
20.67247592651033
30
0
10
18.716470764367291
20
20.846636597044906
30
0
0
LINE
5
311
100
AcDbEntity
8
0
100
AcDbLine
10
18.716470764367291
20
20.846636597044906
30
0
11
18.889148901198446
21
21.075432872903921
31
0
0
SPLINE
5
312
100
AcDbEntity
8
0
100
AcDbSpline
70
0
71
3
72
8
73
4
74
0
42
0.000000001
43
0.0000000001
44
0.0000000001
40
-0.78913371888683925
40
-0.78913371888683925
40
-0.78913371888683925
40
-0.78913371888683925
40
0
40
0
40
0
40
0
10
18.889148901198446
20
21.075432872903921
30
0
10
19.067511110676996
20
20.82885855294079
30
0
10
19.215431291136223
20
20.568841433657443
30
0
10
19.282952614658662
20
20.377470034850905
30
0
0
SPLINE
5
313
100
AcDbEntity
8
0
100
AcDbSpline
70
0
71
3
72
8
73
4
74
0
42
0.000000001
43
0.0000000001
44
0.0000000001
40
-1
40
-1
40
-1
40
-1
40
0
40
0
40
0
40
0
10
19.282952614658662
20
20.377470034850905
30
0
10
19.542574776016934
20
19.641620282789116
30
0
10
19.049595834409985
20
18.713596631620952
30
0
10
18.247118148848838
20
18.427524812404318
30
0
0
SPLINE
5
314
100
AcDbEntity
8
0
100
AcDbSpline
70
0
71
3
72
8
73
4
74
0
42
0.000000001
43
0.0000000001
44
0.0000000001
40
-1
40
-1
40
-1
40
-1
40
0
40
0
40
0
40
0
10
18.247118148848838
20
18.427524812404318
30
0
10
18.147537371583269
20
18.392024788417338
30
0
10
17.929008925198545
20
18.362504842148184
30
0
10
17.761501360575426
20
18.362035233659409
30
0
0
SPLINE
5
315
100
AcDbEntity
8
0
100
AcDbSpline
70
0
71
3
72
8
73
4
74
0
42
0.000000001
43
0.0000000001
44
0.0000000001
40
-1
40
-1
40
-1
40
-1
40
-0.55292192637305249
40
-0.55292192637305249
40
-0.55292192637305249
40
-0.55292192637305249
10
17.761501360575426
20
18.362035233659409
30
0
10
17.504763702403427
20
18.361239277688181
30
0
10
17.253622286359892
20
18.424625446408051
30
0
10
16.979339664488055
20
18.568992708800113
30
0
0
SPLINE
5
316
100
AcDbEntity
8
0
100
AcDbSpline
70
0
71
3
72
8
73
4
74
0
42
0.000000001
43
0.0000000001
44
0.0000000001
40
-1
40
-1
40
-1
40
-1
40
-0.176684127807894
40
-0.176684127807894
40
-0.176684127807894
40
-0.176684127807894
10
13.115949912851795
20
15.60741883790031
30
0
10
12.77510086783918
20
15.633159112380604
30
0
10
12.364943402941003
20
15.617984447929285
30
0
10
12.230497334164014
20
15.581341341461268
30
0
0
ARC
5
317
100
AcDbEntity
8
0
100
AcDbCircle
10
12.436053015207747
20
16.219558199048155
30
0
40
0.67050271788527593
210
0
220
0
230
1
100
AcDbArc
50
209.25075721820011
51
252.14738645683363
0
ARC
5
318
100
AcDbEntity
8
0
100
AcDbCircle
10
11.196141890938643
20
21.175654541089852
30
0
40
5.3241581276157905
210
-0
220
0
230
1
100
AcDbArc
50
277.06563143127005
51
278.22998683302558
0
SPLINE
5
319
100
AcDbEntity
8
0
100
AcDbSpline
70
0
71
3
72
8
73
4
74
0
42
0.000000001
43
0.0000000001
44
0.0000000001
40
-0.38202563689849683
40
-0.38202563689849683
40
-0.38202563689849683
40
-0.38202563689849683
40
0
40
0
40
0
40
0
10
11.958278794055152
20
15.906327533893883
30
0
10
12.027693445652837
20
15.900610591950214
30
0
10
12.135549937152319
20
15.90013890792911
30
0
10
12.302849564386303
20
15.900796338543593
30
0
0
SPLINE
5
320
100
AcDbEntity
8
0
100
AcDbSpline
70
0
71
3
72
8
73
4
74
0
42
0.000000001
43
0.0000000001
44
0.0000000001
40
-1
40
-1
40
-1
40
-1
40
0
40
0
40
0
40
0
10
12.302849564386309
20
15.900796338543598
30
0
10
12.602400358062777
20
15.901961759364749
30
0
10
12.826089018219855
20
15.926698196154929
30
0
10
12.92301344544947
20
15.9693713034364
30
0
0
SPLINE
5
321
100
AcDbEntity
8
0
100
AcDbSpline
70
0
71
3
72
8
73
4
74
0
42
0.000000001
43
0.0000000001
44
0.0000000001
40
-1
40
-1
40
-1
40
-1
40
0
40
0
40
0
40
0
10
12.923013445449453
20
15.969371303436395
30
0
10
13.064024952547451
20
16.031464804485456
30
0
10
13.091862748159993
20
16.027441252505625
30
0
10
13.321287710672028
20
15.911829165824223
30
0
0
SPLINE
5
322
100
AcDbEntity
8
0
100
AcDbSpline
70
0
71
3
72
8
73
4
74
0
42
0.000000001
43
0.0000000001
44
0.0000000001
40
-1
40
-1
40
-1
40
-1
40
0
40
0
40
0
40
0
10
13.321287710672028
20
15.91182916582421
30
0
10
13.456951064227116
20
15.843462492034138
30
0
10
13.592049698713421
20
15.786241589338434
30
0
10
13.621504256458817
20
15.784675236973973
30
0
0
SPLINE
5
323
100
AcDbEntity
8
0
100
AcDbSpline
70
0
71
3
72
8
73
4
74
0
42
0.000000001
43
0.0000000001
44
0.0000000001
40
-1
40
-1
40
-1
40
-1
40
0
40
0
40
0
40
0
10
13.621504256458817
20
15.784675236973973
30
0
10
13.73333943751695
20
15.778718936901138
30
0
10
13.731654196927487
20
15.937345551116262
30
0
10
13.618300218794893
20
16.08596177678583
30
0
0
SPLINE
5
324
100
AcDbEntity
8
0
100
AcDbSpline
70
0
71
3
72
8
73
4
74
0
42
0.000000001
43
0.0000000001
44
0.0000000001
40
-1
40
-1
40
-1
40
-1
40
0
40
0
40
0
40
0
10
13.618300218794893
20
16.08596177678583
30
0
10
13.481727370318502
20
16.265016360262717
30
0
10
13.346358265120305
20
16.296013492727578
30
0
10
12.696669781926456
20
16.296714933255117
30
0
0
SPLINE
5
325
100
AcDbEntity
8
0
100
AcDbSpline
70
0
71
3
72
8
73
4
74
0
42
0.000000001
43
0.0000000001
44
0.0000000001
40
-1
40
-1
40
-1
40
-1
40
0
40
0
40
0
40
0
10
12.696669781926456
20
16.296714933255117
30
0
10
12.310547576955479
20
16.29715779189327
30
0
10
12.235457774041281
20
16.28437730770505
30
0
10
12.164674697077949
20
16.206163716678805
30
0
0
SPLINE
5
326
100
AcDbEntity
8
0
100
AcDbSpline
70
0
71
3
72
8
73
4
74
0
42
0.000000001
43
0.0000000001
44
0.0000000001
40
-1
40
-1
40
-1
40
-1
40
0
40
0
40
0
40
0
10
12.164674697077949
20
16.206163716678805
30
0
10
12.119348561294162
20
16.1560761074835
30
0
10
12.026467135507716
20
16.108636733500219
30
0
10
11.95827879405515
20
16.100739583154155
30
0
0
ARC
5
327
100
AcDbEntity
8
0
100
AcDbCircle
10
10.933022952917064
20
22.556293839626154
30
0
40
6.536461603806873
210
0
220
0
230
1
100
AcDbArc
50
269.11188904939502
51
279.02421105042077
0
SPLINE
5
328
100
AcDbEntity
8
0
100
AcDbSpline
70
0
71
3
72
8
73
4
74
0
42
0.000000001
43
0.0000000001
44
0.0000000001
40
-0.38678290649104086
40
-0.38678290649104086
40
-0.38678290649104086
40
-0.38678290649104086
40
0
40
0
40
0
40
0
10
10.831708847046325
20
16.020617459174538
30
0
10
10.839533557241692
20
16.054113882854352
30
0
10
10.871189212299305
20
16.083310910384995
30
0
10
10.928367934056284
20
16.098263735868393
30
0
0
SPLINE
5
329
100
AcDbEntity
8
0
100
AcDbSpline
70
0
71
3
72
8
73
4
74
0
42
0.000000001
43
0.0000000001
44
0.0000000001
40
-1
40
-1
40
-1
40
-1
40
0
40
0
40
0
40
0
10
10.928367934056284
20
16.098263735868393
30
0
10
11.097944153794522
20
16.142609043795876
30
0
10
11.912176912603195
20
16.553522415886359
30
0
10
12.306392433491503
20
16.793703380250424
30
0
0
LINE
5
330
100
AcDbEntity
8
0
100
AcDbLine
10
12.306392433491505
20
16.793703380250424
30
0
11
12.67767441577602
21
17.019912005970575
31
0
0
LINE
5
331
100
AcDbEntity
8
0
100
AcDbLine
10
12.67767441577602
20
17.019912005970575
30
0
11
13.14622777155536
21
17.021701273756928
31
0
0
SPLINE
5
332
100
AcDbEntity
8
0
100
AcDbSpline
70
0
71
3
72
8
73
4
74
0
42
0.000000001
43
0.0000000001
44
0.0000000001
40
-1
40
-1
40
-1
40
-1
40
0
40
0
40
0
40
0
10
13.14622777155536
20
17.021701273756928
30
0
10
13.566583840916996
20
17.023306264794517
30
0
10
13.639411795350449
20
17.010493086344422
30
0
10
13.854236873526212
20
16.897159913651208
30
0
0
SPLINE
5
333
100
AcDbEntity
8
0
100
AcDbSpline
70
0
71
3
72
8
73
4
74
0
42
0.000000001
43
0.0000000001
44
0.0000000001
40
-1
40
-1
40
-1
40
-1
40
0
40
0
40
0
40
0
10
13.854236873526212
20
16.897159913651208
30
0
10
14.241289378857871
20
16.692960470585408
30
0
10
14.267328872339949
20
16.603699191250417
30
0
10
14.286333155107263
20
15.415863157563967
30
0
0
LINE
5
334
100
AcDbEntity
8
0
100
AcDbLine
10
14.286333155107265
20
15.415863157563967
30
0
11
14.302311732548153
21
14.417356622200607
31
0
0
LINE
5
335
100
AcDbEntity
8
0
100
AcDbLine
10
14.302311732548153
20
14.417356622200607
30
0
11
14.13425430988438
21
14.201648798954167
31
0
0
SPLINE
5
336
100
AcDbEntity
8
0
100
AcDbSpline
70
0
71
3
72
8
73
4
74
0
42
0.000000001
43
0.0000000001
44
0.0000000001
40
-1
40
-1
40
-1
40
-1
40
0
40
0
40
0
40
0
10
14.13425430988438
20
14.201648798954167
30
0
10
14.041821687147337
20
14.083010239220027
30
0
10
13.966196887220606
20
13.972756271554482
30
0
10
13.966196887220606
20
13.956640972654832
30
0
0
SPLINE
5
337
100
AcDbEntity
8
0
100
AcDbSpline
70
0
71
3
72
8
73
4
74
0
42
0.000000001
43
0.0000000001
44
0.0000000001
40
-1
40
-1
40
-1
40
-1
40
0
40
0
40
0
40
0
10
13.966196887220606
20
13.956640972654832
30
0
10
13.966196887220606
20
13.940528645960809
30
0
10
14.024178674556348
20
13.928134548503861
30
0
10
14.095047945482811
20
13.929189681500795
30
0
0
SPLINE
5
338
100
AcDbEntity
8
0
100
AcDbSpline
70
0
71
3
72
8
73
4
74
0
42
0.000000001
43
0.0000000001
44
0.0000000001
40
-1
40
-1
40
-1
40
-1
40
0
40
0
40
0
40
0
10
14.095047945482811
20
13.929189681500795
30
0
10
14.223809837576265
20
13.931035421194023
30
0
10
14.223893059333776
20
13.930818450183388
30
0
10
14.21175754376622
20
13.626476482988863
30
0
0
SPLINE
5
339
100
AcDbEntity
8
0
100
AcDbSpline
70
0
71
3
72
8
73
4
74
0
42
0.000000001
43
0.0000000001
44
0.0000000001
40
-1
40
-1
40
-1
40
-1
40
0
40
0
40
0
40
0
10
14.21175754376622
20
13.626476482988863
30
0
10
14.194821916114021
20
13.201641299750099
30
0
10
14.080947801997025
20
12.712327087678972
30
0
10
13.928247765798483
20
12.408237757962587
30
0
0
SPLINE
5
340
100
AcDbEntity
8
0
100
AcDbSpline
70
0
71
3
72
8
73
4
74
0
42
0.000000001
43
0.0000000001
44
0.0000000001
40
-1
40
-1
40
-1
40
-1
40
0
40
0
40
0
40
0
10
13.928247765798483
20
12.408237757962587
30
0
10
13.796757388941126
20
12.146386442385436
30
0
10
13.674195517781765
20
12.074396649938285
30
0
10
13.649041741575985
20
12.244243340388413
30
0
0
SPLINE
5
341
100
AcDbEntity
8
0
100
AcDbSpline
70
0
71
3
72
8
73
4
74
0
42
0.000000001
43
0.0000000001
44
0.0000000001
40
-1
40
-1
40
-1
40
-1
40
0
40
0
40
0
40
0
10
13.649041741575985
20
12.244243340388413
30
0
10
13.61656742291542
20
12.463499977151303
30
0
10
13.529264827087413
20
12.736223620905307
30
0
10
13.491553482115302
20
12.736223620905307
30
0
0
SPLINE
5
342
100
AcDbEntity
8
0
100
AcDbSpline
70
0
71
3
72
8
73
4
74
0
42
0.000000001
43
0.0000000001
44
0.0000000001
40
-1
40
-1
40
-1
40
-1
40
0
40
0
40
0
40
0
10
13.491553482115302
20
12.736223620905307
30
0
10
13.469131162879048
20
12.736223620905307
30
0
10
13.450786709760521
20
12.729556963688061
30
0
10
13.450786709760521
20
12.721401231452607
30
0
0
SPLINE
5
343
100
AcDbEntity
8
0
100
AcDbSpline
70
0
71
3
72
8
73
4
74
0
42
0.000000001
43
0.0000000001
44
0.0000000001
40
-1
40
-1
40
-1
40
-1
40
0
40
0
40
0
40
0
10
13.450786709760521
20
12.721401231452607
30
0
10
13.450786709760521
20
12.713248471422775
30
0
10
13.429633522326212
20
12.592012203972242
30
0
10
13.403781277798515
20
12.451982680353781
30
0
0
SPLINE
5
344
100
AcDbEntity
8
0
100
AcDbSpline
70
0
71
3
72
8
73
4
74
0
42
0.000000001
43
0.0000000001
44
0.0000000001
40
-1
40
-1
40
-1
40
-1
40
0
40
0
40
0
40
0
10
13.403781277798515
20
12.451982680353781
30
0
10
13.375964405352585
20
12.301309688391607
30
0
10
13.373307253523686
20
12.139832728981949
30
0
10
13.397275119685025
20
12.056388056055404
30
0
0
SPLINE
5
345
100
AcDbEntity
8
0
100
AcDbSpline
70
0
71
3
72
8
73
4
74
0
42
0.000000001
43
0.0000000001
44
0.0000000001
40
-1
40
-1
40
-1
40
-1
40
0
40
0
40
0
40
0
10
13.397275119685025
20
12.056388056055402
30
0
10
13.420199081134076
20
11.976621075222896
30
0
10
13.419978999879884
20
11.86727067591614
30
0
10
13.396784661199025
20
11.804588779651274
30
0
0
SPLINE
5
346
100
AcDbEntity
8
0
100
AcDbSpline
70
0
71
3
72
8
73
4
74
0
42
0.000000001
43
0.0000000001
44
0.0000000001
40
-1
40
-1
40
-1
40
-1
40
0
40
0
40
0
40
0
10
13.396784661199025
20
11.804588779651278
30
0
10
13.308180248055193
20
11.565067641699912
30
0
10
12.58632069742519
20
10.755872745061499
30
0
10
12.308461088606618
20
10.584590469146184
30
0
0
SPLINE
5
347
100
AcDbEntity
8
0
100
AcDbSpline
70
0
71
3
72
8
73
4
74
0
42
0.000000001
43
0.0000000001
44
0.0000000001
40
-1
40
-1
40
-1
40
-1
40
0
40
0
40
0
40
0
10
12.308461088606615
20
10.584590469146191
30
0
10
12.037690183948342
20
10.41767437344248
30
0
10
11.778501964611342
20
10.429096559659994
30
0
10
11.394796162813629
20
10.62484899433907
30
0
0
LINE
5
348
100
AcDbEntity
8
0
100
AcDbLine
10
11.394796162813629
20
10.62484899433907
30
0
11
11.214478391946042
21
10.716841730643591
31
0
0
LINE
5
349
100
AcDbEntity
8
0
100
AcDbLine
10
11.214478391946042
20
10.716841730643591
30
0
11
10.891830610306116
21
10.6029913941716
31
0
0
SPLINE
5
350
100
AcDbEntity
8
0
100
AcDbSpline
70
0
71
3
72
8
73
4
74
0
42
0.000000001
43
0.0000000001
44
0.0000000001
40
-1
40
-1
40
-1
40
-1
40
0
40
0
40
0
40
0
10
10.891830610306116
20
10.6029913941716
30
0
10
10.471468596533224
20
10.454660500242049
30
0
10
10.360652882004526
20
10.458325229777879
30
0
10
10.147658682493859
20
10.627589367925474
30
0
0
SPLINE
5
351
100
AcDbEntity
8
0
100
AcDbSpline
70
0
71
3
72
8
73
4
74
0
42
0.000000001
43
0.0000000001
44
0.0000000001
40
-1
40
-1
40
-1
40
-1
40
0
40
0
40
0
40
0
10
10.147658682493859
20
10.627589367925474
30
0
10
9.8885150462412383
20
10.833533495693244
30
0
10
9.4013378500146079
20
11.4020867097313
30
0
10
9.257387987176557
20
11.666574371697973
30
0
0
SPLINE
5
352
100
AcDbEntity
8
0
100
AcDbSpline
70
0
71
3
72
8
73
4
74
0
42
0.000000001
43
0.0000000001
44
0.0000000001
40
-1
40
-1
40
-1
40
-1
40
0
40
0
40
0
40
0
10
9.257387987176557
20
11.666574371697973
30
0
10
9.1457251940446831
20
11.871733837180699
30
0
10
9.1324572681339422
20
11.945307815226064
30
0
10
9.1338779824227725
20
12.351465658316288
30
0
0
SPLINE
5
353
100
AcDbEntity
8
0
100
AcDbSpline
70
0
71
3
72
8
73
4
74
0
42
0.000000001
43
0.0000000001
44
0.0000000001
40
-1
40
-1
40
-1
40
-1
40
0
40
0
40
0
40
0
10
9.1338779824227725
20
12.351465658316288
30
0
10
9.135607806096619
20
12.845960424792072
30
0
10
9.1126802119040846
20
12.988043742497519
30
0
10
9.0385534036124398
20
12.942230164991209
30
0
0
SPLINE
5
354
100
AcDbEntity
8
0
100
AcDbSpline
70
0
71
3
72
8
73
4
74
0
42
0.000000001
43
0.0000000001
44
0.0000000001
40
-1
40
-1
40
-1
40
-1
40
0
40
0
40
0
40
0
10
9.0385534036124398
20
12.942230164991209
30
0
10
9.0121453566328356
20
12.925909783903423
30
0
10
8.9957328371706708
20
12.783547078869207
30
0
10
9.0020101354510196
20
12.625277129329106
30
0
0
SPLINE
5
355
100
AcDbEntity
8
0
100
AcDbSpline
70
0
71
3
72
8
73
4
74
0
42
0.000000001
43
0.0000000001
44
0.0000000001
40
-1
40
-1
40
-1
40
-1
40
0
40
0
40
0
40
0
10
9.0020101354510196
20
12.625277129329106
30
0
10
9.0176944645350225
20
12.229724115909477
30
0
10
9.0093217612889287
20
12.173956621764482
30
0
10
8.9342587082253537
20
12.173956621764482
30
0
0
SPLINE
5
356
100
AcDbEntity
8
0
100
AcDbSpline
70
0
71
3
72
8
73
4
74
0
42
0.000000001
43
0.0000000001
44
0.0000000001
40
-1
40
-1
40
-1
40
-1
40
0
40
0
40
0
40
0
10
8.9342587082253537
20
12.173956621764482
30
0
10
8.849167433382469
20
12.173956621764482
30
0
10
8.8109448690428316
20
12.275617942967667
30
0
10
8.766525255974722
20
12.620060908456935
30
0
0
SPLINE
5
357
100
AcDbEntity
8
0
100
AcDbSpline
70
0
71
3
72
8
73
4
74
0
42
0.000000001
43
0.0000000001
44
0.0000000001
40
-1
40
-1
40
-1
40
-1
40
0
40
0
40
0
40
0
10
8.766525255974722
20
12.620060908456935
30
0
10
8.7430745535921588
20
12.80188855978211
30
0
10
8.6860052333833409
20
12.967208581065107
30
0
10
8.6059756247201147
20
13.085142728066078
30
0
0
SPLINE
5
358
100
AcDbEntity
8
0
100
AcDbSpline
70
0
71
3
72
8
73
4
74
0
42
0.000000001
43
0.0000000001
44
0.0000000001
40
-1
40
-1
40
-1
40
-1
40
0
40
0
40
0
40
0
10
8.6059756247201147
20
13.085142728066078
30
0
10
8.4598768572150682
20
13.300431470319372
30
0
10
8.4681128390024032
20
13.360449218508355
30
0
10
8.6481125838680963
20
13.392195346790759
30
0
0
SPLINE
5
359
100
AcDbEntity
8
0
100
AcDbSpline
70
0
71
3
72
8
73
4
74
0
42
0.000000001
43
0.0000000001
44
0.0000000001
40
-1
40
-1
40
-1
40
-1
40
0
40
0
40
0
40
0
10
8.6481125838680963
20
13.392195346790759
30
0
10
8.8267718639968429
20
13.423706670828766
30
0
10
8.8518275574169909
20
13.522083704816147
30
0
10
8.6860319832339687
20
13.541096904200341
30
0
0
SPLINE
5
360
100
AcDbEntity
8
0
100
AcDbSpline
70
0
71
3
72
8
73
4
74
0
42
0.000000001
43
0.0000000001
44
0.0000000001
40
-1
40
-1
40
-1
40
-1
40
0
40
0
40
0
40
0
10
8.6860319832339687
20
13.541096904200341
30
0
10
8.5779298924410465
20
13.553491001657285
30
0
10
8.5521043977639746
20
13.581313818514463
30
0
10
8.5415530677946361
20
13.696754284995921
30
0
0
SPLINE
5
361
100
AcDbEntity
8
0
100
AcDbSpline
70
0
71
3
72
8
73
4
74
0
42
0.000000001
43
0.0000000001
44
0.0000000001
40
-1
40
-1
40
-1
40
-1
40
0
40
0
40
0
40
0
10
8.5415530677946361
20
13.696754284995921
30
0
10
8.517707062063927
20
13.957666383595519
30
0
10
8.4832443378401248
20
14.045905224195449
30
0
10
8.3426649561810091
20
14.206014969017533
30
0
0
SPLINE
5
362
100
AcDbEntity
8
0
100
AcDbSpline
70
0
71
3
72
8
73
4
74
0
42
0.000000001
43
0.0000000001
44
0.0000000001
40
-1
40
-1
40
-1
40
-1
40
0
40
0
40
0
40
0
10
8.3426649561810091
20
14.206014969017533
30
0
10
8.1235272076431251
20
14.455602964185246
30
0
10
8.0289427080334583
20
15.264577891243002
30
0
10
8.1773687125430126
20
15.619809963151624
30
0
0
SPLINE
5
363
100
AcDbEntity
8
0
100
AcDbSpline
70
0
71
3
72
8
73
4
74
0
42
0.000000001
43
0.0000000001
44
0.0000000001
40
-1
40
-1
40
-1
40
-1
40
0
40
0
40
0
40
0
10
8.1773687125430126
20
15.619809963151624
30
0
10
8.301883322798103
20
15.917812215747672
30
0
10
8.4190922516265339
20
15.752783470615944
30
0
10
8.4317211533278673
20
15.261688907375341
30
0
0
SPLINE
5
364
100
AcDbEntity
8
0
100
AcDbSpline
70
0
71
3
72
8
73
4
74
0
42
0.000000001
43
0.0000000001
44
0.0000000001
40
-1
40
-1
40
-1
40
-1
40
0
40
0
40
0
40
0
10
8.4317211533278673
20
15.261688907375341
30
0
10
8.4385066987701212
20
14.997762992271824
30
0
10
8.5142979422118596
20
14.767425972938311
30
0
10
8.6059191528132359
20
14.732267752598224
30
0
0
SPLINE
5
365
100
AcDbEntity
8
0
100
AcDbSpline
70
0
71
3
72
8
73
4
74
0
42
0.000000001
43
0.0000000001
44
0.0000000001
40
-1
40
-1
40
-1
40
-1
40
0
40
0
40
0
40
0
10
8.6059191528132359
20
14.732267752598224
30
0
10
8.7112452035522523
20
14.691851700507215
30
0
10
10.188015290472368
20
14.639665714140545
30
0
10
10.316176797029536
20
14.671830923416096
30
0
0
SPLINE
5
366
100
AcDbEntity
8
0
100
AcDbSpline
70
0
71
3
72
8
73
4
74
0
42
0.000000001
43
0.0000000001
44
0.0000000001
40
-1
40
-1
40
-1
40
-1
40
0
40
0
40
0
40
0
10
10.316176797029536
20
14.671830923416096
30
0
10
10.496663983617758
20
14.717130309349256
30
0
10
10.610808568446643
20
14.962191635349837
30
0
10
10.641963227809637
20
15.371271156569598
30
0
0
SPLINE
5
367
100
AcDbEntity
8
0
100
AcDbSpline
70
0
71
3
72
8
73
4
74
0
42
0.000000001
43
0.0000000001
44
0.0000000001
40
-1
40
-1
40
-1
40
-1
40
0
40
0
40
0
40
0
10
10.641963227809637
20
15.371271156569598
30
0
10
10.657148226348612
20
15.570679404167629
30
0
10
10.683755411105102
20
15.748016052793172
30
0
10
10.701086342105446
20
15.76534995599914
30
0
0
SPLINE
5
368
100
AcDbEntity
8
0
100
AcDbSpline
70
0
71
3
72
8
73
4
74
0
42
0.000000001
43
0.0000000001
44
0.0000000001
40
-1
40
-1
40
-1
40
-1
40
0
40
0
40
0
40
0
10
10.701086342105446
20
15.76534995599914
30
0
10
10.76009948479312
20
15.824360126481199
30
0
10
10.920598588552101
20
15.62721075515829
30
0
10
10.920598588552101
20
15.495711461684056
30
0
0
SPLINE
5
369
100
AcDbEntity
8
0
100
AcDbSpline
70
0
71
3
72
8
73
4
74
0
42
0.000000001
43
0.0000000001
44
0.0000000001
40
-1
40
-1
40
-1
40
-1
40
0
40
0
40
0
40
0
10
10.920598588552101
20
15.495711461684056
30
0
10
10.920598588552101
20
15.423650336301904
30
0
10
10.887761660805264
20
15.242426042718639
30
0
10
10.847627968248643
20
15.092989488296526
30
0
0
SPLINE
5
370
100
AcDbEntity
8
0
100
AcDbSpline
70
0
71
3
72
8
73
4
74
0
42
0.000000001
43
0.0000000001
44
0.0000000001
40
-1
40
-1
40
-1
40
-1
40
0
40
0
40
0
40
0
10
10.847627968248643
20
15.092989488296526
30
0
10
10.801731168984826
20
14.922087664849471
30
0
10
10.775424176996481
20
14.631566453811963
30
0
10
10.776717086443428
20
14.309920305467722
30
0
0
SPLINE
5
371
100
AcDbEntity
8
0
100
AcDbSpline
70
0
71
3
72
8
73
4
74
0
42
0.000000001
43
0.0000000001
44
0.0000000001
40
-1
40
-1
40
-1
40
-1
40
0
40
0
40
0
40
0
10
10.776717086443428
20
14.309920305467722
30
0
10
10.778916518606051
20
13.763569467449656
30
0
10
10.748516799471849
20
13.67332736025836
30
0
10
10.562284339410182
20
13.67332736025836
30
0
0
SPLINE
5
372
100
AcDbEntity
8
0
100
AcDbSpline
70
0
71
3
72
8
73
4
74
0
42
0.000000001
43
0.0000000001
44
0.0000000001
40
-1
40
-1
40
-1
40
-1
40
0
40
0
40
0
40
0
10
10.562284339410182
20
13.67332736025836
30
0
10
10.483835944139541
20
13.67332736025836
30
0
10
10.433344114979217
20
13.712376197761797
30
0
10
10.395665464268983
20
13.802178418520571
30
0
0
SPLINE
5
373
100
AcDbEntity
8
0
100
AcDbSpline
70
0
71
3
72
8
73
4
74
0
42
0.000000001
43
0.0000000001
44
0.0000000001
40
-1
40
-1
40
-1
40
-1
40
0
40
0
40
0
40
0
10
10.395665464268983
20
13.802178418520571
30
0
10
10.34246892798976
20
13.928966766078908
30
0
10
10.341303823384694
20
13.929287764286427
30
0
10
10.322834537629909
20
13.82219919561169
30
0
0
SPLINE
5
374
100
AcDbEntity
8
0
100
AcDbSpline
70
0
71
3
72
8
73
4
74
0
42
0.000000001
43
0.0000000001
44
0.0000000001
40
-1
40
-1
40
-1
40
-1
40
-0.053328998369419803
40
-0.053328998369419803
40
-0.053328998369419803
40
-0.053328998369419803
10
10.322834537629909
20
13.82219919561169
30
0
10
10.290865268274205
20
13.636804444877011
30
0
10
10.334237311641191
20
13.585026320273087
30
0
10
10.546398615899825
20
13.580031028574361
30
0
0
SPLINE
5
375
100
AcDbEntity
8
0
100
AcDbSpline
70
0
71
3
72
17
73
13
74
0
42
0.000000001
43
0.0000000001
44
0.0000000001
40
-1.7216322079265167
40
-1.7216322079265167
40
-1.7216322079265167
40
-1.7216322079265167
40
-1.2319599409593287
40
-1.2319599409593287
40
-1.2319599409593287
40
-1.0012249650570193
40
-1.0012249650570193
40
-1.0012249650570193
40
-0.78816530001344765
40
-0.78816530001344765
40
-0.78816530001344765
40
0
40
0
40
0
40
0
10
10.546398615899459
20
13.580031028574366
30
0
10
10.49933548277677
20
13.533957238314525
30
0
10
10.452272349654082
20
13.487883448054683
30
0
10
10.405209216531393
20
13.44180965779484
30
0
10
10.383032933289318
20
13.420099555750362
30
0
10
10.360856650047246
20
13.398389453705887
30
0
10
10.338680366805173
20
13.376679351661402
30
0
10
10.318202884095887
20
13.356632338625909
30
0
10
10.297725401386602
20
13.336585325590416
30
0
10
10.277247918677315
20
13.316538312554924
30
0
10
10.102082193046639
20
13.145054852652047
30
0
10
9.7507545151281967
20
12.73623402605077
30
0
10
9.7508643397389427
20
12.688923219245378
30
0
0
SPLINE
5
376
100
AcDbEntity
8
0
100
AcDbSpline
70
0
71
3
72
8
73
4
74
0
42
0.000000001
43
0.0000000001
44
0.0000000001
40
-1
40
-1
40
-1
40
-1
40
0
40
0
40
0
40
0
10
9.750864339738408
20
12.688923219244757
30
0
10
9.7490624764962348
20
12.651856028912821
30
0
10
9.8630908918793132
20
12.639102866237129
30
0
10
10.135784549354737
20
12.645879542884719
30
0
0
SPLINE
5
377
100
AcDbEntity
8
0
100
AcDbSpline
70
0
71
3
72
8
73
4
74
0
42
0.000000001
43
0.0000000001
44
0.0000000001
40
-1
40
-1
40
-1
40
-1
40
0
40
0
40
0
40
0
10
10.135784549355106
20
12.645879542885094
30
0
10
10.347739372878497
20
12.66868949351541
30
0
10
10.615733911319161
20
12.673142902521148
30
0
10
10.731325562135638
20
12.655768986837375
30
0
0
SPLINE
5
378
100
AcDbEntity
8
0
100
AcDbSpline
70
0
71
3
72
8
73
4
74
0
42
0.000000001
43
0.0000000001
44
0.0000000001
40
-1
40
-1
40
-1
40
-1
40
0
40
0
40
0
40
0
10
10.731325562135886
20
12.655768986837682
30
0
10
10.983303210626234
20
12.609179663663202
30
0
10
12.590145932320503
20
12.609637383329476
30
0
10
12.636863060336863
20
12.656354511345842
30
0
0
SPLINE
5
379
100
AcDbEntity
8
0
100
AcDbSpline
70
0
71
3
72
8
73
4
74
0
42
0.000000001
43
0.0000000001
44
0.0000000001
40
-1
40
-1
40
-1
40
-1
40
0
40
0
40
0
40
0
10
12.636863060336863
20
12.656354511345842
30
0
10
12.703523688098091
20
12.723015139107071
30
0
10
12.61269902860426
20
12.73374480141392
30
0
10
11.995612668912862
20
12.732142782581956
30
0
0
SPLINE
5
380
100
AcDbEntity
8
0
100
AcDbSpline
70
0
71
3
72
8
73
4
74
0
42
0.000000001
43
0.0000000001
44
0.0000000001
40
-1
40
-1
40
-1
40
-1
40
0
40
0
40
0
40
0
10
11.995612668912862
20
12.732142782581956
30
0
10
11.649184270065984
20
12.731277870745034
30
0
10
11.270861132655444
20
12.730433764347488
30
0
10
11.154894585778333
20
12.730341625973102
30
0
0
SPLINE
5
381
100
AcDbEntity
8
0
100
AcDbSpline
70
0
71
3
72
8
73
4
74
0
42
0.000000001
43
0.0000000001
44
0.0000000001
40
-1
40
-1
40
-1
40
-1
40
0
40
0
40
0
40
0
10
11.154894585778333
20
12.730341625973102
30
0
10
11.03892803890122
20
12.730249487598723
30
0
10
10.727185279700031
20
12.744560657683904
30
0
10
10.462129926458953
20
12.762144226162382
30
0
0
LINE
5
382
100
AcDbEntity
8
0
100
AcDbLine
10
10.462129926458955
20
12.762144226162382
30
0
11
9.980216506394493
21
12.794113269866674
31
0
0
LINE
5
383
100
AcDbEntity
8
0
100
AcDbLine
10
9.980216506394493
20
12.794113269866674
30
0
11
10.743015053815816
21
13.567805128944826
31
0
0
SPLINE
5
384
100
AcDbEntity
8
0
100
AcDbSpline
70
0
71
3
72
8
73
4
74
0
42
0.000000001
43
0.0000000001
44
0.0000000001
40
-0.61822648181290296
40
-0.61822648181290296
40
-0.61822648181290296
40
-0.61822648181290296
40
0
40
0
40
0
40
0
10
10.743015053815816
20
13.567805128944826
30
0
10
10.812405904996261
20
13.554438108763176
30
0
10
10.858394980938879
20
13.528752754964804
30
0
10
10.897171663814539
20
13.485906017946624
30
0
0
SPLINE
5
385
100
AcDbEntity
8
0
100
AcDbSpline
70
0
71
3
72
8
73
4
74
0
42
0.000000001
43
0.0000000001
44
0.0000000001
40
-1
40
-1
40
-1
40
-1
40
0
40
0
40
0
40
0
10
10.897171663814539
20
13.485906017946624
30
0
10
11.006388331716897
20
13.365222580742374
30
0
10
11.156841380462817
20
13.366827571779963
30
0
10
11.313877864668477
20
13.490352437561876
30
0
0
SPLINE
5
386
100
AcDbEntity
8
0
100
AcDbSpline
70
0
71
3
72
8
73
4
74
0
42
0.000000001
43
0.0000000001
44
0.0000000001
40
-1
40
-1
40
-1
40
-1
40
0
40
0
40
0
40
0
10
11.313877864668477
20
13.490352437561876
30
0
10
11.421994816489526
20
13.575399129320383
30
0
10
11.47590468211879
20
13.584187941353996
30
0
10
11.717432055631052
20
13.556157070103053
30
0
0
SPLINE
5
387
100
AcDbEntity
8
0
100
AcDbSpline
70
0
71
3
72
8
73
4
74
0
42
0.000000001
43
0.0000000001
44
0.0000000001
40
-1
40
-1
40
-1
40
-1
40
0
40
0
40
0
40
0
10
11.717432055631052
20
13.556157070103053
30
0
10
11.985920306369195
20
13.524993494123185
30
0
10
11.998243070891135
20
13.528292642367118
30
0
10
12.051701161265376
20
13.645617487214937
30
0
0
SPLINE
5
388
100
AcDbEntity
8
0
100
AcDbSpline
70
0
71
3
72
8
73
4
74
0
42
0.000000001
43
0.0000000001
44
0.0000000001
40
-1
40
-1
40
-1
40
-1
40
0
40
0
40
0
40
0
10
12.051701161265376
20
13.645617487214937
30
0
10
12.124701503625085
20
13.805840175850776
30
0
10
12.067979931474415
20
13.856094228561085
30
0
10
11.95319929464174
20
13.732893333192314
30
0
0
SPLINE
5
389
100
AcDbEntity
8
0
100
AcDbSpline
70
0
71
3
72
8
73
4
74
0
42
0.000000001
43
0.0000000001
44
0.0000000001
40
-1
40
-1
40
-1
40
-1
40
0
40
0
40
0
40
0
10
11.95319929464174
20
13.732893333192314
30
0
10
11.872468245450975
20
13.64623867819059
30
0
10
11.840564590270441
20
13.640787653074042
30
0
10
11.668970242912716
20
13.684342354305226
30
0
0
SPLINE
5
390
100
AcDbEntity
8
0
100
AcDbSpline
70
0
71
3
72
8
73
4
74
0
42
0.000000001
43
0.0000000001
44
0.0000000001
40
-1
40
-1
40
-1
40
-1
40
0
40
0
40
0
40
0
10
11.668970242912716
20
13.684342354305226
30
0
10
11.503789915294101
20
13.726271259059448
30
0
10
11.450655795333006
20
13.71955407434657
30
0
10
11.303564311149149
20
13.63815130668452
30
0
0
SPLINE
5
391
100
AcDbEntity
8
0
100
AcDbSpline
70
0
71
3
72
8
73
4
74
0
42
0.000000001
43
0.0000000001
44
0.0000000001
40
-1
40
-1
40
-1
40
-1
40
0
40
0
40
0
40
0
10
11.303564311149149
20
13.63815130668452
30
0
10
11.005683918983735
20
13.473294949479047
30
0
10
10.799864623852221
20
13.629846964167799
30
0
10
10.933411767002189
20
13.919699428939644
30
0
0
SPLINE
5
392
100
AcDbEntity
8
0
100
AcDbSpline
70
0
71
3
72
8
73
4
74
0
42
0.000000001
43
0.0000000001
44
0.0000000001
40
-1
40
-1
40
-1
40
-1
40
0
40
0
40
0
40
0
10
10.933411767002189
20
13.919699428939644
30
0
10
10.987294882780832
20
14.036646803673056
30
0
10
10.997861073778299
20
14.187251434905859
30
0
10
10.979332343911011
20
14.57421774627438
30
0
0
SPLINE
5
393
100
AcDbEntity
8
0
100
AcDbSpline
70
0
71
3
72
8
73
4
74
0
42
0.000000001
43
0.0000000001
44
0.0000000001
40
-1
40
-1
40
-1
40
-1
40
0
40
0
40
0
40
0
10
10.979332343911011
20
14.57421774627438
30
0
10
10.959498815774277
20
14.988448099842556
30
0
10
10.968694819978541
20
15.097334852920522
30
0
10
11.031643162913937
20
15.193402483137147
30
0
0
SPLINE
5
394
100
AcDbEntity
8
0
100
AcDbSpline
70
0
71
3
72
8
73
4
74
0
42
0.000000001
43
0.0000000001
44
0.0000000001
40
-1
40
-1
40
-1
40
-1
40
0
40
0
40
0
40
0
10
11.031643162913937
20
15.193402483137147
30
0
10
11.078586178557815
20
15.265047499731777
30
0
10
11.108019930863836
20
15.408153256172282
30
0
10
11.108019930863836
20
15.564737965122921
30
0
0
SPLINE
5
395
100
AcDbEntity
8
0
100
AcDbSpline
70
0
71
3
72
8
73
4
74
0
42
0.000000001
43
0.0000000001
44
0.0000000001
40
-1
40
-1
40
-1
40
-1
40
-0.10232981488945225
40
-0.10232981488945225
40
-0.10232981488945225
40
-0.10232981488945225
10
11.108019930863836
20
15.564737965122921
30
0
10
11.108019930863836
20
15.781032283500434
30
0
10
11.101876657753682
20
15.816443733117268
30
0
10
11.004454066105739
20
15.85494821435814
30
0
0
ARC
5
396
100
AcDbEntity
8
0
100
AcDbCircle
10
11.196141890938643
20
21.175654541089852
30
0
40
5.3241581529394892
210
0
220
0
230
1
100
AcDbArc
50
267.93671089916916
51
276.24760333092331
0
ARC
5
397
100
AcDbEntity
8
0
100
AcDbCircle
10
12.571788600469677
20
16.394514956433099
30
0
40
0.94632534089109699
210
0
220
0
230
1
100
AcDbArc
50
212.7111317545328
51
248.85994231645381
0
SPLINE
5
398
100
AcDbEntity
8
0
100
AcDbSpline
70
0
71
3
72
8
73
4
74
0
42
0.000000001
43
0.0000000001
44
0.0000000001
40
-0.77319246766295202
40
-0.77319246766295202
40
-0.77319246766295202
40
-0.77319246766295202
40
0
40
0
40
0
40
0
10
12.230497332131179
20
15.511875789510533
30
0
10
12.327044487595529
20
15.462594167717116
30
0
10
12.560748755694433
20
15.416513958714814
30
0
10
12.753229043300642
20
15.416990562104155
30
0
0
SPLINE
5
399
100
AcDbEntity
8
0
100
AcDbSpline
70
0
71
3
72
8
73
4
74
0
42
0.000000001
43
0.0000000001
44
0.0000000001
40
-1
40
-1
40
-1
40
-1
40
0
40
0
40
0
40
0
10
12.753229043300642
20
15.416990562104161
30
0
10
12.892964691299861
20
15.409822629208271
30
0
10
13.048736980850773
20
15.384232294372014
30
0
10
13.099391755313986
20
15.360125385475225
30
0
0
SPLINE
5
400
100
AcDbEntity
8
0
100
AcDbSpline
70
0
71
3
72
8
73
4
74
0
42
0.000000001
43
0.0000000001
44
0.0000000001
40
-1
40
-1
40
-1
40
-1
40
0
40
0
40
0
40
0
10
13.099391755313986
20
15.360125385475225
30
0
10
13.226628905921732
20
15.305448690794663
30
0
10
13.551987339091808
20
15.304613501013993
30
0
10
13.637598749919098
20
15.358746282065148
30
0
0
SPLINE
5
401
100
AcDbEntity
8
0
100
AcDbSpline
70
0
71
3
72
8
73
4
74
0
42
0.000000001
43
0.0000000001
44
0.0000000001
40
-1
40
-1
40
-1
40
-1
40
0
40
0
40
0
40
0
10
13.637598749919098
20
15.358746282065148
30
0
10
13.697301444311812
20
15.396490321299135
30
0
10
13.693734797561611
20
15.415381660252693
30
0
10
13.612661944723952
20
15.490914321805038
30
0
0
SPLINE
5
402
100
AcDbEntity
8
0
100
AcDbSpline
70
0
71
3
72
8
73
4
74
0
42
0.000000001
43
0.0000000001
44
0.0000000001
40
-1
40
-1
40
-1
40
-1
40
0
40
0
40
0
40
0
10
13.612661944723952
20
15.490914321805038
30
0
10
13.541855090115616
20
15.55687945344998
30
0
10
13.41693923210113
20
15.586179456502869
30
0
10
13.115949912851789
20
15.607418837900305
30
0
0
SPLINE
5
403
100
AcDbEntity
8
0
100
AcDbSpline
70
0
71
3
72
8
73
4
74
0
42
0.000000001
43
0.0000000001
44
0.0000000001
40
-1
40
-1
40
-1
40
-1
40
-0.90429155422437235
40
-0.90429155422437235
40
-0.90429155422437235
40
-0.90429155422437235
10
18.740599393206445
20
21.268650225089512
30
0
10
18.763772211308574
20
21.240327164887002
30
0
10
18.786693599883346
20
21.211483712265878
30
0
10
18.809274435100399
20
21.182266314541089
30
0
0
LINE
5
404
100
AcDbEntity
8
0
100
AcDbLine
10
18.809274435100399
20
21.182266314541089
30
0
11
18.634813487240603
21
20.951107837380668
31
0
0
SPLINE
5
405
100
AcDbEntity
8
0
100
AcDbSpline
70
0
71
3
72
8
73
4
74
0
42
0.000000001
43
0.0000000001
44
0.0000000001
40
-0.40870081457995028
40
-0.40870081457995028
40
-0.40870081457995028
40
-0.40870081457995028
40
0
40
0
40
0
40
0
10
18.634813487240603
20
20.951107837380668
30
0
10
18.523062137126143
20
21.080147925438578
30
0
10
18.398805445214794
20
21.169679340183354
30
0
10
18.297996364740435
20
21.170014609212743
30
0
0
SPLINE
5
406
100
AcDbEntity
8
0
100
AcDbSpline
70
0
71
3
72
8
73
4
74
0
42
0.000000001
43
0.0000000001
44
0.0000000001
40
-1
40
-1
40
-1
40
-1
40
0
40
0
40
0
40
0
10
18.297996364740435
20
21.170014609212743
30
0
10
18.270940376934551
20
21.170109719792748
30
0
10
18.222743090516847
20
21.044016868350695
30
0
10
18.190889962831939
20
20.889803979488939
30
0
0
SPLINE
5
407
100
AcDbEntity
8
0
100
AcDbSpline
70
0
71
3
72
8
73
4
74
0
42
0.000000001
43
0.0000000001
44
0.0000000001
40
-1
40
-1
40
-1
40
-1
40
0
40
0
40
0
40
0
10
18.190889962831939
20
20.889803979488939
30
0
10
18.131817376031766
20
20.603806465412941
30
0
10
18.053850478072398
20
20.514212299047934
30
0
10
17.864027593615539
20
20.514212299047934
30
0
0
SPLINE
5
408
100
AcDbEntity
8
0
100
AcDbSpline
70
0
71
3
72
8
73
4
74
0
42
0.000000001
43
0.0000000001
44
0.0000000001
40
-1
40
-1
40
-1
40
-1
40
0
40
0
40
0
40
0
10
17.864027593615539
20
20.514212299047934
30
0
10
17.736930136672171
20
20.514212299047934
30
0
10
17.66190572228173
20
20.407423923141334
30
0
10
17.660571201956028
20
20.224615443959852
30
0
0
SPLINE
5
409
100
AcDbEntity
8
0
100
AcDbSpline
70
0
71
3
72
8
73
4
74
0
42
0.000000001
43
0.0000000001
44
0.0000000001
40
-1
40
-1
40
-1
40
-1
40
0
40
0
40
0
40
0
10
17.660571201956028
20
20.224615443959852
30
0
10
17.6587373510853
20
19.973044987640161
30
0
10
17.625288148979678
20
19.913473070294948
30
0
10
17.466530757717045
20
19.87903709592177
30
0
0
SPLINE
5
410
100
AcDbEntity
8
0
100
AcDbSpline
70
0
71
3
72
8
73
4
74
0
42
0.000000001
43
0.0000000001
44
0.0000000001
40
-1
40
-1
40
-1
40
-1
40
0
40
0
40
0
40
0
10
17.466530757717045
20
19.87903709592177
30
0
10
17.296339291414398
20
19.842119329851581
30
0
10
17.247862617667941
20
19.787930076893552
30
0
10
17.246810456876627
20
19.633547772311164
30
0
0
SPLINE
5
411
100
AcDbEntity
8
0
100
AcDbSpline
70
0
71
3
72
8
73
4
74
0
42
0.000000001
43
0.0000000001
44
0.0000000001
40
-1
40
-1
40
-1
40
-1
40
0
40
0
40
0
40
0
10
17.246810456876627
20
19.633547772311164
30
0
10
17.245844490048448
20
19.489095606722458
30
0
10
17.044771807300325
20
19.295973574021655
30
0
10
16.895335252878219
20
19.295973574021655
30
0
0
SPLINE
5
412
100
AcDbEntity
8
0
100
AcDbSpline
70
0
71
3
72
8
73
4
74
0
42
0.000000001
43
0.0000000001
44
0.0000000001
40
-1
40
-1
40
-1
40
-1
40
0
40
0
40
0
40
0
10
16.895335252878219
20
19.295973574021655
30
0
10
16.750291618370099
20
19.295973574021655
30
0
10
16.690633507061765
20
19.175376330780534
30
0
10
16.787670076312196
20
19.078339761530106
30
0
0
SPLINE
5
413
100
AcDbEntity
8
0
100
AcDbSpline
70
0
71
3
72
8
73
4
74
0
42
0.000000001
43
0.0000000001
44
0.0000000001
40
-1
40
-1
40
-1
40
-1
40
0
40
0
40
0
40
0
10
16.787670076312196
20
19.078339761530106
30
0
10
16.826062056372468
20
19.039947781469831
30
0
10
16.939641922132573
20
18.97925237039831
30
0
10
17.040069778001318
20
18.943461070260053
30
0
0
SPLINE
5
414
100
AcDbEntity
8
0
100
AcDbSpline
70
0
71
3
72
8
73
4
74
0
42
0.000000001
43
0.0000000001
44
0.0000000001
40
-1
40
-1
40
-1
40
-1
40
-0.94424936306064267
40
-0.94424936306064267
40
-0.94424936306064267
40
-0.94424936306064267
10
17.040069778001318
20
18.943461070260053
30
0
10
17.057047972875328
20
18.937410448704512
30
0
10
17.074419291346999
20
18.931762789229321
30
0
10
17.092137571206145
20
18.926515829844472
30
0
0
LINE
5
415
100
AcDbEntity
8
0
100
AcDbLine
10
17.092137571206145
20
18.926515829844469
30
0
11
16.866393540333924
21
18.632242011194656
31
0
0
SPLINE
5
416
100
AcDbEntity
8
0
100
AcDbSpline
70
0
71
3
72
8
73
4
74
0
42
0.000000001
43
0.0000000001
44
0.0000000001
40
-0.49228765020421444
40
-0.49228765020421444
40
-0.49228765020421444
40
-0.49228765020421444
40
0
40
0
40
0
40
0
10
16.866393540333931
20
18.632242011194652
30
0
10
16.55688105598367
20
18.81573538229966
30
0
10
16.214584975267044
20
19.100178344217564
30
0
10
15.801138557412628
20
19.507998834498512
30
0
0
SPLINE
5
417
100
AcDbEntity
8
0
100
AcDbSpline
70
0
71
3
72
8
73
4
74
0
42
0.000000001
43
0.0000000001
44
0.0000000001
40
-1
40
-1
40
-1
40
-1
40
0
40
0
40
0
40
0
10
15.801138557412628
20
19.507998834498512
30
0
10
15.374089080983117
20
19.929237648930833
30
0
10
15.272977617820581
20
20.054061368570938
30
0
10
15.285728379952548
20
20.144276725911613
30
0
0
SPLINE
5
418
100
AcDbEntity
8
0
100
AcDbSpline
70
0
71
3
72
8
73
4
74
0
42
0.000000001
43
0.0000000001
44
0.0000000001
40
-1
40
-1
40
-1
40
-1
40
0
40
0
40
0
40
0
10
15.285728379952548
20
20.144276725911613
30
0
10
15.29633915403439
20
20.219333834563937
30
0
10
15.337010815809164
20
20.261533210030045
30
0
10
15.408519110945043
20
20.271680320034367
30
0
0
SPLINE
5
419
100
AcDbEntity
8
0
100
AcDbSpline
70
0
71
3
72
8
73
4
74
0
42
0.000000001
43
0.0000000001
44
0.0000000001
40
-1
40
-1
40
-1
40
-1
40
0
40
0
40
0
40
0
10
15.408519110945043
20
20.271680320034367
30
0
10
15.488070194502617
20
20.282962812587492
30
0
10
15.612017113483301
20
20.195999048200751
30
0
10
15.892673574050875
20
19.931978022517235
30
0
0
SPLINE
5
420
100
AcDbEntity
8
0
100
AcDbSpline
70
0
71
3
72
8
73
4
74
0
42
0.000000001
43
0.0000000001
44
0.0000000001
40
-1
40
-1
40
-1
40
-1
40
0
40
0
40
0
40
0
10
15.892673574050875
20
19.931978022517235
30
0
10
16.100151359921238
20
19.736799223523814
30
0
10
16.28397038901527
20
19.577165031601766
30
0
10
16.301158654145606
20
19.577212586891765
30
0
0
SPLINE
5
421
100
AcDbEntity
8
0
100
AcDbSpline
70
0
71
3
72
8
73
4
74
0
42
0.000000001
43
0.0000000001
44
0.0000000001
40
-1
40
-1
40
-1
40
-1
40
0
40
0
40
0
40
0
10
16.301158654145606
20
19.577212586891765
30
0
10
16.318346919275939
20
19.577272031004266
30
0
10
16.334474106998087
20
19.636980669808235
30
0
10
16.337000481779484
20
19.709897790410441
30
0
0
SPLINE
5
422
100
AcDbEntity
8
0
100
AcDbSpline
70
0
71
3
72
8
73
4
74
0
42
0.000000001
43
0.0000000001
44
0.0000000001
40
-1
40
-1
40
-1
40
-1
40
0
40
0
40
0
40
0
10
16.337000481779484
20
19.709897790410441
30
0
10
16.340094547835278
20
19.799191764007304
30
0
10
16.4624751144515
20
20.000053420156046
30
0
10
16.711846138608578
20
20.325123549380475
30
0
0
SPLINE
5
423
100
AcDbEntity
8
0
100
AcDbSpline
70
0
71
3
72
8
73
4
74
0
42
0.000000001
43
0.0000000001
44
0.0000000001
40
-1
40
-1
40
-1
40
-1
40
0
40
0
40
0
40
0
10
16.711846138608578
20
20.325123549380475
30
0
10
16.915483834811216
20
20.590580150380951
30
0
10
17.21914813912321
20
20.989363951315134
30
0
10
17.386658675951956
20
21.211313406374426
30
0
0
SPLINE
5
424
100
AcDbEntity
8
0
100
AcDbSpline
70
0
71
3
72
8
73
4
74
0
42
0.000000001
43
0.0000000001
44
0.0000000001
40
-1
40
-1
40
-1
40
-1
40
0
40
0
40
0
40
0
10
17.386658675951956
20
21.211313406374426
30
0
10
17.554166240575075
20
21.433259889228097
30
0
10
17.733387267566975
20
21.622669637103069
30
0
10
17.784928285312983
20
21.632219333776725
30
0
0
SPLINE
5
425
100
AcDbEntity
8
0
100
AcDbSpline
70
0
71
3
72
8
73
4
74
0
42
0.000000001
43
0.0000000001
44
0.0000000001
40
-1
40
-1
40
-1
40
-1
40
0
40
0
40
0
40
0
10
17.784928285312983
20
21.632219333776725
30
0
10
17.897120131046133
20
21.653006939919138
30
0
10
17.94726718435394
20
21.721219059016704
30
0
10
17.948203429125865
20
21.854463037192907
30
0
0
SPLINE
5
426
100
AcDbEntity
8
0
100
AcDbSpline
70
0
71
3
72
8
73
4
74
0
42
0.000000001
43
0.0000000001
44
0.0000000001
40
-1
40
-1
40
-1
40
-1
40
0
40
0
40
0
40
0
10
17.948203429125865
20
21.854463037192907
30
0
10
17.949377450347807
20
22.015556582076922
30
0
10
18.155972491147494
20
22.201108407050423
30
0
10
18.33324077904366
20
22.200291050503502
30
0
0
SPLINE
5
427
100
AcDbEntity
8
0
100
AcDbSpline
70
0
71
3
72
8
73
4
74
0
42
0.000000001
43
0.0000000001
44
0.0000000001
40
-1
40
-1
40
-1
40
-1
40
0
40
0
40
0
40
0
10
18.33324077904366
20
22.200291050503502
30
0
10
18.527450639003273
20
22.199387499993453
30
0
10
18.586508364775327
20
22.161756404573225
30
0
10
18.648148937235653
20
21.99963744874853
30
0
0
SPLINE
5
428
100
AcDbEntity
8
0
100
AcDbSpline
70
0
71
3
72
8
73
4
74
0
42
0.000000001
43
0.0000000001
44
0.0000000001
40
-1
40
-1
40
-1
40
-1
40
0
40
0
40
0
40
0
10
18.648148937235653
20
21.99963744874853
30
0
10
18.68480514921082
20
21.903219098268131
30
0
10
18.680391423857454
20
21.821480471370439
30
0
10
18.630734784477799
20
21.677352276194878
30
0
0
SPLINE
5
429
100
AcDbEntity
8
0
100
AcDbSpline
70
0
71
3
72
8
73
4
74
0
42
0.000000001
43
0.0000000001
44
0.0000000001
40
-1
40
-1
40
-1
40
-1
40
0
40
0
40
0
40
0
10
18.630734784477799
20
21.677352276194878
30
0
10
18.564291127727206
20
21.484503686411589
30
0
10
18.564433793597214
20
21.483971661604681
30
0
10
18.740599393206445
20
21.268650225089512
30
0
0
SPLINE
5
430
100
AcDbEntity
8
0
100
AcDbSpline
70
0
71
3
72
8
73
4
74
0
42
0.000000001
43
0.0000000001
44
0.0000000001
40
-1
40
-1
40
-1
40
-1
40
0
40
0
40
0
40
0
10
8.6949872387825948
20
16.976633719862534
30
0
10
8.8714381701318406
20
17.064857699434341
30
0
10
8.9761192522501965
20
17.070344391018399
30
0
10
10.483256364042635
20
17.070344391018399
30
0
0
SPLINE
5
431
100
AcDbEntity
8
0
100
AcDbSpline
70
0
71
3
72
8
73
4
74
0
42
0.000000001
43
0.0000000001
44
0.0000000001
40
-1
40
-1
40
-1
40
-1
40
0
40
0
40
0
40
0
10
10.483256364042635
20
17.070344391018399
30
0
10
11.363721753002515
20
17.070344391018399
30
0
10
12.099809281514316
20
17.054660061934392
30
0
10
12.119000813236017
20
17.035489335652073
30
0
0
SPLINE
5
432
100
AcDbEntity
8
0
100
AcDbSpline
70
0
71
3
72
8
73
4
74
0
42
0.000000001
43
0.0000000001
44
0.0000000001
40
-1
40
-1
40
-1
40
-1
40
0
40
0
40
0
40
0
10
12.119000813236017
20
17.035489335652073
30
0
10
12.187302098502341
20
16.967277216554507
30
0
10
11.993404320133365
20
16.827919411407333
30
0
10
11.421629235197631
20
16.534280356669036
30
0
0
LINE
5
433
100
AcDbEntity
8
0
100
AcDbLine
10
11.42162923519763
20
16.534280356669036
30
0
11
10.842028332850829
21
16.236619907719884
31
0
0
LINE
5
434
100
AcDbEntity
8
0
100
AcDbLine
10
10.842028332850829
20
16.236619907719884
30
0
11
10.049641285387127
21
16.282766372256212
31
0
0
SPLINE
5
435
100
AcDbEntity
8
0
100
AcDbSpline
70
0
71
3
72
8
73
4
74
0
42
0.000000001
43
0.0000000001
44
0.0000000001
40
-1
40
-1
40
-1
40
-1
40
0
40
0
40
0
40
0
10
10.049641285387127
20
16.282766372256212
30
0
10
9.6138267745689951
20
16.308146036089511
30
0
10
9.1008805555721768
20
16.314022086610461
30
0
10
8.9097617894627348
20
16.295820299361942
30
0
0
SPLINE
5
436
100
AcDbEntity
8
0
100
AcDbSpline
70
0
71
3
72
8
73
4
74
0
42
0.000000001
43
0.0000000001
44
0.0000000001
40
-1
40
-1
40
-1
40
-1
40
0
40
0
40
0
40
0
10
8.9097617894627348
20
16.295820299361942
30
0
10
8.6080472520408549
20
16.267090959789087
30
0
10
8.5504369904082598
20
16.246487630395436
30
0
10
8.4724403703926434
20
16.139413922748822
30
0
0
SPLINE
5
437
100
AcDbEntity
8
0
100
AcDbSpline
70
0
71
3
72
8
73
4
74
0
42
0.000000001
43
0.0000000001
44
0.0000000001
40
-1
40
-1
40
-1
40
-1
40
0
40
0
40
0
40
0
10
8.4724403703926434
20
16.139413922748822
30
0
10
8.4230363684911307
20
16.071591162588145
30
0
10
8.349878499233288
20
16.016100083566297
30
0
10
8.3098696393129234
20
16.016100083566297
30
0
0
SPLINE
5
438
100
AcDbEntity
8
0
100
AcDbSpline
70
0
71
3
72
8
73
4
74
0
42
0.000000001
43
0.0000000001
44
0.0000000001
40
-1
40
-1
40
-1
40
-1
40
0
40
0
40
0
40
0
10
8.3098696393129234
20
16.016100083566297
30
0
10
8.2500450844895781
20
16.016100083566297
30
0
10
8.2425402652860331
20
16.055627446175379
30
0
10
8.2676137919399348
20
16.238661812984372
30
0
0
SPLINE
5
439
100
AcDbEntity
8
0
100
AcDbSpline
70
0
71
3
72
8
73
4
74
0
42
0.000000001
43
0.0000000001
44
0.0000000001
40
-1
40
-1
40
-1
40
-1
40
0
40
0
40
0
40
0
10
8.2676137919399348
20
16.238661812984372
30
0
10
8.3155822185244936
20
16.588793580040207
30
0
10
8.4770918721960289
20
16.867684550466432
30
0
10
8.6949872387825948
20
16.976633719862534
30
0
0
SPLINE
5
440
100
AcDbEntity
8
0
100
AcDbSpline
70
0
71
3
72
8
73
4
74
0
42
0.000000001
43
0.0000000001
44
0.0000000001
40
-1
40
-1
40
-1
40
-1
40
0
40
0
40
0
40
0
10
1.9139149659938683
20
14.423015701710925
30
0
10
2.8099606568408704
20
11.899202961568486
30
0
10
4.2914298008543721
20
9.5807517968912848
30
0
10
6.0008046999999998
20
8.0271709999999992
30
0
0
SPLINE
5
441
100
AcDbEntity
8
0
100
AcDbSpline
70
0
71
3
72
8
73
4
74
0
42
0.000000001
43
0.0000000001
44
0.0000000001
40
-1
40
-1
40
-1
40
-1
40
0
40
0
40
0
40
0
10
6.0008046999999998
20
8.0271709999999992
30
0
10
7.5052341324679102
20
6.659858329637883
30
0
10
9.1856389433850438
20
5.7201539103628125
30
0
10
10.944046318729034
20
5.262847380669105
30
0
0
SPLINE
5
442
100
AcDbEntity
8
0
100
AcDbSpline
70
0
71
3
72
8
73
4
74
0
42
0.000000001
43
0.0000000001
44
0.0000000001
40
-1
40
-1
40
-1
40
-1
40
0
40
0
40
0
40
0
10
10.944046318729034
20
5.262847380669105
30
0
10
11.175979412483262
20
5.2025264675063561
30
0
10
11.398249865750071
20
5.1514877525110014
30
0
10
11.437976366136043
20
5.1494161251902604
30
0
0
SPLINE
5
443
100
AcDbEntity
8
0
100
AcDbSpline
70
0
71
3
72
8
73
4
74
0
42
0.000000001
43
0.0000000001
44
0.0000000001
40
-1
40
-1
40
-1
40
-1
40
0
40
0
40
0
40
0
10
11.437976366136043
20
5.1494161251902604
30
0
10
11.521034652331313
20
5.145091566005644
30
0
10
12.588104027056009
20
5.5026984302087723
30
0
10
13.005681084158121
20
5.6747950803171516
30
0
0
SPLINE
5
444
100
AcDbEntity
8
0
100
AcDbSpline
70
0
71
3
72
8
73
4
74
0
42
0.000000001
43
0.0000000001
44
0.0000000001
40
-1
40
-1
40
-1
40
-1
40
0
40
0
40
0
40
0
10
13.005681084158121
20
5.6747950803171516
30
0
10
15.393842359567968
20
6.6590498897078367
30
0
10
17.526489061793527
20
8.4289745618493495
30
0
10
19.019005894115772
20
10.665375018038214
30
0
0
SPLINE
5
445
100
AcDbEntity
8
0
100
AcDbSpline
70
0
71
3
72
8
73
4
74
0
42
0.000000001
43
0.0000000001
44
0.0000000001
40
-1
40
-1
40
-1
40
-1
40
0
40
0
40
0
40
0
10
19.019005894115772
20
10.665375018038214
30
0
10
20.225013992994487
20
12.472464149316805
30
0
10
21.064531305056448
20
14.418212617420654
30
0
10
21.671316000051025
20
16.812639302288353
30
0
0
SPLINE
5
446
100
AcDbEntity
8
0
100
AcDbSpline
70
0
71
3
72
8
73
4
74
0
42
0.000000001
43
0.0000000001
44
0.0000000001
40
-1
40
-1
40
-1
40
-1
40
0
40
0
40
0
40
0
10
21.671316000051025
20
16.812639302288353
30
0
10
22.177720394466853
20
18.810954199078896
30
0
10
22.446065979334985
20
20.621488116677053
30
0
10
22.546345224922476
20
22.716414557313623
30
0
0
SPLINE
5
447
100
AcDbEntity
8
0
100
AcDbSpline
70
0
71
3
72
8
73
4
74
0
42
0.000000001
43
0.0000000001
44
0.0000000001
40
-1
40
-1
40
-1
40
-1
40
0
40
0
40
0
40
0
10
22.546345224922476
20
22.716414557313623
30
0
10
22.597122385822818
20
23.777212578169227
30
0
10
22.582855798822017
20
26.31195114618977
30
0
10
22.525587340836314
20
26.40461262875996
30
0
0
SPLINE
5
448
100
AcDbEntity
8
0
100
AcDbSpline
70
0
71
3
72
8
73
4
74
0
42
0.000000001
43
0.0000000001
44
0.0000000001
40
-1
40
-1
40
-1
40
-1
40
0
40
0
40
0
40
0
10
22.525587340836314
20
26.40461262875996
30
0
10
22.508624963333492
20
26.43205797550274
30
0
10
22.39162706110444
20
26.435264985372299
30
0
10
22.226393233784574
20
26.412815916285414
30
0
0
SPLINE
5
449
100
AcDbEntity
8
0
100
AcDbSpline
70
0
71
3
72
8
73
4
74
0
42
0.000000001
43
0.0000000001
44
0.0000000001
40
-1
40
-1
40
-1
40
-1
40
0
40
0
40
0
40
0
10
22.226393233784574
20
26.412815916285414
30
0
10
21.649063096535407
20
26.334382382042904
30
0
10
19.855316196308184
20
26.266143513094708
30
0
10
19.07345075675757
20
26.292869586076201
30
0
0
SPLINE
5
450
100
AcDbEntity
8
0
100
AcDbSpline
70
0
71
3
72
8
73
4
74
0
42
0.000000001
43
0.0000000001
44
0.0000000001
40
-1
40
-1
40
-1
40
-1
40
0
40
0
40
0
40
0
10
19.07345075675757
20
26.292869586076201
30
0
10
16.107055793588497
20
26.394278269801251
30
0
10
13.46737458935457
20
27.146760484541478
30
0
10
11.912263106566325
20
28.334281464431655
30
0
0
SPLINE
5
451
100
AcDbEntity
8
0
100
AcDbSpline
70
0
71
3
72
8
73
4
74
0
42
0.000000001
43
0.0000000001
44
0.0000000001
40
-1
40
-1
40
-1
40
-1
40
0
40
0
40
0
40
0
10
11.912263106566325
20
28.334281464431655
30
0
10
11.723212995572
20
28.478647436057233
30
0
10
11.541305094694948
20
28.616108974015546
30
0
10
11.508028280515589
20
28.639752869763747
30
0
0
SPLINE
5
452
100
AcDbEntity
8
0
100
AcDbSpline
70
0
71
3
72
8
73
4
74
0
42
0.000000001
43
0.0000000001
44
0.0000000001
40
-1
40
-1
40
-1
40
-1
40
0
40
0
40
0
40
0
10
11.508028280515589
20
28.639752869763747
30
0
10
11.46626284707075
20
28.669427370725405
30
0
10
11.384072444918028
20
28.630919474645747
30
0
10
11.242640040244492
20
28.515407675229291
30
0
0
SPLINE
5
453
100
AcDbEntity
8
0
100
AcDbSpline
70
0
71
3
72
8
73
4
74
0
42
0.000000001
43
0.0000000001
44
0.0000000001
40
-1
40
-1
40
-1
40
-1
40
0
40
0
40
0
40
0
10
11.242640040244492
20
28.515407675229291
30
0
10
10.94682235878294
20
28.273803024370775
30
0
10
10.318331646107781
20
27.893399343022619
30
0
10
9.7502747904091294
20
27.612130608096251
30
0
0
SPLINE
5
454
100
AcDbEntity
8
0
100
AcDbSpline
70
0
71
3
72
8
73
4
74
0
42
0.000000001
43
0.0000000001
44
0.0000000001
40
-1
40
-1
40
-1
40
-1
40
0
40
0
40
0
40
0
10
9.7502747904091294
20
27.612130608096251
30
0
10
8.3333530359573622
20
26.910553359098266
30
0
10
6.8909446182697947
20
26.515829591048053
30
0
10
5.0319607767757999
20
26.320939096000274
30
0
0
SPLINE
5
455
100
AcDbEntity
8
0
100
AcDbSpline
70
0
71
3
72
8
73
4
74
0
42
0.000000001
43
0.0000000001
44
0.0000000001
40
-1
40
-1
40
-1
40
-1
40
0
40
0
40
0
40
0
10
5.0319607767757999
20
26.320939096000274
30
0
10
4.3252178344012631
20
26.246844981970508
30
0
10
2.0269628069470675
20
26.290845514045468
30
0
10
1.3621249916817495
20
26.391196092567956
30
0
0
SPLINE
5
456
100
AcDbEntity
8
0
100
AcDbSpline
70
0
71
3
72
8
73
4
74
0
42
0.000000001
43
0.0000000001
44
0.0000000001
40
-1
40
-1
40
-1
40
-1
40
0
40
0
40
0
40
0
10
1.3621249916817495
20
26.391196092567956
30
0
10
1.0915353915666124
20
26.432037170063367
30
0
10
0.77315272499880083
20
26.478421411049709
30
0
10
0.65460630363904415
20
26.494272183648725
30
0
0
LINE
5
457
100
AcDbEntity
8
0
100
AcDbLine
10
0.65460630363904415
20
26.494272183648725
30
0
11
0.43907086831886039
21
26.523087717184705
31
0
0
LINE
5
458
100
AcDbEntity
8
0
100
AcDbLine
10
0.43907086831886039
20
26.523087717184705
30
0
11
0.41373875977557051
21
25.499480905316823
31
0
0
SPLINE
5
459
100
AcDbEntity
8
0
100
AcDbSpline
70
0
71
3
72
8
73
4
74
0
42
0.000000001
43
0.0000000001
44
0.0000000001
40
-1
40
-1
40
-1
40
-1
40
0
40
0
40
0
40
0
10
0.41373875977556945
20
25.499480905316823
30
0
10
0.30778557364964215
20
21.218146507106685
30
0
10
0.80513068531996512
20
17.546022123681254
30
0
10
1.9139149659938683
20
14.423015701710925
30
0
0
ENDSEC
0
SECTION
2
OBJECTS
0
DICTIONARY
5
C
100
AcDbDictionary
3
ACAD_GROUP
350
D
3
ACAD_MLINESTYLE
350
17
0
DICTIONARY
5
D
100
AcDbDictionary
0
DICTIONARY
5
1A
330
C
100
AcDbDictionary
0
DICTIONARY
5
17
100
AcDbDictionary
0
ENDSEC
0
EOF
