0
SECTION
2
HEADER
9
$INSUNITS
70
1
9
$ACADVER
1
AC1014
9
$HANDSEED
5
FFFF
0
ENDSEC
0
SECTION
2
TABLES
0
TABLE
2
VPORT
5
8
100
AcDbSymbolTable
0
ENDTAB
0
TABLE
2
LTYPE
5
5
100
AcDbSymbolTable
0
LTYPE
5
14
100
AcDbSymbolTableRecord
100
AcDbLinetypeTableRecord
2
BYBLOCK
70
0
0
LTYPE
5
15
100
AcDbSymbolTableRecord
100
AcDbLinetypeTableRecord
2
BYLAYER
70
0
0
ENDTAB
0
TABLE
2
LAYER
5
2
100
AcDbSymbolTable
70
2
0
LAYER
5
50
100
AcDbSymbolTableRecord
100
AcDbLayerTableRecord
2
0
70
0
6
CONTINUOUS
0
ENDTAB
0
TABLE
2
STYLE
5
3
100
AcDbSymbolTable
70
1
0
STYLE
5
11
100
AcDbSymbolTableRecord
100
AcDbTextStyleTableRecord
2
STANDARD
70
0
0
ENDTAB
0
TABLE
2
VIEW
5
6
100
AcDbSymbolTable
70
0
0
ENDTAB
0
TABLE
2
UCS
5
7
100
AcDbSymbolTable
70
0
0
ENDTAB
0
TABLE
2
APPID
5
9
100
AcDbSymbolTable
70
2
0
APPID
5
12
100
AcDbSymbolTableRecord
100
AcDbRegAppTableRecord
2
ACAD
70
0
0
ENDTAB
0
TABLE
2
DIMSTYLE
5
A
100
AcDbSymbolTable
70
1
0
ENDTAB
0
TABLE
2
BLOCK_RECORD
5
1
100
AcDbSymbolTable
70
1
0
BLOCK_RECORD
5
1F
100
AcDbSymbolTableRecord
100
AcDbBlockTableRecord
2
*MODEL_SPACE
0
BLOCK_RECORD
5
1B
100
AcDbSymbolTableRecord
100
AcDbBlockTableRecord
2
*PAPER_SPACE
0
ENDTAB
0
ENDSEC
0
SECTION
2
BLOCKS
0
BLOCK
5
20
100
AcDbEntity
100
AcDbBlockBegin
2
*MODEL_SPACE
0
ENDBLK
5
21
100
AcDbEntity
100
AcDbBlockEnd
0
BLOCK
5
1C
100
AcDbEntity
100
AcDbBlockBegin
2
*PAPER_SPACE
0
ENDBLK
5
1D
100
AcDbEntity
100
AcDbBlockEnd
0
ENDSEC
0
SECTION
2
ENTITIES
0
SPLINE
5
100
100
AcDbEntity
8
0
100
AcDbSpline
70
4
71
3
72
8
73
4
74
0
42
0.000000001
43
0.0000000001
44
0.0000000001
40
-1
40
-1
40
-1
40
-1
40
0
40
0
40
0
40
0
41
1
41
1
41
1
41
1
10
-4.8135179398127317
20
-4.4596539262926234
30
0
10
-4.818759939767479
20
-4.4641471344064234
30
0
10
-4.8247508458302013
20
-4.4693890200941411
30
0
10
-4.8307417518929254
20
-4.4738822282079411
30
0
0
SPLINE
5
101
100
AcDbEntity
8
0
100
AcDbSpline
70
4
71
3
72
8
73
4
74
0
42
0.000000001
43
0.0000000001
44
0.0000000001
40
-1
40
-1
40
-1
40
-1
40
0
40
0
40
0
40
0
41
1
41
1
41
1
41
1
10
-4.8307417518929254
20
-4.4738822282079411
30
0
10
-4.8876551880882575
20
-4.5180651747039073
30
0
10
-4.9505594160792832
20
-4.5427774765287188
30
0
10
-5.016459154235184
20
-4.5427774765287188
30
0
0
SPLINE
5
102
100
AcDbEntity
8
0
100
AcDbSpline
70
4
71
3
72
8
73
4
74
0
42
0.000000001
43
0.0000000001
44
0.0000000001
40
-1
40
-1
40
-1
40
-1
40
0
40
0
40
0
40
0
41
1
41
1
41
1
41
1
10
-5.016459154235184
20
-4.5427774765287188
30
0
10
-5.0643861742029159
20
-4.5427774765287188
30
0
10
-5.1100667043807757
20
-4.529298080721377
30
0
10
-5.1527518386607873
20
-4.5068318116183201
30
0
0
SPLINE
5
103
100
AcDbEntity
8
0
100
AcDbSpline
70
4
71
3
72
8
73
4
74
0
42
0.000000001
43
0.0000000001
44
0.0000000001
40
-1
40
-1
40
-1
40
-1
40
0
40
0
40
0
40
0
41
1
41
1
41
1
41
1
10
-5.1527518386607873
20
-4.5068318116183201
30
0
10
-4.9962400605241717
20
-4.3533154293795491
30
0
10
-4.8943950002589576
20
-4.0762370809485997
30
0
10
-4.8943950002589576
20
-3.7542271084477674
30
0
0
SPLINE
5
104
100
AcDbEntity
8
0
100
AcDbSpline
70
4
71
3
72
8
73
4
74
0
42
0.000000001
43
0.0000000001
44
0.0000000001
40
-1
40
-1
40
-1
40
-1
40
0
40
0
40
0
40
0
41
1
41
1
41
1
41
1
10
-4.8943950002589576
20
-3.7542271084477674
30
0
10
-4.8943950002589576
20
-3.4322171359469347
30
0
10
-4.9969888523651189
20
-3.1551387875159853
30
0
10
-5.1527518386607873
20
-3.0016224052772156
30
0
0
SPLINE
5
105
100
AcDbEntity
8
0
100
AcDbSpline
70
4
71
3
72
8
73
4
74
0
42
0.000000001
43
0.0000000001
44
0.0000000001
40
-1
40
-1
40
-1
40
-1
40
0
40
0
40
0
40
0
41
1
41
1
41
1
41
1
10
-5.1527518386607873
20
-3.0016224052772156
30
0
10
-5.1497563284959122
20
-2.9993758012203156
30
0
10
-5.146012026490089
20
-2.9978781032713924
30
0
10
-5.1430166305922409
20
-2.9963804053224683
30
0
0
SPLINE
5
106
100
AcDbEntity
8
0
100
AcDbSpline
70
4
71
3
72
8
73
4
74
0
42
0.000000001
43
0.0000000001
44
0.0000000001
40
-1
40
-1
40
-1
40
-1
40
0
40
0
40
0
40
0
41
1
41
1
41
1
41
1
10
-5.1430166305922409
20
-2.9963804053224683
30
0
10
-5.1265417246200231
20
-2.9993759154873443
30
0
10
-5.1093179125398285
20
-3.0008736134362684
30
0
10
-5.0920941004596338
20
-3.0008736134362684
30
0
0
SPLINE
5
107
100
AcDbEntity
8
0
100
AcDbSpline
70
4
71
3
72
8
73
4
74
0
42
0.000000001
43
0.0000000001
44
0.0000000001
40
-1
40
-1
40
-1
40
-1
40
0
40
0
40
0
40
0
41
1
41
1
41
1
41
1
10
-5.0920941004596338
20
-3.0008736134362684
30
0
10
-5.0583953824072196
20
-3.0008736134362684
30
0
10
-5.0239477582468322
20
-2.9948827073735442
30
0
10
-4.9887513422454948
20
-2.9843987074640506
30
0
0
SPLINE
5
108
100
AcDbEntity
8
0
100
AcDbSpline
70
4
71
3
72
8
73
4
74
0
42
0.000000001
43
0.0000000001
44
0.0000000001
40
-1
40
-1
40
-1
40
-1
40
0
40
0
40
0
40
0
41
1
41
1
41
1
41
1
10
-4.9887513422454948
20
-2.9843987074640506
30
0
10
-4.9827605504498012
20
-2.982901009515126
30
0
10
-4.9730253423812538
20
-2.9814033115662029
30
0
10
-4.9632901343127065
20
-2.9814033115662029
30
0
0
SPLINE
5
109
100
AcDbEntity
8
0
100
AcDbSpline
70
4
71
3
72
8
73
4
74
0
42
0.000000001
43
0.0000000001
44
0.0000000001
40
-1
40
-1
40
-1
40
-1
40
0
40
0
40
0
40
0
41
1
41
1
41
1
41
1
10
-4.9632901343127065
20
-2.9814033115662029
30
0
10
-4.9453174161245341
20
-2.9814033115662029
30
0
10
-4.9318380203171932
20
-2.9851476135720261
30
0
10
-4.9273448122033932
20
-2.9873942176289261
30
0
0
SPLINE
5
110
100
AcDbEntity
8
0
100
AcDbSpline
70
4
71
3
72
8
73
4
74
0
42
0.000000001
43
0.0000000001
44
0.0000000001
40
-1
40
-1
40
-1
40
-1
40
0
40
0
40
0
40
0
41
1
41
1
41
1
41
1
10
-4.9273448122033932
20
-2.9873942176289261
30
0
10
-4.9041300940604753
20
-3.0001249358623503
30
0
10
-4.8809154901845844
20
-3.0091112378229208
30
0
10
-4.8577007720416665
20
-3.0143532377776681
30
0
0
SPLINE
5
111
100
AcDbEntity
8
0
100
AcDbSpline
70
4
71
3
72
8
73
4
74
0
42
0.000000001
43
0.0000000001
44
0.0000000001
40
-1
40
-1
40
-1
40
-1
40
0
40
0
40
0
40
0
41
1
41
1
41
1
41
1
10
-4.8577007720416665
20
-3.0143532377776681
30
0
10
-4.8569518659336914
20
-3.0151020296186162
30
0
10
-4.8562030740927442
20
-3.0151020296186162
30
0
10
-4.8554541679847683
20
-3.0158509357265921
30
0
0
SPLINE
5
112
100
AcDbEntity
8
0
100
AcDbSpline
70
4
71
3
72
8
73
4
74
0
42
0.000000001
43
0.0000000001
44
0.0000000001
40
-1
40
-1
40
-1
40
-1
40
0
40
0
40
0
40
0
41
1
41
1
41
1
41
1
10
-4.8554541679847683
20
-3.0158509357265921
30
0
10
-4.8307417518929254
20
-3.0323258416988104
30
0
10
-4.8067782419090603
20
-3.0525450496768523
30
0
10
-4.7843124298741175
20
-3.0757597678197701
30
0
0
SPLINE
5
113
100
AcDbEntity
8
0
100
AcDbSpline
70
4
71
3
72
8
73
4
74
0
42
0.000000001
43
0.0000000001
44
0.0000000001
40
-1
40
-1
40
-1
40
-1
40
0
40
0
40
0
40
0
41
1
41
1
41
1
41
1
10
-4.7843124298741175
20
-3.0757597678197701
30
0
10
-4.6517640474543374
20
-3.2135501501942962
30
0
10
-4.5626497054225474
20
-3.465916082533405
30
0
10
-4.5626497054225474
20
-3.7542273369818249
30
0
0
SPLINE
5
114
100
AcDbEntity
8
0
100
AcDbSpline
70
4
71
3
72
8
73
4
74
0
42
0.000000001
43
0.0000000001
44
0.0000000001
40
-1
40
-1
40
-1
40
-1
40
0
40
0
40
0
40
0
41
1
41
1
41
1
41
1
10
-4.5626497054225474
20
-3.7542273369818249
30
0
10
-4.5626497054225474
20
-4.026812477298976
30
0
10
-4.6427777454937678
20
-4.2671967117796648
30
0
10
-4.7633443157881006
20
-4.4087312818929867
30
0
0
SPLINE
5
115
100
AcDbEntity
8
0
100
AcDbSpline
70
4
71
3
72
8
73
4
74
0
42
0.000000001
43
0.0000000001
44
0.0000000001
40
-1
40
-1
40
-1
40
-1
40
0
40
0
40
0
40
0
41
1
41
1
41
1
41
1
10
-4.7633443157881006
20
-4.4087312818929867
30
0
10
-4.7685863157428487
20
-4.415470979796658
30
0
10
-4.7738283156975951
20
-4.4214620001264091
30
0
10
-4.7798192217603184
20
-4.4274527919221054
30
0
0
LINE
5
116
100
AcDbEntity
8
0
100
AcDbLine
10
-4.7798192217603184
20
-4.4274527919221063
30
0
11
-4.792549825726713
21
-4.4401835101555269
31
0
0
LINE
5
117
100
AcDbEntity
8
0
100
AcDbLine
10
-4.792549825726713
20
-4.4401835101555269
30
0
11
-4.796294127732537
21
-4.443927812161351
31
0
0
SPLINE
5
118
100
AcDbEntity
8
0
100
AcDbSpline
70
4
71
3
72
8
73
4
74
0
42
0.000000001
43
0.0000000001
44
0.0000000001
40
-1
40
-1
40
-1
40
-1
40
0
40
0
40
0
40
0
41
1
41
1
41
1
41
1
10
-4.796294127732537
20
-4.443927812161351
30
0
10
-4.8015361276872843
20
-4.449169926383127
30
0
10
-4.8075270337500067
20
-4.4544118120708474
30
0
10
-4.8127690337047557
20
-4.4589050201846474
30
0
0
SPLINE
5
119
100
AcDbEntity
8
0
100
AcDbSpline
70
0
71
2
72
6
73
3
74
0
42
0.000000001
43
0.0000000001
44
0.0000000001
40
-1
40
-1
40
-1
40
0
40
0
40
0
10
-4.8127690337047557
20
-4.4589050201846474
30
0
10
-4.8127690337047557
20
-4.4596539262926234
30
0
10
-4.8135179398127317
20
-4.4596539262926234
30
0
0
ARC
5
120
100
AcDbEntity
8
0
100
AcDbCircle
10
-0.010401715128065902
20
-18.937776732282725
30
0
40
18.046390775623532
210
0
220
0
230
1
100
AcDbArc
50
102.75832615326046
51
103.05587092734567
0
SPLINE
5
121
100
AcDbEntity
8
0
100
AcDbSpline
70
0
71
2
72
6
73
3
74
0
42
0.000000001
43
0.0000000001
44
0.0000000001
40
-0.74827603138463517
40
-0.74827603138463517
40
-0.74827603138463517
40
0
40
0
40
0
10
-3.995751644021817
20
-1.3369470367605141
30
0
10
-3.8397892350972391
20
-1.5343770682608566
30
0
10
-3.7623749590137265
20
-1.7595450086246025
30
0
0
SPLINE
5
122
100
AcDbEntity
8
0
100
AcDbSpline
70
0
71
2
72
6
73
3
74
0
42
0.000000001
43
0.0000000001
44
0.0000000001
40
-1
40
-1
40
-1
40
0
40
0
40
0
10
-3.7623749590137265
20
-1.7595450086246025
30
0
10
-3.7483278273643461
20
-1.8068375506434915
30
0
10
-3.7391738712897413
20
-1.8493772487812365
30
0
0
SPLINE
5
123
100
AcDbEntity
8
0
100
AcDbSpline
70
0
71
2
72
6
73
3
74
0
42
0.000000001
43
0.0000000001
44
0.0000000001
40
-1
40
-1
40
-1
40
0
40
0
40
0
10
-3.7391738712897413
20
-1.8493772487812365
30
0
10
-3.7220599156350889
20
-1.928908164328381
30
0
10
-3.7233244560474068
20
-1.9949768994529598
30
0
0
SPLINE
5
124
100
AcDbEntity
8
0
100
AcDbSpline
70
0
71
2
72
6
73
3
74
0
42
0.000000001
43
0.0000000001
44
0.0000000001
40
-1
40
-1
40
-1
40
0
40
0
40
0
10
-3.7233244560474068
20
-1.9949768994529598
30
0
10
-3.728077604648401
20
-2.1527509879201241
30
0
10
-3.790962458596562
20
-2.1662829408017696
30
0
0
SPLINE
5
125
100
AcDbEntity
8
0
100
AcDbSpline
70
0
71
2
72
6
73
3
74
0
42
0.000000001
43
0.0000000001
44
0.0000000001
40
-1
40
-1
40
-1
40
0
40
0
40
0
10
-3.790962458596562
20
-2.1662829408017696
30
0
10
-3.8704933053199344
20
-2.1833968816464964
30
0
10
-3.9564615473716014
20
-1.9367739205985408
30
0
0
SPLINE
5
126
100
AcDbEntity
8
0
100
AcDbSpline
70
0
71
2
72
6
73
3
74
0
42
0.000000001
43
0.0000000001
44
0.0000000001
40
-1
40
-1
40
-1
40
0
40
0
40
0
10
-3.9564615473716014
20
-1.9367739205985408
30
0
10
-3.9995159639050715
20
-1.8086392182122768
30
0
10
-4.035733855362821
20
-1.6403296745306672
30
0
0
SPLINE
5
127
100
AcDbEntity
8
0
100
AcDbSpline
70
0
71
2
72
6
73
3
74
0
42
0.000000001
43
0.0000000001
44
0.0000000001
40
-1
40
-1
40
-1
40
-0.30260732192780065
40
-0.30260732192780065
40
-0.30260732192780065
10
-4.035733855362821
20
-1.6403296745306672
30
0
10
-4.0612694631301176
20
-1.5216621784960072
30
0
10
-4.0871009954954491
20
-1.3578807427196138
30
0
0
ARC
5
128
100
AcDbEntity
8
0
100
AcDbCircle
10
-0.010401715435844902
20
-18.937776730837317
30
0
40
18.046390774708215
210
0
220
-0
230
1
100
AcDbArc
50
76.871196355593483
51
77.417415877079407
0
SPLINE
5
129
100
AcDbEntity
8
0
100
AcDbSpline
70
0
71
2
72
6
73
3
74
0
42
0.000000001
43
0.0000000001
44
0.0000000001
40
-0.78862177361142693
40
-0.78862177361142693
40
-0.78862177361142693
40
0
40
0
40
0
10
4.0886719875897288
20
-1.3630842791715392
30
0
10
3.9682388778434081
20
-1.684301619678751
30
0
10
3.8639495737627296
20
-1.8809048903068437
30
0
0
SPLINE
5
130
100
AcDbEntity
8
0
100
AcDbSpline
70
0
71
2
72
6
73
3
74
0
42
0.000000001
43
0.0000000001
44
0.0000000001
40
-1
40
-1
40
-1
40
0
40
0
40
0
10
3.8639495737627296
20
-1.8809048903068437
30
0
10
3.7688657119723765
20
-2.053793866904837
30
0
10
3.6665325100998958
20
-2.1330329517021007
30
0
0
SPLINE
5
131
100
AcDbEntity
8
0
100
AcDbSpline
70
0
71
2
72
6
73
3
74
0
42
0.000000001
43
0.0000000001
44
0.0000000001
40
-1
40
-1
40
-1
40
0
40
0
40
0
10
3.6665325100998958
20
-2.1330329517021007
30
0
10
3.6029609338719739
20
-2.1753326238305006
30
0
10
3.5589768053709663
20
-2.1640610784990706
30
0
0
SPLINE
5
132
100
AcDbEntity
8
0
100
AcDbSpline
70
0
71
2
72
6
73
3
74
0
42
0.000000001
43
0.0000000001
44
0.0000000001
40
-1
40
-1
40
-1
40
0
40
0
40
0
10
3.5589768053709663
20
-2.1640610784990706
30
0
10
3.5443154443585314
20
-2.1603039006054958
30
0
10
3.5328957375589392
20
-2.1515181705748567
30
0
0
SPLINE
5
133
100
AcDbEntity
8
0
100
AcDbSpline
70
0
71
2
72
6
73
3
74
0
42
0.000000001
43
0.0000000001
44
0.0000000001
40
-1
40
-1
40
-1
40
0
40
0
40
0
10
3.5328957375589392
20
-2.1515181705748567
30
0
10
3.4570923638191124
20
-2.0891260624696293
30
0
10
3.4742751950224364
20
-1.9763478548842526
30
0
0
SPLINE
5
134
100
AcDbEntity
8
0
100
AcDbSpline
70
0
71
2
72
6
73
3
74
0
42
0.000000001
43
0.0000000001
44
0.0000000001
40
-1
40
-1
40
-1
40
0
40
0
40
0
10
3.4742751950224364
20
-1.9763478548842526
30
0
10
3.480002758441012
20
-1.9387553653790919
30
0
10
3.4893957439524201
20
-1.9021018037250548
30
0
0
SPLINE
5
135
100
AcDbEntity
8
0
100
AcDbSpline
70
0
71
2
72
6
73
3
74
0
42
0.000000001
43
0.0000000001
44
0.0000000001
40
-1
40
-1
40
-1
40
0
40
0
40
0
10
3.4893957439524201
20
-1.9021018037250548
30
0
10
3.5039548388731245
20
-1.8452889104596546
30
0
10
3.5276772787436403
20
-1.790824251921401
30
0
0
SPLINE
5
136
100
AcDbEntity
8
0
100
AcDbSpline
70
0
71
2
72
6
73
3
74
0
42
0.000000001
43
0.0000000001
44
0.0000000001
40
-1
40
-1
40
-1
40
0
40
0
40
0
10
3.5276772787436403
20
-1.790824251921401
30
0
10
3.5685929774144016
20
-1.6997522575717023
30
0
10
3.6056137066363809
20
-1.6467427680424689
30
0
0
SPLINE
5
137
100
AcDbEntity
8
0
100
AcDbSpline
70
0
71
2
72
6
73
3
74
0
42
0.000000001
43
0.0000000001
44
0.0000000001
40
-1
40
-1
40
-1
40
-0.30160473208992666
40
-0.30160473208992666
40
-0.30160473208992666
10
3.6056137066363809
20
-1.6467427680424689
30
0
10
3.7397132326239926
20
-1.4587782066281967
30
0
10
3.9209429291254625
20
-1.324805679354061
30
0
0
SPLINE
5
138
100
AcDbEntity
8
0
100
AcDbSpline
70
4
71
3
72
8
73
4
74
0
42
0.000000001
43
0.0000000001
44
0.0000000001
40
0
40
0
40
0
40
0
40
1
40
1
40
1
40
1
41
1
41
1
41
1
41
1
10
5.2719130786273238
20
-2.9855073493343403
30
0
10
5.315625114468391
20
-2.9613903997319646
30
0
10
5.3615980244919541
20
-2.9485782810368302
30
0
10
5.4098320386953924
20
-2.9485782810368302
30
0
0
SPLINE
5
139
100
AcDbEntity
8
0
100
AcDbSpline
70
4
71
3
72
8
73
4
74
0
42
0.000000001
43
0.0000000001
44
0.0000000001
40
0
40
0
40
0
40
0
40
1
40
1
40
1
40
1
41
1
41
1
41
1
41
1
10
5.4098320386953924
20
-2.9485782810368302
30
0
10
5.4565587651109331
20
-2.9485782810368302
30
0
10
5.5017780887398935
20
-2.9606368133373606
30
0
10
5.5447363081889804
20
-2.9840000615464457
30
0
0
LINE
5
140
100
AcDbEntity
8
0
100
AcDbLine
10
5.5447363081889804
20
-2.9840000615464457
30
0
11
5.5605631174585914
21
-2.9930439032725005
31
0
0
SPLINE
5
141
100
AcDbEntity
8
0
100
AcDbSpline
70
4
71
3
72
8
73
4
74
0
42
0.000000001
43
0.0000000001
44
0.0000000001
40
0
40
0
40
0
40
0
40
1
40
1
40
1
40
1
41
1
41
1
41
1
41
1
10
5.5605631174585914
20
-2.9930439032725005
30
0
10
5.5620705202451752
20
-2.9937976046657906
30
0
10
5.5635776930343805
20
-2.994551191060395
30
0
10
5.564331394427672
20
-2.9953048924536856
30
0
0
SPLINE
5
142
100
AcDbEntity
8
0
100
AcDbSpline
70
4
71
3
72
8
73
4
74
0
42
0.000000001
43
0.0000000001
44
0.0000000001
40
0
40
0
40
0
40
0
40
1
40
1
40
1
40
1
41
1
41
1
41
1
41
1
10
5.564331394427672
20
-2.9953048924536856
30
0
10
5.5703605455792511
20
-2.9990731694227657
30
0
10
5.5763899267282024
20
-3.0028414463918458
30
0
10
5.5824190778797815
20
-3.007363424754216
30
0
0
LINE
5
143
100
AcDbEntity
8
0
100
AcDbLine
10
5.5824190778797815
20
-3.007363424754216
30
0
11
5.5839264806663635
21
-3.008870712542111
31
0
0
SPLINE
5
144
100
AcDbEntity
8
0
100
AcDbSpline
70
4
71
3
72
8
73
4
74
0
42
0.000000001
43
0.0000000001
44
0.0000000001
40
0
40
0
40
0
40
0
40
1
40
1
40
1
40
1
41
1
41
1
41
1
41
1
10
5.5839264806663644
20
-3.008870712542111
30
0
10
5.5967387143601854
20
-3.0179145542681662
30
0
10
5.6087970166633436
20
-3.0284657987808017
30
0
10
5.6216092503571646
20
-3.0390169282947515
30
0
0
SPLINE
5
145
100
AcDbEntity
8
0
100
AcDbSpline
70
4
71
3
72
8
73
4
74
0
42
0.000000001
43
0.0000000001
44
0.0000000001
40
0
40
0
40
0
40
0
40
1
40
1
40
1
40
1
41
1
41
1
41
1
41
1
10
5.6216092503571646
20
-3.0390169282947515
30
0
10
5.7678183507579934
20
-3.171660323605844
30
0
10
5.8673009547406565
20
-3.436946884230653
30
0
10
5.8673009547406565
20
-3.7429310201194275
30
0
0
SPLINE
5
146
100
AcDbEntity
8
0
100
AcDbSpline
70
4
71
3
72
8
73
4
74
0
42
0.000000001
43
0.0000000001
44
0.0000000001
40
0
40
0
40
0
40
0
40
1
40
1
40
1
40
1
41
1
41
1
41
1
41
1
10
5.8673009547406565
20
-3.7429310201194275
30
0
10
5.8680544261365748
20
-4.0481612246175365
30
0
10
5.7685718221539108
20
-4.3142014866356364
30
0
10
5.6223627217530812
20
-4.4468448819467294
30
0
0
SPLINE
5
147
100
AcDbEntity
8
0
100
AcDbSpline
70
4
71
3
72
8
73
4
74
0
42
0.000000001
43
0.0000000001
44
0.0000000001
40
0
40
0
40
0
40
0
40
1
40
1
40
1
40
1
41
1
41
1
41
1
41
1
10
5.6223627217530812
20
-4.4468448819467294
30
0
10
5.6103041894525507
20
-4.4581497128539684
30
0
10
5.5974921857561011
20
-4.4679471409746281
30
0
10
5.584679952062281
20
-4.4769910976993694
30
0
0
SPLINE
5
148
100
AcDbEntity
8
0
100
AcDbSpline
70
4
71
3
72
8
73
4
74
0
42
0.000000001
43
0.0000000001
44
0.0000000001
40
0
40
0
40
0
40
0
40
1
40
1
40
1
40
1
41
1
41
1
41
1
41
1
10
5.584679952062281
20
-4.4769910976993694
30
0
10
5.5839262506689904
20
-4.47774479909266
30
0
10
5.5831725492756998
20
-4.47774479909266
30
0
10
5.5824190778797815
20
-4.4784985004859506
30
0
0
SPLINE
5
149
100
AcDbEntity
8
0
100
AcDbSpline
70
4
71
3
72
8
73
4
74
0
42
0.000000001
43
0.0000000001
44
0.0000000001
40
0
40
0
40
0
40
0
40
1
40
1
40
1
40
1
41
1
41
1
41
1
41
1
10
5.5824190778797815
20
-4.4784985004859506
30
0
10
5.5763899267282024
20
-4.4822667774550302
30
0
10
5.5711142469725434
20
-4.4867887558174004
30
0
10
5.5650850958209643
20
-4.4898033313931904
30
0
0
SPLINE
5
150
100
AcDbEntity
8
0
100
AcDbSpline
70
4
71
3
72
8
73
4
74
0
42
0.000000001
43
0.0000000001
44
0.0000000001
40
0
40
0
40
0
40
0
40
1
40
1
40
1
40
1
41
1
41
1
41
1
41
1
10
5.5650850958209643
20
-4.4898033313931904
30
0
10
5.5635776930343805
20
-4.490557032786481
30
0
10
5.5620705202451752
20
-4.4920642055756899
30
0
10
5.5598094160653009
20
-4.4928179069689804
30
0
0
SPLINE
5
151
100
AcDbEntity
8
0
100
AcDbSpline
70
4
71
3
72
8
73
4
74
0
42
0.000000001
43
0.0000000001
44
0.0000000001
40
0
40
0
40
0
40
0
40
1
40
1
40
1
40
1
41
1
41
1
41
1
41
1
10
5.5598094160653009
20
-4.4928179069689804
30
0
10
5.5545337363096401
20
-4.4958324825447695
30
0
10
5.5500119879446439
20
-4.4988470581205604
30
0
10
5.5447363081889804
20
-4.5018618636937209
30
0
0
SPLINE
5
152
100
AcDbEntity
8
0
100
AcDbSpline
70
4
71
3
72
8
73
4
74
0
42
0.000000001
43
0.0000000001
44
0.0000000001
40
0
40
0
40
0
40
0
40
1
40
1
40
1
40
1
41
1
41
1
41
1
41
1
10
5.5447363081889804
20
-4.5018618636937209
30
0
10
5.5017778587425195
20
-4.5244715255082015
30
0
10
5.456558535113559
20
-4.5372837592020243
30
0
10
5.4098320386953924
20
-4.5372837592020243
30
0
0
SPLINE
5
153
100
AcDbEntity
8
0
100
AcDbSpline
70
4
71
3
72
8
73
4
74
0
42
0.000000001
43
0.0000000001
44
0.0000000001
40
0
40
0
40
0
40
0
40
1
40
1
40
1
40
1
41
1
41
1
41
1
41
1
10
5.4098320386953924
20
-4.5372837592020243
30
0
10
5.3615981394906411
20
-4.5372837592020243
30
0
10
5.315625114468391
20
-4.5244715255082015
30
0
10
5.2719130786273238
20
-4.5003546909045147
30
0
0
SPLINE
5
154
100
AcDbEntity
8
0
100
AcDbSpline
70
4
71
3
72
8
73
4
74
0
42
0.000000001
43
0.0000000001
44
0.0000000001
40
0
40
0
40
0
40
0
40
1
40
1
40
1
40
1
41
1
41
1
41
1
41
1
10
5.2719130786273238
20
-4.5003546909045147
30
0
10
5.2455351398437635
20
-4.4860352844214848
30
0
10
5.2199109024534955
20
-4.4671938995760847
30
0
10
5.1957938378524338
20
-4.4445842377616041
30
0
0
SPLINE
5
155
100
AcDbEntity
8
0
100
AcDbSpline
70
4
71
3
72
8
73
4
74
0
42
0.000000001
43
0.0000000001
44
0.0000000001
40
0
40
0
40
0
40
0
40
1
40
1
40
1
40
1
41
1
41
1
41
1
41
1
10
5.1957938378524338
20
-4.4445842377616041
30
0
10
5.0510920252394964
20
-4.3111871410572205
30
0
10
4.9523631226501248
20
-4.0466542818257034
30
0
10
4.9523631226501248
20
-3.7429310201194275
30
0
0
SPLINE
5
156
100
AcDbEntity
8
0
100
AcDbSpline
70
4
71
3
72
8
73
4
74
0
42
0.000000001
43
0.0000000001
44
0.0000000001
40
0
40
0
40
0
40
0
40
1
40
1
40
1
40
1
41
1
41
1
41
1
41
1
10
4.9523631226501248
20
-3.7429310201194275
30
0
10
4.9523631226501248
20
-3.4392077584131524
30
0
10
5.0510920252394964
20
-3.1746748991816327
30
0
10
5.1957938378524338
20
-3.0412778024772495
30
0
0
SPLINE
5
157
100
AcDbEntity
8
0
100
AcDbSpline
70
4
71
3
72
8
73
4
74
0
42
0.000000001
43
0.0000000001
44
0.0000000001
40
0
40
0
40
0
40
0
40
1
40
1
40
1
40
1
41
1
41
1
41
1
41
1
10
5.1957938378524338
20
-3.0412778024772495
30
0
10
5.2199107874548085
20
-3.0186681406627693
30
0
10
5.2455351398437635
20
-3.0005804572106594
30
0
10
5.2719130786273238
20
-2.9855073493343403
30
0
0
SPLINE
5
158
100
AcDbEntity
8
0
100
AcDbSpline
70
4
71
3
72
8
73
4
74
0
42
0.000000001
43
0.0000000001
44
0.0000000001
40
0
40
0
40
0
40
0
40
1
40
1
40
1
40
1
41
1
41
1
41
1
41
1
10
4.9546241118313112
20
-2.9689263786766915
30
0
10
4.990045892340925
20
-2.9794775081906408
30
0
10
5.0247140864559361
20
-2.9855067743409065
30
0
10
5.0586285791776566
20
-2.9855067743409065
30
0
0
SPLINE
5
159
100
AcDbEntity
8
0
100
AcDbSpline
70
4
71
3
72
8
73
4
74
0
42
0.000000001
43
0.0000000001
44
0.0000000001
40
0
40
0
40
0
40
0
40
1
40
1
40
1
40
1
41
1
41
1
41
1
41
1
10
5.0586285791776566
20
-2.9855067743409065
30
0
10
5.0759626762351635
20
-2.9855067743409065
30
0
10
5.0932967732926677
20
-2.9839994865530115
30
0
10
5.1098771689568832
20
-2.9809847959785349
30
0
0
SPLINE
5
160
100
AcDbEntity
8
0
100
AcDbSpline
70
4
71
3
72
8
73
4
74
0
42
0.000000001
43
0.0000000001
44
0.0000000001
40
0
40
0
40
0
40
0
40
1
40
1
40
1
40
1
41
1
41
1
41
1
41
1
10
5.1098771689568832
20
-2.9809847959785349
30
0
10
5.1128917445326714
20
-2.9824920837664295
30
0
10
5.1166600215017528
20
-2.9839993715543245
30
0
10
5.119674712076228
20
-2.9862603607355096
30
0
0
SPLINE
5
161
100
AcDbEntity
8
0
100
AcDbSpline
70
4
71
3
72
8
73
4
74
0
42
0.000000001
43
0.0000000001
44
0.0000000001
40
0
40
0
40
0
40
0
40
1
40
1
40
1
40
1
41
1
41
1
41
1
41
1
10
5.119674712076228
20
-2.9862603607355096
30
0
10
4.962914367162762
20
-3.140759716467791
30
0
10
4.8596636012097054
20
-3.4196122121797137
30
0
10
4.8596636012097054
20
-3.7436840315205964
30
0
0
SPLINE
5
162
100
AcDbEntity
8
0
100
AcDbSpline
70
4
71
3
72
8
73
4
74
0
42
0.000000001
43
0.0000000001
44
0.0000000001
40
0
40
0
40
0
40
0
40
1
40
1
40
1
40
1
41
1
41
1
41
1
41
1
10
4.8596636012097054
20
-3.7436840315205964
30
0
10
4.8596636012097054
20
-4.0677558508614791
30
0
10
4.9621607807681585
20
-4.3466083465734036
30
0
10
5.119674712076228
20
-4.5011077023056822
30
0
0
SPLINE
5
163
100
AcDbEntity
8
0
100
AcDbSpline
70
4
71
3
72
8
73
4
74
0
42
0.000000001
43
0.0000000001
44
0.0000000001
40
0
40
0
40
0
40
0
40
1
40
1
40
1
40
1
41
1
41
1
41
1
41
1
10
5.119674712076228
20
-4.5011077023056822
30
0
10
5.0767162626297662
20
-4.523717824114911
30
0
10
5.0307432376075161
20
-4.5372835292046494
30
0
10
4.9825093384027648
20
-4.5372835292046494
30
0
0
SPLINE
5
164
100
AcDbEntity
8
0
100
AcDbSpline
70
4
71
3
72
8
73
4
74
0
42
0.000000001
43
0.0000000001
44
0.0000000001
40
0
40
0
40
0
40
0
40
1
40
1
40
1
40
1
41
1
41
1
41
1
41
1
10
4.9825093384027648
20
-4.5372835292046494
30
0
10
4.9161876407472205
20
-4.5372835292046494
30
0
10
4.8528806336661496
20
-4.5124129932076711
30
0
10
4.7956027777366588
20
-4.4679471409746281
30
0
0
SPLINE
5
165
100
AcDbEntity
8
0
100
AcDbSpline
70
4
71
3
72
8
73
4
74
0
42
0.000000001
43
0.0000000001
44
0.0000000001
40
0
40
0
40
0
40
0
40
1
40
1
40
1
40
1
41
1
41
1
41
1
41
1
10
4.7956027777366588
20
-4.4679471409746281
30
0
10
4.7895735115863927
20
-4.4634251626122579
30
0
10
4.7835442454361283
20
-4.4581497128539684
30
0
10
4.7782686806791537
20
-4.4536277344915991
30
0
0
SPLINE
5
166
100
AcDbEntity
8
0
100
AcDbSpline
70
0
71
2
72
6
73
3
74
0
42
0.000000001
43
0.0000000001
44
0.0000000001
40
0
40
0
40
0
40
1
40
1
40
1
10
4.7782686806791537
20
-4.4536277344915991
30
0
10
4.7775149792858613
20
-4.4536277344915991
30
0
10
4.7775149792858613
20
-4.4528740330983076
30
0
0
SPLINE
5
167
100
AcDbEntity
8
0
100
AcDbSpline
70
4
71
3
72
8
73
4
74
0
42
0.000000001
43
0.0000000001
44
0.0000000001
40
0
40
0
40
0
40
0
40
1
40
1
40
1
40
1
41
1
41
1
41
1
41
1
10
4.7775149792858613
20
-4.4528740330983076
30
0
10
4.7722394145288876
20
-4.4483520547359374
30
0
10
4.7662101483786214
20
-4.4430766049776498
30
0
10
4.7609345836216477
20
-4.4378009252219881
30
0
0
LINE
5
168
100
AcDbEntity
8
0
100
AcDbLine
10
4.7609345836216477
20
-4.4378009252219872
30
0
11
4.7571663066525689
21
-4.4340326482529084
31
0
0
LINE
5
169
100
AcDbEntity
8
0
100
AcDbLine
10
4.7571663066525689
20
-4.4340326482529084
30
0
11
4.7443541879574331
21
-4.4212204145590848
31
0
0
SPLINE
5
170
100
AcDbEntity
8
0
100
AcDbSpline
70
4
71
3
72
8
73
4
74
0
42
0.000000001
43
0.0000000001
44
0.0000000001
40
0
40
0
40
0
40
0
40
1
40
1
40
1
40
1
41
1
41
1
41
1
41
1
10
4.7443541879574331
20
-4.4212204145590848
30
0
10
4.7383249218071679
20
-4.4151912634075074
30
0
10
4.7330493570501915
20
-4.4091618822585543
30
0
10
4.7277737922932177
20
-4.4023790297136847
30
0
0
SPLINE
5
171
100
AcDbEntity
8
0
100
AcDbSpline
70
4
71
3
72
8
73
4
74
0
42
0.000000001
43
0.0000000001
44
0.0000000001
40
0
40
0
40
0
40
0
40
1
40
1
40
1
40
1
41
1
41
1
41
1
41
1
10
4.7277737922932177
20
-4.4023790297136847
30
0
10
4.6064352278893654
20
-4.2599382062819364
30
0
10
4.5257941237507913
20
-4.0180147788675225
30
0
10
4.5257941237507913
20
-3.7436842615179691
30
0
0
SPLINE
5
172
100
AcDbEntity
8
0
100
AcDbSpline
70
4
71
3
72
8
73
4
74
0
42
0.000000001
43
0.0000000001
44
0.0000000001
40
0
40
0
40
0
40
0
40
1
40
1
40
1
40
1
41
1
41
1
41
1
41
1
10
4.5257941237507913
20
-3.7436842615179691
30
0
10
4.5257941237507913
20
-3.4535269348988078
30
0
10
4.6154790696154215
20
-3.1995450901825504
30
0
10
4.7488761663198042
20
-3.060872428721193
30
0
0
SPLINE
5
173
100
AcDbEntity
8
0
100
AcDbSpline
70
4
71
3
72
8
73
4
74
0
42
0.000000001
43
0.0000000001
44
0.0000000001
40
0
40
0
40
0
40
0
40
1
40
1
40
1
40
1
41
1
41
1
41
1
41
1
10
4.7488761663198042
20
-3.060872428721193
30
0
10
4.771485828134284
20
-3.0375090655134227
30
0
10
4.7956027777366588
20
-3.0171603928801276
30
0
10
4.8204734287323259
20
-3.0005799972159122
30
0
0
SPLINE
5
174
100
AcDbEntity
8
0
100
AcDbSpline
70
4
71
3
72
8
73
4
74
0
42
0.000000001
43
0.0000000001
44
0.0000000001
40
0
40
0
40
0
40
0
40
1
40
1
40
1
40
1
41
1
41
1
41
1
41
1
10
4.8204734287323259
20
-3.0005799972159122
30
0
10
4.8212271301256164
20
-2.9998262958226221
30
0
10
4.8219807165202191
20
-2.9998262958226221
30
0
10
4.8227344179135097
20
-2.9990727094280185
30
0
0
SPLINE
5
175
100
AcDbEntity
8
0
100
AcDbSpline
70
4
71
3
72
8
73
4
74
0
42
0.000000001
43
0.0000000001
44
0.0000000001
40
0
40
0
40
0
40
0
40
1
40
1
40
1
40
1
41
1
41
1
41
1
41
1
10
4.8227344179135097
20
-2.9990727094280185
30
0
10
4.84609778112128
20
-2.9937971446710439
30
0
10
4.8694610293303651
20
-2.9847533029449886
30
0
10
4.8928243925381363
20
-2.9719410692511681
30
0
0
SPLINE
5
176
100
AcDbEntity
8
0
100
AcDbSpline
70
4
71
3
72
8
73
4
74
0
42
0.000000001
43
0.0000000001
44
0.0000000001
40
0
40
0
40
0
40
0
40
1
40
1
40
1
40
1
41
1
41
1
41
1
41
1
10
4.8928243925381363
20
-2.9719410692511681
30
0
10
4.8973463709005065
20
-2.9696800800699816
30
0
10
4.910912075990244
20
-2.9659118031009015
30
0
10
4.9289998744410415
20
-2.9659118031009015
30
0
0
SPLINE
5
177
100
AcDbEntity
8
0
100
AcDbSpline
70
4
71
3
72
8
73
4
74
0
42
0.000000001
43
0.0000000001
44
0.0000000001
40
0
40
0
40
0
40
0
40
1
40
1
40
1
40
1
41
1
41
1
41
1
41
1
10
4.9289998744410415
20
-2.9659118031009015
30
0
10
4.9387974175603873
20
-2.9659118031009015
30
0
10
4.9485949606797321
20
-2.9674190908887965
30
0
10
4.9546241118313112
20
-2.9689263786766915
30
0
0
SPLINE
5
178
100
AcDbEntity
8
0
100
AcDbSpline
70
4
71
3
72
8
73
4
74
0
42
0.000000001
43
0.0000000001
44
0.0000000001
40
0
40
0
40
0
40
0
40
1
40
1
40
1
40
1
41
1
41
1
41
1
41
1
10
5.7060182864687583
20
-2.2341127147021447
30
0
10
5.7097865634378389
20
-2.2371273477772777
30
0
10
5.7135548404069194
20
-2.2408956247463574
30
0
10
5.7180768187692887
20
-2.2454175456093846
30
0
0
SPLINE
5
179
100
AcDbEntity
8
0
100
AcDbSpline
70
4
71
3
72
8
73
4
74
0
42
0.000000001
43
0.0000000001
44
0.0000000001
40
0
40
0
40
0
40
0
40
1
40
1
40
1
40
1
41
1
41
1
41
1
41
1
10
5.7180768187692887
20
-2.2454175456093846
30
0
10
5.7497304373085107
20
-2.278578394437158
30
0
10
5.7670644193673297
20
-2.3313342720042778
30
0
10
5.7617887396116689
20
-2.3818291603902138
30
0
0
SPLINE
5
180
100
AcDbEntity
8
0
100
AcDbSpline
70
4
71
3
72
8
73
4
74
0
42
0.000000001
43
0.0000000001
44
0.0000000001
40
0
40
0
40
0
40
0
40
1
40
1
40
1
40
1
41
1
41
1
41
1
41
1
10
5.7617887396116689
20
-2.3818291603902138
30
0
10
5.7580204626425884
20
-2.4315704048822009
30
0
10
5.7323962252523195
20
-2.481311706873532
30
0
10
5.6916988799857284
20
-2.5167334873831475
30
0
0
SPLINE
5
181
100
AcDbEntity
8
0
100
AcDbSpline
70
4
71
3
72
8
73
4
74
0
42
0.000000001
43
0.0000000001
44
0.0000000001
40
0
40
0
40
0
40
0
40
1
40
1
40
1
40
1
41
1
41
1
41
1
41
1
10
5.6916988799857284
20
-2.5167334873831475
30
0
10
5.6819014518650715
20
-2.5257773291092023
30
0
10
5.6705966209578316
20
-2.5340675844406526
30
0
10
5.6607989628397979
20
-2.5408504369855223
30
0
0
SPLINE
5
182
100
AcDbEntity
8
0
100
AcDbSpline
70
4
71
3
72
8
73
4
74
0
42
0.000000001
43
0.0000000001
44
0.0000000001
40
0
40
0
40
0
40
0
40
1
40
1
40
1
40
1
41
1
41
1
41
1
41
1
10
5.6607989628397979
20
-2.5408504369855223
30
0
10
5.6487404305392674
20
-2.5483869909236825
30
0
10
5.6381893010253181
20
-2.5551698434685521
30
0
10
5.6253770673314971
20
-2.5604455232242134
30
0
0
SPLINE
5
183
100
AcDbEntity
8
0
100
AcDbSpline
70
4
71
3
72
8
73
4
74
0
42
0.000000001
43
0.0000000001
44
0.0000000001
40
0
40
0
40
0
40
0
40
1
40
1
40
1
40
1
41
1
41
1
41
1
41
1
10
5.6253770673314971
20
-2.5604455232242134
30
0
10
5.6027674055170165
20
-2.5702430663435583
30
0
10
5.5778968695200364
20
-2.5762723324938239
30
0
10
5.551518930736477
20
-2.5777796202817185
30
0
0
LINE
5
184
100
AcDbEntity
8
0
100
AcDbLine
10
5.551518930736477
20
-2.5777796202817189
30
0
11
5.5409678012225285
21
-2.5777796202817185
31
0
0
SPLINE
5
185
100
AcDbEntity
8
0
100
AcDbSpline
70
4
71
3
72
8
73
4
74
0
42
0.000000001
43
0.0000000001
44
0.0000000001
40
0
40
0
40
0
40
0
40
1
40
1
40
1
40
1
41
1
41
1
41
1
41
1
10
5.5409678012225285
20
-2.5777796202817185
30
0
10
5.5047924343183086
20
-2.5777796202817185
30
0
10
5.4671096646275084
20
-2.5687357785556637
30
0
10
5.4309340677259152
20
-2.5529089692860527
30
0
0
SPLINE
5
186
100
AcDbEntity
8
0
100
AcDbSpline
70
4
71
3
72
8
73
4
74
0
42
0.000000001
43
0.0000000001
44
0.0000000001
40
0
40
0
40
0
40
0
40
1
40
1
40
1
40
1
41
1
41
1
41
1
41
1
10
5.4309340677259152
20
-2.5529089692860527
30
0
10
5.4053098303356473
20
-2.5235164549267042
30
0
10
5.39475858582301
20
-2.4873409730237981
30
0
10
5.39475858582301
20
-2.4489045019397064
30
0
0
SPLINE
5
187
100
AcDbEntity
8
0
100
AcDbSpline
70
4
71
3
72
8
73
4
74
0
42
0.000000001
43
0.0000000001
44
0.0000000001
40
0
40
0
40
0
40
0
40
1
40
1
40
1
40
1
41
1
41
1
41
1
41
1
10
5.39475858582301
20
-2.4489045019397064
30
0
10
5.4007880819706484
20
-2.420265573974961
30
0
10
5.4083246359088086
20
-2.3938876351914007
30
0
10
5.4173684776348647
20
-2.3682633403017883
30
0
0
SPLINE
5
188
100
AcDbEntity
8
0
100
AcDbSpline
70
4
71
3
72
8
73
4
74
0
42
0.000000001
43
0.0000000001
44
0.0000000001
40
0
40
0
40
0
40
0
40
1
40
1
40
1
40
1
41
1
41
1
41
1
41
1
10
5.4173684776348647
20
-2.3682633403017883
30
0
10
5.4331952869044757
20
-2.3275659375358546
30
0
10
5.4550513623243519
20
-2.292897800920187
30
0
10
5.4821827725038288
20
-2.2657662182426801
30
0
0
SPLINE
5
189
100
AcDbEntity
8
0
100
AcDbSpline
70
4
71
3
72
8
73
4
74
0
42
0.000000001
43
0.0000000001
44
0.0000000001
40
0
40
0
40
0
40
0
40
1
40
1
40
1
40
1
41
1
41
1
41
1
41
1
10
5.4821827725038288
20
-2.2657662182426801
30
0
10
5.5153435638322588
20
-2.2333590133088541
30
0
10
5.5552874377029315
20
-2.2130103406755595
30
0
10
5.5959847829695208
20
-2.2077347759185844
30
0
0
SPLINE
5
190
100
AcDbEntity
8
0
100
AcDbSpline
70
4
71
3
72
8
73
4
74
0
42
0.000000001
43
0.0000000001
44
0.0000000001
40
0
40
0
40
0
40
0
40
1
40
1
40
1
40
1
41
1
41
1
41
1
41
1
10
5.5959847829695208
20
-2.2077347759185844
30
0
10
5.6201018475705826
20
-2.2047201428434522
30
0
10
5.6419578079917718
20
-2.2062274881306894
30
0
10
5.662306365626379
20
-2.2122566967816111
30
0
0
SPLINE
5
191
100
AcDbEntity
8
0
100
AcDbSpline
70
4
71
3
72
8
73
4
74
0
42
0.000000001
43
0.0000000001
44
0.0000000001
40
0
40
0
40
0
40
0
40
1
40
1
40
1
40
1
41
1
41
1
41
1
41
1
10
5.662306365626379
20
-2.2122566967816111
30
0
10
5.6721037937470387
20
-2.2145176859627971
30
0
10
5.682655153258362
20
-2.2197932507197722
30
0
10
5.6916988799857284
20
-2.2243151715827993
30
0
0
SPLINE
5
192
100
AcDbEntity
8
0
100
AcDbSpline
70
4
71
3
72
8
73
4
74
0
42
0.000000001
43
0.0000000001
44
0.0000000001
40
0
40
0
40
0
40
0
40
1
40
1
40
1
40
1
41
1
41
1
41
1
41
1
10
5.6916988799857284
20
-2.2243151715827993
30
0
10
5.6932062827723113
20
-2.2250688154767464
30
0
10
5.6947134555615184
20
-2.2258224593706943
30
0
10
5.6962208583480995
20
-2.2273298046579324
30
0
0
SPLINE
5
193
100
AcDbEntity
8
0
100
AcDbSpline
70
4
71
3
72
8
73
4
74
0
42
0.000000001
43
0.0000000001
44
0.0000000001
40
0
40
0
40
0
40
0
40
1
40
1
40
1
40
1
41
1
41
1
41
1
41
1
10
5.6962208583480995
20
-2.2273298046579324
30
0
10
5.6977282611346816
20
-2.2280834485518795
30
0
10
5.698481732530599
20
-2.2288370924458261
30
0
10
5.6999891353171792
20
-2.2295907938391166
30
0
0
LINE
5
194
100
AcDbEntity
8
0
100
AcDbLine
10
5.6999891353171801
20
-2.2295907938391166
30
0
11
5.7060182864687583
21
-2.2341127147021447
31
0
0
SPLINE
5
195
100
AcDbEntity
8
0
100
AcDbSpline
70
4
71
3
72
8
73
4
74
0
42
0.000000001
43
0.0000000001
44
0.0000000001
40
0
40
0
40
0
40
0
40
1
40
1
40
1
40
1
41
1
41
1
41
1
41
1
10
4.4323409009170796
20
-3.742930790122053
30
0
10
4.4323409009170796
20
-4.030073541165426
30
0
10
4.5129820050556564
20
-4.281794396700497
30
0
10
4.640349835609773
20
-4.4423229035843592
30
0
0
SPLINE
5
196
100
AcDbEntity
8
0
100
AcDbSpline
70
4
71
3
72
8
73
4
74
0
42
0.000000001
43
0.0000000001
44
0.0000000001
40
0
40
0
40
0
40
0
40
1
40
1
40
1
40
1
41
1
41
1
41
1
41
1
10
4.640349835609773
20
-4.4423229035843592
30
0
10
4.6169864724020027
20
-4.4498594575225194
30
0
10
4.5921158214063356
20
-4.4543814358848897
30
0
10
4.567245170410672
20
-4.4551351372781802
30
0
0
LINE
5
197
100
AcDbEntity
8
0
100
AcDbLine
10
4.567245170410672
20
-4.4551351372781802
30
0
11
4.5521720625343516
21
-4.4551351372781802
31
0
0
SPLINE
5
198
100
AcDbEntity
8
0
100
AcDbSpline
70
4
71
3
72
8
73
4
74
0
42
0.000000001
43
0.0000000001
44
0.0000000001
40
0
40
0
40
0
40
0
40
1
40
1
40
1
40
1
41
1
41
1
41
1
41
1
10
4.5521720625343516
20
-4.4551351372781802
30
0
10
4.2989438617120417
20
-4.4551351372781802
30
0
10
4.0803837975053998
20
-4.1348315949063776
30
0
10
4.0607887687660522
20
-3.7293650850323141
30
0
0
SPLINE
5
199
100
AcDbEntity
8
0
100
AcDbSpline
70
4
71
3
72
8
73
4
74
0
42
0.000000001
43
0.0000000001
44
0.0000000001
40
0
40
0
40
0
40
0
40
1
40
1
40
1
40
1
41
1
41
1
41
1
41
1
10
4.0607887687660522
20
-3.7293650850323141
30
0
10
4.0404400961327571
20
-3.3156083198268016
30
0
10
4.2341295093437337
20
-2.9704341264593328
30
0
10
4.493387033815651
20
-2.9576220077641979
30
0
0
LINE
5
200
100
AcDbEntity
8
0
100
AcDbLine
10
4.4933870338156519
20
-2.9576220077641984
30
0
11
4.5084601416919714
21
-2.9576220077641979
31
0
0
SPLINE
5
201
100
AcDbEntity
8
0
100
AcDbSpline
70
4
71
3
72
8
73
4
74
0
42
0.000000001
43
0.0000000001
44
0.0000000001
40
0
40
0
40
0
40
0
40
1
40
1
40
1
40
1
41
1
41
1
41
1
41
1
10
4.5084601416919714
20
-2.9576220077641979
30
0
10
4.5657379976214623
20
-2.9576220077641979
30
0
10
4.6215084507643729
20
-2.9742024034284134
30
0
10
4.6735106269382038
20
-3.0043486191810533
30
0
0
SPLINE
5
202
100
AcDbEntity
8
0
100
AcDbSpline
70
4
71
3
72
8
73
4
74
0
42
0.000000001
43
0.0000000001
44
0.0000000001
40
0
40
0
40
0
40
0
40
1
40
1
40
1
40
1
41
1
41
1
41
1
41
1
10
4.6735106269382038
20
-3.0043486191810533
30
0
10
4.5265478251440818
20
-3.1626161368837273
30
0
10
4.4323409009170796
20
-3.4316712044749917
30
0
10
4.4323409009170796
20
-3.742930790122053
30
0
0
SPLINE
5
203
100
AcDbEntity
8
0
100
AcDbSpline
70
4
71
3
72
8
73
4
74
0
42
0.000000001
43
0.0000000001
44
0.0000000001
40
-0.69114073025904887
40
-0.69114073025904887
40
-0.69114073025904887
40
-0.69114073025904887
40
0
40
0
40
0
40
0
41
1
41
1
41
1
41
1
10
-6.8451835418657723
20
-3.9381899362030985
30
0
10
-6.8169378039697666
20
-4.076536998469745
30
0
10
-6.7660248409787194
20
-4.203142015731717
30
0
10
-6.6961531711681044
20
-4.3061380011219681
30
0
0
SPLINE
5
204
100
AcDbEntity
8
0
100
AcDbSpline
70
4
71
3
72
8
73
4
74
0
42
0.000000001
43
0.0000000001
44
0.0000000001
40
-1
40
-1
40
-1
40
-1
40
0
40
0
40
0
40
0
41
1
41
1
41
1
41
1
10
-6.6961531711681044
20
-4.3061380011219681
30
0
10
-6.5868195068912421
20
-4.4671429873723865
30
0
10
-6.4422895408800738
20
-4.5562573294041764
30
0
10
-6.2887731586413045
20
-4.5562573294041764
30
0
0
SPLINE
5
205
100
AcDbEntity
8
0
100
AcDbSpline
70
4
71
3
72
8
73
4
74
0
42
0.000000001
43
0.0000000001
44
0.0000000001
40
-1
40
-1
40
-1
40
-1
40
0
40
0
40
0
40
0
41
1
41
1
41
1
41
1
10
-6.2887731586413045
20
-4.5562573294041764
30
0
10
-6.2820334607376322
20
-4.5562573294041764
30
0
10
-6.2752935342999052
20
-4.5555084232962004
30
0
10
-6.2693027425042089
20
-4.5555084232962004
30
0
0
SPLINE
5
206
100
AcDbEntity
8
0
100
AcDbSpline
70
4
71
3
72
8
73
4
74
0
42
0.000000001
43
0.0000000001
44
0.0000000001
40
-1
40
-1
40
-1
40
-1
40
0
40
0
40
0
40
0
41
1
41
1
41
1
41
1
10
-6.2693027425042089
20
-4.5555084232962004
30
0
10
-6.2213757225364787
20
-4.5532617049722708
30
0
10
-6.175695192358619
20
-4.5427777050627762
30
0
10
-6.1322613805046871
20
-4.5240561950336584
30
0
0
SPLINE
5
207
100
AcDbEntity
8
0
100
AcDbSpline
70
4
71
3
72
8
73
4
74
0
42
0.000000001
43
0.0000000001
44
0.0000000001
40
-1
40
-1
40
-1
40
-1
40
-0.44342420865033749
40
-0.44342420865033749
40
-0.44342420865033749
40
-0.44342420865033749
41
1
41
1
41
1
41
1
10
-6.1322613805046871
20
-4.5240561950336584
30
0
10
-6.0876641167910117
20
-4.5640687872302763
30
0
10
-6.0393550971227841
20
-4.5945702083275535
30
0
10
-5.9881090930197765
20
-4.613752868259386
30
0
0
LINE
5
208
100
AcDbEntity
8
0
100
AcDbLine
10
-5.9881090930197765
20
-4.613752868259386
30
0
11
-6.8451837750876683
21
-4.6137528689811402
31
0
0
LINE
5
209
100
AcDbEntity
8
0
100
AcDbLine
10
-6.8451837750876683
20
-4.6137528689811402
30
0
11
-6.8451835418657723
21
-3.9381899362030985
31
0
0
SPLINE
5
210
100
AcDbEntity
8
0
100
AcDbSpline
70
4
71
3
72
8
73
4
74
0
42
0.000000001
43
0.0000000001
44
0.0000000001
40
-1
40
-1
40
-1
40
-1
40
0
40
0
40
0
40
0
41
1
41
1
41
1
41
1
10
-6.3344536888191652
20
-2.9746637279295607
30
0
10
-6.2775402526238322
20
-2.9746637279295607
30
0
10
-6.2221246286444547
20
-2.9911386339017789
30
0
10
-6.1704533066709004
20
-3.0210930499483677
30
0
0
SPLINE
5
211
100
AcDbEntity
8
0
100
AcDbSpline
70
4
71
3
72
8
73
4
74
0
42
0.000000001
43
0.0000000001
44
0.0000000001
40
-1
40
-1
40
-1
40
-1
40
0
40
0
40
0
40
0
41
1
41
1
41
1
41
1
10
-6.1704533066709004
20
-3.0210930499483677
30
0
10
-6.3157321787900473
20
-3.1776048280849847
30
0
10
-6.4093397289356364
20
-3.4449480827144163
30
0
10
-6.4093397289356364
20
-3.7542273369818249
30
0
0
SPLINE
5
212
100
AcDbEntity
8
0
100
AcDbSpline
70
4
71
3
72
8
73
4
74
0
42
0.000000001
43
0.0000000001
44
0.0000000001
40
-1
40
-1
40
-1
40
-1
40
0
40
0
40
0
40
0
41
1
41
1
41
1
41
1
10
-6.4093397289356364
20
-3.7542273369818249
30
0
10
-6.4093397289356364
20
-4.0395429669983409
30
0
10
-6.3292115745973874
20
-4.2889136177066289
30
0
10
-6.2026542125073609
20
-4.4491696978490713
30
0
0
SPLINE
5
213
100
AcDbEntity
8
0
100
AcDbSpline
70
4
71
3
72
8
73
4
74
0
42
0.000000001
43
0.0000000001
44
0.0000000001
40
-1
40
-1
40
-1
40
-1
40
0
40
0
40
0
40
0
41
1
41
1
41
1
41
1
10
-6.2026542125073609
20
-4.4491696978490713
30
0
10
-6.2266176082241964
20
-4.4559096242867993
30
0
10
-6.2513301385830671
20
-4.4604026038665419
30
0
10
-6.2760424404078812
20
-4.4619004160824929
30
0
0
LINE
5
214
100
AcDbEntity
8
0
100
AcDbLine
10
-6.2760424404078803
20
-4.4619004160824929
30
0
11
-6.2910196484311749
21
-4.4619004160824929
31
0
0
SPLINE
5
215
100
AcDbEntity
8
0
100
AcDbSpline
70
4
71
3
72
8
73
4
74
0
42
0.000000001
43
0.0000000001
44
0.0000000001
40
-1
40
-1
40
-1
40
-1
40
0
40
0
40
0
40
0
41
1
41
1
41
1
41
1
10
-6.2910196484311749
20
-4.4619004160824929
30
0
10
-6.5426365603952759
20
-4.4619004160824929
30
0
10
-6.7598060767330486
20
-4.1436347455874847
30
0
10
-6.7792764928701414
20
-3.7407479411744835
30
0
0
SPLINE
5
216
100
AcDbEntity
8
0
100
AcDbSpline
70
4
71
3
72
8
73
4
74
0
42
0.000000001
43
0.0000000001
44
0.0000000001
40
-1
40
-1
40
-1
40
-1
40
0
40
0
40
0
40
0
41
1
41
1
41
1
41
1
10
-6.7792764928701414
20
-3.7407479411744835
30
0
10
-6.7994958151152147
20
-3.3296236266418591
30
0
10
-6.6070386006022552
20
-2.9866456543220368
30
0
10
-6.3494308968424598
20
-2.9746637279295607
30
0
0
LINE
5
217
100
AcDbEntity
8
0
100
AcDbLine
10
-6.3494308968424598
20
-2.9746637279295602
30
0
11
-6.3344536888191652
21
-2.9746637279295607
31
0
0
SPLINE
5
218
100
AcDbEntity
8
0
100
AcDbSpline
70
4
71
3
72
8
73
4
74
0
42
0.000000001
43
0.0000000001
44
0.0000000001
40
-1
40
-1
40
-1
40
-1
40
0
40
0
40
0
40
0
41
1
41
1
41
1
41
1
10
-6.0491373732004758
20
-4.4738824567419995
30
0
10
-6.0551281649961695
20
-4.4693892486281994
30
0
10
-6.0603702792179455
20
-4.4648962690484568
30
0
10
-6.06636107101364
20
-4.4596541548266808
30
0
0
LINE
5
219
100
AcDbEntity
8
0
100
AcDbLine
10
-6.0663610710136409
20
-4.4596541548266808
30
0
11
-6.0671099771216177
21
-4.4589052487187049
31
0
0
SPLINE
5
220
100
AcDbEntity
8
0
100
AcDbSpline
70
4
71
3
72
8
73
4
74
0
42
0.000000001
43
0.0000000001
44
0.0000000001
40
-1
40
-1
40
-1
40
-1
40
0
40
0
40
0
40
0
41
1
41
1
41
1
41
1
10
-6.0671099771216177
20
-4.4589052487187049
30
0
10
-6.0731009974513697
20
-4.4536631344969289
30
0
10
-6.0783428831390873
20
-4.4491701549171845
30
0
10
-6.0835849973608633
20
-4.4439280406954085
30
0
0
LINE
5
221
100
AcDbEntity
8
0
100
AcDbLine
10
-6.0835849973608633
20
-4.4439280406954085
30
0
11
-6.1008089237080867
21
-4.4267041143481851
31
0
0
LINE
5
222
100
AcDbEntity
8
0
100
AcDbLine
10
-6.1008089237080867
20
-4.4267041143481851
30
0
11
-6.1165350378393573
21
-4.408731510427045
31
0
0
LINE
5
223
100
AcDbEntity
8
0
100
AcDbLine
10
-6.1165350378393573
20
-4.408731510427045
30
0
11
-6.117283943947335
21
-4.4079826043190682
31
0
0
SPLINE
5
224
100
AcDbEntity
8
0
100
AcDbSpline
70
4
71
3
72
8
73
4
74
0
42
0.000000001
43
0.0000000001
44
0.0000000001
40
-1
40
-1
40
-1
40
-1
40
0
40
0
40
0
40
0
41
1
41
1
41
1
41
1
10
-6.117283943947335
20
-4.4079826043190682
30
0
10
-6.2378505142416669
20
-4.2656991280977694
30
0
10
-6.31722976247194
20
-4.0260637997250566
30
0
10
-6.3187273461538354
20
-3.7542275655158837
30
0
0
SPLINE
5
225
100
AcDbEntity
8
0
100
AcDbSpline
70
4
71
3
72
8
73
4
74
0
42
0.000000001
43
0.0000000001
44
0.0000000001
40
-1
40
-1
40
-1
40
-1
40
0
40
0
40
0
40
0
41
1
41
1
41
1
41
1
10
-6.3187273461538354
20
-3.7542275655158837
30
0
10
-6.3187273461538354
20
-3.4659163110674633
30
0
10
-6.2296127755879871
20
-3.2135502644613267
30
0
10
-6.0963157155942875
20
-3.075759996353828
30
0
0
SPLINE
5
226
100
AcDbEntity
8
0
100
AcDbSpline
70
4
71
3
72
8
73
4
74
0
42
0.000000001
43
0.0000000001
44
0.0000000001
40
-1
40
-1
40
-1
40
-1
40
0
40
0
40
0
40
0
41
1
41
1
41
1
41
1
10
-6.0963157155942875
20
-3.075759996353828
30
0
10
-6.075347487241241
20
-3.0540430904268629
30
0
10
-6.0536305813142759
20
-3.0360704865057206
30
0
10
-6.031164769279334
20
-3.0203443723744496
30
0
0
SPLINE
5
227
100
AcDbEntity
8
0
100
AcDbSpline
70
4
71
3
72
8
73
4
74
0
42
0.000000001
43
0.0000000001
44
0.0000000001
40
-1
40
-1
40
-1
40
-1
40
0
40
0
40
0
40
0
41
1
41
1
41
1
41
1
10
-6.031164769279334
20
-3.0203443723744496
30
0
10
-6.0027081654486967
20
-3.016600070368626
30
0
10
-5.9750002391919779
20
-3.0061159561921027
30
0
10
-5.9457947292533655
20
-2.989641050219884
30
0
0
SPLINE
5
228
100
AcDbEntity
8
0
100
AcDbSpline
70
4
71
3
72
8
73
4
74
0
42
0.000000001
43
0.0000000001
44
0.0000000001
40
-1
40
-1
40
-1
40
-1
40
0
40
0
40
0
40
0
41
1
41
1
41
1
41
1
10
-5.9457947292533655
20
-2.989641050219884
30
0
10
-5.9413015211395646
20
-2.9866456543220368
30
0
10
-5.9278221253322227
20
-2.9829013523162136
30
0
10
-5.9091006153031049
20
-2.9829013523162136
30
0
0
SPLINE
5
229
100
AcDbEntity
8
0
100
AcDbSpline
70
4
71
3
72
8
73
4
74
0
42
0.000000001
43
0.0000000001
44
0.0000000001
40
-1
40
-1
40
-1
40
-1
40
0
40
0
40
0
40
0
41
1
41
1
41
1
41
1
10
-5.9091006153031049
20
-2.9829013523162136
30
0
10
-5.8956212194957631
20
-2.9829013523162136
30
0
10
-5.8873837093761399
20
-2.985147842106084
30
0
10
-5.8843883134782935
20
-2.9858967482140608
30
0
0
SPLINE
5
230
100
AcDbEntity
8
0
100
AcDbSpline
70
4
71
3
72
8
73
4
74
0
42
0.000000001
43
0.0000000001
44
0.0000000001
40
-1
40
-1
40
-1
40
-1
40
0
40
0
40
0
40
0
41
1
41
1
41
1
41
1
10
-5.8843883134782935
20
-2.9858967482140608
30
0
10
-5.8499406893179033
20
-2.9956319562826077
30
0
10
-5.8162419712654891
20
-3.000873956237355
30
0
10
-5.7832921593210536
20
-3.000873956237355
30
0
0
SPLINE
5
231
100
AcDbEntity
8
0
100
AcDbSpline
70
4
71
3
72
8
73
4
74
0
42
0.000000001
43
0.0000000001
44
0.0000000001
40
-1
40
-1
40
-1
40
-1
40
0
40
0
40
0
40
0
41
1
41
1
41
1
41
1
10
-5.7832921593210536
20
-3.000873956237355
30
0
10
-5.7668171390818079
20
-3.000873956237355
30
0
10
-5.7503423473766171
20
-2.9993762582884318
30
0
10
-5.7338673271373723
20
-2.9971296542315318
30
0
0
LINE
5
232
100
AcDbEntity
8
0
100
AcDbLine
10
-5.7338673271373723
20
-2.9971296542315318
30
0
11
-5.7293741190235714
21
-2.9993762582884318
31
0
0
SPLINE
5
233
100
AcDbEntity
8
0
100
AcDbSpline
70
4
71
3
72
8
73
4
74
0
42
0.000000001
43
0.0000000001
44
0.0000000001
40
-1
40
-1
40
-1
40
-1
40
0
40
0
40
0
40
0
41
1
41
1
41
1
41
1
10
-5.7293741190235714
20
-2.9993762582884318
30
0
10
-5.886634803268163
20
-3.1521437344192247
30
0
10
-5.9892287696413531
20
-3.4299708746911213
30
0
10
-5.9892287696413531
20
-3.7534786594079073
30
0
0
SPLINE
5
234
100
AcDbEntity
8
0
100
AcDbSpline
70
4
71
3
72
8
73
4
74
0
42
0.000000001
43
0.0000000001
44
0.0000000001
40
-1
40
-1
40
-1
40
-1
40
0
40
0
40
0
40
0
41
1
41
1
41
1
41
1
10
-5.9892287696413531
20
-3.7534786594079073
30
0
10
-5.9892287696413531
20
-4.0769864441246932
30
0
10
-5.886634803268163
20
-4.3540647925556426
30
0
10
-5.7293741190235714
20
-4.507581174794411
30
0
0
SPLINE
5
235
100
AcDbEntity
8
0
100
AcDbSpline
70
4
71
3
72
8
73
4
74
0
42
0.000000001
43
0.0000000001
44
0.0000000001
40
-1
40
-1
40
-1
40
-1
40
0
40
0
40
0
40
0
41
1
41
1
41
1
41
1
10
-5.7293741190235714
20
-4.507581174794411
30
0
10
-5.7720590247695256
20
-4.5307958929373298
30
0
10
-5.8169906488394094
20
-4.5427777050627762
30
0
10
-5.8634200851252452
20
-4.5427777050627762
30
0
0
SPLINE
5
236
100
AcDbEntity
8
0
100
AcDbSpline
70
4
71
3
72
8
73
4
74
0
42
0.000000001
43
0.0000000001
44
0.0000000001
40
-1
40
-1
40
-1
40
-1
40
0
40
0
40
0
40
0
41
1
41
1
41
1
41
1
10
-5.8634200851252452
20
-4.5427777050627762
30
0
10
-5.9293197090141181
20
-4.5427777050627762
30
0
10
-5.9922239370051438
20
-4.5180651747039073
30
0
10
-6.0491373732004758
20
-4.4738824567419995
30
0
0
SPLINE
5
237
100
AcDbEntity
8
0
100
AcDbSpline
70
4
71
3
72
8
73
4
74
0
42
0.000000001
43
0.0000000001
44
0.0000000001
40
-1
40
-1
40
-1
40
-1
40
0
40
0
40
0
40
0
41
1
41
1
41
1
41
1
10
-5.5751090592108836
20
-2.9993764868224893
30
0
10
-5.5324241534649294
20
-2.9761618829466006
30
0
10
-5.4874925293950456
20
-2.9641800708211523
30
0
10
-5.4410630931092099
20
-2.9641800708211523
30
0
0
SPLINE
5
238
100
AcDbEntity
8
0
100
AcDbSpline
70
4
71
3
72
8
73
4
74
0
42
0.000000001
43
0.0000000001
44
0.0000000001
40
-1
40
-1
40
-1
40
-1
40
0
40
0
40
0
40
0
41
1
41
1
41
1
41
1
10
-5.4410630931092099
20
-2.9641800708211523
30
0
10
-5.3931359588744492
20
-2.9641800708211523
30
0
10
-5.3474555429636172
20
-2.9769106747875473
30
0
10
-5.3040216168426566
20
-3.0008741847714138
30
0
0
SPLINE
5
239
100
AcDbEntity
8
0
100
AcDbSpline
70
4
71
3
72
8
73
4
74
0
42
0.000000001
43
0.0000000001
44
0.0000000001
40
-1
40
-1
40
-1
40
-1
40
0
40
0
40
0
40
0
41
1
41
1
41
1
41
1
10
-5.3040216168426566
20
-3.0008741847714138
30
0
10
-5.2778115028018924
20
-3.0158513927947075
30
0
10
-5.2523501806020736
20
-3.0338239967158493
30
0
10
-5.2283866706182085
20
-3.0562898087507917
30
0
0
SPLINE
5
240
100
AcDbEntity
8
0
100
AcDbSpline
70
4
71
3
72
8
73
4
74
0
42
0.000000001
43
0.0000000001
44
0.0000000001
40
-1
40
-1
40
-1
40
-1
40
0
40
0
40
0
40
0
41
1
41
1
41
1
41
1
10
-5.2283866706182085
20
-3.0562898087507917
30
0
10
-5.0846054964479857
20
-3.1888381911705719
30
0
10
-4.9865047381885956
20
-3.4516880091521456
30
0
10
-4.9865047381885956
20
-3.7534788879419647
30
0
0
SPLINE
5
241
100
AcDbEntity
8
0
100
AcDbSpline
70
4
71
3
72
8
73
4
74
0
42
0.000000001
43
0.0000000001
44
0.0000000001
40
-1
40
-1
40
-1
40
-1
40
0
40
0
40
0
40
0
41
1
41
1
41
1
41
1
10
-4.9865047381885956
20
-3.7534788879419647
30
0
10
-4.9865047381885956
20
-4.0552697667317847
30
0
10
-5.0846054964479857
20
-4.3181195847133589
30
0
10
-5.2283866706182085
20
-4.4506679671331391
30
0
0
SPLINE
5
242
100
AcDbEntity
8
0
100
AcDbSpline
70
4
71
3
72
8
73
4
74
0
42
0.000000001
43
0.0000000001
44
0.0000000001
40
-1
40
-1
40
-1
40
-1
40
0
40
0
40
0
40
0
41
1
41
1
41
1
41
1
10
-5.2283866706182085
20
-4.4506679671331391
30
0
10
-5.2523502948691023
20
-4.473133779168081
30
0
10
-5.2778115028018924
20
-4.4918552891971988
30
0
10
-5.3040216168426566
20
-4.5060835911125166
30
0
0
SPLINE
5
243
100
AcDbEntity
8
0
100
AcDbSpline
70
4
71
3
72
8
73
4
74
0
42
0.000000001
43
0.0000000001
44
0.0000000001
40
-1
40
-1
40
-1
40
-1
40
0
40
0
40
0
40
0
41
1
41
1
41
1
41
1
10
-5.3040216168426566
20
-4.5060835911125166
30
0
10
-5.3474555429636172
20
-4.5300469868293529
30
0
10
-5.3931360731414779
20
-4.5427777050627762
30
0
10
-5.4410630931092099
20
-4.5427777050627762
30
0
0
SPLINE
5
244
100
AcDbEntity
8
0
100
AcDbSpline
70
4
71
3
72
8
73
4
74
0
42
0.000000001
43
0.0000000001
44
0.0000000001
40
-1
40
-1
40
-1
40
-1
40
0
40
0
40
0
40
0
41
1
41
1
41
1
41
1
10
-5.4410630931092099
20
-4.5427777050627762
30
0
10
-5.4874923008609873
20
-4.5427777050627762
30
0
10
-5.5324239249308693
20
-4.5300469868293529
30
0
10
-5.5751090592108836
20
-4.507581174794411
30
0
0
SPLINE
5
245
100
AcDbEntity
8
0
100
AcDbSpline
70
4
71
3
72
8
73
4
74
0
42
0.000000001
43
0.0000000001
44
0.0000000001
40
-1
40
-1
40
-1
40
-1
40
0
40
0
40
0
40
0
41
1
41
1
41
1
41
1
10
-5.5751090592108836
20
-4.507581174794411
30
0
10
-5.5803511734326596
20
-4.5045855503625045
30
0
10
-5.5848441530124004
20
-4.501590154464659
30
0
10
-5.5900862672341773
20
-4.4985947585668109
30
0
0
SPLINE
5
246
100
AcDbEntity
8
0
100
AcDbSpline
70
4
71
3
72
8
73
4
74
0
42
0.000000001
43
0.0000000001
44
0.0000000001
40
-1
40
-1
40
-1
40
-1
40
0
40
0
40
0
40
0
41
1
41
1
41
1
41
1
10
-5.5900862672341773
20
-4.4985947585668109
30
0
10
-5.592332985558107
20
-4.4978458524588349
30
0
10
-5.5938305692400014
20
-4.4963482687769405
30
0
10
-5.5953283814559525
20
-4.4955993626689645
30
0
0
SPLINE
5
247
100
AcDbEntity
8
0
100
AcDbSpline
70
4
71
3
72
8
73
4
74
0
42
0.000000001
43
0.0000000001
44
0.0000000001
40
-1
40
-1
40
-1
40
-1
40
0
40
0
40
0
40
0
41
1
41
1
41
1
41
1
10
-5.5953283814559525
20
-4.4955993626689645
30
0
10
-5.6013191732516496
20
-4.4926039667711164
30
0
10
-5.6065612874734256
20
-4.4881107586573172
30
0
10
-5.6125520792691193
20
-4.4843664566514931
30
0
0
SPLINE
5
248
100
AcDbEntity
8
0
100
AcDbSpline
70
4
71
3
72
8
73
4
74
0
42
0.000000001
43
0.0000000001
44
0.0000000001
40
-1
40
-1
40
-1
40
-1
40
0
40
0
40
0
40
0
41
1
41
1
41
1
41
1
10
-5.6125520792691193
20
-4.4843664566514931
30
0
10
-5.6133007568430378
20
-4.4836175505435172
30
0
10
-5.6140496629510155
20
-4.4836175505435172
30
0
10
-5.6147985690589923
20
-4.4828686444355412
30
0
0
SPLINE
5
249
100
AcDbEntity
8
0
100
AcDbSpline
70
4
71
3
72
8
73
4
74
0
42
0.000000001
43
0.0000000001
44
0.0000000001
40
-1
40
-1
40
-1
40
-1
40
0
40
0
40
0
40
0
41
1
41
1
41
1
41
1
10
-5.6147985690589923
20
-4.4828686444355412
30
0
10
-5.627529287292413
20
-4.4738822282079411
30
0
10
-5.6402597769917797
20
-4.4641471344064234
30
0
10
-5.6522415891172271
20
-4.4529142283889511
30
0
0
SPLINE
5
250
100
AcDbEntity
8
0
100
AcDbSpline
70
4
71
3
72
8
73
4
74
0
42
0.000000001
43
0.0000000001
44
0.0000000001
40
-1
40
-1
40
-1
40
-1
40
0
40
0
40
0
40
0
41
1
41
1
41
1
41
1
10
-5.6522415891172271
20
-4.4529142283889511
30
0
10
-5.7975204612363731
20
-4.3211147520771469
30
0
10
-5.8963701256037409
20
-4.0567671218796209
30
0
10
-5.8956214480298206
20
-3.7534788879419647
30
0
0
SPLINE
5
251
100
AcDbEntity
8
0
100
AcDbSpline
70
4
71
3
72
8
73
4
74
0
42
0.000000001
43
0.0000000001
44
0.0000000001
40
-1
40
-1
40
-1
40
-1
40
0
40
0
40
0
40
0
41
1
41
1
41
1
41
1
10
-5.8956214480298206
20
-3.7534788879419647
30
0
10
-5.8956214480298206
20
-3.4494415193622738
30
0
10
-5.7967717836624555
20
-3.1858427952727237
30
0
10
-5.6514929115433095
20
-3.0540433189609204
30
0
0
SPLINE
5
252
100
AcDbEntity
8
0
100
AcDbSpline
70
4
71
3
72
8
73
4
74
0
42
0.000000001
43
0.0000000001
44
0.0000000001
40
-1
40
-1
40
-1
40
-1
40
0
40
0
40
0
40
0
41
1
41
1
41
1
41
1
10
-5.6514929115433095
20
-3.0540433189609204
30
0
10
-5.6387621933098844
20
-3.043559319051425
30
0
10
-5.6267806097184954
20
-3.0330752048749026
30
0
10
-5.6140498914850712
20
-3.0240889029143316
30
0
0
LINE
5
253
100
AcDbEntity
8
0
100
AcDbLine
10
-5.6140498914850712
20
-3.0240889029143316
30
0
11
-5.6125520792691193
21
-3.0225912049654076
31
0
0
SPLINE
5
254
100
AcDbEntity
8
0
100
AcDbSpline
70
4
71
3
72
8
73
4
74
0
42
0.000000001
43
0.0000000001
44
0.0000000001
40
-1
40
-1
40
-1
40
-1
40
0
40
0
40
0
40
0
41
1
41
1
41
1
41
1
10
-5.6125520792691193
20
-3.0225912049654076
30
0
10
-5.6065612874734256
20
-3.0180979968516075
30
0
10
-5.6005702671436719
20
-3.0143536948457843
30
0
10
-5.5945794753479774
20
-3.0106093928399607
30
0
0
SPLINE
5
255
100
AcDbEntity
8
0
100
AcDbSpline
70
4
71
3
72
8
73
4
74
0
42
0.000000001
43
0.0000000001
44
0.0000000001
40
-1
40
-1
40
-1
40
-1
40
0
40
0
40
0
40
0
41
1
41
1
41
1
41
1
10
-5.5945794753479774
20
-3.0106093928399607
30
0
10
-5.5938305692400014
20
-3.0098604867319843
30
0
10
-5.592332985558107
20
-3.0091116948910375
30
0
10
-5.5908351733421533
20
-3.0083627887830606
30
0
0
LINE
5
256
100
AcDbEntity
8
0
100
AcDbLine
10
-5.5908351733421533
20
-3.0083627887830606
30
0
11
-5.5751090592108836
21
-2.9993764868224893
31
0
0
SPLINE
5
257
100
AcDbEntity
8
0
100
AcDbSpline
70
4
71
3
72
8
73
4
74
0
42
0.000000001
43
0.0000000001
44
0.0000000001
40
0
40
0
40
0
40
0
40
1
40
1
40
1
40
1
41
1
41
1
41
1
41
1
10
0.84214034067241261
20
-1.6898989958415023
30
0
10
0.8358012684872641
20
-1.6970266538154903
30
0
10
0.80423642212694113
20
-1.704079938744439
30
0
10
0.7839835133445805
20
-1.6946849157592374
30
0
0
SPLINE
5
258
100
AcDbEntity
8
0
100
AcDbSpline
70
4
71
3
72
8
73
4
74
0
42
0.000000001
43
0.0000000001
44
0.0000000001
40
0
40
0
40
0
40
0
40
1
40
1
40
1
40
1
41
1
41
1
41
1
41
1
10
0.7839835133445805
20
-1.6946849157592374
30
0
10
0.74268968876958052
20
-1.6755293711278052
30
0
10
0.72799189661201402
20
-1.6182068530951017
30
0
10
0.72243706937650043
20
-1.5776901110850492
30
0
0
SPLINE
5
259
100
AcDbEntity
8
0
100
AcDbSpline
70
4
71
3
72
8
73
4
74
0
42
0.000000001
43
0.0000000001
44
0.0000000001
40
0
40
0
40
0
40
0
40
1
40
1
40
1
40
1
41
1
41
1
41
1
41
1
10
0.72243706937650043
20
-1.5776901110850492
30
0
10
0.7188116004728009
20
-1.5512504212263021
30
0
10
0.71795934904229353
20
-1.5230374262051474
30
0
10
0.72056472073290745
20
-1.4950203477267612
30
0
0
SPLINE
5
260
100
AcDbEntity
8
0
100
AcDbSpline
70
4
71
3
72
8
73
4
74
0
42
0.000000001
43
0.0000000001
44
0.0000000001
40
0
40
0
40
0
40
0
40
1
40
1
40
1
40
1
41
1
41
1
41
1
41
1
10
0.72056472073290745
20
-1.4950203477267612
30
0
10
0.75663506879834652
20
-1.5022807630330901
30
0
10
0.79009773005892969
20
-1.5185427042507225
30
0
10
0.81458874485140209
20
-1.5451582704445761
30
0
0
SPLINE
5
261
100
AcDbEntity
8
0
100
AcDbSpline
70
4
71
3
72
8
73
4
74
0
42
0.000000001
43
0.0000000001
44
0.0000000001
40
0
40
0
40
0
40
0
40
1
40
1
40
1
40
1
41
1
41
1
41
1
41
1
10
0.81458874485140209
20
-1.5451582704445761
30
0
10
0.84391690146422371
20
-1.5770301588313063
30
0
10
0.87549245522791774
20
-1.6524010904563029
30
0
10
0.84214034067241261
20
-1.6898989958415023
30
0
0
LINE
5
262
100
AcDbEntity
8
0
100
AcDbLine
10
-4.5454260076093824
20
-2.9731662585146945
30
0
11
-4.5304487995860878
21
-2.9731662585146945
31
0
0
SPLINE
5
263
100
AcDbEntity
8
0
100
AcDbSpline
70
4
71
3
72
8
73
4
74
0
42
0.000000001
43
0.0000000001
44
0.0000000001
40
-1
40
-1
40
-1
40
-1
40
0
40
0
40
0
40
0
41
1
41
1
41
1
41
1
10
-4.5304487995860878
20
-2.9731662585146945
30
0
10
-4.2728407530252035
20
-2.9858968624810891
30
0
10
-4.0803836527792745
20
-3.3288749490679406
30
0
10
-4.1006028607573155
20
-3.7399992636005646
30
0
0
SPLINE
5
264
100
AcDbEntity
8
0
100
AcDbSpline
70
4
71
3
72
8
73
4
74
0
42
0.000000001
43
0.0000000001
44
0.0000000001
40
-1
40
-1
40
-1
40
-1
40
0
40
0
40
0
40
0
41
1
41
1
41
1
41
1
10
-4.1006028607573155
20
-3.7399992636005646
30
0
10
-4.1200732197608954
20
-4.1428860680135644
30
0
10
-4.3372427360986672
20
-4.4611517385085753
30
0
10
-4.5888598194633126
20
-4.4611517385085753
30
0
0
LINE
5
265
100
AcDbEntity
8
0
100
AcDbLine
10
-4.5888598194633126
20
-4.4611517385085744
30
0
11
-4.6038370274866081
21
-4.4611517385085753
31
0
0
SPLINE
5
266
100
AcDbEntity
8
0
100
AcDbSpline
70
4
71
3
72
8
73
4
74
0
42
0.000000001
43
0.0000000001
44
0.0000000001
40
-1
40
-1
40
-1
40
-1
40
0
40
0
40
0
40
0
41
1
41
1
41
1
41
1
10
-4.6038370274866081
20
-4.4611517385085753
30
0
10
-4.6285494435784491
20
-4.4604028324005993
30
0
10
-4.6532618596702902
20
-4.4559096242867993
30
0
10
-4.6764765778132098
20
-4.4484210202751511
30
0
0
SPLINE
5
267
100
AcDbEntity
8
0
100
AcDbSpline
70
4
71
3
72
8
73
4
74
0
42
0.000000001
43
0.0000000001
44
0.0000000001
40
-1
40
-1
40
-1
40
-1
40
0
40
0
40
0
40
0
41
1
41
1
41
1
41
1
10
-4.6764765778132098
20
-4.4484210202751511
30
0
10
-4.5499191014561537
20
-4.2889138462406873
30
0
10
-4.4697910613849325
20
-4.0387945179584808
30
0
10
-4.4697910613849325
20
-3.7534786594079073
30
0
0
SPLINE
5
268
100
AcDbEntity
8
0
100
AcDbSpline
70
4
71
3
72
8
73
4
74
0
42
0.000000001
43
0.0000000001
44
0.0000000001
40
-1
40
-1
40
-1
40
-1
40
0
40
0
40
0
40
0
41
1
41
1
41
1
41
1
10
-4.4697910613849325
20
-3.7534786594079073
30
0
10
-4.4697910613849325
20
-3.4441994051404974
30
0
10
-4.5633986115305243
20
-3.1768561505110662
30
0
10
-4.7094263897576463
20
-3.0195955805335029
30
0
0
SPLINE
5
269
100
AcDbEntity
8
0
100
AcDbSpline
70
4
71
3
72
8
73
4
74
0
42
0.000000001
43
0.0000000001
44
0.0000000001
40
-1
40
-1
40
-1
40
-1
40
0
40
0
40
0
40
0
41
1
41
1
41
1
41
1
10
-4.7094263897576463
20
-3.0195955805335029
30
0
10
-4.6577550677840902
20
-2.9896411644869123
30
0
10
-4.6023394438047118
20
-2.9731662585146945
30
0
10
-4.5454260076093824
20
-2.9731662585146945
30
0
0
SPLINE
5
270
100
AcDbEntity
8
0
100
AcDbSpline
70
4
71
3
72
8
73
4
74
0
42
0.000000001
43
0.0000000001
44
0.0000000001
40
-1
40
-1
40
-1
40
-1
40
0
40
0
40
0
40
0
41
1
41
1
41
1
41
1
10
-5.5818485285804957
20
-2.5957405477674547
30
0
10
-5.6080586426212617
20
-2.5942428498185306
30
0
10
-5.6327709444460741
20
-2.5882519437558078
30
0
10
-5.655236756481016
20
-2.5785167356872596
30
0
0
SPLINE
5
271
100
AcDbEntity
8
0
100
AcDbSpline
70
4
71
3
72
8
73
4
74
0
42
0.000000001
43
0.0000000001
44
0.0000000001
40
-1
40
-1
40
-1
40
-1
40
0
40
0
40
0
40
0
41
1
41
1
41
1
41
1
10
-5.655236756481016
20
-2.5785167356872596
30
0
10
-5.6679674747144393
20
-2.573274621465484
30
0
10
-5.6784514746239356
20
-2.5665349235618127
30
0
10
-5.6904332867493821
20
-2.5590463195501649
30
0
0
SPLINE
5
272
100
AcDbEntity
8
0
100
AcDbSpline
70
4
71
3
72
8
73
4
74
0
42
0.000000001
43
0.0000000001
44
0.0000000001
40
-1
40
-1
40
-1
40
-1
40
0
40
0
40
0
40
0
41
1
41
1
41
1
41
1
10
-5.6904332867493821
20
-2.5590463195501649
30
0
10
-5.7001686090849573
20
-2.552306621646494
30
0
10
-5.7114015151024295
20
-2.5440691115268712
30
0
10
-5.7211366089039482
20
-2.5350828095663003
30
0
0
SPLINE
5
273
100
AcDbEntity
8
0
100
AcDbSpline
70
4
71
3
72
8
73
4
74
0
42
0.000000001
43
0.0000000001
44
0.0000000001
40
-1
40
-1
40
-1
40
-1
40
0
40
0
40
0
40
0
41
1
41
1
41
1
41
1
10
-5.7211366089039482
20
-2.5350828095663003
30
0
10
-5.7615750248600319
20
-2.4998863935649638
30
0
10
-5.7870362327928193
20
-2.4504615613812799
30
0
10
-5.7907805347986434
20
-2.4010367863311108
30
0
0
SPLINE
5
274
100
AcDbEntity
8
0
100
AcDbSpline
70
4
71
3
72
8
73
4
74
0
42
0.000000001
43
0.0000000001
44
0.0000000001
40
-1
40
-1
40
-1
40
-1
40
0
40
0
40
0
40
0
41
1
41
1
41
1
41
1
10
-5.7907805347986434
20
-2.4010367863311108
30
0
10
-5.7960226490204194
20
-2.3508631623064797
30
0
10
-5.7787989512072553
20
-2.2984429342249486
30
0
10
-5.7473467229447115
20
-2.2654930651469973
30
0
0
SPLINE
5
275
100
AcDbEntity
8
0
100
AcDbSpline
70
4
71
3
72
8
73
4
74
0
42
0.000000001
43
0.0000000001
44
0.0000000001
40
-1
40
-1
40
-1
40
-1
40
0
40
0
40
0
40
0
41
1
41
1
41
1
41
1
10
-5.7473467229447115
20
-2.2654930651469973
30
0
10
-5.7428535148309132
20
-2.2609999141667125
30
0
10
-5.73910921282509
20
-2.2572556121608889
30
0
10
-5.7353649108192659
20
-2.2542601591295268
30
0
0
LINE
5
276
100
AcDbEntity
8
0
100
AcDbLine
10
-5.7353649108192659
20
-2.2542601591295268
30
0
11
-5.7293741190235714
21
-2.2497670081492416
31
0
0
SPLINE
5
277
100
AcDbEntity
8
0
100
AcDbSpline
70
4
71
3
72
8
73
4
74
0
42
0.000000001
43
0.0000000001
44
0.0000000001
40
-1
40
-1
40
-1
40
-1
40
0
40
0
40
0
40
0
41
1
41
1
41
1
41
1
10
-5.7293741190235714
20
-2.2497670081492416
30
0
10
-5.7278763068076177
20
-2.2490181020412647
30
0
10
-5.7271276292336992
20
-2.2482692530668036
30
0
10
-5.7256298170177482
20
-2.2475204040923416
30
0
0
SPLINE
5
278
100
AcDbEntity
8
0
100
AcDbSpline
70
4
71
3
72
8
73
4
74
0
42
0.000000001
43
0.0000000001
44
0.0000000001
40
-1
40
-1
40
-1
40
-1
40
0
40
0
40
0
40
0
41
1
41
1
41
1
41
1
10
-5.7256298170177482
20
-2.2475204040923416
30
0
10
-5.7241320048017936
20
-2.2460226490099036
30
0
10
-5.7226344211198992
20
-2.2452738000354406
30
0
10
-5.7211366089039482
20
-2.2445249510609795
30
0
0
SPLINE
5
279
100
AcDbEntity
8
0
100
AcDbSpline
70
4
71
3
72
8
73
4
74
0
42
0.000000001
43
0.0000000001
44
0.0000000001
40
-1
40
-1
40
-1
40
-1
40
0
40
0
40
0
40
0
41
1
41
1
41
1
41
1
10
-5.7211366089039482
20
-2.2445249510609795
30
0
10
-5.7121504212104055
20
-2.2400318000806938
30
0
10
-5.7016661927668517
20
-2.2347898001259465
30
0
10
-5.691931098965334
20
-2.2325431960690469
30
0
0
SPLINE
5
280
100
AcDbEntity
8
0
100
AcDbSpline
70
4
71
3
72
8
73
4
74
0
42
0.000000001
43
0.0000000001
44
0.0000000001
40
-1
40
-1
40
-1
40
-1
40
0
40
0
40
0
40
0
41
1
41
1
41
1
41
1
10
-5.691931098965334
20
-2.2325431960690469
30
0
10
-5.6717120052543217
20
-2.2265523471398372
30
0
10
-5.6499950993273549
20
-2.2250545920574001
30
0
10
-5.626031475076462
20
-2.2280500450887613
30
0
0
SPLINE
5
281
100
AcDbEntity
8
0
100
AcDbSpline
70
4
71
3
72
8
73
4
74
0
42
0.000000001
43
0.0000000001
44
0.0000000001
40
-1
40
-1
40
-1
40
-1
40
0
40
0
40
0
40
0
41
1
41
1
41
1
41
1
10
-5.626031475076462
20
-2.2280500450887613
30
0
10
-5.5855930591203764
20
-2.2332920450435081
30
0
10
-5.545903320738212
20
-2.2535112530215504
30
0
10
-5.5129535087937755
20
-2.2857122731250401
30
0
0
SPLINE
5
282
100
AcDbEntity
8
0
100
AcDbSpline
70
4
71
3
72
8
73
4
74
0
42
0.000000001
43
0.0000000001
44
0.0000000001
40
-1
40
-1
40
-1
40
-1
40
0
40
0
40
0
40
0
41
1
41
1
41
1
41
1
10
-5.5129535087937755
20
-2.2857122731250401
30
0
10
-5.485994717179091
20
-2.3126712361402677
30
0
10
-5.4642776969850964
20
-2.3471188031671413
30
0
10
-5.4485515828538267
20
-2.3875572762567399
30
0
0
SPLINE
5
283
100
AcDbEntity
8
0
100
AcDbSpline
70
4
71
3
72
8
73
4
74
0
42
0.000000001
43
0.0000000001
44
0.0000000001
40
-1
40
-1
40
-1
40
-1
40
0
40
0
40
0
40
0
41
1
41
1
41
1
41
1
10
-5.4485515828538267
20
-2.3875572762567399
30
0
10
-5.4395652808932553
20
-2.4130185413230429
30
0
10
-5.432076676881608
20
-2.439228655363809
30
0
10
-5.4260855422848273
20
-2.4676853734614741
30
0
0
SPLINE
5
284
100
AcDbEntity
8
0
100
AcDbSpline
70
4
71
3
72
8
73
4
74
0
42
0.000000001
43
0.0000000001
44
0.0000000001
40
-1
40
-1
40
-1
40
-1
40
0
40
0
40
0
40
0
41
1
41
1
41
1
41
1
10
-5.4260855422848273
20
-2.4676853734614741
30
0
10
-5.4260855422848273
20
-2.505877299627687
30
0
10
-5.4365696564613515
20
-2.5418226217370004
30
0
10
-5.4620308643941398
20
-2.5710281316756127
30
0
0
SPLINE
5
285
100
AcDbEntity
8
0
100
AcDbSpline
70
4
71
3
72
8
73
4
74
0
42
0.000000001
43
0.0000000001
44
0.0000000001
40
-1
40
-1
40
-1
40
-1
40
0
40
0
40
0
40
0
41
1
41
1
41
1
41
1
10
-5.4620308643941398
20
-2.5710281316756127
30
0
10
-5.4979763007704818
20
-2.5867542458068842
30
0
10
-5.5354193208287175
20
-2.5957405477674547
30
0
10
-5.5713645286710012
20
-2.5957405477674547
30
0
0
LINE
5
286
100
AcDbEntity
8
0
100
AcDbLine
10
-5.5713645286710012
20
-2.5957405477674547
30
0
11
-5.5818485285804957
21
-2.5957405477674547
31
0
0
LWPOLYLINE
5
287
100
AcDbEntity
8
0
100
AcDbPolyline
90
4
70
1
43
0.0
10
-9.6079477630270187
20
-3.6551287325464994
10
-9.6079477630270222
20
-4.6137528689811402
10
-7.6079477630270276
20
-4.6137528689811402
10
-7.6079477630270178
20
-2.5686132204479031
42
0.031562295296692092
0
LWPOLYLINE
5
288
100
AcDbEntity
8
0
100
AcDbPolyline
90
4
70
1
43
0.0
10
7.5871443321313636
20
-4.6137528689811402
10
9.5871443321313627
20
-4.6137528689811402
10
9.5871443321313556
20
-3.6551287325465638
42
0.031562295296694076
10
7.5871443321313023
20
-2.5686132204479284
0
SPLINE
5
289
100
AcDbEntity
8
0
100
AcDbSpline
70
4
71
3
72
8
73
4
74
0
42
0.000000001
43
0.0000000001
44
0.0000000001
40
0
40
0
40
0
40
0
40
1
40
1
40
1
40
1
41
1
41
1
41
1
41
1
10
-0.35796293724541639
20
-1.9557770611129073
30
0
10
-0.53969477505040164
20
-2.0170017042012853
30
0
10
-0.72208844613945189
20
-2.1488720583984686
30
0
10
-0.88015243695980128
20
-2.3373398657865461
30
0
0
SPLINE
5
290
100
AcDbEntity
8
0
100
AcDbSpline
70
4
71
3
72
8
73
4
74
0
42
0.000000001
43
0.0000000001
44
0.0000000001
40
0
40
0
40
0
40
0
40
1
40
1
40
1
40
1
41
1
41
1
41
1
41
1
10
-0.88015243695980128
20
-2.3373398657865461
30
0
10
-1.1007690782758621
20
-2.6003929852509038
30
0
10
-1.248880899399097
20
-2.9439216462029316
30
0
10
-1.2865054849417512
20
-3.2798371986632566
30
0
0
SPLINE
5
291
100
AcDbEntity
8
0
100
AcDbSpline
70
4
71
3
72
8
73
4
74
0
42
0.000000001
43
0.0000000001
44
0.0000000001
40
0
40
0
40
0
40
0
40
1
40
1
40
1
40
1
41
1
41
1
41
1
41
1
10
-1.2865054849417512
20
-3.2798371986632566
30
0
10
-1.3453736311205802
20
-3.8054158809339689
30
0
10
-1.2780506877282702
20
-4.1705716156659012
30
0
10
-1.0806691117281448
20
-4.3958377298540325
30
0
0
SPLINE
5
292
100
AcDbEntity
8
0
100
AcDbSpline
70
4
71
3
72
8
73
4
74
0
42
0.000000001
43
0.0000000001
44
0.0000000001
40
0
40
0
40
0
40
0
40
1
40
1
40
1
40
1
41
1
41
1
41
1
41
1
10
-1.0806691117281448
20
-4.3958377298540325
30
0
10
-1.6613773562390468
20
-4.2257190838678094
30
0
10
-1.7873053366938956
20
-3.6396693281946408
30
0
10
-1.7873053366938956
20
-3.1636398784982762
30
0
0
SPLINE
5
293
100
AcDbEntity
8
0
100
AcDbSpline
70
4
71
3
72
8
73
4
74
0
42
0.000000001
43
0.0000000001
44
0.0000000001
40
0
40
0
40
0
40
0
40
1
40
1
40
1
40
1
41
1
41
1
41
1
41
1
10
-1.7873053366938956
20
-3.1636398784982762
30
0
10
-1.7873053366938956
20
-2.460187930391565
30
0
10
-1.2494485364724215
20
-1.8878870594258335
30
0
10
-0.58833445711674215
20
-1.8878870594258335
30
0
0
SPLINE
5
294
100
AcDbEntity
8
0
100
AcDbSpline
70
4
71
3
72
8
73
4
74
0
42
0.000000001
43
0.0000000001
44
0.0000000001
40
0
40
0
40
0
40
0
40
1
40
1
40
1
40
1
41
1
41
1
41
1
41
1
10
-0.58833445711674215
20
-1.8878870594258335
30
0
10
-0.5119094973855427
20
-1.8878870594258335
30
0
10
-0.43645558338441692
20
-1.8954831662973199
30
0
10
-0.36249477337504071
20
-1.9104853236304513
30
0
0
SPLINE
5
295
100
AcDbEntity
8
0
100
AcDbSpline
70
4
71
3
72
8
73
4
74
0
42
0.000000001
43
0.0000000001
44
0.0000000001
40
0
40
0
40
0
40
0
40
1
40
1
40
1
40
1
41
1
41
1
41
1
41
1
10
-0.36249477337504071
20
-1.9104853236304513
30
0
10
-0.36354077092871451
20
-1.9252077138768438
30
0
10
-0.36212015895168209
20
-1.9403800321067959
30
0
10
-0.35796293724541639
20
-1.9557770611129073
30
0
0
SPLINE
5
296
100
AcDbEntity
8
0
100
AcDbSpline
70
4
71
3
72
8
73
4
74
0
42
0.000000001
43
0.0000000001
44
0.0000000001
40
0
40
0
40
0
40
0
40
1
40
1
40
1
40
1
41
1
41
1
41
1
41
1
10
6.7566140894461721
20
-3.730118556428232
30
0
10
6.7370190032074815
20
-4.1355850663022942
30
0
10
6.5184589390008387
20
-4.4558886086740959
30
0
10
6.2652309106765589
20
-4.4558886086740959
30
0
0
LINE
5
297
100
AcDbEntity
8
0
100
AcDbLine
10
6.265230910676558
20
-4.4558886086740959
30
0
11
6.2501578028002402
21
-4.4558886086740959
31
0
0
SPLINE
5
298
100
AcDbEntity
8
0
100
AcDbSpline
70
4
71
3
72
8
73
4
74
0
42
0.000000001
43
0.0000000001
44
0.0000000001
40
0
40
0
40
0
40
0
40
1
40
1
40
1
40
1
41
1
41
1
41
1
41
1
10
6.2501578028002394
20
-4.4558886086740959
30
0
10
6.2252872668032611
20
-4.4543812058875156
30
0
10
6.2004165008089078
20
-4.4498594575225194
30
0
10
6.1762996662052201
20
-4.443076374980274
30
0
0
SPLINE
5
299
100
AcDbEntity
8
0
100
AcDbSpline
70
4
71
3
72
8
73
4
74
0
42
0.000000001
43
0.0000000001
44
0.0000000001
40
0
40
0
40
0
40
0
40
1
40
1
40
1
40
1
41
1
41
1
41
1
41
1
10
6.1762996662052201
20
-4.443076374980274
30
0
10
6.3036673817606506
20
-4.2817941667031256
30
0
10
6.3843086008979135
20
-4.0308267825639712
30
0
10
6.3843086008979135
20
-3.7436842615179691
30
0
0
SPLINE
5
300
100
AcDbEntity
8
0
100
AcDbSpline
70
4
71
3
72
8
73
4
74
0
42
0.000000001
43
0.0000000001
44
0.0000000001
40
0
40
0
40
0
40
0
40
1
40
1
40
1
40
1
41
1
41
1
41
1
41
1
10
6.3843086008979135
20
-3.7436842615179691
30
0
10
6.3843086008979135
20
-3.4324246758709096
30
0
10
6.2901016766709121
20
-3.1633696082796448
30
0
10
6.1438925762700807
20
-3.0058556769715743
30
0
0
SPLINE
5
301
100
AcDbEntity
8
0
100
AcDbSpline
70
4
71
3
72
8
73
4
74
0
42
0.000000001
43
0.0000000001
44
0.0000000001
40
0
40
0
40
0
40
0
40
1
40
1
40
1
40
1
41
1
41
1
41
1
41
1
10
6.1438925762700807
20
-3.0058556769715743
30
0
10
6.1958947524439116
20
-2.9757094612189339
30
0
10
6.2516652055868196
20
-2.9591290655547198
30
0
10
6.3089430615163131
20
-2.9591290655547198
30
0
0
LINE
5
302
100
AcDbEntity
8
0
100
AcDbLine
10
6.3089430615163131
20
-2.9591290655547193
30
0
11
6.3240161693926318
21
-2.9591290655547198
31
0
0
SPLINE
5
303
100
AcDbEntity
8
0
100
AcDbSpline
70
4
71
3
72
8
73
4
74
0
42
0.000000001
43
0.0000000001
44
0.0000000001
40
0
40
0
40
0
40
0
40
1
40
1
40
1
40
1
41
1
41
1
41
1
41
1
10
6.3240161693926318
20
-2.9591290655547198
30
0
10
6.5832733488684907
20
-2.9711877128539363
30
0
10
6.7769628770781534
20
-3.3163617912227195
30
0
10
6.7566140894461721
20
-3.730118556428232
30
0
0
SPLINE
5
304
100
AcDbEntity
8
0
100
AcDbSpline
70
4
71
3
72
8
73
4
74
0
42
0.000000001
43
0.0000000001
44
0.0000000001
40
0.39219976127007616
40
0.39219976127007616
40
0.39219976127007616
40
0.39219976127007616
40
1
40
1
40
1
40
1
41
1
41
1
41
1
41
1
10
5.9460664253531323
20
-4.613752836667774
30
0
10
6.0029741186878001
20
-4.5949771581885077
30
0
10
6.0564424927353473
20
-4.5624173074301364
30
0
10
6.1054561051859899
20
-4.5184423743566242
30
0
0
SPLINE
5
305
100
AcDbEntity
8
0
100
AcDbSpline
70
4
71
3
72
8
73
4
74
0
42
0.000000001
43
0.0000000001
44
0.0000000001
40
0
40
0
40
0
40
0
40
1
40
1
40
1
40
1
41
1
41
1
41
1
41
1
10
6.1054561051859899
20
-4.5184423743566242
30
0
10
6.1491680260283692
20
-4.5372837592020243
30
0
10
6.1951410510506202
20
-4.5478348887159719
30
0
10
6.2433749502553688
20
-4.5500959928958444
30
0
0
SPLINE
5
306
100
AcDbEntity
8
0
100
AcDbSpline
70
4
71
3
72
8
73
4
74
0
42
0.000000001
43
0.0000000001
44
0.0000000001
40
0
40
0
40
0
40
0
40
1
40
1
40
1
40
1
41
1
41
1
41
1
41
1
10
6.2433749502553688
20
-4.5500959928958444
30
0
10
6.2494041014069479
20
-4.5500959928958444
30
0
10
6.2561871839491916
20
-4.5508496942891359
30
0
10
6.2629700364940595
20
-4.5508496942891359
30
0
0
SPLINE
5
307
100
AcDbEntity
8
0
100
AcDbSpline
70
4
71
3
72
8
73
4
74
0
42
0.000000001
43
0.0000000001
44
0.0000000001
40
0
40
0
40
0
40
0
40
1
40
1
40
1
40
1
41
1
41
1
41
1
41
1
10
6.2629700364940595
20
-4.5508496942891359
30
0
10
6.4174693922263408
20
-4.5508496942891359
30
0
10
6.5629247912338826
20
-4.4611647484245047
30
0
10
6.6729585247304941
20
-4.299128838754064
30
0
0
SPLINE
5
308
100
AcDbEntity
8
0
100
AcDbSpline
70
4
71
3
72
8
73
4
74
0
42
0.000000001
43
0.0000000001
44
0.0000000001
40
0
40
0
40
0
40
0
40
0.70294874892073944
40
0.70294874892073944
40
0.70294874892073944
40
0.70294874892073944
41
1
41
1
41
1
41
1
10
6.6729585247304941
20
-4.299128838754064
30
0
10
6.7444789754175378
20
-4.1937024289654721
30
0
10
6.7962617960044129
20
-4.0636970042397396
30
0
10
6.824380140277742
20
-3.9216781848547346
30
0
0
LINE
5
309
100
AcDbEntity
8
0
100
AcDbLine
10
6.8243801402777438
20
-3.9216781848547346
30
0
11
6.824380344192007
21
-4.6137528689811402
31
0
0
LINE
5
310
100
AcDbEntity
8
0
100
AcDbLine
10
6.824380344192007
20
-4.6137528689811402
30
0
11
5.9460664253531323
21
-4.613752836667774
31
0
0
SPLINE
5
311
100
AcDbEntity
8
0
100
AcDbSpline
70
4
71
3
72
8
73
4
74
0
42
0.000000001
43
0.0000000001
44
0.0000000001
40
0
40
0
40
0
40
0
40
1
40
1
40
1
40
1
41
1
41
1
41
1
41
1
10
6.0391338325370096
20
-4.4536279644889722
30
0
10
6.0331046813854323
20
-4.4589036442446339
30
0
10
6.0278290016297698
20
-4.4634253926096301
30
0
10
6.0217998504781907
20
-4.4679473709720003
30
0
0
SPLINE
5
312
100
AcDbEntity
8
0
100
AcDbSpline
70
4
71
3
72
8
73
4
74
0
42
0.000000001
43
0.0000000001
44
0.0000000001
40
0
40
0
40
0
40
0
40
1
40
1
40
1
40
1
41
1
41
1
41
1
41
1
10
6.0217998504781907
20
-4.4679473709720003
30
0
10
5.9645219945486989
20
-4.5124129932076711
30
0
10
5.9012149874676316
20
-4.5372837592020243
30
0
10
5.8348934048107708
20
-4.5372837592020243
30
0
0
SPLINE
5
313
100
AcDbEntity
8
0
100
AcDbSpline
70
4
71
3
72
8
73
4
74
0
42
0.000000001
43
0.0000000001
44
0.0000000001
40
0
40
0
40
0
40
0
40
1
40
1
40
1
40
1
41
1
41
1
41
1
41
1
10
5.8348934048107708
20
-4.5372837592020243
30
0
10
5.7881666783952275
20
-4.5372837592020243
30
0
10
5.7429473547662688
20
-4.525225226901493
30
0
10
5.6999891353171792
20
-4.5018618636937209
30
0
0
SPLINE
5
314
100
AcDbEntity
8
0
100
AcDbSpline
70
4
71
3
72
8
73
4
74
0
42
0.000000001
43
0.0000000001
44
0.0000000001
40
0
40
0
40
0
40
0
40
1
40
1
40
1
40
1
41
1
41
1
41
1
41
1
10
5.6999891353171792
20
-4.5018618636937209
30
0
10
5.858256768018542
20
-4.3473625079614404
30
0
10
5.9615076489702838
20
-4.0685100122495177
30
0
10
5.9615076489702838
20
-3.742930790122053
30
0
0
SPLINE
5
315
100
AcDbEntity
8
0
100
AcDbSpline
70
4
71
3
72
8
73
4
74
0
42
0.000000001
43
0.0000000001
44
0.0000000001
40
0
40
0
40
0
40
0
40
1
40
1
40
1
40
1
41
1
41
1
41
1
41
1
10
5.9615076489702838
20
-3.742930790122053
30
0
10
5.9615076489702838
20
-3.4173515679945883
30
0
10
5.858256768018542
20
-3.137745485888062
30
0
10
5.6999891353171792
20
-2.9839998315490717
30
0
0
LINE
5
316
100
AcDbEntity
8
0
100
AcDbLine
10
5.6999891353171792
20
-2.9839998315490717
30
0
11
5.7045111136795512
21
-2.9817388423678861
31
0
0
SPLINE
5
317
100
AcDbEntity
8
0
100
AcDbSpline
70
4
71
3
72
8
73
4
74
0
42
0.000000001
43
0.0000000001
44
0.0000000001
40
0
40
0
40
0
40
0
40
1
40
1
40
1
40
1
41
1
41
1
41
1
41
1
10
5.7045111136795512
20
-2.9817388423678861
30
0
10
5.7210916243424528
20
-2.9839998315490717
30
0
10
5.7376719050079794
20
-2.9855071193369662
30
0
10
5.7542524156708827
20
-2.9855071193369662
30
0
0
SPLINE
5
318
100
AcDbEntity
8
0
100
AcDbSpline
70
4
71
3
72
8
73
4
74
0
42
0.000000001
43
0.0000000001
44
0.0000000001
40
0
40
0
40
0
40
0
40
1
40
1
40
1
40
1
41
1
41
1
41
1
41
1
10
5.7542524156708827
20
-2.9855071193369662
30
0
10
5.7874132069993109
20
-2.9855071193369662
30
0
10
5.8213276997210315
20
-2.9802315545799916
30
0
10
5.8559958938360444
20
-2.9704340114606462
30
0
0
SPLINE
5
319
100
AcDbEntity
8
0
100
AcDbSpline
70
4
71
3
72
8
73
4
74
0
42
0.000000001
43
0.0000000001
44
0.0000000001
40
0
40
0
40
0
40
0
40
1
40
1
40
1
40
1
41
1
41
1
41
1
41
1
10
5.8559958938360444
20
-2.9704340114606462
30
0
10
5.8590104694118317
20
-2.9696803100673557
30
0
10
5.8673007247432825
20
-2.9674194358848562
30
0
10
5.8808664298330218
20
-2.9674194358848562
30
0
0
SPLINE
5
320
100
AcDbEntity
8
0
100
AcDbSpline
70
4
71
3
72
8
73
4
74
0
42
0.000000001
43
0.0000000001
44
0.0000000001
40
0
40
0
40
0
40
0
40
1
40
1
40
1
40
1
41
1
41
1
41
1
41
1
10
5.8808664298330218
20
-2.9674194358848562
30
0
10
5.8997078146784219
20
-2.9674194358848562
30
0
10
5.9132735197681612
20
-2.9711877128539363
30
0
10
5.9177954981305323
20
-2.9742022884297259
30
0
0
SPLINE
5
321
100
AcDbEntity
8
0
100
AcDbSpline
70
4
71
3
72
8
73
4
74
0
42
0.000000001
43
0.0000000001
44
0.0000000001
40
0
40
0
40
0
40
0
40
1
40
1
40
1
40
1
41
1
41
1
41
1
41
1
10
5.9177954981305323
20
-2.9742022884297259
30
0
10
5.9471880124898817
20
-2.9907826840939413
30
0
10
5.9750733540600232
20
-3.0013339286065772
30
0
10
6.003712167026082
20
-3.0051022055756569
30
0
0
SPLINE
5
322
100
AcDbEntity
8
0
100
AcDbSpline
70
4
71
3
72
8
73
4
74
0
42
0.000000001
43
0.0000000001
44
0.0000000001
40
0
40
0
40
0
40
0
40
1
40
1
40
1
40
1
41
1
41
1
41
1
41
1
10
6.003712167026082
20
-3.0051022055756569
30
0
10
6.0263218288405627
20
-3.0209290148452683
30
0
10
6.048177789261751
20
-3.0390166982973774
30
0
10
6.0692802782870237
20
-3.0608726587185675
30
0
0
SPLINE
5
323
100
AcDbEntity
8
0
100
AcDbSpline
70
4
71
3
72
8
73
4
74
0
42
0.000000001
43
0.0000000001
44
0.0000000001
40
0
40
0
40
0
40
0
40
1
40
1
40
1
40
1
41
1
41
1
41
1
41
1
10
6.0692802782870237
20
-3.0608726587185675
30
0
10
6.203430846387322
20
-3.1995452051812374
30
0
10
6.2931160222493281
20
-3.4535271648961809
30
0
10
6.2931160222493281
20
-3.743684491515344
30
0
0
SPLINE
5
324
100
AcDbEntity
8
0
100
AcDbSpline
70
4
71
3
72
8
73
4
74
0
42
0.000000001
43
0.0000000001
44
0.0000000001
40
0
40
0
40
0
40
0
40
1
40
1
40
1
40
1
41
1
41
1
41
1
41
1
10
6.2931160222493281
20
-3.743684491515344
30
0
10
6.2916088494601192
20
-4.0172613074716059
30
0
10
6.2117213317161477
20
-4.2584310334927267
30
0
10
6.0903827673122954
20
-4.4016255583177681
30
0
0
LINE
5
325
100
AcDbEntity
8
0
100
AcDbLine
10
6.0903827673122963
20
-4.401625558317769
30
0
11
6.0896290659190058
21
-4.4023792597110587
31
0
0
LINE
5
326
100
AcDbEntity
8
0
100
AcDbLine
10
6.0896290659190058
20
-4.4023792597110587
30
0
11
6.0738022566493948
21
-4.4204669431631691
31
0
0
LINE
5
327
100
AcDbEntity
8
0
100
AcDbLine
10
6.0738022566493948
20
-4.4204669431631691
30
0
11
6.0564680445932009
21
-4.4378011552193604
31
0
0
SPLINE
5
328
100
AcDbEntity
8
0
100
AcDbSpline
70
4
71
3
72
8
73
4
74
0
42
0.000000001
43
0.0000000001
44
0.0000000001
40
0
40
0
40
0
40
0
40
1
40
1
40
1
40
1
41
1
41
1
41
1
41
1
10
6.0564680445932009
20
-4.4378011552193604
30
0
10
6.051192364837541
20
-4.4430768349750238
30
0
10
6.0459169150792516
20
-4.44759858334002
30
0
10
6.0398875339303002
20
-4.4528742630956817
30
0
0
LINE
5
329
100
AcDbEntity
8
0
100
AcDbLine
10
6.0398875339303002
20
-4.4528742630956817
30
0
11
6.0391338325370096
21
-4.4536279644889722
31
0
0
SPLINE
5
330
100
AcDbEntity
8
0
100
AcDbSpline
70
0
71
2
72
6
73
3
74
0
42
0.000000001
43
0.0000000001
44
0.0000000001
40
-1
40
-1
40
-1
40
0
40
0
40
0
10
-6.8970901509255809
20
-1.4870039377693158
30
0
10
-6.7332036024841884
20
-1.5765640306204296
30
0
10
-6.7031406973813281
20
-1.652156859266358
30
0
0
SPLINE
5
331
100
AcDbEntity
8
0
100
AcDbSpline
70
0
71
2
72
6
73
3
74
0
42
0.000000001
43
0.0000000001
44
0.0000000001
40
-1
40
-1
40
-1
40
0
40
0
40
0
10
-6.7031406973813281
20
-1.652156859266358
30
0
10
-6.6744761121087439
20
-1.7242336288035325
30
0
10
-6.7641326538627684
20
-1.7598896051029118
30
0
0
SPLINE
5
332
100
AcDbEntity
8
0
100
AcDbSpline
70
0
71
2
72
6
73
3
74
0
42
0.000000001
43
0.0000000001
44
0.0000000001
40
-1
40
-1
40
-1
40
0
40
0
40
0
10
-6.7641326538627684
20
-1.7598896051029118
30
0
10
-6.8309355527896951
20
-1.7864567973486605
30
0
10
-6.9060875364914178
20
-1.7715521906664462
30
0
0
SPLINE
5
333
100
AcDbEntity
8
0
100
AcDbSpline
70
0
71
2
72
6
73
3
74
0
42
0.000000001
43
0.0000000001
44
0.0000000001
40
-1
40
-1
40
-1
40
0
40
0
40
0
10
-6.9060875364914178
20
-1.7715521906664462
30
0
10
-6.9668363866172935
20
-1.7570273691220848
30
0
10
-6.9815183285860227
20
-1.7201097951340036
30
0
0
SPLINE
5
334
100
AcDbEntity
8
0
100
AcDbSpline
70
0
71
2
72
6
73
3
74
0
42
0.000000001
43
0.0000000001
44
0.0000000001
40
-1
40
-1
40
-1
40
0
40
0
40
0
10
-6.9815183285860227
20
-1.7201097951340036
30
0
10
-6.9962001318050175
20
-1.6831925700305326
30
0
10
-6.9785191610825965
20
-1.6252604966871163
30
0
0
SPLINE
5
335
100
AcDbEntity
8
0
100
AcDbSpline
70
0
71
2
72
6
73
3
74
0
42
0.000000001
43
0.0000000001
44
0.0000000001
40
-1
40
-1
40
-1
40
0
40
0
40
0
10
-6.9785191610825965
20
-1.6252604966871163
30
0
10
-6.9573019510215124
20
-1.5557420715144519
30
0
10
-6.8970901509255809
20
-1.4870039377693158
30
0
0
SPLINE
5
336
100
AcDbEntity
8
0
100
AcDbSpline
70
0
71
2
72
6
73
3
74
0
42
0.000000001
43
0.0000000001
44
0.0000000001
40
-1
40
-1
40
-1
40
0
40
0
40
0
10
1.6637391000857626
20
2.4789312976203575
30
0
10
1.6878684139461528
20
2.395552120099663
30
0
10
1.6774448652565102
20
2.2559405554167857
30
0
0
SPLINE
5
337
100
AcDbEntity
8
0
100
AcDbSpline
70
0
71
2
72
6
73
3
74
0
42
0.000000001
43
0.0000000001
44
0.0000000001
40
-1
40
-1
40
-1
40
0
40
0
40
0
10
1.6774448652565102
20
2.2559405554167857
30
0
10
1.6592741006765712
20
2.012563856173248
30
0
10
1.5421783726734009
20
1.6893038701103911
30
0
0
SPLINE
5
338
100
AcDbEntity
8
0
100
AcDbSpline
70
0
71
2
72
6
73
3
74
0
42
0.000000001
43
0.0000000001
44
0.0000000001
40
-1
40
-1
40
-1
40
0
40
0
40
0
10
1.5421783726734009
20
1.6893038701103911
30
0
10
1.3973721342768335
20
1.2998151018820738
30
0
10
1.1146702874799279
20
0.86750109959739929
30
0
0
SPLINE
5
339
100
AcDbEntity
8
0
100
AcDbSpline
70
0
71
2
72
6
73
3
74
0
42
0.000000001
43
0.0000000001
44
0.0000000001
40
-1
40
-1
40
-1
40
0
40
0
40
0
10
1.1146702874799279
20
0.86750109959739929
30
0
10
1.1743813711073008
20
1.2861090558961623
30
0
10
1.2655165526185286
20
1.6682222044529222
30
0
0
SPLINE
5
340
100
AcDbEntity
8
0
100
AcDbSpline
70
0
71
2
72
6
73
3
74
0
42
0.000000001
43
0.0000000001
44
0.0000000001
40
-1
40
-1
40
-1
40
0
40
0
40
0
10
1.2655165526185286
20
1.6682222044529222
30
0
10
1.4282417597000292
20
2.3485354774288623
30
0
10
1.5728430323488145
20
2.5065865558215799
30
0
0
SPLINE
5
341
100
AcDbEntity
8
0
100
AcDbSpline
70
0
71
2
72
6
73
3
74
0
42
0.000000001
43
0.0000000001
44
0.0000000001
40
-1
40
-1
40
-1
40
0
40
0
40
0
10
1.5728430323488145
20
2.5065865558215799
30
0
10
1.6077331300444118
20
2.5419247157941767
30
0
10
1.624712899759077
20
2.5406569880327861
30
0
0
SPLINE
5
342
100
AcDbEntity
8
0
100
AcDbSpline
70
0
71
2
72
6
73
3
74
0
42
0.000000001
43
0.0000000001
44
0.0000000001
40
-1
40
-1
40
-1
40
0
40
0
40
0
10
1.624712899759077
20
2.5406569880327861
30
0
10
1.6492392493922143
20
2.5388258245460009
30
0
10
1.6637391000857626
20
2.4789312976203575
30
0
0
SPLINE
5
343
100
AcDbEntity
8
0
100
AcDbSpline
70
0
71
2
72
6
73
3
74
0
42
0.000000001
43
0.0000000001
44
0.0000000001
40
-1
40
-1
40
-1
40
0
40
0
40
0
10
-2.2215788594478636
20
0.7738892376222708
30
0
10
-2.1538724994964662
20
0.78127599834487482
30
0
10
-2.087328229165005
20
0.72953943683833455
30
0
0
LINE
5
344
100
AcDbEntity
8
0
100
AcDbLine
10
-2.087328229165005
20
0.72953943683833467
30
0
11
-2.1015864490111609
21
0.59857189105920305
31
0
0
SPLINE
5
345
100
AcDbEntity
8
0
100
AcDbSpline
70
0
71
2
72
6
73
3
74
0
42
0.000000001
43
0.0000000001
44
0.0000000001
40
-1
40
-1
40
-1
40
0
40
0
40
0
10
-2.1015864490111609
20
0.59857189105920339
30
0
10
-2.1184771637365856
20
0.40451423960860045
30
0
10
-2.1528418962983604
20
0.24851546698102436
30
0
0
SPLINE
5
346
100
AcDbEntity
8
0
100
AcDbSpline
70
0
71
2
72
6
73
3
74
0
42
0.000000001
43
0.0000000001
44
0.0000000001
40
-1
40
-1
40
-1
40
0
40
0
40
0
10
-2.1528418962983604
20
0.24851546698102436
30
0
10
-2.1880613977746761
20
0.082907911052604616
30
0
10
-2.301929419263852
20
-0.12934230696040067
30
0
0
SPLINE
5
347
100
AcDbEntity
8
0
100
AcDbSpline
70
0
71
2
72
6
73
3
74
0
42
0.000000001
43
0.0000000001
44
0.0000000001
40
-1
40
-1
40
-1
40
0
40
0
40
0
10
-2.301929419263852
20
-0.12934230696040067
30
0
10
-2.3929553909893704
20
-0.30674751195332478
30
0
10
-2.4644231998305308
20
-0.31454464657490899
30
0
0
SPLINE
5
348
100
AcDbEntity
8
0
100
AcDbSpline
70
0
71
2
72
6
73
3
74
0
42
0.000000001
43
0.0000000001
44
0.0000000001
40
-1
40
-1
40
-1
40
0
40
0
40
0
10
-2.4644231998305308
20
-0.31454464657490899
30
0
10
-2.513322222021225
20
-0.31987952762229171
30
0
10
-2.5500830243155512
20
-0.20970303743873528
30
0
0
SPLINE
5
349
100
AcDbEntity
8
0
100
AcDbSpline
70
0
71
2
72
6
73
3
74
0
42
0.000000001
43
0.0000000001
44
0.0000000001
40
-1
40
-1
40
-1
40
0
40
0
40
0
10
-2.5500830243155512
20
-0.20970303743873528
30
0
10
-2.5693697213962934
20
-0.13758579423560016
30
0
10
-2.5781928034907304
20
-0.056714246530172527
30
0
0
SPLINE
5
350
100
AcDbEntity
8
0
100
AcDbSpline
70
0
71
2
72
6
73
3
74
0
42
0.000000001
43
0.0000000001
44
0.0000000001
40
-1
40
-1
40
-1
40
0
40
0
40
0
10
-2.5781928034907304
20
-0.056714246530172527
30
0
10
-2.5939922571383081
20
0.088102072269056142
30
0
10
-2.5754600731122621
20
0.26711373644666891
30
0
0
SPLINE
5
351
100
AcDbEntity
8
0
100
AcDbSpline
70
0
71
2
72
6
73
3
74
0
42
0.000000001
43
0.0000000001
44
0.0000000001
40
-1
40
-1
40
-1
40
0
40
0
40
0
10
-2.5754600731122621
20
0.26711373644666891
30
0
10
-2.5477984226951365
20
0.51944023132786532
30
0
10
-2.4568746237462258
20
0.64545009787352992
30
0
0
SPLINE
5
352
100
AcDbEntity
8
0
100
AcDbSpline
70
0
71
2
72
6
73
3
74
0
42
0.000000001
43
0.0000000001
44
0.0000000001
40
-1
40
-1
40
-1
40
0
40
0
40
0
10
-2.4568746237462258
20
0.64545009787352992
30
0
10
-2.3588722804675668
20
0.75891053177265289
30
0
10
-2.2215788594478636
20
0.7738892376222708
30
0
0
SPLINE
5
353
100
AcDbEntity
8
0
100
AcDbSpline
70
0
71
2
72
6
73
3
74
0
42
0.000000001
43
0.0000000001
44
0.0000000001
40
-1
40
-1
40
-1
40
0
40
0
40
0
10
-0.033083284226197496
20
2.5469391920733337
30
0
10
-0.0021801061389069448
20
2.4658262793189154
30
0
10
-0.001089283908083881
20
2.3258303884244063
30
0
0
SPLINE
5
354
100
AcDbEntity
8
0
100
AcDbSpline
70
0
71
2
72
6
73
3
74
0
42
0.000000001
43
0.0000000001
44
0.0000000001
40
-1
40
-1
40
-1
40
0
40
0
40
0
10
-0.001089283908083881
20
2.3258303884244063
30
0
10
0.0008122828754576944
20
2.081783715708168
30
0
10
-0.089308034752178467
20
1.7499904721714064
30
0
0
SPLINE
5
355
100
AcDbEntity
8
0
100
AcDbSpline
70
0
71
2
72
6
73
3
74
0
42
0.000000001
43
0.0000000001
44
0.0000000001
40
-1
40
-1
40
-1
40
0
40
0
40
0
10
-0.089308034752178467
20
1.7499904721714064
30
0
10
-0.20159960478365033
20
1.3499142912327726
30
0
10
-0.44779872270212256
20
0.89581989015526453
30
0
0
SPLINE
5
356
100
AcDbEntity
8
0
100
AcDbSpline
70
0
71
2
72
6
73
3
74
0
42
0.000000001
43
0.0000000001
44
0.0000000001
40
-1
40
-1
40
-1
40
0
40
0
40
0
10
-0.44779872270212256
20
0.89581989015526453
30
0
10
-0.4227084062384952
20
1.3179200093264598
30
0
10
-0.36329973223762091
20
1.70623262702321
30
0
0
SPLINE
5
357
100
AcDbEntity
8
0
100
AcDbSpline
70
0
71
2
72
6
73
3
74
0
42
0.000000001
43
0.0000000001
44
0.0000000001
40
-1
40
-1
40
-1
40
0
40
0
40
0
10
-0.36329973223762091
20
1.70623262702321
30
0
10
-0.2570619038723983
20
2.3976219285250449
30
0
10
-0.12594544275216704
20
2.5670271972036076
30
0
0
SPLINE
5
358
100
AcDbEntity
8
0
100
AcDbSpline
70
0
71
2
72
6
73
3
74
0
42
0.000000001
43
0.0000000001
44
0.0000000001
40
-1
40
-1
40
-1
40
0
40
0
40
0
10
-0.12594544275216704
20
2.5670271972036076
30
0
10
-0.094079038104881635
20
2.6051144223888674
30
0
10
-0.077052526054911544
20
2.605247089838882
30
0
0
SPLINE
5
359
100
AcDbEntity
8
0
100
AcDbSpline
70
0
71
2
72
6
73
3
74
0
42
0.000000001
43
0.0000000001
44
0.0000000001
40
-1
40
-1
40
-1
40
0
40
0
40
0
10
-0.077052526054911544
20
2.605247089838882
30
0
10
-0.052458659672276926
20
2.6054387207219074
30
0
10
-0.033083284226197496
20
2.5469391920733337
30
0
0
ELLIPSE
5
360
100
AcDbEntity
8
0
100
AcDbEllipse
10
-0.3221733032108744
20
-2.4882964437579438
30
0
11
0.0681287881491731
21
0.16729516890185619
31
0.0
40
0.10771818667902427
41
1.2908595738387294
42
1.5629923185219361
0
SPLINE
5
361
100
AcDbEntity
8
0
100
AcDbSpline
70
4
71
3
72
8
73
4
74
0
42
0.000000001
43
0.0000000001
44
0.0000000001
40
0
40
0
40
0
40
0
40
1
40
1
40
1
40
1
41
1
41
1
41
1
41
1
10
-0.32066890660819436
20
-2.4350206128510137
30
0
10
-0.27039677961163644
20
-2.321725433083603
30
0
10
-0.19660613049908157
20
-2.1941470113026682
30
0
10
-0.098114948755111106
20
-2.1198713457563167
30
0
0
SPLINE
5
362
100
AcDbEntity
8
0
100
AcDbSpline
70
4
71
3
72
8
73
4
74
0
42
0.000000001
43
0.0000000001
44
0.0000000001
40
0
40
0
40
0
40
0
40
1
40
1
40
1
40
1
41
1
41
1
41
1
41
1
10
-0.098114948755111106
20
-2.1198713457563167
30
0
10
-0.0264948639395069
20
-2.1124325943059969
30
0
10
0.035884731766580337
20
-2.0785229713019784
30
0
10
0.069344933218280919
20
-2.0568678267618847
30
0
0
SPLINE
5
363
100
AcDbEntity
8
0
100
AcDbSpline
70
4
71
3
72
8
73
4
74
0
42
0.000000001
43
0.0000000001
44
0.0000000001
40
0
40
0
40
0
40
0
40
1
40
1
40
1
40
1
41
1
41
1
41
1
41
1
10
0.069344933218280919
20
-2.0568678267618847
30
0
10
0.071864066903362861
20
-2.0567953347471675
30
0
10
0.074387830816929582
20
-2.056739772005348
30
0
10
0.076927366446272905
20
-2.056739772005348
30
0
0
ELLIPSE
5
364
100
AcDbEntity
8
0
100
AcDbEllipse
10
0.55209980315549356
20
-5.6221316982412635
30
0
11
-0.5064350623002396
21
3.5631917749882156
31
0.0
40
0.24728861909691591
41
6.1830423434091992
42
6.2480528702164513
0
ELLIPSE
5
365
100
AcDbEntity
8
0
100
AcDbEllipse
10
0.16482463146368959
20
-1.9391623152475328
30
0
11
0.1745173582988977
21
-0.12648095774740475
31
0.0
40
0.56325427667116179
41
4.9480187494319328
42
5.3257692146696538
0
SPLINE
5
366
100
AcDbEntity
8
0
100
AcDbSpline
70
4
71
3
72
8
73
4
74
0
42
0.000000001
43
0.0000000001
44
0.0000000001
40
0
40
0
40
0
40
0
40
1
40
1
40
1
40
1
41
1
41
1
41
1
41
1
10
0.20702868397293445
20
-2.0923478206954957
30
0
10
0.30921811602460164
20
-2.1479435528926007
30
0
10
0.4086362116333988
20
-2.2674801359630554
30
0
10
0.4957439766471709
20
-2.4423735603797203
30
0
0
SPLINE
5
367
100
AcDbEntity
8
0
100
AcDbSpline
70
4
71
3
72
8
73
4
74
0
42
0.000000001
43
0.0000000001
44
0.0000000001
40
0
40
0
40
0
40
0
40
1
40
1
40
1
40
1
41
1
41
1
41
1
41
1
10
0.4957439766471709
20
-2.4423735603797203
30
0
10
0.61713930706504405
20
-2.6861113923299151
30
0
10
0.70560763578018437
20
-3.0156071329958856
30
0
10
0.74485142669348192
20
-3.3701677473971796
30
0
0
ELLIPSE
5
368
100
AcDbEntity
8
0
100
AcDbEllipse
10
0.66824809148722231
20
-3.370097119752276
30
0
11
-0.058356860444534552
21
0.51569072865710086
31
0.0
40
0.14667215883320919
41
4.4232184546486017
42
4.6956557752294952
0
ELLIPSE
5
369
100
AcDbEntity
8
0
100
AcDbEllipse
10
0.73907934938012265
20
-3.5313822546708322
30
0
11
-0.015436542980938817
21
0.24747306166349339
31
0.0
40
0.079613945984151613
41
4.5251777118532068
42
4.7982073415514455
0
ELLIPSE
5
370
100
AcDbEntity
8
0
100
AcDbEllipse
10
0.67932846220512066
20
-3.5575385952867289
30
0
11
-0.026818444038985121
21
0.48690408529699319
31
0.0
40
0.16594374504079998
41
4.3927732279306113
42
4.6648440819588783
0
ARC
5
371
100
AcDbEntity
8
0
100
AcDbCircle
10
-1.7652277732542461
20
-3.706857630257387
30
0
40
2.5296894366511813
210
0
220
0
230
1
100
AcDbArc
50
-0.70151839958138418
51
0.012635320697068429
0
ELLIPSE
5
372
100
AcDbEntity
8
0
100
AcDbEllipse
10
0.23415969803394987
20
-3.2718135131084152
30
0
11
-0.22102549395024951
21
1.232908733439575
31
0.0
40
0.39098154600247825
41
3.9827540889800894
42
4.2557957573551608
0
ELLIPSE
5
373
100
AcDbEntity
8
0
100
AcDbEllipse
10
0.6877438515876394
20
-4.0022695868120328
30
0
11
0.043857144161418476
21
0.29613182588079956
31
0.0
40
0.1889641630626171
41
4.3772907890994333
42
4.6491646313452408
0
ELLIPSE
5
374
100
AcDbEntity
8
0
100
AcDbEllipse
10
-0.94647398582210485
20
-1.7286950141604382
30
0
11
-1.3543612677150592
21
2.8696943192898852
31
0.0
40
0.36463555581345758
41
3.3125524731391653
42
3.5859072105214143
0
LINE
5
375
100
AcDbEntity
8
0
100
AcDbLine
10
0.56616425009840954
20
-4.4725371794670332
30
0
11
0.56616425350661748
21
-4.4725348602033614
31
0
0
ELLIPSE
5
376
100
AcDbEntity
8
0
100
AcDbEllipse
10
0.53433216917798998
20
-4.4534049151495356
30
0
11
0.089931182620924213
21
0.10712131057197607
31
0.0
40
0.26247617049597083
41
4.480158633916921
42
4.753984020009554
0
ELLIPSE
5
377
100
AcDbEntity
8
0
100
AcDbEllipse
10
0.50879466597305656
20
-4.4798493032913891
30
0
11
0.095831815461688855
21
0.097777718532885749
31
0.0
40
0.27667285222310573
41
4.4934362539148527
42
4.7665648263090006
0
ELLIPSE
5
378
100
AcDbEntity
8
0
100
AcDbEllipse
10
0.4833718032692001
20
-4.5026967350592164
30
0
11
0.10108453536357015
21
0.08829230695100948
31
0.0
40
0.28865298644815945
41
4.4937689681918149
42
4.7674884958770916
0
ELLIPSE
5
379
100
AcDbEntity
8
0
100
AcDbEllipse
10
0.45182125803077267
20
-4.5258871541731889
30
0
11
0.10817139325070084
21
0.077658603409413149
31
0.0
40
0.30185171040213871
41
4.543988128529926
42
4.8160275639350791
0
ELLIPSE
5
380
100
AcDbEntity
8
0
100
AcDbEllipse
10
0.42265680811959289
20
-4.5442992533005278
30
0
11
0.1138107875890625
21
0.067395012910193675
31
0.0
40
0.30801908332229483
41
4.5589776276195346
42
4.8315732775116258
0
ELLIPSE
5
381
100
AcDbEntity
8
0
100
AcDbEllipse
10
-0.34752004860456287
20
-3.2482593386315415
30
0
11
-0.79121309876504875
21
1.3309242914124206
31
0.0
40
0.5181544987164477
41
2.8427805286969838
42
3.1159914580214729
0
ELLIPSE
5
382
100
AcDbEntity
8
0
100
AcDbEllipse
10
1.1142413725297493
20
-2.9720355843545319
30
0
11
1.3730250381744353
21
1.5096469068375804
31
0.0
40
0.51811044013812724
41
3.3087081524044799
42
3.5819543743399245
0
ELLIPSE
5
383
100
AcDbEntity
8
0
100
AcDbEllipse
10
-0.10216179732097486
20
-4.5269582701453324
30
0
11
0.15875033202431996
21
-0.076526567578833929
31
0.0
40
0.28528596892239272
41
4.5297043809182886
42
4.8029242118880093
0
ARC
5
384
100
AcDbEntity
8
0
100
AcDbCircle
10
0.13631836485201732
20
-4.0312565461946228
30
0
40
0.60035602410729527
210
0
220
0
230
1
100
AcDbArc
50
238.99050130538697
51
241.24733127608727
0
SPLINE
5
385
100
AcDbEntity
8
0
100
AcDbSpline
70
4
71
3
72
8
73
4
74
0
42
0.000000001
43
0.0000000001
44
0.0000000001
40
0
40
0
40
0
40
0
40
1
40
1
40
1
40
1
41
1
41
1
41
1
41
1
10
-0.17297315492272253
20
-4.5458108304808889
30
0
10
-0.177210971543554
20
-4.5432633366463353
30
0
10
-0.1813525662286829
20
-4.5406058748852667
30
0
10
-0.18549647602805444
20
-4.537953043352684
30
0
0
LINE
5
386
100
AcDbEntity
8
0
100
AcDbLine
10
-0.18549647602805441
20
-4.5379530433526831
30
0
11
-0.18701041604798577
21
-4.536985904377894
31
0
0
SPLINE
5
387
100
AcDbEntity
8
0
100
AcDbSpline
70
4
71
3
72
8
73
4
74
0
42
0.000000001
43
0.0000000001
44
0.0000000001
40
0
40
0
40
0
40
0
40
1
40
1
40
1
40
1
41
1
41
1
41
1
41
1
10
-0.1870104160479861
20
-4.536985904377894
30
0
10
-0.19683503741980524
20
-4.5307012373774436
30
0
10
-0.20481422335109942
20
-4.5253455099667823
30
0
10
-0.21212347309848079
20
-4.5201266636857049
30
0
0
ELLIPSE
5
388
100
AcDbEntity
8
0
100
AcDbEllipse
10
-0.20483085252180766
20
-4.4655785304594815
30
0
11
0.13395684779495998
21
-0.10542290882695177
31
0.0
40
0.28174746761794756
41
4.603899105002851
42
4.8774173116274326
0
ELLIPSE
5
389
100
AcDbEntity
8
0
100
AcDbEllipse
10
-0.24647737334063025
20
-4.4777096268368428
30
0
11
0.065732127250629407
21
-0.056445436104505559
31
0.0
40
0.14080256311710232
41
4.5278536706634949
42
4.7966712129316749
0
ELLIPSE
5
390
100
AcDbEntity
8
0
100
AcDbEllipse
10
-0.25732201264235832
20
-4.4223149044828309
30
0
11
-0.11970788812977505
21
0.12012888410719999
31
0.0
40
0.26783858734091093
41
1.485326926254636
42
1.7604645151505409
0
ELLIPSE
5
391
100
AcDbEntity
8
0
100
AcDbEllipse
10
-0.28891216545352721
20
-4.3896527017101024
30
0
11
-0.11154526980185649
21
0.13036449123872201
31
0.0
40
0.25851610014636378
41
1.498398343989602
42
1.772368862452445
0
ELLIPSE
5
392
100
AcDbEntity
8
0
100
AcDbEllipse
10
-0.31782259954943487
20
-4.3540463628930803
30
0
11
-0.10430723516121378
21
0.14136656790068899
31
0.0
40
0.24964095844843548
41
1.5100625400678889
42
1.7808008930180288
0
SPLINE
5
393
100
AcDbEntity
8
0
100
AcDbSpline
70
4
71
3
72
8
73
4
74
0
42
0.000000001
43
0.0000000001
44
0.0000000001
40
0
40
0
40
0
40
0
40
1
40
1
40
1
40
1
41
1
41
1
41
1
41
1
10
-0.35937949777252437
20
-4.3714572617666381
30
0
10
-0.36634307202457761
20
-4.3617152610343455
30
0
10
-0.37352672682430493
20
-4.351014513616394
30
0
10
-0.38133864575158144
20
-4.338744697520613
30
0
0
ELLIPSE
5
394
100
AcDbEntity
8
0
100
AcDbEllipse
10
-0.34020979079569863
20
-4.2288534480002253
30
0
11
-0.1242025543200948
21
0.24544893060833306
31
0.0
40
0.32775444088637651
41
1.5920371852380824
42
1.8639139789620849
0
SPLINE
5
395
100
AcDbEntity
8
0
100
AcDbSpline
70
4
71
3
72
8
73
4
74
0
42
0.000000001
43
0.0000000001
44
0.0000000001
40
0
40
0
40
0
40
0
40
1
40
1
40
1
40
1
41
1
41
1
41
1
41
1
10
-0.41800065020061045
20
-4.2747653578729823
30
0
10
-0.42387134583558017
20
-4.2633648671752464
30
0
10
-0.42858708885284047
20
-4.2538101013073133
30
0
10
-0.43284964825713829
20
-4.2446920238633679
30
0
0
ARC
5
396
100
AcDbEntity
8
0
100
AcDbCircle
10
0.4065883868192483
20
-3.8522779291765006
30
0
40
0.92663101418084182
210
0
220
0
230
1
100
AcDbArc
50
203.48958454078939
51
205.05479006378405
0
ELLIPSE
5
397
100
AcDbEntity
8
0
100
AcDbEllipse
10
1.4796332902582696
20
-1.7170237925408542
30
0
11
1.6496932003497198
21
2.8298090136654546
31
0.0
40
0.41713103442854882
41
2.5714178494988711
42
2.8446344420341902
0
ELLIPSE
5
398
100
AcDbEntity
8
0
100
AcDbEllipse
10
-0.52598770272870854
20
-3.6817121832477726
30
0
11
-0.0061505609778954506
21
0.22051102771863468
31
0.0
40
0.099751237460397782
41
1.506053271015654
42
1.7782598491567081
0
ARC
5
399
100
AcDbEntity
8
0
100
AcDbCircle
10
1.7863523749461299
20
-3.6185987682337624
30
0
40
2.3352119918803389
210
0
220
0
230
1
100
AcDbArc
50
179.64995313102941
51
181.213597678479
0
ELLIPSE
5
400
100
AcDbEntity
8
0
100
AcDbEllipse
10
-0.10769010044682747
20
-3.1474901956287065
30
0
11
0.21166907966649623
21
1.1164029599967256
31
0.0
40
0.34671645363727066
41
1.7839032776834334
42
2.0570599624307118
0
ELLIPSE
5
401
100
AcDbEntity
8
0
100
AcDbEllipse
10
-0.38792649144846908
20
-3.3791744170803133
30
0
11
0.086866738263042476
21
0.85061862735697091
31
0.0
40
0.17452795234870597
41
1.2363367155719895
42
1.509432412316815
0
ARC
5
402
100
AcDbEntity
8
0
100
AcDbCircle
10
3.5669741827410042
20
-3.7514382462161859
30
0
40
4.1207605946350423
210
0
220
0
230
1
100
AcDbArc
50
170.26063078259651
51
170.70173599740269
0
ELLIPSE
5
403
100
AcDbEntity
8
0
100
AcDbEllipse
10
-0.46423955216473611
20
-3.0546858480769696
30
0
11
0.059162262459997374
21
0.34217111988489313
31
0.0
40
0.085750206322889919
41
1.3121095747674838
42
1.5846198822489515
0
ELLIPSE
5
404
100
AcDbEntity
8
0
100
AcDbEllipse
10
-0.44850043680301049
20
-2.9775881818259826
30
0
11
0.065184636247206995
21
0.3363182167866719
31
0.0
40
0.091573826573020989
41
1.2724419324136587
42
1.5429291330022594
0
ELLIPSE
5
405
100
AcDbEntity
8
0
100
AcDbEllipse
10
-0.4410060427158049
20
-2.8593702012775211
30
0
11
0.048536769579742421
21
0.21236955548272574
31
0.0
40
0.065768707111263855
41
1.3766734365693103
42
1.6501502360703084
0
ARC
5
406
100
AcDbEntity
8
0
100
AcDbCircle
10
2.4020612626437008
20
-3.5044398503167531
30
0
40
2.9296234233546126
210
0
220
0
230
1
100
AcDbArc
50
165.82350498280846
51
166.39413640156121
0
ELLIPSE
5
407
100
AcDbEntity
8
0
100
AcDbEllipse
10
-0.42434612774858094
20
-2.7951797415187283
30
0
11
0.052626537823714514
21
0.20996640307548248
31
0.0
40
0.071985829158577749
41
1.2804867798429553
42
1.5496225298018889
0
ELLIPSE
5
408
100
AcDbEntity
8
0
100
AcDbEllipse
10
-0.37174544510535834
20
-2.7787787171295868
30
0
11
0.10464603084397524
21
0.40153856513032637
31
0.0
40
0.15054258733369039
41
1.2182369682549741
42
1.4919508356059636
0
ELLIPSE
5
409
100
AcDbEntity
8
0
100
AcDbEllipse
10
-0.37674763338708445
20
-2.6313844972264744
30
0
11
0.060024484364232904
21
0.1874507144140484
31
0.0
40
0.084815897032206919
41
1.2919733298097076
42
1.5657222266497248
0
ELLIPSE
5
410
100
AcDbEntity
8
0
100
AcDbEllipse
10
-0.36101844881441247
20
-2.588030953488651
30
0
11
0.063498934365440407
21
0.18496815782701415
31
0.0
40
0.09197159285160271
41
1.2623169288576466
42
1.5313397930917143
0
ELLIPSE
5
411
100
AcDbEntity
8
0
100
AcDbEllipse
10
-0.34271869198134924
20
-2.5404095783212437
30
0
11
0.066470378656620976
21
0.17890438652968399
31
0.0
40
0.10062065677885942
41
1.261916678260167
42
1.529316912034238
0
ARC
5
412
100
AcDbEntity
8
0
100
AcDbCircle
10
-0.010401715447267436
20
-18.937776730891237
30
0
40
18.046390774196553
210
0
220
0
230
1
100
AcDbArc
50
104.33809233979812
51
112.25528674643034
0
SPLINE
5
413
100
AcDbEntity
8
0
100
AcDbSpline
70
0
71
2
72
6
73
3
74
0
42
0.000000001
43
0.0000000001
44
0.0000000001
40
-0.39221402184499732
40
-0.39221402184499732
40
-0.39221402184499732
40
0
40
0
40
0
10
-4.4794675914192572
20
-1.4535075104968855
30
0
10
-4.4676859803898266
20
-1.4996830670348069
30
0
10
-4.4549499678106645
20
-1.544760134522289
30
0
0
SPLINE
5
414
100
AcDbEntity
8
0
100
AcDbSpline
70
0
71
2
72
6
73
3
74
0
42
0.000000001
43
0.0000000001
44
0.0000000001
40
-1
40
-1
40
-1
40
0
40
0
40
0
10
-4.4549499678106645
20
-1.544760134522289
30
0
10
-4.3727745892619003
20
-1.8367091546971526
30
0
10
-4.2272226661034606
20
-2.072445408235188
30
0
0
SPLINE
5
415
100
AcDbEntity
8
0
100
AcDbSpline
70
0
71
2
72
6
73
3
74
0
42
0.000000001
43
0.0000000001
44
0.0000000001
40
-1
40
-1
40
-1
40
0
40
0
40
0
10
-4.2272226661034606
20
-2.072445408235188
30
0
10
-3.9865478113340838
20
-2.4444645639871005
30
0
10
-3.7516543768460262
20
-2.3939187379552771
30
0
0
SPLINE
5
416
100
AcDbEntity
8
0
100
AcDbSpline
70
0
71
2
72
6
73
3
74
0
42
0.000000001
43
0.0000000001
44
0.0000000001
40
-1
40
-1
40
-1
40
0
40
0
40
0
10
-3.7516543768460262
20
-2.3939187379552771
30
0
10
-3.6795217414867731
20
-2.3783967901152612
30
0
10
-3.6220918054468023
20
-2.3215287730650762
30
0
0
SPLINE
5
417
100
AcDbEntity
8
0
100
AcDbSpline
70
0
71
2
72
6
73
3
74
0
42
0.000000001
43
0.0000000001
44
0.0000000001
40
-1
40
-1
40
-1
40
0
40
0
40
0
10
-3.6220918054468023
20
-2.3215287730650762
30
0
10
-3.5584576374785248
20
-2.2575202872184783
30
0
10
-3.5269679814035704
20
-2.1520492125127682
30
0
0
SPLINE
5
418
100
AcDbEntity
8
0
100
AcDbSpline
70
0
71
2
72
6
73
3
74
0
42
0.000000001
43
0.0000000001
44
0.0000000001
40
-1
40
-1
40
-1
40
0
40
0
40
0
10
-3.5269679814035704
20
-2.1520492125127682
30
0
10
-3.4797921555375302
20
-2.0025633284370188
30
0
10
-3.5227760110944972
20
-1.802811415134473
30
0
0
SPLINE
5
419
100
AcDbEntity
8
0
100
AcDbSpline
70
0
71
2
72
6
73
3
74
0
42
0.000000001
43
0.0000000001
44
0.0000000001
40
-1
40
-1
40
-1
40
0
40
0
40
0
10
-3.5227760110944972
20
-1.802811415134473
30
0
10
-3.5343179591444893
20
-1.7491743884799198
30
0
10
-3.5526026069337155
20
-1.6911825100245974
30
0
0
SPLINE
5
420
100
AcDbEntity
8
0
100
AcDbSpline
70
0
71
2
72
6
73
3
74
0
42
0.000000001
43
0.0000000001
44
0.0000000001
40
-1
40
-1
40
-1
40
-0.3459524151185347
40
-0.3459524151185347
40
-0.3459524151185347
10
-3.5526026069337155
20
-1.6911825100245974
30
0
10
-3.6243414143146189
20
-1.481323067581003
30
0
10
-3.7609585836068038
20
-1.2854243891350321
30
0
0
ARC
5
421
100
AcDbEntity
8
0
100
AcDbCircle
10
-0.010401715447267436
20
-18.937776730891237
30
0
40
18.046390774196521
210
0
220
0
230
1
100
AcDbArc
50
91.438612520986865
51
101.99513532891463
0
SPLINE
5
422
100
AcDbEntity
8
0
100
AcDbSpline
70
4
71
3
72
8
73
4
74
0
42
0.000000001
43
0.0000000001
44
0.0000000001
40
0.29875902931663573
40
0.29875902931663573
40
0.29875902931663573
40
0.29875902931663573
40
1
40
1
40
1
40
1
41
1
41
1
41
1
41
1
10
-0.46347236310094903
20
-0.89707422341553489
30
0
10
-0.7304742599935754
20
-1.0745908633300856
30
0
10
-0.81199933616286779
20
-1.5057866010926242
30
0
10
-0.5658351640459901
20
-1.6524601982168063
30
0
0
SPLINE
5
423
100
AcDbEntity
8
0
100
AcDbSpline
70
0
71
2
72
6
73
3
74
0
42
0.000000001
43
0.0000000001
44
0.0000000001
40
0
40
0
40
0
40
1
40
1
40
1
10
-0.5658351640459901
20
-1.6524601982168063
30
0
10
-0.31310195570669891
20
-1.8030475275911169
30
0
10
-0.31846694357433031
20
-1.6981782061091564
30
0
0
SPLINE
5
424
100
AcDbEntity
8
0
100
AcDbSpline
70
0
71
2
72
6
73
3
74
0
42
0.000000001
43
0.0000000001
44
0.0000000001
40
0
40
0
40
0
40
1
40
1
40
1
10
-0.31846694357433031
20
-1.6981782061091564
30
0
10
-0.64125927095124391
20
-1.4654270381858574
30
0
10
-0.52012236516068577
20
-1.2099126179945052
30
0
0
SPLINE
5
425
100
AcDbEntity
8
0
100
AcDbSpline
70
4
71
3
72
8
73
4
74
0
42
0.000000001
43
0.0000000001
44
0.0000000001
40
0
40
0
40
0
40
0
40
1
40
1
40
1
40
1
41
1
41
1
41
1
41
1
10
-0.52012236516068577
20
-1.2099126179945052
30
0
10
-0.39898545937012747
20
-0.95439772754557284
30
0
10
-0.078448197960014412
20
-0.99883560386964998
30
0
10
0.037142272884159083
20
-1.1966828253086217
30
0
0
SPLINE
5
426
100
AcDbEntity
8
0
100
AcDbSpline
70
4
71
3
72
8
73
4
74
0
42
0.000000001
43
0.0000000001
44
0.0000000001
40
0
40
0
40
0
40
0
40
1
40
1
40
1
40
1
41
1
41
1
41
1
41
1
10
0.037142272884159083
20
-1.1966828253086217
30
0
10
0.1527327437283329
20
-1.3945295584031823
30
0
10
0.030706399984747532
20
-1.7260260642058824
30
0
10
-0.15672264458166293
20
-1.7468666502692283
30
0
0
SPLINE
5
427
100
AcDbEntity
8
0
100
AcDbSpline
70
4
71
3
72
8
73
4
74
0
42
0.000000001
43
0.0000000001
44
0.0000000001
40
0
40
0
40
0
40
0
40
1
40
1
40
1
40
1
41
1
41
1
41
1
41
1
10
-0.15672264458166293
20
-1.7468666502692283
30
0
10
-0.22222012039378924
20
-1.7541498549813817
30
0
10
-0.27724546631940733
20
-1.7789153555062263
30
0
10
-0.31393308171974349
20
-1.8138425435671284
30
0
0
SPLINE
5
428
100
AcDbEntity
8
0
100
AcDbSpline
70
4
71
3
72
8
73
4
74
0
42
0.000000001
43
0.0000000001
44
0.0000000001
40
0
40
0
40
0
40
0
40
1
40
1
40
1
40
1
41
1
41
1
41
1
41
1
10
-0.31393308171974349
20
-1.8138425435671284
30
0
10
-0.40310462638603267
20
-1.7937382361802061
30
0
10
-0.49473178379037591
20
-1.7835874730894801
30
0
10
-0.58833561467386308
20
-1.7835874730894801
30
0
0
SPLINE
5
429
100
AcDbEntity
8
0
100
AcDbSpline
70
4
71
3
72
8
73
4
74
0
42
0.000000001
43
0.0000000001
44
0.0000000001
40
0
40
0
40
0
40
0
40
1
40
1
40
1
40
1
41
1
41
1
41
1
41
1
10
-0.58833561467386308
20
-1.7835874730894801
30
0
10
-0.93730262367608164
20
-1.7835874730894801
30
0
10
-1.2651358952740015
20
-1.9277085436899462
30
0
10
-1.5114416953503302
20
-2.1893985672967329
30
0
0
SPLINE
5
430
100
AcDbEntity
8
0
100
AcDbSpline
70
4
71
3
72
8
73
4
74
0
42
0.000000001
43
0.0000000001
44
0.0000000001
40
0
40
0
40
0
40
0
40
1
40
1
40
1
40
1
41
1
41
1
41
1
41
1
10
-1.5114416953503302
20
-2.1893985672967329
30
0
10
-1.7565952920071122
20
-2.4498606398398515
30
0
10
-1.8916072562313213
20
-2.7958541739869047
30
0
10
-1.8916072562313213
20
-3.1636404572768368
30
0
0
SPLINE
5
431
100
AcDbEntity
8
0
100
AcDbSpline
70
4
71
3
72
8
73
4
74
0
42
0.000000001
43
0.0000000001
44
0.0000000001
40
0
40
0
40
0
40
0
40
1
40
1
40
1
40
1
41
1
41
1
41
1
41
1
10
-1.8916072562313213
20
-3.1636404572768368
30
0
10
-1.8916072562313213
20
-3.5627074066538293
30
0
10
-1.807505124456489
20
-3.8842747492071998
30
0
10
-1.6416354727520504
20
-4.1194110635787986
30
0
0
SPLINE
5
432
100
AcDbEntity
8
0
100
AcDbSpline
70
4
71
3
72
8
73
4
74
0
42
0.000000001
43
0.0000000001
44
0.0000000001
40
0
40
0
40
0
40
0
40
1
40
1
40
1
40
1
41
1
41
1
41
1
41
1
10
-1.6416354727520504
20
-4.1194110635787986
30
0
10
-1.4738380181831785
20
-4.3572847111528299
30
0
10
-1.2275412615218595
20
-4.4977397983503531
30
0
10
-0.90953912255456582
20
-4.5369451004893699
30
0
0
SPLINE
5
433
100
AcDbEntity
8
0
100
AcDbSpline
70
4
71
3
72
8
73
4
74
0
42
0.000000001
43
0.0000000001
44
0.0000000001
40
0
40
0
40
0
40
0
40
0.39473045315090788
40
0.39473045315090788
40
0.39473045315090788
40
0.39473045315090788
41
1
41
1
41
1
41
1
10
-0.90953912255456582
20
-4.5369451004893699
30
0
10
-0.85548292715087204
20
-4.5687292387933383
30
0
10
-0.79587652547386023
20
-4.5943551611324338
30
0
10
-0.7310042981200332
20
-4.6137528658552283
30
0
0
LINE
5
434
100
AcDbEntity
8
0
100
AcDbLine
10
-0.7310042981200332
20
-4.6137528658552283
30
0
11
-4.8862830359051532
21
-4.613752861797165
31
0
0
SPLINE
5
435
100
AcDbEntity
8
0
100
AcDbSpline
70
4
71
3
72
8
73
4
74
0
42
0.000000001
43
0.0000000001
44
0.0000000001
40
-0.55657572885022366
40
-0.55657572885022366
40
-0.55657572885022366
40
-0.55657572885022366
40
0
40
0
40
0
40
0
41
1
41
1
41
1
41
1
10
-4.8862830359051532
20
-4.613752861797165
30
0
10
-4.8349132710025717
20
-4.5945702014773762
30
0
10
-4.7865571074425164
20
-4.5640687827371531
30
0
10
-4.7423765445031689
20
-4.5240561950336584
30
0
0
SPLINE
5
436
100
AcDbEntity
8
0
100
AcDbSpline
70
4
71
3
72
8
73
4
74
0
42
0.000000001
43
0.0000000001
44
0.0000000001
40
-1
40
-1
40
-1
40
-1
40
0
40
0
40
0
40
0
41
1
41
1
41
1
41
1
10
-4.7423765445031689
20
-4.5240561950336584
30
0
10
-4.6989426183822092
20
-4.5420290274888586
30
0
10
-4.6525132963634004
20
-4.55326193350633
30
0
10
-4.6053350682366174
20
-4.5555084232962004
30
0
0
SPLINE
5
437
100
AcDbEntity
8
0
100
AcDbSpline
70
4
71
3
72
8
73
4
74
0
42
0.000000001
43
0.0000000001
44
0.0000000001
40
-1
40
-1
40
-1
40
-1
40
0
40
0
40
0
40
0
41
1
41
1
41
1
41
1
10
-4.6053350682366174
20
-4.5555084232962004
30
0
10
-4.5985952560659182
20
-4.5562573294041764
30
0
10
-4.5918555581622469
20
-4.5562573294041764
30
0
10
-4.5858646520995245
20
-4.5562573294041764
30
0
0
SPLINE
5
438
100
AcDbEntity
8
0
100
AcDbSpline
70
4
71
3
72
8
73
4
74
0
42
0.000000001
43
0.0000000001
44
0.0000000001
40
-1
40
-1
40
-1
40
-1
40
0
40
0
40
0
40
0
41
1
41
1
41
1
41
1
10
-4.5858646520995245
20
-4.5562573294041764
30
0
10
-4.4323482127272396
20
-4.5562573294041764
30
0
10
-4.2878181324490408
20
-4.4671429873723865
30
0
10
-4.1784845253056933
20
-4.3061380011219681
30
0
0
SPLINE
5
439
100
AcDbEntity
8
0
100
AcDbSpline
70
4
71
3
72
8
73
4
74
0
42
0.000000001
43
0.0000000001
44
0.0000000001
40
-1
40
-1
40
-1
40
-1
40
0
40
0
40
0
40
0
41
1
41
1
41
1
41
1
10
-4.1784845253056933
20
-4.3061380011219681
30
0
10
-4.0773883711484551
20
-4.1563659208890238
30
0
10
-4.0159818411063535
20
-3.9579179145803698
30
0
10
-4.0054977840633441
20
-3.7467391900382943
30
0
0
SPLINE
5
440
100
AcDbEntity
8
0
100
AcDbSpline
70
4
71
3
72
8
73
4
74
0
42
0.000000001
43
0.0000000001
44
0.0000000001
40
-1
40
-1
40
-1
40
-1
40
0
40
0
40
0
40
0
41
1
41
1
41
1
41
1
10
-4.0054977840633441
20
-3.7467391900382943
30
0
10
-3.9950137555870935
20
-3.5310672573824173
30
0
10
-4.0384476531412963
20
-3.3236329491131928
30
0
10
-4.1283109012810622
20
-3.1641256608117008
30
0
0
SPLINE
5
441
100
AcDbEntity
8
0
100
AcDbSpline
70
4
71
3
72
8
73
4
74
0
42
0.000000001
43
0.0000000001
44
0.0000000001
40
-1
40
-1
40
-1
40
-1
40
0
40
0
40
0
40
0
41
1
41
1
41
1
41
1
10
-4.1283109012810622
20
-3.1641256608117008
30
0
10
-4.225662753432478
20
-2.9911388624358364
30
0
10
-4.3664485317048527
20
-2.8907916143865746
30
0
10
-4.5237092159494452
20
-2.8833030103749278
30
0
0
SPLINE
5
442
100
AcDbEntity
8
0
100
AcDbSpline
70
4
71
3
72
8
73
4
74
0
42
0.000000001
43
0.0000000001
44
0.0000000001
40
-1
40
-1
40
-1
40
-1
40
0
40
0
40
0
40
0
41
1
41
1
41
1
41
1
10
-4.5237092159494452
20
-2.8833030103749278
30
0
10
-4.5304490281201453
20
-2.8825541042669518
30
0
10
-4.5371887260238157
20
-2.8825541042669518
30
0
10
-4.543179632086539
20
-2.8825541042669518
30
0
0
SPLINE
5
443
100
AcDbEntity
8
0
100
AcDbSpline
70
4
71
3
72
8
73
4
74
0
42
0.000000001
43
0.0000000001
44
0.0000000001
40
-1
40
-1
40
-1
40
-1
40
0
40
0
40
0
40
0
41
1
41
1
41
1
41
1
10
-4.543179632086539
20
-2.8825541042669518
30
0
10
-4.5611523502747113
20
-2.8825541042669518
30
0
10
-4.5798738603038291
20
-2.8840518022158745
30
0
10
-4.5978464642249719
20
-2.8862984062727746
30
0
0
LINE
5
444
100
AcDbEntity
8
0
100
AcDbLine
10
-4.5978464642249719
20
-2.8862984062727746
30
0
11
-4.5933532561111701
21
-2.881805198158975
31
0
0
LINE
5
445
100
AcDbEntity
8
0
100
AcDbLine
10
-4.5933532561111701
20
-2.881805198158975
30
0
11
-4.6570063902101717
21
-2.8159054600030728
31
0
0
SPLINE
5
446
100
AcDbEntity
8
0
100
AcDbSpline
70
4
71
3
72
8
73
4
74
0
42
0.000000001
43
0.0000000001
44
0.0000000001
40
-1
40
-1
40
-1
40
-1
40
0
40
0
40
0
40
0
41
1
41
1
41
1
41
1
10
-4.6570063902101717
20
-2.8159054600030728
30
0
10
-4.740878732287217
20
-2.7297865138691297
30
0
10
-4.8502123965640793
20
-2.682608285742345
30
0
10
-4.9640391546877121
20
-2.682608285742345
30
0
0
SPLINE
5
447
100
AcDbEntity
8
0
100
AcDbSpline
70
4
71
3
72
8
73
4
74
0
42
0.000000001
43
0.0000000001
44
0.0000000001
40
-1
40
-1
40
-1
40
-1
40
0
40
0
40
0
40
0
41
1
41
1
41
1
41
1
10
-4.9640391546877121
20
-2.682608285742345
30
0
10
-5.0576465905662724
20
-2.682608285742345
30
0
10
-5.148258744814016
20
-2.7140603997378587
30
0
10
-5.2268890869363123
20
-2.7739692318310367
30
0
0
SPLINE
5
448
100
AcDbEntity
8
0
100
AcDbSpline
70
4
71
3
72
8
73
4
74
0
42
0.000000001
43
0.0000000001
44
0.0000000001
40
-1
40
-1
40
-1
40
-1
40
0
40
0
40
0
40
0
41
1
41
1
41
1
41
1
10
-5.2268890869363123
20
-2.7739692318310367
30
0
10
-5.2328798787320094
20
-2.778462325677808
30
0
10
-5.240368482743655
20
-2.7829555337916081
30
0
10
-5.2486059928632782
20
-2.7881975337463549
30
0
0
SPLINE
5
449
100
AcDbEntity
8
0
100
AcDbSpline
70
4
71
3
72
8
73
4
74
0
42
0.000000001
43
0.0000000001
44
0.0000000001
40
-1
40
-1
40
-1
40
-1
40
0
40
0
40
0
40
0
41
1
41
1
41
1
41
1
10
-5.2486059928632782
20
-2.7881975337463549
30
0
10
-5.2516013887611273
20
-2.7896952316952781
30
0
10
-5.2545968989260032
20
-2.791941835752179
30
0
10
-5.2575922948238496
20
-2.7934395337011022
30
0
0
SPLINE
5
450
100
AcDbEntity
8
0
100
AcDbSpline
70
4
71
3
72
8
73
4
74
0
42
0.000000001
43
0.0000000001
44
0.0000000001
40
-1
40
-1
40
-1
40
-1
40
0
40
0
40
0
40
0
41
1
41
1
41
1
41
1
10
-5.2575922948238496
20
-2.7934395337011022
30
0
10
-5.25085259692018
20
-2.7103160977320351
30
0
10
-5.240368482743655
20
-2.5994847355062487
30
0
10
-5.2650808988354978
20
-2.4983885813490114
30
0
0
SPLINE
5
451
100
AcDbEntity
8
0
100
AcDbSpline
70
4
71
3
72
8
73
4
74
0
42
0.000000001
43
0.0000000001
44
0.0000000001
40
-1
40
-1
40
-1
40
-1
40
0
40
0
40
0
40
0
41
1
41
1
41
1
41
1
10
-5.2650808988354978
20
-2.4983885813490114
30
0
10
-5.2231446706634612
20
-2.4527081654381804
30
0
10
-5.1654824426271828
20
-2.3036849341796959
30
0
10
-5.2044231606343434
20
-2.1681412129955837
30
0
0
SPLINE
5
452
100
AcDbEntity
8
0
100
AcDbSpline
70
4
71
3
72
8
73
4
74
0
42
0.000000001
43
0.0000000001
44
0.0000000001
40
-1
40
-1
40
-1
40
-1
40
0
40
0
40
0
40
0
41
1
41
1
41
1
41
1
10
-5.2044231606343434
20
-2.1681412129955837
30
0
10
-5.2186515768166908
20
-2.2827168772271924
30
0
10
-5.2643319927275218
20
-2.37033352131006
30
0
10
-5.2912910128762629
20
-2.4070276923938345
30
0
0
SPLINE
5
453
100
AcDbEntity
8
0
100
AcDbSpline
70
4
71
3
72
8
73
4
74
0
42
0.000000001
43
0.0000000001
44
0.0000000001
40
-1
40
-1
40
-1
40
-1
40
0
40
0
40
0
40
0
41
1
41
1
41
1
41
1
10
-5.2912910128762629
20
-2.4070276923938345
30
0
10
-5.300277429103863
20
-2.3808175783530685
30
0
10
-5.3100125229053816
20
-2.3561051622612266
30
0
10
-5.3219943350308272
20
-2.3328905012518235
30
0
0
SPLINE
5
454
100
AcDbEntity
8
0
100
AcDbSpline
70
4
71
3
72
8
73
4
74
0
42
0.000000001
43
0.0000000001
44
0.0000000001
40
-1
40
-1
40
-1
40
-1
40
0
40
0
40
0
40
0
41
1
41
1
41
1
41
1
10
-5.3219943350308272
20
-2.3328905012518235
30
0
10
-5.3504510531284941
20
-2.2767259711644683
30
0
10
-5.3871451670787538
20
-2.2310454981201238
30
0
10
-5.4305790931997135
20
-2.1951001760108104
30
0
0
SPLINE
5
455
100
AcDbEntity
8
0
100
AcDbSpline
70
4
71
3
72
8
73
4
74
0
42
0.000000001
43
0.0000000001
44
0.0000000001
40
-1
40
-1
40
-1
40
-1
40
0
40
0
40
0
40
0
41
1
41
1
41
1
41
1
10
-5.4305790931997135
20
-2.1951001760108104
30
0
10
-5.485994717179091
20
-2.1501685519409266
30
0
10
-5.5526432471759417
20
-2.1247073440081374
30
0
10
-5.6170452873829193
20
-2.1224607399512374
30
0
0
SPLINE
5
456
100
AcDbEntity
8
0
100
AcDbSpline
70
4
71
3
72
8
73
4
74
0
42
0.000000001
43
0.0000000001
44
0.0000000001
40
-1
40
-1
40
-1
40
-1
40
0
40
0
40
0
40
0
41
1
41
1
41
1
41
1
10
-5.6170452873829193
20
-2.1224607399512374
30
0
10
-5.6559858911230512
20
-2.1209630420023138
30
0
10
-5.6919313274993915
20
-2.1269538909315235
30
0
10
-5.7241322333358529
20
-2.1404334010058941
30
0
0
SPLINE
5
457
100
AcDbEntity
8
0
100
AcDbSpline
70
4
71
3
72
8
73
4
74
0
42
0.000000001
43
0.0000000001
44
0.0000000001
40
-1
40
-1
40
-1
40
-1
40
0
40
0
40
0
40
0
41
1
41
1
41
1
41
1
10
-5.7241322333358529
20
-2.1404334010058941
30
0
10
-5.7406072535750994
20
-2.147173098909565
30
0
10
-5.7563333677063708
20
-2.1554106090291882
30
0
10
-5.7743059716275136
20
-2.1681412129955837
30
0
0
SPLINE
5
458
100
AcDbEntity
8
0
100
AcDbSpline
70
4
71
3
72
8
73
4
74
0
42
0.000000001
43
0.0000000001
44
0.0000000001
40
-1
40
-1
40
-1
40
-1
40
0
40
0
40
0
40
0
41
1
41
1
41
1
41
1
10
-5.7743059716275136
20
-2.1681412129955837
30
0
10
-5.7765524614173831
20
-2.1696389109445064
30
0
10
-5.7787991797413127
20
-2.1718855150014065
30
0
10
-5.7810456695311832
20
-2.1733832129503305
30
0
0
LINE
5
459
100
AcDbEntity
8
0
100
AcDbLine
10
-5.7810456695311832
20
-2.1733832129503305
30
0
11
-5.7952739714465009
21
-2.1853649679422626
31
0
0
SPLINE
5
460
100
AcDbEntity
8
0
100
AcDbSpline
70
4
71
3
72
8
73
4
74
0
42
0.000000001
43
0.0000000001
44
0.0000000001
40
-1
40
-1
40
-1
40
-1
40
0
40
0
40
0
40
0
41
1
41
1
41
1
41
1
10
-5.7952739714465009
20
-2.1853649679422626
30
0
10
-5.8020138978842315
20
-2.1906069678970099
30
0
10
-5.8087535957879011
20
-2.1973467229341961
30
0
10
-5.8154932936915724
20
-2.205584175920305
30
0
0
SPLINE
5
461
100
AcDbEntity
8
0
100
AcDbSpline
70
4
71
3
72
8
73
4
74
0
42
0.000000001
43
0.0000000001
44
0.0000000001
40
-1
40
-1
40
-1
40
-1
40
0
40
0
40
0
40
0
41
1
41
1
41
1
41
1
10
-5.8154932936915724
20
-2.205584175920305
30
0
10
-5.861922729977409
20
-2.2609998570331973
30
0
10
-5.8821418236884213
20
-2.3358858971496703
30
0
10
-5.8716578237789268
20
-2.4115207862406054
30
0
0
SPLINE
5
462
100
AcDbEntity
8
0
100
AcDbSpline
70
4
71
3
72
8
73
4
74
0
42
0.000000001
43
0.0000000001
44
0.0000000001
40
-1
40
-1
40
-1
40
-1
40
0
40
0
40
0
40
0
41
1
41
1
41
1
41
1
10
-5.8716578237789268
20
-2.4115207862406054
30
0
10
-5.862671636085385
20
-2.4804159774278696
30
0
10
-5.8244797099191725
20
-2.5463157155837712
30
0
10
-5.7675662737238405
20
-2.5904984335456782
30
0
0
SPLINE
5
463
100
AcDbEntity
8
0
100
AcDbSpline
70
4
71
3
72
8
73
4
74
0
42
0.000000001
43
0.0000000001
44
0.0000000001
40
-1
40
-1
40
-1
40
-1
40
0
40
0
40
0
40
0
41
1
41
1
41
1
41
1
10
-5.7675662737238405
20
-2.5904984335456782
30
0
10
-5.7540866493824412
20
-2.6017313395631487
30
0
10
-5.7391094413591475
20
-2.6107176415237201
30
0
10
-5.7256300455518057
20
-2.6189551516433438
30
0
0
LINE
5
464
100
AcDbEntity
8
0
100
AcDbLine
10
-5.7256300455518057
20
-2.6189551516433438
30
0
11
-5.7226346496539566
21
-2.620452849592267
31
0
0
SPLINE
5
465
100
AcDbEntity
8
0
100
AcDbSpline
70
4
71
3
72
8
73
4
74
0
42
0.000000001
43
0.0000000001
44
0.0000000001
40
-1
40
-1
40
-1
40
-1
40
0
40
0
40
0
40
0
41
1
41
1
41
1
41
1
10
-5.7226346496539566
20
-2.620452849592267
30
0
10
-5.7099039314205351
20
-2.6271925474959379
30
0
10
-5.6956756295052156
20
-2.635430057615562
30
0
10
-5.6806984214819209
20
-2.6406720575703089
30
0
0
SPLINE
5
466
100
AcDbEntity
8
0
100
AcDbSpline
70
4
71
3
72
8
73
4
74
0
42
0.000000001
43
0.0000000001
44
0.0000000001
40
-1
40
-1
40
-1
40
-1
40
0
40
0
40
0
40
0
41
1
41
1
41
1
41
1
10
-5.6806984214819209
20
-2.6406720575703089
30
0
10
-5.6507440054353326
20
-2.6519049635877803
30
0
10
-5.6177941934908953
20
-2.6586446614914512
30
0
10
-5.5840954754384837
20
-2.6586446614914512
30
0
0
LINE
5
467
100
AcDbEntity
8
0
100
AcDbLine
10
-5.5840954754384837
20
-2.6586446614914512
30
0
11
-5.5833465693305051
21
-2.6586446614914512
31
0
0
SPLINE
5
468
100
AcDbEntity
8
0
100
AcDbSpline
70
4
71
3
72
8
73
4
74
0
42
0.000000001
43
0.0000000001
44
0.0000000001
40
-1
40
-1
40
-1
40
-1
40
0
40
0
40
0
40
0
41
1
41
1
41
1
41
1
10
-5.5833465693305051
20
-2.6586446614914512
30
0
10
-5.566122871517341
20
-2.6586446614914512
30
0
10
-5.5488989451701176
20
-2.6563980574345512
30
0
10
-5.5309263412489749
20
-2.6534026615367039
30
0
0
SPLINE
5
469
100
AcDbEntity
8
0
100
AcDbSpline
70
4
71
3
72
8
73
4
74
0
42
0.000000001
43
0.0000000001
44
0.0000000001
40
-1
40
-1
40
-1
40
-1
40
0
40
0
40
0
40
0
41
1
41
1
41
1
41
1
10
-5.5309263412489749
20
-2.6534026615367039
30
0
10
-5.5623785695115169
20
-2.6968365876576641
30
0
10
-5.5863419652283532
20
-2.7432659096764711
30
0
10
-5.5945794753479774
20
-2.8039236478776255
30
0
0
LINE
5
470
100
AcDbEntity
8
0
100
AcDbLine
10
-5.5945794753479774
20
-2.8039236478776255
30
0
11
-5.6088077772632952
21
-2.794937345917055
31
0
0
SPLINE
5
471
100
AcDbEntity
8
0
100
AcDbSpline
70
4
71
3
72
8
73
4
74
0
42
0.000000001
43
0.0000000001
44
0.0000000001
40
-1
40
-1
40
-1
40
-1
40
0
40
0
40
0
40
0
41
1
41
1
41
1
41
1
10
-5.6088077772632952
20
-2.794937345917055
30
0
10
-5.6140498914850712
20
-2.7919419500192082
30
0
10
-5.6185428710648155
20
-2.7889464398543318
30
0
10
-5.6237849852865924
20
-2.7859510439564841
30
0
0
SPLINE
5
472
100
AcDbEntity
8
0
100
AcDbSpline
70
4
71
3
72
8
73
4
74
0
42
0.000000001
43
0.0000000001
44
0.0000000001
40
-1
40
-1
40
-1
40
-1
40
0
40
0
40
0
40
0
41
1
41
1
41
1
41
1
10
-5.6237849852865924
20
-2.7859510439564841
30
0
10
-5.6320224954062148
20
-2.781457835842684
30
0
10
-5.6402597769917797
20
-2.7769647419959127
30
0
10
-5.6455018912135557
20
-2.7724715338821126
30
0
0
SPLINE
5
473
100
AcDbEntity
8
0
100
AcDbSpline
70
4
71
3
72
8
73
4
74
0
42
0.000000001
43
0.0000000001
44
0.0000000001
40
-1
40
-1
40
-1
40
-1
40
0
40
0
40
0
40
0
41
1
41
1
41
1
41
1
10
-5.6455018912135557
20
-2.7724715338821126
30
0
10
-5.7233835557619335
20
-2.714060514004887
30
0
10
-5.8132468039017011
20
-2.6833571918503214
30
0
10
-5.905356541831341
20
-2.6833571918503214
30
0
0
SPLINE
5
474
100
AcDbEntity
8
0
100
AcDbSpline
70
4
71
3
72
8
73
4
74
0
42
0.000000001
43
0.0000000001
44
0.0000000001
40
-1
40
-1
40
-1
40
-1
40
0
40
0
40
0
40
0
41
1
41
1
41
1
41
1
10
-5.905356541831341
20
-2.6833571918503214
30
0
10
-6.0206809979038969
20
-2.6833571918503214
30
0
10
-6.1307633397546777
20
-2.7320331179260289
30
0
10
-6.2146357960987491
20
-2.8196497620088969
30
0
0
LINE
5
475
100
AcDbEntity
8
0
100
AcDbLine
10
-6.2146357960987491
20
-2.8196497620088969
30
0
11
-6.2775400240897747
21
-2.8855495001647991
31
0
0
SPLINE
5
476
100
AcDbEntity
8
0
100
AcDbSpline
70
4
71
3
72
8
73
4
74
0
42
0.000000001
43
0.0000000001
44
0.0000000001
40
-1
40
-1
40
-1
40
-1
40
0
40
0
40
0
40
0
41
1
41
1
41
1
41
1
10
-6.2775400240897747
20
-2.8855495001647991
30
0
10
-6.2962615341188926
20
-2.8825539899999217
30
0
10
-6.3149830441480113
20
-2.881056292050999
30
0
10
-6.3337045541771291
20
-2.881056292050999
30
0
0
SPLINE
5
477
100
AcDbEntity
8
0
100
AcDbSpline
70
4
71
3
72
8
73
4
74
0
42
0.000000001
43
0.0000000001
44
0.0000000001
40
-1
40
-1
40
-1
40
-1
40
0
40
0
40
0
40
0
41
1
41
1
41
1
41
1
10
-6.3337045541771291
20
-2.881056292050999
30
0
10
-6.3404442520807995
20
-2.881056292050999
30
0
10
-6.3471841785185283
20
-2.881805198158975
30
0
10
-6.3531749703142255
20
-2.881805198158975
30
0
0
SPLINE
5
478
100
AcDbEntity
8
0
100
AcDbSpline
70
4
71
3
72
8
73
4
74
0
42
0.000000001
43
0.0000000001
44
0.0000000001
40
-1
40
-1
40
-1
40
-1
40
0
40
0
40
0
40
0
41
1
41
1
41
1
41
1
10
-6.3531749703142255
20
-2.881805198158975
30
0
10
-6.5111843321327365
20
-2.8892938021706218
30
0
10
-6.651221318564164
20
-2.9888922583789368
30
0
10
-6.7485731707155772
20
-3.1626278485957484
30
0
0
SPLINE
5
479
100
AcDbEntity
8
0
100
AcDbSpline
70
4
71
3
72
8
73
4
74
0
42
0.000000001
43
0.0000000001
44
0.0000000001
40
-1
40
-1
40
-1
40
-1
40
-0.51707805488625092
40
-0.51707805488625092
40
-0.51707805488625092
40
-0.51707805488625092
41
1
41
1
41
1
41
1
10
-6.7485731707155772
20
-3.1626278485957484
30
0
10
-6.7919701053014725
20
-3.2396573633400689
30
0
10
-6.8245391169669185
20
-3.3278641644886946
30
0
10
-6.8451837750827824
20
-3.4229469257792982
30
0
0
LINE
5
480
100
AcDbEntity
8
0
100
AcDbLine
10
-6.8451837750827824
20
-3.4229469257792973
30
0
11
-6.845183775069648
21
-2.2357417000193447
31
0
0
SPLINE
5
481
100
AcDbEntity
8
0
100
AcDbSpline
70
0
71
2
72
6
73
3
74
0
42
0.000000001
43
0.0000000001
44
0.0000000001
40
-1
40
-1
40
-1
40
0
40
0
40
0
10
10.855629507960904
20
-0.47685393539308385
30
0
10
10.87661987725423
20
-0.48967186747949965
30
0
10
10.862200507085372
20
-0.54958582069338202
30
0
0
SPLINE
5
482
100
AcDbEntity
8
0
100
AcDbSpline
70
0
71
2
72
6
73
3
74
0
42
0.000000001
43
0.0000000001
44
0.0000000001
40
-1
40
-1
40
-1
40
0
40
0
40
0
10
10.862200507085372
20
-0.54958582069338202
30
0
10
10.845637081450134
20
-0.63479124283673294
30
0
10
10.772673449219855
20
-0.7542749142410371
30
0
0
SPLINE
5
483
100
AcDbEntity
8
0
100
AcDbSpline
70
0
71
2
72
6
73
3
74
0
42
0.000000001
43
0.0000000001
44
0.0000000001
40
-1
40
-1
40
-1
40
0
40
0
40
0
10
10.772673449219855
20
-0.7542749142410371
30
0
10
10.645480204037337
20
-0.96256383089297748
30
0
10
10.393813744361823
20
-1.1968124620103029
30
0
0
SPLINE
5
484
100
AcDbEntity
8
0
100
AcDbSpline
70
0
71
2
72
6
73
3
74
0
42
0.000000001
43
0.0000000001
44
0.0000000001
40
-1
40
-1
40
-1
40
0
40
0
40
0
10
10.393813744361823
20
-1.1968124620103029
30
0
10
10.087275862266067
20
-1.4773563517937456
30
0
10
9.6384903505538375
20
-1.7331048517521417
30
0
0
SPLINE
5
485
100
AcDbEntity
8
0
100
AcDbSpline
70
0
71
2
72
6
73
3
74
0
42
0.000000001
43
0.0000000001
44
0.0000000001
40
-1
40
-1
40
-1
40
0
40
0
40
0
10
9.6384903505538375
20
-1.7331048517521417
30
0
10
9.8825866219591187
20
-1.3878295342580842
30
0
10
10.137998666292683
20
-1.0893655209861419
30
0
0
SPLINE
5
486
100
AcDbEntity
8
0
100
AcDbSpline
70
0
71
2
72
6
73
3
74
0
42
0.000000001
43
0.0000000001
44
0.0000000001
40
-1
40
-1
40
-1
40
0
40
0
40
0
10
10.137998666292683
20
-1.0893655209861419
30
0
10
10.593150407723842
20
-0.55819461188142194
30
0
10
10.793928919013391
20
-0.48351087310849256
30
0
0
SPLINE
5
487
100
AcDbEntity
8
0
100
AcDbSpline
70
0
71
2
72
6
73
3
74
0
42
0.000000001
43
0.0000000001
44
0.0000000001
40
-1
40
-1
40
-1
40
0
40
0
40
0
10
10.793928919013391
20
-0.48351087310849256
30
0
10
10.84109772307821
20
-0.46797998805476865
30
0
10
10.855629507960904
20
-0.47685393539308385
30
0
0
SPLINE
5
488
100
AcDbEntity
8
0
100
AcDbSpline
70
0
71
2
72
6
73
3
74
0
42
0.000000001
43
0.0000000001
44
0.0000000001
40
-1
40
-1
40
-1
40
0
40
0
40
0
10
-9.6716188853966969
20
-3.0669850647581747
30
0
10
-9.8325596339347836
20
-2.8128485812782382
30
0
10
-10.095189325330812
20
-2.083425766858217
30
0
0
LINE
5
489
100
AcDbEntity
8
0
100
AcDbLine
10
-10.095189325330812
20
-2.083425766858217
30
0
11
-10.149419945768063
21
-1.9341421599785329
31
0
0
SPLINE
5
490
100
AcDbEntity
8
0
100
AcDbSpline
70
0
71
2
72
6
73
3
74
0
42
0.000000001
43
0.0000000001
44
0.0000000001
40
-1
40
-1
40
-1
40
-0.048038365438904322
40
-0.048038365438904322
40
-0.048038365438904322
10
-10.149419945768063
20
-1.9341421599785329
30
0
10
-10.319915579551157
20
-1.4494792254557214
30
0
10
-10.543618236278439
20
-1.0025705676320367
30
0
0
SPLINE
5
491
100
AcDbEntity
8
0
100
AcDbSpline
70
0
71
2
72
6
73
3
74
0
42
0.000000001
43
0.0000000001
44
0.0000000001
40
-0.2282789056581716
40
-0.2282789056581716
40
-0.2282789056581716
40
0
40
0
40
0
10
-10.543618236278236
20
-1.0025705676307592
30
0
10
-10.530790487599662
20
-0.9993345414417828
30
0
10
-10.518150562393602
20
-0.9927503141428583
30
0
0
SPLINE
5
492
100
AcDbEntity
8
0
100
AcDbSpline
70
0
71
2
72
6
73
3
74
0
42
0.000000001
43
0.0000000001
44
0.0000000001
40
-1
40
-1
40
-1
40
0
40
0
40
0
10
-10.518150562393602
20
-0.9927503141428583
30
0
10
-10.494660025325144
20
-0.98051392564283435
30
0
10
-10.478161679281998
20
-0.9548544325666819
30
0
0
SPLINE
5
493
100
AcDbEntity
8
0
100
AcDbSpline
70
0
71
2
72
6
73
3
74
0
42
0.000000001
43
0.0000000001
44
0.0000000001
40
-1
40
-1
40
-1
40
0
40
0
40
0
10
-10.478161679281998
20
-0.9548544325666819
30
0
10
-10.441005379381256
20
-0.89923542427172609
30
0
10
-10.471596399416464
20
-0.8405089879463592
30
0
0
SPLINE
5
494
100
AcDbEntity
8
0
100
AcDbSpline
70
0
71
2
72
6
73
3
74
0
42
0.000000001
43
0.0000000001
44
0.0000000001
40
-1
40
-1
40
-1
40
0
40
0
40
0
10
-10.471596399416464
20
-0.8405089879463592
30
0
10
-10.483832755393053
20
-0.81701851331403974
30
0
10
-10.506940399825407
20
-0.80132401152293964
30
0
0
SPLINE
5
495
100
AcDbEntity
8
0
100
AcDbSpline
70
0
71
2
72
6
73
3
74
0
42
0.000000001
43
0.0000000001
44
0.0000000001
40
-1
40
-1
40
-1
40
0
40
0
40
0
10
-10.506940399825407
20
-0.80132401152293964
30
0
10
-10.530922013930205
20
-0.78395172572006011
30
0
10
-10.541410343832759
20
-0.7638169856076783
30
0
0
SPLINE
5
496
100
AcDbEntity
8
0
100
AcDbSpline
70
0
71
2
72
6
73
3
74
0
42
0.000000001
43
0.0000000001
44
0.0000000001
40
-1
40
-1
40
-1
40
0
40
0
40
0
10
-10.541410343832759
20
-0.7638169856076783
30
0
10
-10.562387003637857
20
-0.72354750538291412
30
0
10
-10.510059531462852
20
-0.66429201890029121
30
0
0
SPLINE
5
497
100
AcDbEntity
8
0
100
AcDbSpline
70
0
71
2
72
6
73
3
74
0
42
0.000000001
43
0.0000000001
44
0.0000000001
40
-1
40
-1
40
-1
40
0
40
0
40
0
10
-10.510059531462852
20
-0.66429201890029121
30
0
10
-10.444379019871581
20
-0.59381454505024556
30
0
10
-10.29672426273291
20
-0.51690012768465954
30
0
0
SPLINE
5
498
100
AcDbEntity
8
0
100
AcDbSpline
70
0
71
2
72
6
73
3
74
0
42
0.000000001
43
0.0000000001
44
0.0000000001
40
-1
40
-1
40
-1
40
0
40
0
40
0
10
-10.29672426273291
20
-0.51690012768465954
30
0
10
-10.180949520744617
20
-0.45659223785949377
30
0
10
-10.045422983539254
20
-0.41372672397087745
30
0
0
SPLINE
5
499
100
AcDbEntity
8
0
100
AcDbSpline
70
0
71
2
72
6
73
3
74
0
42
0.000000001
43
0.0000000001
44
0.0000000001
40
-1
40
-1
40
-1
40
0
40
0
40
0
10
-10.045422983539254
20
-0.41372672397087745
30
0
10
-9.9513728190301034
20
-0.67618005978707718
30
0
10
-9.8546626574813256
20
-0.99697653215225135
30
0
0
SPLINE
5
500
100
AcDbEntity
8
0
100
AcDbSpline
70
0
71
2
72
6
73
3
74
0
42
0.000000001
43
0.0000000001
44
0.0000000001
40
-1
40
-1
40
-1
40
0
40
0
40
0
10
-9.8546626574813256
20
-0.99697653215225135
30
0
10
-9.5620500775593662
20
-1.9559406020622301
30
0
10
-9.3417951496058009
20
-2.3787701444222527
30
0
0
SPLINE
5
501
100
AcDbEntity
8
0
100
AcDbSpline
70
0
71
2
72
6
73
3
74
0
42
0.000000001
43
0.0000000001
44
0.0000000001
40
-1
40
-1
40
-1
40
0
40
0
40
0
10
-9.3417951496058009
20
-2.3787701444222527
30
0
10
-9.3007158863971924
20
-2.4576311543636224
30
0
10
-9.2459327658302435
20
-2.5464193256358403
30
0
0
SPLINE
5
502
100
AcDbEntity
8
0
100
AcDbSpline
70
0
71
2
72
6
73
3
74
0
42
0.000000001
43
0.0000000001
44
0.0000000001
40
-1
40
-1
40
-1
40
0
40
0
40
0
10
-9.2459327658302435
20
-2.5464193256358403
30
0
10
-9.1625173053339868
20
-2.6778884135276861
30
0
10
-9.050054317063795
20
-2.7750280089137096
30
0
0
SPLINE
5
503
100
AcDbEntity
8
0
100
AcDbSpline
70
0
71
2
72
6
73
3
74
0
42
0.000000001
43
0.0000000001
44
0.0000000001
40
-1
40
-1
40
-1
40
-0.72555305705342055
40
-0.72555305705342055
40
-0.72555305705342055
10
-9.050054317063795
20
-2.7750280089137096
30
0
10
-8.9898018588788648
20
-2.8232625987497308
30
0
10
-8.9319308390150915
20
-2.8508860869782611
30
0
0
ARC
5
504
100
AcDbEntity
8
0
100
AcDbCircle
10
-0.010401715447828313
20
-18.537776730889355
30
0
40
18.046390774243037
210
0
220
0
230
1
100
AcDbArc
50
119.62797828652481
51
121.93841201452398
0
SPLINE
5
505
100
AcDbEntity
8
0
100
AcDbSpline
70
0
71
2
72
6
73
3
74
0
42
0.000000001
43
0.0000000001
44
0.0000000001
40
-0.8784428227979274
40
-0.8784428227979274
40
-0.8784428227979274
40
0
40
0
40
0
10
-9.5570756219006281
20
-3.2232987012485794
30
0
10
-9.6156016094472374
20
-3.155440186616584
30
0
10
-9.6716188853966969
20
-3.0669850647581747
30
0
0
SPLINE
5
506
100
AcDbEntity
8
0
100
AcDbSpline
70
0
71
2
72
6
73
3
74
0
42
0.000000001
43
0.0000000001
44
0.0000000001
40
-1
40
-1
40
-1
40
0
40
0
40
0
10
9.3832421773302634
20
0.28498804449655091
30
0
10
9.3737405550424295
20
0.19870925101112946
30
0
10
9.3108481032892456
20
0.07363096003719638
30
0
0
SPLINE
5
507
100
AcDbEntity
8
0
100
AcDbSpline
70
0
71
2
72
6
73
3
74
0
42
0.000000001
43
0.0000000001
44
0.0000000001
40
-1
40
-1
40
-1
40
0
40
0
40
0
10
9.3108481032892456
20
0.07363096003719638
30
0
10
9.2012113597301255
20
-0.14441073065944823
30
0
10
8.9696573060383606
20
-0.39855861738066733
30
0
0
SPLINE
5
508
100
AcDbEntity
8
0
100
AcDbSpline
70
0
71
2
72
6
73
3
74
0
42
0.000000001
43
0.0000000001
44
0.0000000001
40
-1
40
-1
40
-1
40
0
40
0
40
0
10
8.9696573060383606
20
-0.39855861738066733
30
0
10
8.6872240877076514
20
-0.70335662334188276
30
0
10
8.2609861641776305
20
-0.99513901365800794
30
0
0
SPLINE
5
509
100
AcDbEntity
8
0
100
AcDbSpline
70
0
71
2
72
6
73
3
74
0
42
0.000000001
43
0.0000000001
44
0.0000000001
40
-1
40
-1
40
-1
40
0
40
0
40
0
10
8.2609861641776305
20
-0.99513901365800794
30
0
10
8.4758668767462115
20
-0.63096280088374956
30
0
10
8.7058739453431215
20
-0.3125089926092991
30
0
0
SPLINE
5
510
100
AcDbEntity
8
0
100
AcDbSpline
70
0
71
2
72
6
73
3
74
0
42
0.000000001
43
0.0000000001
44
0.0000000001
40
-1
40
-1
40
-1
40
0
40
0
40
0
10
8.7058739453431215
20
-0.3125089926092991
30
0
10
9.1158108889150267
20
0.25428668900963741
30
0
10
9.3097689677700028
20
0.34522587242161684
30
0
0
SPLINE
5
511
100
AcDbEntity
8
0
100
AcDbSpline
70
0
71
2
72
6
73
3
74
0
42
0.000000001
43
0.0000000001
44
0.0000000001
40
-1
40
-1
40
-1
40
0
40
0
40
0
10
9.3097689677700028
20
0.34522587242161684
30
0
10
9.3555010886432832
20
0.36458246271765177
30
0
10
9.3707132996221176
20
0.35693338758562015
30
0
0
SPLINE
5
512
100
AcDbEntity
8
0
100
AcDbSpline
70
0
71
2
72
6
73
3
74
0
42
0.000000001
43
0.0000000001
44
0.0000000001
40
-1
40
-1
40
-1
40
0
40
0
40
0
10
9.3707132996221176
20
0.35693338758562015
30
0
10
9.3926865072350409
20
0.34588471647812558
30
0
10
9.3832421773302634
20
0.28498804449655091
30
0
0
SPLINE
5
513
100
AcDbEntity
8
0
100
AcDbSpline
70
0
71
2
72
6
73
3
74
0
42
0.000000001
43
0.0000000001
44
0.0000000001
40
-1
40
-1
40
-1
40
0
40
0
40
0
10
5.8858721731397852
20
-1.0199131498196521
30
0
10
5.9016075299413071
20
-0.94693868854837349
30
0
10
5.9306478618442195
20
-0.87094715527732369
30
0
0
SPLINE
5
514
100
AcDbEntity
8
0
100
AcDbSpline
70
0
71
2
72
6
73
3
74
0
42
0.000000001
43
0.0000000001
44
0.0000000001
40
-1
40
-1
40
-1
40
0
40
0
40
0
10
5.9306478618442195
20
-0.87094715527732369
30
0
10
5.9826502543074636
20
-0.73486945650114521
30
0
10
6.0808031560704574
20
-0.58402309217002157
30
0
0
SPLINE
5
515
100
AcDbEntity
8
0
100
AcDbSpline
70
0
71
2
72
6
73
3
74
0
42
0.000000001
43
0.0000000001
44
0.0000000001
40
-1
40
-1
40
-1
40
0
40
0
40
0
10
6.0808031560704574
20
-0.58402309217002157
30
0
10
6.2205249351520715
20
-0.37209939983455281
30
0
10
6.3589199774893723
20
-0.30144222795076697
30
0
0
SPLINE
5
516
100
AcDbEntity
8
0
100
AcDbSpline
70
0
71
2
72
6
73
3
74
0
42
0.000000001
43
0.0000000001
44
0.0000000001
40
-1
40
-1
40
-1
40
0
40
0
40
0
10
6.3589199774893723
20
-0.30144222795076697
30
0
10
6.497889346890501
20
-0.24518172922441706
30
0
10
6.6268981004921681
20
-0.29448270871131038
30
0
0
SPLINE
5
517
100
AcDbEntity
8
0
100
AcDbSpline
70
0
71
2
72
6
73
3
74
0
42
0.000000001
43
0.0000000001
44
0.0000000001
40
-1
40
-1
40
-1
40
0
40
0
40
0
10
6.6268981004921681
20
-0.29448270871131038
30
0
10
6.6905188701063372
20
-0.31879552602115774
30
0
10
6.7261347020948161
20
-0.39519136505860158
30
0
0
LINE
5
518
100
AcDbEntity
8
0
100
AcDbLine
10
6.7261347020948161
20
-0.39519136505860158
30
0
11
6.6537018599531326
21
-0.50523353088546841
31
0
0
SPLINE
5
519
100
AcDbEntity
8
0
100
AcDbSpline
70
0
71
2
72
6
73
3
74
0
42
0.000000001
43
0.0000000001
44
0.0000000001
40
-1
40
-1
40
-1
40
0
40
0
40
0
10
6.6537018599531317
20
-0.50523353088546841
30
0
10
6.5501460213817184
20
-0.67021794417421299
30
0
10
6.4484019165835749
20
-0.79336293613156561
30
0
0
SPLINE
5
520
100
AcDbEntity
8
0
100
AcDbSpline
70
0
71
2
72
6
73
3
74
0
42
0.000000001
43
0.0000000001
44
0.0000000001
40
-1
40
-1
40
-1
40
0
40
0
40
0
10
6.4484019165835749
20
-0.79336293613156561
30
0
10
6.341513839568548
20
-0.92466874276956201
30
0
10
6.1433599835349417
20
-1.0616035108288129
30
0
0
SPLINE
5
521
100
AcDbEntity
8
0
100
AcDbSpline
70
0
71
2
72
6
73
3
74
0
42
0.000000001
43
0.0000000001
44
0.0000000001
40
-1
40
-1
40
-1
40
0
40
0
40
0
10
6.1433599835349417
20
-1.0616035108288129
30
0
10
5.9814285535734797
20
-1.1779501750602901
30
0
10
5.9142733113720549
20
-1.1522866512622671
30
0
0
SPLINE
5
522
100
AcDbEntity
8
0
100
AcDbSpline
70
0
71
2
72
6
73
3
74
0
42
0.000000001
43
0.0000000001
44
0.0000000001
40
-1
40
-1
40
-1
40
0
40
0
40
0
10
5.9142733113720549
20
-1.1522866512622671
30
0
10
5.8683249923753555
20
-1.1347273999008598
30
0
10
5.8858721731397852
20
-1.0199131498196521
30
0
0
ARC
5
523
100
AcDbEntity
8
0
100
AcDbCircle
10
-0.010401715447267436
20
-18.937776730891237
30
0
40
18.046390774243729
210
0
220
-0
230
1
100
AcDbArc
50
67.744713253572954
51
75.520400281797734
0
LINE
5
524
100
AcDbEntity
8
0
100
AcDbLine
10
6.8243803441920097
20
-2.2357416999753239
30
0
11
6.8243803441858502
21
-3.417002754223216
31
0
0
SPLINE
5
525
100
AcDbEntity
8
0
100
AcDbSpline
70
4
71
3
72
8
73
4
74
0
42
0.000000001
43
0.0000000001
44
0.0000000001
40
0.50579235319922289
40
0.50579235319922289
40
0.50579235319922289
40
0.50579235319922289
40
1
40
1
40
1
40
1
41
1
41
1
41
1
41
1
10
6.8243803441858484
20
-3.417002754223216
30
0
10
6.8036925789117824
20
-3.3187463231720837
30
0
10
6.7704096433414227
20
-3.2276311460322122
30
0
10
6.7257141723002407
20
-3.1482967304006988
30
0
0
SPLINE
5
526
100
AcDbEntity
8
0
100
AcDbSpline
70
4
71
3
72
8
73
4
74
0
42
0.000000001
43
0.0000000001
44
0.0000000001
40
0
40
0
40
0
40
0
40
1
40
1
40
1
40
1
41
1
41
1
41
1
41
1
10
6.7257141723002407
20
-3.1482967304006988
30
0
10
6.6277389711041605
20
-2.9734487020351228
30
0
10
6.4868053204616176
20
-2.8732125116578562
30
0
10
6.3277842163643392
20
-2.8656759577196964
30
0
0
SPLINE
5
527
100
AcDbEntity
8
0
100
AcDbSpline
70
4
71
3
72
8
73
4
74
0
42
0.000000001
43
0.0000000001
44
0.0000000001
40
0
40
0
40
0
40
0
40
1
40
1
40
1
40
1
41
1
41
1
41
1
41
1
10
6.3277842163643392
20
-2.8656759577196964
30
0
10
6.3217550652127601
20
-2.8656759577196964
30
0
10
6.3149719826705155
20
-2.8649222563264054
30
0
10
6.3081891301256467
20
-2.8649222563264054
30
0
0
SPLINE
5
528
100
AcDbEntity
8
0
100
AcDbSpline
70
4
71
3
72
8
73
4
74
0
42
0.000000001
43
0.0000000001
44
0.0000000001
40
0
40
0
40
0
40
0
40
1
40
1
40
1
40
1
41
1
41
1
41
1
41
1
10
6.3081891301256467
20
-2.8649222563264054
30
0
10
6.2893477452802484
20
-2.8649222563264054
30
0
10
6.2705063604348483
20
-2.8664295441142995
30
0
10
6.2516649755894473
20
-2.8694442346887761
30
0
0
LINE
5
529
100
AcDbEntity
8
0
100
AcDbLine
10
6.2516649755894482
20
-2.8694442346887761
30
0
11
6.1883579685083774
21
-2.80312253703323
31
0
0
SPLINE
5
530
100
AcDbEntity
8
0
100
AcDbSpline
70
4
71
3
72
8
73
4
74
0
42
0.000000001
43
0.0000000001
44
0.0000000001
40
0
40
0
40
0
40
0
40
1
40
1
40
1
40
1
41
1
41
1
41
1
41
1
10
6.1883579685083774
20
-2.80312253703323
30
0
10
6.1039484724020348
20
-2.7149448789564943
30
0
10
5.9931612675095067
20
-2.6659572783584542
30
0
10
5.8770983828613161
20
-2.6659572783584542
30
0
0
SPLINE
5
531
100
AcDbEntity
8
0
100
AcDbSpline
70
4
71
3
72
8
73
4
74
0
42
0.000000001
43
0.0000000001
44
0.0000000001
40
0
40
0
40
0
40
0
40
1
40
1
40
1
40
1
41
1
41
1
41
1
41
1
10
5.8770983828613161
20
-2.6659572783584542
30
0
10
5.7843988614208959
20
-2.6659572783584542
30
0
10
5.6939602141629759
20
-2.6968571955043856
30
0
10
5.6155798692082115
20
-2.7556422242230845
30
0
0
SPLINE
5
532
100
AcDbEntity
8
0
100
AcDbSpline
70
4
71
3
72
8
73
4
74
0
42
0.000000001
43
0.0000000001
44
0.0000000001
40
0
40
0
40
0
40
0
40
1
40
1
40
1
40
1
41
1
41
1
41
1
41
1
10
5.6155798692082115
20
-2.7556422242230845
30
0
10
5.6103041894525507
20
-2.7601642025854547
30
0
10
5.6020141641184722
20
-2.7646860659491392
30
0
10
5.5937239087870214
20
-2.7692080443115095
30
0
0
SPLINE
5
533
100
AcDbEntity
8
0
100
AcDbSpline
70
4
71
3
72
8
73
4
74
0
42
0.000000001
43
0.0000000001
44
0.0000000001
40
0
40
0
40
0
40
0
40
1
40
1
40
1
40
1
41
1
41
1
41
1
41
1
10
5.5937239087870214
20
-2.7692080443115095
30
0
10
5.5884482290313606
20
-2.772222619887299
30
0
10
5.5839264806663644
20
-2.7752373104617747
30
0
10
5.578650800910701
20
-2.7782518860375647
30
0
0
LINE
5
534
100
AcDbEntity
8
0
100
AcDbLine
10
5.578650800910701
20
-2.7782518860375647
30
0
11
5.5643313944276729
21
-2.7872957277636194
31
0
0
SPLINE
5
535
100
AcDbEntity
8
0
100
AcDbSpline
70
4
71
3
72
8
73
4
74
0
42
0.000000001
43
0.0000000001
44
0.0000000001
40
0
40
0
40
0
40
0
40
1
40
1
40
1
40
1
41
1
41
1
41
1
41
1
10
5.564331394427672
20
-2.7872957277636194
30
0
10
5.5560411390962212
20
-2.7262495948650485
30
0
10
5.5319243044925344
20
-2.6795229834481926
30
0
10
5.5002706859533124
20
-2.6358109476071272
30
0
0
SPLINE
5
536
100
AcDbEntity
8
0
100
AcDbSpline
70
4
71
3
72
8
73
4
74
0
42
0.000000001
43
0.0000000001
44
0.0000000001
40
0
40
0
40
0
40
0
40
1
40
1
40
1
40
1
41
1
41
1
41
1
41
1
10
5.5002706859533124
20
-2.6358109476071272
30
0
10
5.518358369405421
20
-2.6388255231829159
30
0
10
5.5356925814616131
20
-2.6410865123641023
30
0
10
5.5530265635204339
20
-2.6410865123641023
30
0
0
LINE
5
537
100
AcDbEntity
8
0
100
AcDbLine
10
5.553026563520433
20
-2.6410865123641023
30
0
11
5.5537802649137227
21
-2.6410865123641023
31
0
0
SPLINE
5
538
100
AcDbEntity
8
0
100
AcDbSpline
70
4
71
3
72
8
73
4
74
0
42
0.000000001
43
0.0000000001
44
0.0000000001
40
0
40
0
40
0
40
0
40
1
40
1
40
1
40
1
41
1
41
1
41
1
41
1
10
5.5537802649137236
20
-2.6410865123641023
30
0
10
5.5876947576354441
20
-2.6410865123641023
30
0
10
5.6208555489638723
20
-2.6343036598192322
30
0
10
5.6510017647165123
20
-2.6229988289119923
30
0
0
SPLINE
5
539
100
AcDbEntity
8
0
100
AcDbSpline
70
4
71
3
72
8
73
4
74
0
42
0.000000001
43
0.0000000001
44
0.0000000001
40
0
40
0
40
0
40
0
40
1
40
1
40
1
40
1
41
1
41
1
41
1
41
1
10
5.6510017647165123
20
-2.6229988289119923
30
0
10
5.6660748725928327
20
-2.6177232641550172
30
0
10
5.6803942790758635
20
-2.6094330088235669
30
0
10
5.6932065127696836
20
-2.6026501562786972
30
0
0
LINE
5
540
100
AcDbEntity
8
0
100
AcDbLine
10
5.6932065127696845
20
-2.6026501562786972
30
0
11
5.6962210883454736
21
-2.6011428684908031
31
0
0
SPLINE
5
541
100
AcDbEntity
8
0
100
AcDbSpline
70
4
71
3
72
8
73
4
74
0
42
0.000000001
43
0.0000000001
44
0.0000000001
40
0
40
0
40
0
40
0
40
1
40
1
40
1
40
1
41
1
41
1
41
1
41
1
10
5.6962210883454736
20
-2.6011428684908031
30
0
10
5.7097867934352129
20
-2.5928526131593519
30
0
10
5.7248599013115324
20
-2.5838087714332976
30
0
10
5.738425836398644
20
-2.5725039405260564
30
0
0
SPLINE
5
542
100
AcDbEntity
8
0
100
AcDbSpline
70
4
71
3
72
8
73
4
74
0
42
0.000000001
43
0.0000000001
44
0.0000000001
40
0
40
0
40
0
40
0
40
1
40
1
40
1
40
1
41
1
41
1
41
1
41
1
10
5.738425836398644
20
-2.5725039405260564
30
0
10
5.7957036923281349
20
-2.5280383182903878
30
0
10
5.8341401634122265
20
-2.4617166206348413
30
0
10
5.8431838901395956
20
-2.3923802899041631
30
0
0
SPLINE
5
543
100
AcDbEntity
8
0
100
AcDbSpline
70
4
71
3
72
8
73
4
74
0
42
0.000000001
43
0.0000000001
44
0.0000000001
40
0
40
0
40
0
40
0
40
1
40
1
40
1
40
1
41
1
41
1
41
1
41
1
10
5.8431838901395956
20
-2.3923802899041631
30
0
10
5.8537350196535449
20
-2.3162611066286152
30
0
10
5.833386462018936
20
-2.2408955672470143
30
0
10
5.7866597356033935
20
-2.1851250566047606
30
0
0
SPLINE
5
544
100
AcDbEntity
8
0
100
AcDbSpline
70
4
71
3
72
8
73
4
74
0
42
0.000000001
43
0.0000000001
44
0.0000000001
40
0
40
0
40
0
40
0
40
1
40
1
40
1
40
1
41
1
41
1
41
1
41
1
10
5.7866597356033935
20
-2.1851250566047606
30
0
10
5.7798768830585248
20
-2.1768348587726538
30
0
10
5.7730940305136551
20
-2.1700519487284402
30
0
10
5.7663109479714132
20
-2.1647763839714664
30
0
0
LINE
5
545
100
AcDbEntity
8
0
100
AcDbLine
10
5.7663109479714141
20
-2.164776383971466
30
0
11
5.7519915414883842
21
-2.1527179091702786
31
0
0
SPLINE
5
546
100
AcDbEntity
8
0
100
AcDbSpline
70
4
71
3
72
8
73
4
74
0
42
0.000000001
43
0.0000000001
44
0.0000000001
40
0
40
0
40
0
40
0
40
1
40
1
40
1
40
1
41
1
41
1
41
1
41
1
10
5.7519915414883842
20
-2.1527179091702786
30
0
10
5.7497306673058848
20
-2.1512106213823836
30
0
10
5.7474695631260131
20
-2.1489496322011985
30
0
10
5.7452086889435137
20
-2.1474423444133035
30
0
0
SPLINE
5
547
100
AcDbEntity
8
0
100
AcDbSpline
70
4
71
3
72
8
73
4
74
0
42
0.000000001
43
0.0000000001
44
0.0000000001
40
0
40
0
40
0
40
0
40
1
40
1
40
1
40
1
41
1
41
1
41
1
41
1
10
5.7452086889435137
20
-2.1474423444133035
30
0
10
5.7271210054914059
20
-2.1346302257181682
30
0
10
5.7112941962217931
20
-2.1263399703867178
30
0
10
5.6947136855588925
20
-2.1195571178418482
30
0
0
SPLINE
5
548
100
AcDbEntity
8
0
100
AcDbSpline
70
4
71
3
72
8
73
4
74
0
42
0.000000001
43
0.0000000001
44
0.0000000001
40
0
40
0
40
0
40
0
40
1
40
1
40
1
40
1
41
1
41
1
41
1
41
1
10
5.6947136855588925
20
-2.1195571178418482
30
0
10
5.662306595623753
20
-2.1059912977534241
30
0
10
5.6261309987221617
20
-2.099962089102501
30
0
10
5.5869410562421535
20
-2.101469376890396
30
0
0
SPLINE
5
549
100
AcDbEntity
8
0
100
AcDbSpline
70
4
71
3
72
8
73
4
74
0
42
0.000000001
43
0.0000000001
44
0.0000000001
40
0
40
0
40
0
40
0
40
1
40
1
40
1
40
1
41
1
41
1
41
1
41
1
10
5.5869410562421535
20
-2.101469376890396
30
0
10
5.5221266463745007
20
-2.1037303660715811
30
0
10
5.4550513623243519
20
-2.1293546034618513
30
0
10
5.3992809091814413
20
-2.1745739270908122
30
0
0
SPLINE
5
550
100
AcDbEntity
8
0
100
AcDbSpline
70
4
71
3
72
8
73
4
74
0
42
0.000000001
43
0.0000000001
44
0.0000000001
40
0
40
0
40
0
40
0
40
1
40
1
40
1
40
1
41
1
41
1
41
1
41
1
10
5.3992809091814413
20
-2.1745739270908122
30
0
10
5.3555688733403768
20
-2.2107494089937174
30
0
10
5.3186398050428672
20
-2.2567223765166253
30
0
10
5.2900008770781204
20
-2.3132465310528256
30
0
0
SPLINE
5
551
100
AcDbEntity
8
0
100
AcDbSpline
70
4
71
3
72
8
73
4
74
0
42
0.000000001
43
0.0000000001
44
0.0000000001
40
0
40
0
40
0
40
0
40
1
40
1
40
1
40
1
41
1
41
1
41
1
41
1
10
5.2900008770781204
20
-2.3132465310528256
30
0
10
5.2779423447775899
20
-2.3366098367612529
30
0
10
5.2681449166569321
20
-2.3614804877569187
30
0
10
5.2591009599321898
20
-2.387858426540479
30
0
0
SPLINE
5
552
100
AcDbEntity
8
0
100
AcDbSpline
70
4
71
3
72
8
73
4
74
0
42
0.000000001
43
0.0000000001
44
0.0000000001
40
0
40
0
40
0
40
0
40
1
40
1
40
1
40
1
41
1
41
1
41
1
41
1
10
5.2591009599321898
20
-2.387858426540479
30
0
10
5.231969319755339
20
-2.3509293007436263
30
0
10
5.185996409731775
20
-2.2627516426668901
30
0
10
5.1716768882500572
20
-2.1474423444133035
30
0
0
SPLINE
5
553
100
AcDbEntity
8
0
100
AcDbSpline
70
4
71
3
72
8
73
4
74
0
42
0.000000001
43
0.0000000001
44
0.0000000001
40
0
40
0
40
0
40
0
40
1
40
1
40
1
40
1
41
1
41
1
41
1
41
1
10
5.1716768882500572
20
-2.1474423444133035
30
0
10
5.1324868307713638
20
-2.2838539591941323
30
0
10
5.1905182730954573
20
-2.4338313940633864
30
0
10
5.2327230211486295
20
-2.4798043040869509
30
0
0
SPLINE
5
554
100
AcDbEntity
8
0
100
AcDbSpline
70
4
71
3
72
8
73
4
74
0
42
0.000000001
43
0.0000000001
44
0.0000000001
40
0
40
0
40
0
40
0
40
1
40
1
40
1
40
1
41
1
41
1
41
1
41
1
10
5.2327230211486295
20
-2.4798043040869509
30
0
10
5.2078523701529642
20
-2.5815477822521116
30
0
10
5.2184036146655997
20
-2.6930888035366185
30
0
10
5.2251864672104684
20
-2.7767444832509827
30
0
0
SPLINE
5
555
100
AcDbEntity
8
0
100
AcDbSpline
70
4
71
3
72
8
73
4
74
0
42
0.000000001
43
0.0000000001
44
0.0000000001
40
0
40
0
40
0
40
0
40
1
40
1
40
1
40
1
41
1
41
1
41
1
41
1
10
5.2251864672104684
20
-2.7767444832509827
30
0
10
5.2221718916346793
20
-2.7752371954630877
30
0
10
5.2191572010602032
20
-2.772976206281903
30
0
10
5.216142625484415
20
-2.771468918494008
30
0
0
SPLINE
5
556
100
AcDbEntity
8
0
100
AcDbSpline
70
4
71
3
72
8
73
4
74
0
42
0.000000001
43
0.0000000001
44
0.0000000001
40
0
40
0
40
0
40
0
40
1
40
1
40
1
40
1
41
1
41
1
41
1
41
1
10
5.216142625484415
20
-2.771468918494008
30
0
10
5.2078523701529642
20
-2.7661933537370338
30
0
10
5.2003158162148022
20
-2.7616713753746627
30
0
10
5.1942866650632258
20
-2.7571495120109795
30
0
0
SPLINE
5
557
100
AcDbEntity
8
0
100
AcDbSpline
70
4
71
3
72
8
73
4
74
0
42
0.000000001
43
0.0000000001
44
0.0000000001
40
0
40
0
40
0
40
0
40
1
40
1
40
1
40
1
41
1
41
1
41
1
41
1
10
5.1942866650632258
20
-2.7571495120109795
30
0
10
5.1151528487125448
20
-2.6968570805056986
30
0
10
5.0239605000613325
20
-2.6652035769651641
30
0
10
4.9297536908330182
20
-2.6652035769651641
30
0
0
SPLINE
5
558
100
AcDbEntity
8
0
100
AcDbSpline
70
4
71
3
72
8
73
4
74
0
42
0.000000001
43
0.0000000001
44
0.0000000001
40
0
40
0
40
0
40
0
40
1
40
1
40
1
40
1
41
1
41
1
41
1
41
1
10
4.9297536908330182
20
-2.6652035769651641
30
0
10
4.8151980939727235
20
-2.6652035769651641
30
0
10
4.705164360476112
20
-2.7126838897753087
30
0
10
4.6207549793684564
20
-2.7993542600641503
30
0
0
LINE
5
559
100
AcDbEntity
8
0
100
AcDbLine
10
4.6207549793684564
20
-2.7993542600641503
30
0
11
4.556694270894095
21
-2.8656759577196964
31
0
0
LINE
5
560
100
AcDbEntity
8
0
100
AcDbLine
10
4.556694270894095
20
-2.8656759577196964
30
0
11
4.5612162492564652
21
-2.8701979360820666
31
0
0
SPLINE
5
561
100
AcDbEntity
8
0
100
AcDbSpline
70
4
71
3
72
8
73
4
74
0
42
0.000000001
43
0.0000000001
44
0.0000000001
40
0
40
0
40
0
40
0
40
1
40
1
40
1
40
1
41
1
41
1
41
1
41
1
10
4.5612162492564652
20
-2.8701979360820666
30
0
10
4.5431285658043565
20
-2.8679369469008811
30
0
10
4.5242871809589555
20
-2.8664296591129865
30
0
10
4.5061993825081608
20
-2.8664296591129865
30
0
0
SPLINE
5
562
100
AcDbEntity
8
0
100
AcDbSpline
70
4
71
3
72
8
73
4
74
0
42
0.000000001
43
0.0000000001
44
0.0000000001
40
0
40
0
40
0
40
0
40
1
40
1
40
1
40
1
41
1
41
1
41
1
41
1
10
4.5061993825081608
20
-2.8664296591129865
30
0
10
4.5001701163578955
20
-2.8664296591129865
30
0
10
4.493387263813025
20
-2.8664296591129865
30
0
10
4.4866042962694683
20
-2.8671833605062766
30
0
0
SPLINE
5
563
100
AcDbEntity
8
0
100
AcDbSpline
70
4
71
3
72
8
73
4
74
0
42
0.000000001
43
0.0000000001
44
0.0000000001
40
0
40
0
40
0
40
0
40
1
40
1
40
1
40
1
41
1
41
1
41
1
41
1
10
4.4866042962694683
20
-2.8671833605062766
30
0
10
4.3283366635681082
20
-2.8747199144444378
30
0
10
4.1866494265309617
20
-2.9757096912163079
30
0
10
4.0886742253348807
20
-3.1498041331872799
30
0
0
SPLINE
5
564
100
AcDbEntity
8
0
100
AcDbSpline
70
4
71
3
72
8
73
4
74
0
42
0.000000001
43
0.0000000001
44
0.0000000001
40
0
40
0
40
0
40
0
40
1
40
1
40
1
40
1
41
1
41
1
41
1
41
1
10
4.0886742253348807
20
-3.1498041331872799
30
0
10
3.9982355780769598
20
-3.3103327550698265
30
0
10
3.9545235709855655
20
-3.5190952761571235
30
0
10
3.9650747292491859
20
-3.7361481675745578
30
0
0
SPLINE
5
565
100
AcDbEntity
8
0
100
AcDbSpline
70
4
71
3
72
8
73
4
74
0
42
0.000000001
43
0.0000000001
44
0.0000000001
40
0
40
0
40
0
40
0
40
1
40
1
40
1
40
1
41
1
41
1
41
1
41
1
10
3.9650747292491859
20
-3.7361481675745578
30
0
10
3.9756259162624796
20
-3.948679080629621
30
0
10
4.0374256355556541
20
-4.1483977599908632
30
0
10
4.1391691137208158
20
-4.299128838754064
30
0
0
SPLINE
5
566
100
AcDbEntity
8
0
100
AcDbSpline
70
4
71
3
72
8
73
4
74
0
42
0.000000001
43
0.0000000001
44
0.0000000001
40
0
40
0
40
0
40
0
40
1
40
1
40
1
40
1
41
1
41
1
41
1
41
1
10
4.1391691137208158
20
-4.299128838754064
30
0
10
4.2492027897180842
20
-4.4611647484245047
30
0
10
4.3946583037243112
20
-4.5508496942891359
30
0
10
4.5491577169559356
20
-4.5508496942891359
30
0
0
SPLINE
5
567
100
AcDbEntity
8
0
100
AcDbSpline
70
4
71
3
72
8
73
4
74
0
42
0.000000001
43
0.0000000001
44
0.0000000001
40
0
40
0
40
0
40
0
40
1
40
1
40
1
40
1
41
1
41
1
41
1
41
1
10
4.5491577169559356
20
-4.5508496942891359
30
0
10
4.5551869831062
20
-4.5508496942891359
30
0
10
4.5619698356510714
20
-4.5508496942891359
30
0
10
4.5687528031946254
20
-4.5500959928958444
30
0
0
SPLINE
5
568
100
AcDbEntity
8
0
100
AcDbSpline
70
4
71
3
72
8
73
4
74
0
42
0.000000001
43
0.0000000001
44
0.0000000001
40
0
40
0
40
0
40
0
40
1
40
1
40
1
40
1
41
1
41
1
41
1
41
1
10
4.5687528031946254
20
-4.5500959928958444
30
0
10
4.6162331160047723
20
-4.5478351187133459
30
0
10
4.6629597274216277
20
-4.536530287806106
30
0
10
4.7066717632626922
20
-4.5184423743566242
30
0
0
SPLINE
5
569
100
AcDbEntity
8
0
100
AcDbSpline
70
4
71
3
72
8
73
4
74
0
42
0.000000001
43
0.0000000001
44
0.0000000001
40
0
40
0
40
0
40
0
40
0.60779900529562847
40
0.60779900529562847
40
0.60779900529562847
40
0.60779900529562847
41
1
41
1
41
1
41
1
10
4.7066717632626922
20
-4.5184423743566242
30
0
10
4.7552273170830164
20
-4.5624172181899763
30
0
10
4.8087943086696523
20
-4.5949770260383414
30
0
10
4.8658497903988556
20
-4.6137527223608084
30
0
0
LINE
5
570
100
AcDbEntity
8
0
100
AcDbLine
10
4.8658497903988547
20
-4.6137527223608084
30
0
11
0.91709415029527264
21
-4.6137526041257324
31
0
0
SPLINE
5
571
100
AcDbEntity
8
0
100
AcDbSpline
70
4
71
5
72
16
73
10
74
0
42
0.000000001
43
0.0000000001
44
0.0000000001
40
-0.49982789181554799
40
-0.49982789181554799
40
-0.49982789181554799
40
-0.49982789181554799
40
-0.49982789181554799
40
-0.49982789181554799
40
-0.40000000000000002
40
-0.30000000000000004
40
-0.20000000000000001
40
-0.10000000000000001
40
0
40
0
40
0
40
0
40
0
40
0
41
1
41
1
41
1
41
1
41
1
41
1
41
1
41
1
41
1
41
1
10
0.91709415029527253
20
-4.6137526041257324
30
0
10
0.95496415759941311
20
-4.6137526031081313
30
0
10
1.0307653401579604
20
-4.610729982699767
30
0
10
1.1433726886357016
20
-4.5971147940653232
30
0
10
1.2868147576413469
20
-4.561267861980645
30
0
10
1.4511472880773455
20
-4.4891792570775415
30
0
10
1.5692978843769261
20
-4.4114378423641911
30
0
10
1.6505274336057347
20
-4.3425694264840198
30
0
10
1.7014391254335799
20
-4.2920393273732911
30
0
10
1.7260853957697502
20
-4.265619788447407
30
0
0
SPLINE
5
572
100
AcDbEntity
8
0
100
AcDbSpline
70
4
71
3
72
8
73
4
74
0
42
0.000000001
43
0.0000000001
44
0.0000000001
40
0
40
0
40
0
40
0
40
1
40
1
40
1
40
1
41
1
41
1
41
1
41
1
10
1.7260853957697502
20
-4.265619788447407
30
0
10
1.9423300885335566
20
-4.0216348180518287
30
0
10
2.0398725075220376
20
-3.6628314674119378
30
0
10
1.9937010266274446
20
-3.2812115083554394
30
0
0
SPLINE
5
573
100
AcDbEntity
8
0
100
AcDbSpline
70
4
71
3
72
8
73
4
74
0
42
0.000000001
43
0.0000000001
44
0.0000000001
40
0
40
0
40
0
40
0
40
1
40
1
40
1
40
1
41
1
41
1
41
1
41
1
10
1.9937010266274446
20
-3.2812115083554394
30
0
10
1.9675521006480878
20
-3.0651000793552141
30
0
10
1.9079749507325037
20
-2.860995266900332
30
0
10
1.8166208321141315
20
-2.6745614320689
30
0
0
SPLINE
5
574
100
AcDbEntity
8
0
100
AcDbSpline
70
4
71
3
72
8
73
4
74
0
42
0.000000001
43
0.0000000001
44
0.0000000001
40
0
40
0
40
0
40
0
40
1
40
1
40
1
40
1
41
1
41
1
41
1
41
1
10
1.8166208321141315
20
-2.6745614320689
30
0
10
1.7336300636966619
20
-2.5051927384025965
30
0
10
1.6264729752592264
20
-2.3539752638704154
30
0
10
1.498132302113959
20
-2.2251061658993052
30
0
0
SPLINE
5
575
100
AcDbEntity
8
0
100
AcDbSpline
70
4
71
3
72
8
73
4
74
0
42
0.000000001
43
0.0000000001
44
0.0000000001
40
0
40
0
40
0
40
0
40
1
40
1
40
1
40
1
41
1
41
1
41
1
41
1
10
1.498132302113959
20
-2.2251061658993052
30
0
10
1.2620447651779885
20
-1.9880484514011019
30
0
10
0.96948754041838192
20
-1.8465232749923193
30
0
10
0.7155177716843345
20
-1.8465232749923193
30
0
0
SPLINE
5
576
100
AcDbEntity
8
0
100
AcDbSpline
70
4
71
3
72
8
73
4
74
0
42
0.000000001
43
0.0000000001
44
0.0000000001
40
0
40
0
40
0
40
0
40
1
40
1
40
1
40
1
41
1
41
1
41
1
41
1
10
0.7155177716843345
20
-1.8465232749923193
30
0
10
0.65954930609419238
20
-1.8465256624538813
30
0
10
0.60626145340754378
20
-1.8534982801209441
30
0
10
0.55713559735028606
20
-1.8672453561453795
30
0
0
SPLINE
5
577
100
AcDbEntity
8
0
100
AcDbSpline
70
4
71
3
72
8
73
4
74
0
42
0.000000001
43
0.0000000001
44
0.0000000001
40
0
40
0
40
0
40
0
40
1
40
1
40
1
40
1
41
1
41
1
41
1
41
1
10
0.55713559735028606
20
-1.8672453561453795
30
0
10
0.52318473637382323
20
-1.876746584996454
30
0
10
0.49215641773919167
20
-1.8884624376624062
30
0
10
0.46374880842702981
20
-1.9024707598596393
30
0
0
SPLINE
5
578
100
AcDbEntity
8
0
100
AcDbSpline
70
4
71
3
72
8
73
4
74
0
42
0.000000001
43
0.0000000001
44
0.0000000001
40
0
40
0
40
0
40
0
40
1
40
1
40
1
40
1
41
1
41
1
41
1
41
1
10
0.46374880842702981
20
-1.9024707598596393
30
0
10
0.47532148574654981
20
-1.8378247396574987
30
0
10
0.4453899524842857
20
-1.795754773032713
30
0
10
0.40355019503198453
20
-1.7492918771328498
30
0
0
SPLINE
5
579
100
AcDbEntity
8
0
100
AcDbSpline
70
4
71
3
72
8
73
4
74
0
42
0.000000001
43
0.0000000001
44
0.0000000001
40
0
40
0
40
0
40
0
40
1
40
1
40
1
40
1
41
1
41
1
41
1
41
1
10
0.40355019503198453
20
-1.7492918771328498
30
0
10
0.43022841400502526
20
-1.6548526517444331
30
0
10
0.48426506145447085
20
-1.5579839310005099
30
0
10
0.57049698981139019
20
-1.5143909809407825
30
0
0
SPLINE
5
580
100
AcDbEntity
8
0
100
AcDbSpline
70
4
71
3
72
8
73
4
74
0
42
0.000000001
43
0.0000000001
44
0.0000000001
40
0
40
0
40
0
40
0
40
1
40
1
40
1
40
1
41
1
41
1
41
1
41
1
10
0.57049698981139019
20
-1.5143909809407825
30
0
10
0.58298558420308511
20
-1.5080769409283805
30
0
10
0.59652263595733634
20
-1.5029761654736709
30
0
10
0.61065727657542335
20
-1.4991119504137167
30
0
0
SPLINE
5
581
100
AcDbEntity
8
0
100
AcDbSpline
70
4
71
3
72
8
73
4
74
0
42
0.000000001
43
0.0000000001
44
0.0000000001
40
0
40
0
40
0
40
0
40
1
40
1
40
1
40
1
41
1
41
1
41
1
41
1
10
0.61065727657542335
20
-1.4991119504137167
30
0
10
0.60382508505663024
20
-1.5861053343144471
30
0
10
0.62181931050618611
20
-1.6770165426393082
30
0
10
0.67385758028046416
20
-1.740892570313868
30
0
0
SPLINE
5
582
100
AcDbEntity
8
0
100
AcDbSpline
70
4
71
3
72
8
73
4
74
0
42
0.000000001
43
0.0000000001
44
0.0000000001
40
0
40
0
40
0
40
0
40
1
40
1
40
1
40
1
41
1
41
1
41
1
41
1
10
0.67385758028046416
20
-1.740892570313868
30
0
10
0.73331231853047785
20
-1.8138724230103203
30
0
10
0.85192517101818899
20
-1.8368087662416577
30
0
10
0.92170184611823103
20
-1.7627876909146569
30
0
0
SPLINE
5
583
100
AcDbEntity
8
0
100
AcDbSpline
70
4
71
3
72
8
73
4
74
0
42
0.000000001
43
0.0000000001
44
0.0000000001
40
0
40
0
40
0
40
0
40
1
40
1
40
1
40
1
41
1
41
1
41
1
41
1
10
0.92170184611823103
20
-1.7627876909146569
30
0
10
0.98072278983706274
20
-1.7001762220477235
30
0
10
0.96950953400368556
20
-1.5958773591845703
30
0
10
0.93256291519747325
20
-1.5254525967912784
30
0
0
SPLINE
5
584
100
AcDbEntity
8
0
100
AcDbSpline
70
4
71
3
72
8
73
4
74
0
42
0.000000001
43
0.0000000001
44
0.0000000001
40
0
40
0
40
0
40
0
40
1
40
1
40
1
40
1
41
1
41
1
41
1
41
1
10
0.93256291519747325
20
-1.5254525967912784
30
0
10
0.89471803206518496
20
-1.4533157350683639
30
0
10
0.82584367274114334
20
-1.4092434116658059
30
0
10
0.74951725005988912
20
-1.3918227557698204
30
0
0
SPLINE
5
585
100
AcDbEntity
8
0
100
AcDbSpline
70
4
71
3
72
8
73
4
74
0
42
0.000000001
43
0.0000000001
44
0.0000000001
40
0
40
0
40
0
40
0
40
1
40
1
40
1
40
1
41
1
41
1
41
1
41
1
10
0.74951725005988912
20
-1.3918227557698204
30
0
10
0.76618607260563409
20
-1.3601101761819003
30
0
10
0.79032519003325175
20
-1.3330584279953024
30
0
10
0.82360293154371844
20
-1.3151299300860362
30
0
0
SPLINE
5
586
100
AcDbEntity
8
0
100
AcDbSpline
70
4
71
3
72
8
73
4
74
0
42
0.000000001
43
0.0000000001
44
0.0000000001
40
0
40
0
40
0
40
0
40
1
40
1
40
1
40
1
41
1
41
1
41
1
41
1
10
0.82360293154371844
20
-1.3151299300860362
30
0
10
0.8914181261018318
20
-1.2785944972734815
30
0
10
0.98864105932485236
20
-1.2811932130106485
30
0
10
1.0498318438674339
20
-1.3297977704530906
30
0
0
SPLINE
5
587
100
AcDbEntity
8
0
100
AcDbSpline
70
4
71
3
72
8
73
4
74
0
42
0.000000001
43
0.0000000001
44
0.0000000001
40
0
40
0
40
0
40
0
40
1
40
1
40
1
40
1
41
1
41
1
41
1
41
1
10
1.0498318438674339
20
-1.3297977704530906
30
0
10
1.10580407151822
20
-1.3742564647185205
30
0
10
1.1452359654637176
20
-1.438868843416824
30
0
10
1.1875125560346438
20
-1.495392864077838
30
0
0
SPLINE
5
588
100
AcDbEntity
8
0
100
AcDbSpline
70
4
71
3
72
8
73
4
74
0
42
0.000000001
43
0.0000000001
44
0.0000000001
40
0
40
0
40
0
40
0
40
1
40
1
40
1
40
1
41
1
41
1
41
1
41
1
10
1.1875125560346438
20
-1.495392864077838
30
0
10
1.2369639750322483
20
-1.5615091265185828
30
0
10
1.2908748828394001
20
-1.6316375542888393
30
0
10
1.367325453521907
20
-1.6680231919751742
30
0
0
SPLINE
5
589
100
AcDbEntity
8
0
100
AcDbSpline
70
4
71
3
72
8
73
4
74
0
42
0.000000001
43
0.0000000001
44
0.0000000001
40
0
40
0
40
0
40
0
40
1
40
1
40
1
40
1
41
1
41
1
41
1
41
1
10
1.367325453521907
20
-1.6680231919751742
30
0
10
1.4604185123256503
20
-1.7123297036528218
30
0
10
1.5573427958113926
20
-1.6893118973390775
30
0
10
1.6429160741663309
20
-1.6389534599896671
30
0
0
SPLINE
5
590
100
AcDbEntity
8
0
100
AcDbSpline
70
4
71
3
72
8
73
4
74
0
42
0.000000001
43
0.0000000001
44
0.0000000001
40
0
40
0
40
0
40
0
40
1
40
1
40
1
40
1
41
1
41
1
41
1
41
1
10
1.6429160741663309
20
-1.6389534599896671
30
0
10
1.7030740283674926
20
-1.60355167350906
30
0
10
1.6485250171972621
20
-1.5097012829587502
30
0
10
1.5881378666860957
20
-1.5452382142332615
30
0
0
SPLINE
5
591
100
AcDbEntity
8
0
100
AcDbSpline
70
4
71
3
72
8
73
4
74
0
42
0.000000001
43
0.0000000001
44
0.0000000001
40
0
40
0
40
0
40
0
40
1
40
1
40
1
40
1
41
1
41
1
41
1
41
1
10
1.5881378666860957
20
-1.5452382142332615
30
0
10
1.5051832719286653
20
-1.594055653665031
30
0
10
1.4291948559268106
20
-1.5973589599524278
30
0
10
1.3574729060845381
20
-1.5292982909372921
30
0
0
SPLINE
5
592
100
AcDbEntity
8
0
100
AcDbSpline
70
4
71
3
72
8
73
4
74
0
42
0.000000001
43
0.0000000001
44
0.0000000001
40
0
40
0
40
0
40
0
40
1
40
1
40
1
40
1
41
1
41
1
41
1
41
1
10
1.3574729060845381
20
-1.5292982909372921
30
0
10
1.2898478402835867
20
-1.4651264350709372
30
0
10
1.2430347833545512
20
-1.3825315511889296
30
0
10
1.1834203022218073
20
-1.3114587015023877
30
0
0
SPLINE
5
593
100
AcDbEntity
8
0
100
AcDbSpline
70
4
71
3
72
8
73
4
74
0
42
0.000000001
43
0.0000000001
44
0.0000000001
40
0
40
0
40
0
40
0
40
1
40
1
40
1
40
1
41
1
41
1
41
1
41
1
10
1.1834203022218073
20
-1.3114587015023877
30
0
10
1.1157223103222185
20
-1.2307485376557064
30
0
10
1.0368808054058067
20
-1.1851020812629125
30
0
10
0.92951882935791275
20
-1.1832733580533257
30
0
0
SPLINE
5
594
100
AcDbEntity
8
0
100
AcDbSpline
70
4
71
3
72
8
73
4
74
0
42
0.000000001
43
0.0000000001
44
0.0000000001
40
0
40
0
40
0
40
0
40
1
40
1
40
1
40
1
41
1
41
1
41
1
41
1
10
0.92951882935791275
20
-1.1832733580533257
30
0
10
0.80713870721915093
20
-1.1811881274204064
30
0
10
0.69609164807581414
20
-1.2459550038207348
30
0
10
0.64547283272144718
20
-1.3585024016878289
30
0
0
SPLINE
5
595
100
AcDbEntity
8
0
100
AcDbSpline
70
4
71
3
72
8
73
4
74
0
42
0.000000001
43
0.0000000001
44
0.0000000001
40
0
40
0
40
0
40
0
40
1
40
1
40
1
40
1
41
1
41
1
41
1
41
1
10
0.64547283272144718
20
-1.3585024016878289
30
0
10
0.64158691346547014
20
-1.3671430591665874
30
0
10
0.63801845424999126
20
-1.3761274387630322
30
0
10
0.63470986660822915
20
-1.3853389165971981
30
0
0
SPLINE
5
596
100
AcDbEntity
8
0
100
AcDbSpline
70
4
71
3
72
8
73
4
74
0
42
0.000000001
43
0.0000000001
44
0.0000000001
40
0
40
0
40
0
40
0
40
1
40
1
40
1
40
1
41
1
41
1
41
1
41
1
10
0.63470986660822915
20
-1.3853389165971981
30
0
10
0.48493615519550526
20
-1.4019753998908686
30
0
10
0.37712779618273612
20
-1.5186416030372674
30
0
10
0.32139880022204875
20
-1.6544150228052872
30
0
0
SPLINE
5
597
100
AcDbEntity
8
0
100
AcDbSpline
70
4
71
3
72
8
73
4
74
0
42
0.000000001
43
0.0000000001
44
0.0000000001
40
0
40
0
40
0
40
0
40
1
40
1
40
1
40
1
41
1
41
1
41
1
41
1
10
0.32139880022204875
20
-1.6544150228052872
30
0
10
0.29406251002558764
20
-1.6172646015984189
30
0
10
0.26891573912393718
20
-1.5726077118496382
30
0
10
0.25247133796507115
20
-1.5144806192703579
30
0
0
SPLINE
5
598
100
AcDbEntity
8
0
100
AcDbSpline
70
4
71
3
72
8
73
4
74
0
42
0.000000001
43
0.0000000001
44
0.0000000001
40
0
40
0
40
0
40
0
40
0.90265154359224198
40
0.90265154359224198
40
0.90265154359224198
40
0.90265154359224198
41
1
41
1
41
1
41
1
10
0.25247133796507115
20
-1.5144806192703579
30
0
10
0.19076910963783678
20
-1.2963769168791619
30
0
10
0.3105374068072741
20
-1.0337031968062083
30
0
10
0.061812890682076467
20
-0.89153045001012898
30
0
0
ARC
5
599
100
AcDbEntity
8
0
100
AcDbCircle
10
-0.010401715447267436
20
-18.937776730891237
30
0
40
18.046390774240656
210
0
220
-0
230
1
100
AcDbArc
50
78.313168996901226
51
89.770724060785184
0
SPLINE
5
600
100
AcDbEntity
8
0
100
AcDbSpline
70
0
71
2
72
6
73
3
74
0
42
0.000000001
43
0.0000000001
44
0.0000000001
40
-0.8715096675010755
40
-0.8715096675010755
40
-0.8715096675010755
40
0
40
0
40
0
10
3.6451153191681009
20
-1.2654985759324044
30
0
10
3.5205297319794782
20
-1.378562642355911
30
0
10
3.4205034314515448
20
-1.5231374831283471
30
0
0
SPLINE
5
601
100
AcDbEntity
8
0
100
AcDbSpline
70
0
71
2
72
6
73
3
74
0
42
0.000000001
43
0.0000000001
44
0.0000000001
40
-1
40
-1
40
-1
40
0
40
0
40
0
10
3.4205034314515448
20
-1.5231374831283471
30
0
10
3.3098188537211084
20
-1.6959347398293563
30
0
10
3.2722470980867726
20
-1.8425482590263185
30
0
0
SPLINE
5
602
100
AcDbEntity
8
0
100
AcDbSpline
70
0
71
2
72
6
73
3
74
0
42
0.000000001
43
0.0000000001
44
0.0000000001
40
-1
40
-1
40
-1
40
0
40
0
40
0
10
3.2722470980867726
20
-1.8425482590263185
30
0
10
3.2558094433460445
20
-1.9066917191386887
30
0
10
3.2527159449183989
20
-1.9644901283510603
30
0
0
SPLINE
5
603
100
AcDbEntity
8
0
100
AcDbSpline
70
0
71
2
72
6
73
3
74
0
42
0.000000001
43
0.0000000001
44
0.0000000001
40
-1
40
-1
40
-1
40
0
40
0
40
0
10
3.2527159449183989
20
-1.9644901283510603
30
0
10
3.2396995409629623
20
-2.304886774022592
30
0
10
3.5182656843473663
20
-2.3762732268174243
30
0
0
SPLINE
5
604
100
AcDbEntity
8
0
100
AcDbSpline
70
0
71
2
72
6
73
3
74
0
42
0.000000001
43
0.0000000001
44
0.0000000001
40
-1
40
-1
40
-1
40
0
40
0
40
0
10
3.5182656843473663
20
-2.3762732268174243
30
0
10
3.6208953023618173
20
-2.40257349537386
30
0
10
3.725678993402469
20
-2.3747411822494597
30
0
0
SPLINE
5
605
100
AcDbEntity
8
0
100
AcDbSpline
70
0
71
2
72
6
73
3
74
0
42
0.000000001
43
0.0000000001
44
0.0000000001
40
-1
40
-1
40
-1
40
0
40
0
40
0
10
3.725678993402469
20
-2.3747411822494597
30
0
10
4.1402092885763517
20
-2.2661373760502386
30
0
10
4.424225131292606
20
-1.6455965581808416
30
0
0
SPLINE
5
606
100
AcDbEntity
8
0
100
AcDbSpline
70
0
71
2
72
6
73
3
74
0
42
0.000000001
43
0.0000000001
44
0.0000000001
40
-1
40
-1
40
-1
40
-0.71119343244718236
40
-0.71119343244718236
40
-0.71119343244718236
10
4.424225131292606
20
-1.6455965581808416
30
0
10
4.4638270414551808
20
-1.5592930617594631
30
0
10
4.5018326043896151
20
-1.4645983872609374
30
0
0
LINE
5
607
100
AcDbEntity
8
0
100
AcDbLine
10
-0.38504572243232771
20
-4.5541481356465647
30
0
11
-0.3916115311185972
21
-4.5543628624925532
31
0
0
SPLINE
5
608
100
AcDbEntity
8
0
100
AcDbSpline
70
4
71
3
72
8
73
4
74
0
42
0.000000001
43
0.0000000001
44
0.0000000001
40
0
40
0
40
0
40
0
40
1
40
1
40
1
40
1
41
1
41
1
41
1
41
1
10
-0.39161153111859748
20
-4.5543628624925532
30
0
10
-0.39304111416331927
20
-4.5544250811878193
30
0
10
-0.39446765862059813
20
-4.5544974285078963
30
0
10
-0.39634102012667244
20
-4.5544974285078963
30
0
0
SPLINE
5
609
100
AcDbEntity
8
0
100
AcDbSpline
70
4
71
3
72
8
73
4
74
0
42
0.000000001
43
0.0000000001
44
0.0000000001
40
0
40
0
40
0
40
0
40
1
40
1
40
1
40
1
41
1
41
1
41
1
41
1
10
-0.39634102012667244
20
-4.5544974285078963
30
0
10
-0.46472746912411428
20
-4.5543831197421731
30
0
10
-0.52954415665431576
20
-4.5494276177061792
30
0
10
-0.58898833219559821
20
-4.5397669353616541
30
0
0
SPLINE
5
610
100
AcDbEntity
8
0
100
AcDbSpline
70
4
71
3
72
8
73
4
74
0
42
0.000000001
43
0.0000000001
44
0.0000000001
40
0
40
0
40
0
40
0
40
1
40
1
40
1
40
1
41
1
41
1
41
1
41
1
10
-0.58898833219559821
20
-4.5397669353616541
30
0
10
-0.62759864997430148
20
-4.5334918182074535
30
0
10
-0.66484189279282924
20
-4.5250847702252237
30
0
10
-0.69968088947055762
20
-4.5147825118462572
30
0
0
SPLINE
5
611
100
AcDbEntity
8
0
100
AcDbSpline
70
4
71
3
72
8
73
4
74
0
42
0.000000001
43
0.0000000001
44
0.0000000001
40
0
40
0
40
0
40
0
40
1
40
1
40
1
40
1
41
1
41
1
41
1
41
1
10
-0.69968088947055762
20
-4.5147825118462572
30
0
10
-0.70827271250826418
20
-4.5122393588509082
30
0
10
-0.71687162558333839
20
-4.5095384886977934
30
0
10
-0.72523729089848421
20
-4.5067531168748278
30
0
0
SPLINE
5
612
100
AcDbEntity
8
0
100
AcDbSpline
70
4
71
3
72
8
73
4
74
0
42
0.000000001
43
0.0000000001
44
0.0000000001
40
0
40
0
40
0
40
0
40
1
40
1
40
1
40
1
41
1
41
1
41
1
41
1
10
-0.72523729089848421
20
-4.5067531168748278
30
0
10
-0.74182682078142481
20
-4.5012257816209447
30
0
10
-0.75819684889525174
20
-4.4951286388741343
30
0
10
-0.77389448101628278
20
-4.4886335858668991
30
0
0
SPLINE
5
613
100
AcDbEntity
8
0
100
AcDbSpline
70
4
71
3
72
8
73
4
74
0
42
0.000000001
43
0.0000000001
44
0.0000000001
40
0
40
0
40
0
40
0
40
1
40
1
40
1
40
1
41
1
41
1
41
1
41
1
10
-0.77389448101628278
20
-4.4886335858668991
30
0
10
-0.7816608211319106
20
-4.485420496687639
30
0
10
-0.7894432946999157
20
-4.4820334845509135
30
0
10
-0.79701762502805895
20
-4.478570941812027
30
0
0
SPLINE
5
614
100
AcDbEntity
8
0
100
AcDbSpline
70
4
71
3
72
8
73
4
74
0
42
0.000000001
43
0.0000000001
44
0.0000000001
40
0
40
0
40
0
40
0
40
1
40
1
40
1
40
1
41
1
41
1
41
1
41
1
10
-0.79701762502805895
20
-4.478570941812027
30
0
10
-0.81204727434281909
20
-4.471696499458309
30
0
10
-0.82682320160606904
20
-4.4642638251828757
30
0
10
-0.84094055121465794
20
-4.4564766490390673
30
0
0
SPLINE
5
615
100
AcDbEntity
8
0
100
AcDbSpline
70
4
71
3
72
8
73
4
74
0
42
0.000000001
43
0.0000000001
44
0.0000000001
40
0
40
0
40
0
40
0
40
1
40
1
40
1
40
1
41
1
41
1
41
1
41
1
10
-0.84094055121465794
20
-4.4564766490390673
30
0
10
-0.854922828376663
20
-4.4487673186116599
30
0
10
-0.8686836503919122
20
-4.4404792096236365
30
0
10
-0.88183805717027575
20
-4.4318415183850011
30
0
0
SPLINE
5
616
100
AcDbEntity
8
0
100
AcDbSpline
70
4
71
3
72
8
73
4
74
0
42
0.000000001
43
0.0000000001
44
0.0000000001
40
0
40
0
40
0
40
0
40
1
40
1
40
1
40
1
41
1
41
1
41
1
41
1
10
-0.88183805717027575
20
-4.4318415183850011
30
0
10
-0.89484596062548349
20
-4.4232999043874273
30
0
10
-0.9076324089339356
20
-4.4141728558757904
30
0
10
-0.91983812530412934
20
-4.4047161929738827
30
0
0
SPLINE
5
617
100
AcDbEntity
8
0
100
AcDbSpline
70
4
71
3
72
8
73
4
74
0
42
0.000000001
43
0.0000000001
44
0.0000000001
40
0
40
0
40
0
40
0
40
1
40
1
40
1
40
1
41
1
41
1
41
1
41
1
10
-0.91983812530412934
20
-4.4047161929738827
30
0
10
-0.93192671136311855
20
-4.3953469256346303
30
0
10
-0.94377344033109023
20
-4.3854026417954044
30
0
10
-0.95504551453568987
20
-4.3751620233331412
30
0
0
SPLINE
5
618
100
AcDbEntity
8
0
100
AcDbSpline
70
4
71
3
72
8
73
4
74
0
42
0.000000001
43
0.0000000001
44
0.0000000001
40
0
40
0
40
0
40
0
40
1
40
1
40
1
40
1
41
1
41
1
41
1
41
1
10
-0.95504551453568987
20
-4.3751620233331412
30
0
10
-0.97729766916105865
20
-4.354947603325062
30
0
10
-0.99830986306762781
20
-4.3326704165269456
30
0
10
-1.0175043305572613
20
-4.3089529392807364
30
0
0
SPLINE
5
619
100
AcDbEntity
8
0
100
AcDbSpline
70
4
71
3
72
8
73
4
74
0
42
0.000000001
43
0.0000000001
44
0.0000000001
40
0
40
0
40
0
40
0
40
1
40
1
40
1
40
1
41
1
41
1
41
1
41
1
10
-1.0175043305572613
20
-4.3089529392807364
30
0
10
-1.0222703549619752
20
-4.3030618417015045
30
0
10
-1.0269884854407982
20
-4.2970083967360209
30
0
10
-1.0315278456917103
20
-4.2909506109313336
30
0
0
SPLINE
5
620
100
AcDbEntity
8
0
100
AcDbSpline
70
4
71
3
72
8
73
4
74
0
42
0.000000001
43
0.0000000001
44
0.0000000001
40
0
40
0
40
0
40
0
40
1
40
1
40
1
40
1
41
1
41
1
41
1
41
1
10
-1.0315278456917103
20
-4.2909506109313336
30
0
10
-1.0673046806795974
20
-4.2432468137975095
30
0
10
-1.0978446549037093
20
-4.1880565159821144
30
0
10
-1.1223010876771844
20
-4.1269059565494963
30
0
0
SPLINE
5
621
100
AcDbEntity
8
0
100
AcDbSpline
70
4
71
3
72
8
73
4
74
0
42
0.000000001
43
0.0000000001
44
0.0000000001
40
0
40
0
40
0
40
0
40
1
40
1
40
1
40
1
41
1
41
1
41
1
41
1
10
-1.1223010876771844
20
-4.1269059565494963
30
0
10
-1.1282860920778759
20
-4.1119468458718123
30
0
10
-1.1340122377673321
20
-4.0963591816772968
30
0
10
-1.1393273059841103
20
-4.080574732772174
30
0
0
SPLINE
5
622
100
AcDbEntity
8
0
100
AcDbSpline
70
4
71
3
72
8
73
4
74
0
42
0.000000001
43
0.0000000001
44
0.0000000001
40
0
40
0
40
0
40
0
40
1
40
1
40
1
40
1
41
1
41
1
41
1
41
1
10
-1.1393273059841103
20
-4.080574732772174
30
0
10
-1.1445850027760671
20
-4.0649549463675445
30
0
10
-1.1495885434325941
20
-4.0486924263713524
30
0
10
-1.1541971400688198
20
-4.0322400670072795
30
0
0
SPLINE
5
623
100
AcDbEntity
8
0
100
AcDbSpline
70
4
71
3
72
8
73
4
74
0
42
0.000000001
43
0.0000000001
44
0.0000000001
40
0
40
0
40
0
40
0
40
1
40
1
40
1
40
1
41
1
41
1
41
1
41
1
10
-1.1541971400688198
20
-4.0322400670072795
30
0
10
-1.1655085712155415
20
-3.9918641852294154
30
0
10
-1.1749695026093336
20
-3.9484262754766135
30
0
10
-1.1823218713594805
20
-3.9031330910477555
30
0
0
SPLINE
5
624
100
AcDbEntity
8
0
100
AcDbSpline
70
4
71
3
72
8
73
4
74
0
42
0.000000001
43
0.0000000001
44
0.0000000001
40
0
40
0
40
0
40
0
40
1
40
1
40
1
40
1
41
1
41
1
41
1
41
1
10
-1.1823218713594805
20
-3.9031330910477555
30
0
10
-1.1852126532277982
20
-3.885301791763013
30
0
10
-1.187831336825306
20
-3.8668824534606845
30
0
10
-1.1900995700043606
20
-3.8483855588312337
30
0
0
SPLINE
5
625
100
AcDbEntity
8
0
100
AcDbSpline
70
4
71
3
72
8
73
4
74
0
42
0.000000001
43
0.0000000001
44
0.0000000001
40
0
40
0
40
0
40
0
40
1
40
1
40
1
40
1
41
1
41
1
41
1
41
1
10
-1.1900995700043606
20
-3.8483855588312337
30
0
10
-1.2094974058107308
20
-3.6903509410228343
30
0
10
-1.2071281757728487
20
-3.5081754694511362
30
0
10
-1.1828542752879272
20
-3.2914466284213759
30
0
0
SPLINE
5
626
100
AcDbEntity
8
0
100
AcDbSpline
70
4
71
3
72
8
73
4
74
0
42
0.000000001
43
0.0000000001
44
0.0000000001
40
0
40
0
40
0
40
0
40
1
40
1
40
1
40
1
41
1
41
1
41
1
41
1
10
-1.1828542752879272
20
-3.2914466284213759
30
0
10
-1.1184159642417286
20
-2.7161282954298711
30
0
10
-0.71477644719390787
20
-2.1685541468254224
30
0
10
-0.30072159290583927
20
-2.0465211471283906
30
0
0
SPLINE
5
627
100
AcDbEntity
8
0
100
AcDbSpline
70
4
71
3
72
8
73
4
74
0
42
0.000000001
43
0.0000000001
44
0.0000000001
40
0
40
0
40
0
40
0
40
1
40
1
40
1
40
1
41
1
41
1
41
1
41
1
10
-0.30072159290583927
20
-2.0465211471283906
30
0
10
-0.29344981907025786
20
-2.0536171169761839
30
0
10
-0.28552981324678656
20
-2.0606660610659278
30
0
10
-0.27685884224091589
20
-2.0676386063856711
30
0
0
SPLINE
5
628
100
AcDbEntity
8
0
100
AcDbSpline
70
4
71
3
72
8
73
4
74
0
42
0.000000001
43
0.0000000001
44
0.0000000001
40
0
40
0
40
0
40
0
40
1
40
1
40
1
40
1
41
1
41
1
41
1
41
1
10
-0.27685884224091589
20
-2.0676386063856711
30
0
10
-0.26134945784672498
20
-2.0801111396723093
30
0
10
-0.24555357806502917
20
-2.0900296678655881
30
0
10
-0.22965670142450581
20
-2.0977960079812159
30
0
0
SPLINE
5
629
100
AcDbEntity
8
0
100
AcDbSpline
70
4
71
3
72
8
73
4
74
0
42
0.000000001
43
0.0000000001
44
0.0000000001
40
0
40
0
40
0
40
0
40
1
40
1
40
1
40
1
41
1
41
1
41
1
41
1
10
-0.22965670142450581
20
-2.0977960079812159
30
0
10
-0.29414912826612227
20
-2.165388806877413
30
0
10
-0.35322447716965183
20
-2.2566218160819758
30
0
10
-0.40555618767416246
20
-2.3696643590076776
30
0
0
SPLINE
5
630
100
AcDbEntity
8
0
100
AcDbSpline
70
4
71
3
72
8
73
4
74
0
42
0.000000001
43
0.0000000001
44
0.0000000001
40
0
40
0
40
0
40
0
40
1
40
1
40
1
40
1
41
1
41
1
41
1
41
1
10
-0.40555618767416246
20
-2.3696643590076776
30
0
10
-0.51264208634864239
20
-2.6009680017508754
30
0
10
-0.59177949180416944
20
-2.922731984320214
30
0
10
-0.63441521447195792
20
-3.3001708470548219
30
0
0
SPLINE
5
631
100
AcDbEntity
8
0
100
AcDbSpline
70
4
71
3
72
8
73
4
74
0
42
0.000000001
43
0.0000000001
44
0.0000000001
40
0
40
0
40
0
40
0
40
1
40
1
40
1
40
1
41
1
41
1
41
1
41
1
10
-0.63441521447195792
20
-3.3001708470548219
30
0
10
-0.66249639267593219
20
-3.5487524767788141
30
0
10
-0.65915756385437785
20
-3.774132610343385
30
0
10
-0.62448771521098945
20
-3.9700462592191497
30
0
0
SPLINE
5
632
100
AcDbEntity
8
0
100
AcDbSpline
70
4
71
3
72
8
73
4
74
0
42
0.000000001
43
0.0000000001
44
0.0000000001
40
0
40
0
40
0
40
0
40
1
40
1
40
1
40
1
41
1
41
1
41
1
41
1
10
-0.62448771521098945
20
-3.9700462592191497
30
0
10
-0.58534217195835636
20
-4.1912507948581563
30
0
10
-0.50681537788427944
20
-4.3690880317287561
30
0
10
-0.39109178797116423
20
-4.4986180948160888
30
0
0
SPLINE
5
633
100
AcDbEntity
8
0
100
AcDbSpline
70
4
71
3
72
8
73
4
74
0
42
0.000000001
43
0.0000000001
44
0.0000000001
40
0
40
0
40
0
40
0
40
1
40
1
40
1
40
1
41
1
41
1
41
1
41
1
10
-0.39109178797116423
20
-4.4986180948160888
30
0
10
-0.37561365761924664
20
-4.5159464355316548
30
0
10
-0.35932133052718246
20
-4.5325310457968317
30
0
10
-0.34236630198321261
20
-4.5482312824213835
30
0
0
LINE
5
634
100
AcDbEntity
8
0
100
AcDbLine
10
-0.34236630198321261
20
-4.5482312824213835
30
0
11
-0.34559849085497352
21
-4.5490080032497326
31
0
0
SPLINE
5
635
100
AcDbEntity
8
0
100
AcDbSpline
70
4
71
3
72
8
73
4
74
0
42
0.000000001
43
0.0000000001
44
0.0000000001
40
0
40
0
40
0
40
0
40
1
40
1
40
1
40
1
41
1
41
1
41
1
41
1
10
-0.34559849085497352
20
-4.5490080032497326
30
0
10
-0.34702329897657025
20
-4.5493555597753836
30
0
10
-0.3484456472892844
20
-4.549714402482965
30
0
10
-0.34988897632482102
20
-4.5500026342061517
30
0
0
SPLINE
5
636
100
AcDbEntity
8
0
100
AcDbSpline
70
4
71
3
72
8
73
4
74
0
42
0.000000001
43
0.0000000001
44
0.0000000001
40
0
40
0
40
0
40
0
40
1
40
1
40
1
40
1
41
1
41
1
41
1
41
1
10
-0.34988897632482102
20
-4.5500026342061517
30
0
10
-0.351372964554241
20
-4.5502975218827855
30
0
10
-0.35288936438305518
20
-4.5505261394142273
30
0
10
-0.35440793463147191
20
-4.5507617022883986
30
0
0
LINE
5
637
100
AcDbEntity
8
0
100
AcDbLine
10
-0.35440793463147191
20
-4.5507617022883986
30
0
11
-0.3604181158995502
21
-4.5517563332448168
31
0
0
SPLINE
5
638
100
AcDbEntity
8
0
100
AcDbSpline
70
4
71
3
72
8
73
4
74
0
42
0.000000001
43
0.0000000001
44
0.0000000001
40
0
40
0
40
0
40
0
40
1
40
1
40
1
40
1
41
1
41
1
41
1
41
1
10
-0.3604181158995502
20
-4.5517563332448168
30
0
10
-0.36185189508883642
20
-4.5520101276436469
30
0
10
-0.36328567427812286
20
-4.552273182499448
30
0
10
-0.36473797438134875
20
-4.5524650475922916
30
0
0
SPLINE
5
639
100
AcDbEntity
8
0
100
AcDbSpline
70
4
71
3
72
8
73
4
74
0
42
0.000000001
43
0.0000000001
44
0.0000000001
40
0
40
0
40
0
40
0
40
1
40
1
40
1
40
1
41
1
41
1
41
1
41
1
10
-0.36473797438134875
20
-4.5524650475922916
30
0
10
-0.36633858649073292
20
-4.5526754335990764
30
0
10
-0.36797638512263631
20
-4.5528102890037001
30
0
10
-0.36961157925101695
20
-4.552954404865293
30
0
0
LINE
5
640
100
AcDbEntity
8
0
100
AcDbLine
10
-0.3696115792510169
20
-4.552954404865293
30
0
11
-0.37582042626002699
21
-4.5535650162467443
31
0
0
SPLINE
5
641
100
AcDbEntity
8
0
100
AcDbSpline
70
4
71
3
72
8
73
4
74
0
42
0.000000001
43
0.0000000001
44
0.0000000001
40
0
40
0
40
0
40
0
40
1
40
1
40
1
40
1
41
1
41
1
41
1
41
1
10
-0.37582042626002693
20
-4.5535650162467443
30
0
10
-0.37724277457274114
20
-4.5537204182902675
30
0
10
-0.37866758269433798
20
-4.5538850807907645
30
0
10
-0.38014028474182554
20
-4.5539788429175845
30
0
0
SPLINE
5
642
100
AcDbEntity
8
0
100
AcDbSpline
70
4
71
3
72
8
73
4
74
0
42
0.000000001
43
0.0000000001
44
0.0000000001
40
0
40
0
40
0
40
0
40
1
40
1
40
1
40
1
41
1
41
1
41
1
41
1
10
-0.38014028474182554
20
-4.5539788429175845
30
0
10
-0.38175044669745967
20
-4.5540841806156154
30
0
10
-0.38339707170241277
20
-4.5541116725972444
30
0
10
-0.38504572243232765
20
-4.5541481356465647
30
0
0
SPLINE
5
643
100
AcDbEntity
8
0
100
AcDbSpline
70
4
71
3
72
8
73
4
74
0
42
0.000000001
43
0.0000000001
44
0.0000000001
40
0
40
0
40
0
40
0
40
1
40
1
40
1
40
1
41
1
41
1
41
1
41
1
10
0.9760164519714124
20
-2.2538121355594654
30
0
10
0.83592744221347826
20
-2.1296768674356352
30
0
10
0.6739684163748223
20
-2.0425259834190967
30
0
10
0.50388623343791872
20
-1.9991928325857662
30
0
0
SPLINE
5
644
100
AcDbEntity
8
0
100
AcDbSpline
70
4
71
3
72
8
73
4
74
0
42
0.000000001
43
0.0000000001
44
0.0000000001
40
0
40
0
40
0
40
0
40
1
40
1
40
1
40
1
41
1
41
1
41
1
41
1
10
0.50388623343791872
20
-1.9991928325857662
30
0
10
0.52811882360307594
20
-1.9865552027147126
30
0
10
0.55510234826684179
20
-1.976119969961444
30
0
10
0.58524224181092743
20
-1.9676855746922248
30
0
0
SPLINE
5
645
100
AcDbEntity
8
0
100
AcDbSpline
70
4
71
3
72
8
73
4
74
0
42
0.000000001
43
0.0000000001
44
0.0000000001
40
0
40
0
40
0
40
0
40
1
40
1
40
1
40
1
41
1
41
1
41
1
41
1
10
0.58524224181092743
20
-1.9676855746922248
30
0
10
0.62522050271764729
20
-1.9564979298101548
30
0
10
0.6690542970059109
20
-1.9508263340000367
30
0
10
0.71552269130209956
20
-1.9508238741911541
30
0
0
SPLINE
5
646
100
AcDbEntity
8
0
100
AcDbSpline
70
4
71
3
72
8
73
4
74
0
42
0.000000001
43
0.0000000001
44
0.0000000001
40
0
40
0
40
0
40
0
40
1
40
1
40
1
40
1
41
1
41
1
41
1
41
1
10
0.71552269130209956
20
-1.9508238741911541
30
0
10
0.9423413789790831
20
-1.9508149031234645
30
0
10
1.2072720560940791
20
-2.0808550148173408
30
0
10
1.4242190966411938
20
-2.2986817987765917
30
0
0
SPLINE
5
647
100
AcDbEntity
8
0
100
AcDbSpline
70
4
71
3
72
8
73
4
74
0
42
0.000000001
43
0.0000000001
44
0.0000000001
40
0
40
0
40
0
40
0
40
1
40
1
40
1
40
1
41
1
41
1
41
1
41
1
10
1.4242190966411938
20
-2.2986817987765917
30
0
10
1.6036528941712529
20
-2.4788447125983875
30
0
10
1.8301419674579651
20
-2.7977221817912934
30
0
10
1.8901537800725718
20
-3.2937397490785365
30
0
0
SPLINE
5
648
100
AcDbEntity
8
0
100
AcDbSpline
70
4
71
3
72
8
73
4
74
0
42
0.000000001
43
0.0000000001
44
0.0000000001
40
0
40
0
40
0
40
0
40
1
40
1
40
1
40
1
41
1
41
1
41
1
41
1
10
1.8901537800725718
20
-3.2937397490785365
30
0
10
1.9327429110662302
20
-3.6457502651417544
30
0
10
1.8444945182041244
20
-3.9747708286094579
30
0
10
1.6480321872528976
20
-4.1964372295398364
30
0
0
SPLINE
5
649
100
AcDbEntity
8
0
100
AcDbSpline
70
4
71
3
72
8
73
4
74
0
42
0.000000001
43
0.0000000001
44
0.0000000001
40
0
40
0
40
0
40
0
40
1
40
1
40
1
40
1
41
1
41
1
41
1
41
1
10
1.6480321872528976
20
-4.1964372295398364
30
0
10
1.516691126049396
20
-4.3446262452535933
30
0
10
1.3493714531823131
20
-4.4298427066259123
30
0
10
1.1739853435159235
20
-4.4386337741831108
30
0
0
SPLINE
5
650
100
AcDbEntity
8
0
100
AcDbSpline
70
4
71
3
72
8
73
4
74
0
42
0.000000001
43
0.0000000001
44
0.0000000001
40
0
40
0
40
0
40
0
40
1
40
1
40
1
40
1
41
1
41
1
41
1
41
1
10
1.1739853435159235
20
-4.4386337741831108
30
0
10
1.234998443040396
20
-4.3986948702185131
30
0
10
1.2904732105183319
20
-4.3480963121137677
30
0
10
1.339685593970402
20
-4.287398357515551
30
0
0
SPLINE
5
651
100
AcDbEntity
8
0
100
AcDbSpline
70
4
71
3
72
8
73
4
74
0
42
0.000000001
43
0.0000000001
44
0.0000000001
40
0
40
0
40
0
40
0
40
1
40
1
40
1
40
1
41
1
41
1
41
1
41
1
10
1.339685593970402
20
-4.287398357515551
30
0
10
1.4319935396566699
20
-4.173545090521066
30
0
10
1.4971003399403804
20
-4.0266641143543032
30
0
10
1.5279671793566001
20
-3.862635086993603
30
0
0
SPLINE
5
652
100
AcDbEntity
8
0
100
AcDbSpline
70
4
71
3
72
8
73
4
74
0
42
0.000000001
43
0.0000000001
44
0.0000000001
40
0
40
0
40
0
40
0
40
1
40
1
40
1
40
1
41
1
41
1
41
1
41
1
10
1.5279671793566001
20
-3.862635086993603
30
0
10
1.5613907730643422
20
-3.6850172071974763
30
0
10
1.5560344668751194
20
-3.4894036550053933
30
0
10
1.5120458493218909
20
-3.2812303186586584
30
0
0
SPLINE
5
653
100
AcDbEntity
8
0
100
AcDbSpline
70
4
71
3
72
8
73
4
74
0
42
0.000000001
43
0.0000000001
44
0.0000000001
40
0
40
0
40
0
40
0
40
1
40
1
40
1
40
1
41
1
41
1
41
1
41
1
10
1.5120458493218909
20
-3.2812303186586584
30
0
10
1.4167470654236387
20
-2.8302175593824463
30
0
10
1.2364005341034883
20
-2.4845439450847744
30
0
10
0.9760164519714124
20
-2.2538121355594654
30
0
0
SPLINE
5
654
100
AcDbEntity
8
0
100
AcDbSpline
70
4
71
3
72
8
73
4
74
0
42
0.000000001
43
0.0000000001
44
0.0000000001
40
0
40
0
40
0
40
0
40
1
40
1
40
1
40
1
41
1
41
1
41
1
41
1
10
1.4410595270301612
20
-3.7266409355520285
30
0
10
1.4395888507076355
20
-3.7445659969635914
30
0
10
1.4377020326000274
20
-3.7625480680633734
30
0
10
1.4354494264421087
20
-3.780084479671483
30
0
0
SPLINE
5
655
100
AcDbEntity
8
0
100
AcDbSpline
70
4
71
3
72
8
73
4
74
0
42
0.000000001
43
0.0000000001
44
0.0000000001
40
0
40
0
40
0
40
0
40
1
40
1
40
1
40
1
41
1
41
1
41
1
41
1
10
1.4354494264421087
20
-3.780084479671483
30
0
10
1.432122028497127
20
-3.8060068138443586
30
0
10
1.4278842118762956
20
-3.8317968971161331
30
0
10
1.4228554943523819
20
-3.8567384910180458
30
0
0
SPLINE
5
656
100
AcDbEntity
8
0
100
AcDbSpline
70
4
71
3
72
8
73
4
74
0
42
0.000000001
43
0.0000000001
44
0.0000000001
40
0
40
0
40
0
40
0
40
1
40
1
40
1
40
1
41
1
41
1
41
1
41
1
10
1.4228554943523819
20
-3.8567384910180458
30
0
10
1.4195506687712633
20
-3.8731451268758317
30
0
10
1.4158297014050627
20
-3.8895329524303972
30
0
10
1.4117976405625299
20
-3.9054548612436677
30
0
0
SPLINE
5
657
100
AcDbEntity
8
0
100
AcDbSpline
70
4
71
3
72
8
73
4
74
0
42
0.000000001
43
0.0000000001
44
0.0000000001
40
0
40
0
40
0
40
0
40
1
40
1
40
1
40
1
41
1
41
1
41
1
41
1
10
1.4117976405625299
20
-3.9054548612436677
30
0
10
1.4058310123811382
20
-3.9290264862926008
30
0
10
1.3989817468948067
20
-3.9523828057169856
30
0
10
1.3914417091963796
20
-3.9748726936361276
30
0
0
SPLINE
5
658
100
AcDbEntity
8
0
100
AcDbSpline
70
4
71
3
72
8
73
4
74
0
42
0.000000001
43
0.0000000001
44
0.0000000001
40
0
40
0
40
0
40
0
40
1
40
1
40
1
40
1
41
1
41
1
41
1
41
1
10
1.3914417091963796
20
-3.9748726936361276
30
0
10
1.3645612071164042
20
-4.0550138458104019
30
0
10
1.3279282862900459
20
-4.1275466644160987
30
0
10
1.2825627545411111
20
-4.1904607621229131
30
0
0
SPLINE
5
659
100
AcDbEntity
8
0
100
AcDbSpline
70
4
71
3
72
8
73
4
74
0
42
0.000000001
43
0.0000000001
44
0.0000000001
40
0
40
0
40
0
40
0
40
1
40
1
40
1
40
1
41
1
41
1
41
1
41
1
10
1.2825627545411111
20
-4.1904607621229131
30
0
10
1.2745744528474867
20
-4.2015388731623879
30
0
10
1.2662226782177959
20
-4.2124384310159115
30
0
10
1.2577403890226859
20
-4.2228549981606012
30
0
0
SPLINE
5
660
100
AcDbEntity
8
0
100
AcDbSpline
70
4
71
3
72
8
73
4
74
0
42
0.000000001
43
0.0000000001
44
0.0000000001
40
0
40
0
40
0
40
0
40
1
40
1
40
1
40
1
41
1
41
1
41
1
41
1
10
1.2577403890226859
20
-4.2228549981606012
30
0
10
1.1440268970505902
20
-4.3624896667484512
30
0
10
0.99024138204495604
20
-4.4393902377618364
30
0
10
0.82471476515866171
20
-4.4393902377618364
30
0
0
SPLINE
5
661
100
AcDbEntity
8
0
100
AcDbSpline
70
4
71
3
72
8
73
4
74
0
42
0.000000001
43
0.0000000001
44
0.0000000001
40
0
40
0
40
0
40
0
40
1
40
1
40
1
40
1
41
1
41
1
41
1
41
1
10
0.82471476515866171
20
-4.4393902377618364
30
0
10
0.79009483616612664
20
-4.4393902377618364
30
0
10
0.75547288144862934
20
-4.4353604920335474
30
0
10
0.72135851552879204
20
-4.4273794250719307
30
0
0
SPLINE
5
662
100
AcDbEntity
8
0
100
AcDbSpline
70
4
71
3
72
8
73
4
74
0
42
0.000000001
43
0.0000000001
44
0.0000000001
40
0
40
0
40
0
40
0
40
1
40
1
40
1
40
1
41
1
41
1
41
1
41
1
10
0.72135851552879204
20
-4.4273794250719307
30
0
10
0.85512147561919172
20
-4.1838612395854886
30
0
10
0.89910199027257165
20
-3.81571119397021
30
0
10
0.84851934857824329
20
-3.3586928836544034
30
0
0
SPLINE
5
663
100
AcDbEntity
8
0
100
AcDbSpline
70
4
71
3
72
8
73
4
74
0
42
0.000000001
43
0.0000000001
44
0.0000000001
40
0
40
0
40
0
40
0
40
1
40
1
40
1
40
1
41
1
41
1
41
1
41
1
10
0.84851934857824329
20
-3.3586928836544034
30
0
10
0.8079602833859455
20
-2.9922445917019753
30
0
10
0.71583291661059001
20
-2.6503098869058834
30
0
10
0.58910703564944167
20
-2.3958718863162973
30
0
0
SPLINE
5
664
100
AcDbEntity
8
0
100
AcDbSpline
70
4
71
3
72
8
73
4
74
0
42
0.000000001
43
0.0000000001
44
0.0000000001
40
0
40
0
40
0
40
0
40
1
40
1
40
1
40
1
41
1
41
1
41
1
41
1
10
0.58910703564944167
20
-2.3958718863162973
30
0
10
0.5210635129491652
20
-2.2592568501738217
30
0
10
0.44607001729300977
20
-2.1530305823564966
30
0
10
0.36535023125275795
20
-2.0787159939519442
30
0
0
SPLINE
5
665
100
AcDbEntity
8
0
100
AcDbSpline
70
4
71
3
72
8
73
4
74
0
42
0.000000001
43
0.0000000001
44
0.0000000001
40
0
40
0
40
0
40
0
40
1
40
1
40
1
40
1
41
1
41
1
41
1
41
1
10
0.36535023125275795
20
-2.0787159939519442
30
0
10
0.77203028912145555
20
-2.1288619472222874
30
0
10
1.2340269632264016
20
-2.4700070533670591
30
0
10
1.4100002437425363
20
-3.302792713934414
30
0
0
SPLINE
5
666
100
AcDbEntity
8
0
100
AcDbSpline
70
4
71
3
72
8
73
4
74
0
42
0.000000001
43
0.0000000001
44
0.0000000001
40
0
40
0
40
0
40
0
40
1
40
1
40
1
40
1
41
1
41
1
41
1
41
1
10
1.4100002437425363
20
-3.302792713934414
30
0
10
1.4414525176728195
20
-3.4516452992679163
30
0
10
1.4519014964169037
20
-3.5942476549253271
30
0
10
1.4410595270301612
20
-3.7266409355520285
30
0
0
SPLINE
5
667
100
AcDbEntity
8
0
100
AcDbSpline
70
0
71
2
72
6
73
3
74
0
42
0.000000001
43
0.0000000001
44
0.0000000001
40
-1
40
-1
40
-1
40
0
40
0
40
0
10
-1.685250707132864
20
-0.47884576280218072
30
0
10
-1.7510763659673516
20
-0.48602733912037538
30
0
10
-1.7676965979538568
20
-0.33368784260595535
30
0
0
SPLINE
5
668
100
AcDbEntity
8
0
100
AcDbSpline
70
0
71
2
72
6
73
3
74
0
42
0.000000001
43
0.0000000001
44
0.0000000001
40
-1
40
-1
40
-1
40
0
40
0
40
0
10
-1.7676965979538568
20
-0.33368784260595535
30
0
10
-1.8019629534079449
20
-0.019605623928235023
30
0
10
-1.6858076110060176
20
0.60777403420356091
30
0
0
SPLINE
5
669
100
AcDbEntity
8
0
100
AcDbSpline
70
0
71
2
72
6
73
3
74
0
42
0.000000001
43
0.0000000001
44
0.0000000001
40
-1
40
-1
40
-1
40
0
40
0
40
0
10
-1.6858076110060176
20
0.60777403420356091
30
0
10
-1.6342439006700171
20
0.90267353606704603
30
0
10
-1.6163604156469642
20
0.96552434290563927
30
0
0
SPLINE
5
670
100
AcDbEntity
8
0
100
AcDbSpline
70
0
71
2
72
6
73
3
74
0
42
0.000000001
43
0.0000000001
44
0.0000000001
40
-1
40
-1
40
-1
40
0
40
0
40
0
10
-1.6163604156469642
20
0.96552434290563927
30
0
10
-1.6115048727144827
20
0.99079468196318499
30
0
10
-1.6137619317039529
20
1.0114826741848526
30
0
0
SPLINE
5
671
100
AcDbEntity
8
0
100
AcDbSpline
70
0
71
2
72
6
73
3
74
0
42
0.000000001
43
0.0000000001
44
0.0000000001
40
-1
40
-1
40
-1
40
0
40
0
40
0
10
-1.6137619317039529
20
1.0114826741848526
30
0
10
-1.6188916334370873
20
1.0585010419145819
30
0
10
-1.658113793618154
20
1.0865748525154486
30
0
0
SPLINE
5
672
100
AcDbEntity
8
0
100
AcDbSpline
70
0
71
2
72
6
73
3
74
0
42
0.000000001
43
0.0000000001
44
0.0000000001
40
-1
40
-1
40
-1
40
0
40
0
40
0
10
-1.658113793618154
20
1.0865748525154486
30
0
10
-1.7386439163700398
20
1.1443980939218932
30
0
10
-1.8608914485188028
20
1.1310608938485165
30
0
0
SPLINE
5
673
100
AcDbEntity
8
0
100
AcDbSpline
70
0
71
2
72
6
73
3
74
0
42
0.000000001
43
0.0000000001
44
0.0000000001
40
-1
40
-1
40
-1
40
0
40
0
40
0
10
-1.8608914485188028
20
1.1310608938485165
30
0
10
-2.0075885617468296
20
1.1150562456162074
30
0
10
-2.0385000821723427
20
1.0146249608162441
30
0
0
SPLINE
5
674
100
AcDbEntity
8
0
100
AcDbSpline
70
0
71
2
72
6
73
3
74
0
42
0.000000001
43
0.0000000001
44
0.0000000001
40
-1
40
-1
40
-1
40
0
40
0
40
0
10
-2.0385000821723427
20
1.0146249608162441
30
0
10
-2.0467066381691787
20
0.9851826640922835
30
0
10
-2.0540924769090227
20
0.94821774952446425
30
0
0
SPLINE
5
675
100
AcDbEntity
8
0
100
AcDbSpline
70
0
71
2
72
6
73
3
74
0
42
0.000000001
43
0.0000000001
44
0.0000000001
40
-1
40
-1
40
-1
40
0
40
0
40
0
10
-2.0540924769090227
20
0.94821774952446425
30
0
10
-2.182495736305178
20
0.99130250589692959
30
0
10
-2.3480001406379638
20
0.9732459830795599
30
0
0
SPLINE
5
676
100
AcDbEntity
8
0
100
AcDbSpline
70
0
71
2
72
6
73
3
74
0
42
0.000000001
43
0.0000000001
44
0.0000000001
40
-1
40
-1
40
-1
40
0
40
0
40
0
10
-2.3480001406379638
20
0.9732459830795599
30
0
10
-2.5153852927436016
20
0.95498427076761949
30
0
10
-2.656781567245964
20
0.87294868089436339
30
0
0
SPLINE
5
677
100
AcDbEntity
8
0
100
AcDbSpline
70
0
71
2
72
6
73
3
74
0
42
0.000000001
43
0.0000000001
44
0.0000000001
40
-1
40
-1
40
-1
40
0
40
0
40
0
10
-2.656781567245964
20
0.87294868089436339
30
0
10
-2.8301843256087205
20
0.77029349900967181
30
0
10
-2.9230569554902588
20
0.60981469865336013
30
0
0
SPLINE
5
678
100
AcDbEntity
8
0
100
AcDbSpline
70
0
71
2
72
6
73
3
74
0
42
0.000000001
43
0.0000000001
44
0.0000000001
40
-1
40
-1
40
-1
40
0
40
0
40
0
10
-2.9230569554902588
20
0.60981469865336013
30
0
10
-3.0620581171321271
20
0.36627549437201357
30
0
10
-3.0284073047109437
20
0.057835285733131757
30
0
0
SPLINE
5
679
100
AcDbEntity
8
0
100
AcDbSpline
70
0
71
2
72
6
73
3
74
0
42
0.000000001
43
0.0000000001
44
0.0000000001
40
-1
40
-1
40
-1
40
0
40
0
40
0
10
-3.0284073047109437
20
0.057835285733131757
30
0
10
-3.0054262849254938
20
-0.15280659858869608
30
0
10
-2.892990861987812
20
-0.34607666478235172
30
0
0
SPLINE
5
680
100
AcDbEntity
8
0
100
AcDbSpline
70
0
71
2
72
6
73
3
74
0
42
0.000000001
43
0.0000000001
44
0.0000000001
40
-1
40
-1
40
-1
40
0
40
0
40
0
10
-2.892990861987812
20
-0.34607666478235172
30
0
10
-2.7461888159695507
20
-0.59269087999814896
30
0
10
-2.5129780166934097
20
-0.56724759264055458
30
0
0
SPLINE
5
681
100
AcDbEntity
8
0
100
AcDbSpline
70
0
71
2
72
6
73
3
74
0
42
0.000000001
43
0.0000000001
44
0.0000000001
40
-1
40
-1
40
-1
40
0
40
0
40
0
10
-2.5129780166934097
20
-0.56724759264055458
30
0
10
-2.2751509879489804
20
-0.53178514681059441
30
0
10
-2.1174796087706875
20
-0.25004971391427988
30
0
0
LINE
5
682
100
AcDbEntity
8
0
100
AcDbLine
10
-2.1174796087706875
20
-0.25004971391427994
30
0
11
-2.0721719078372209
21
-0.15946613800048509
31
0
0
SPLINE
5
683
100
AcDbEntity
8
0
100
AcDbSpline
70
0
71
2
72
6
73
3
74
0
42
0.000000001
43
0.0000000001
44
0.0000000001
40
-1
40
-1
40
-1
40
-0.111331980499388
40
-0.111331980499388
40
-0.111331980499388
10
-2.0721719078372209
20
-0.15946613800048506
30
0
10
-2.0215121911374183
20
-0.45328886295228876
30
0
10
-1.8992637469430864
20
-0.5905089479107164
30
0
0
ARC
5
684
100
AcDbEntity
8
0
100
AcDbCircle
10
-0.010401715447828313
20
-18.537776730889355
30
0
40
18.046390792841855
210
0
220
0
230
1
100
AcDbArc
50
96.00798277592898
51
101.87025155801967
0
SPLINE
5
685
100
AcDbEntity
8
0
100
AcDbSpline
70
0
71
2
72
6
73
3
74
0
42
0.000000001
43
0.0000000001
44
0.0000000001
40
-0.53554703475908616
40
-0.53554703475908616
40
-0.53554703475908616
40
0
40
0
40
0
10
-3.7224740570775823
20
-0.87729148243275057
30
0
10
-3.6017628415044638
20
-0.70995016778334807
30
0
10
-3.5002018179918162
20
-0.39687012114882603
30
0
0
SPLINE
5
686
100
AcDbEntity
8
0
100
AcDbSpline
70
0
71
2
72
6
73
3
74
0
42
0.000000001
43
0.0000000001
44
0.0000000001
40
-1
40
-1
40
-1
40
0
40
0
40
0
10
-3.5002018179918162
20
-0.39687012114882603
30
0
10
-3.4244161881308961
20
-0.17349591595382785
30
0
10
-3.3526344030133548
20
-0.057418884390998209
30
0
0
SPLINE
5
687
100
AcDbEntity
8
0
100
AcDbSpline
70
0
71
2
72
6
73
3
74
0
42
0.000000001
43
0.0000000001
44
0.0000000001
40
-1
40
-1
40
-1
40
0
40
0
40
0
10
-3.3526344030133548
20
-0.057418884390998209
30
0
10
-3.3283560093185787
20
-0.017360934741355739
30
0
10
-3.337907977220127
20
0.027028379325876463
30
0
0
SPLINE
5
688
100
AcDbEntity
8
0
100
AcDbSpline
70
0
71
2
72
6
73
3
74
0
42
0.000000001
43
0.0000000001
44
0.0000000001
40
-1
40
-1
40
-1
40
0
40
0
40
0
10
-3.337907977220127
20
0.027028379325876463
30
0
10
-3.3489114574591907
20
0.069170085383246593
30
0
10
-3.3875178947713178
20
0.095696087087885504
30
0
0
SPLINE
5
689
100
AcDbEntity
8
0
100
AcDbSpline
70
0
71
2
72
6
73
3
74
0
42
0.000000001
43
0.0000000001
44
0.0000000001
40
-1
40
-1
40
-1
40
0
40
0
40
0
10
-3.3875178947713178
20
0.095696087087885504
30
0
10
-3.4290273567584748
20
0.11772687277279785
30
0
10
-3.4715671466612488
20
0.10857289695162471
30
0
0
SPLINE
5
690
100
AcDbEntity
8
0
100
AcDbSpline
70
0
71
2
72
6
73
3
74
0
42
0.000000001
43
0.0000000001
44
0.0000000001
40
-1
40
-1
40
-1
40
0
40
0
40
0
10
-3.4715671466612488
20
0.10857289695162471
30
0
10
-3.5584961588662263
20
0.089866972975471707
30
0
10
-3.6718584520026476
20
-0.22867733950258076
30
0
0
SPLINE
5
691
100
AcDbEntity
8
0
100
AcDbSpline
70
0
71
2
72
6
73
3
74
0
42
0.000000001
43
0.0000000001
44
0.0000000001
40
-1
40
-1
40
-1
40
0
40
0
40
0
10
-3.6718584520026476
20
-0.22867733950258076
30
0
10
-3.759373726469049
20
-0.48747391410853969
30
0
10
-3.828486686629506
20
-0.63393931646345236
30
0
0
SPLINE
5
692
100
AcDbEntity
8
0
100
AcDbSpline
70
0
71
2
72
6
73
3
74
0
42
0.000000001
43
0.0000000001
44
0.0000000001
40
-1
40
-1
40
-1
40
0
40
0
40
0
10
-3.828486686629506
20
-0.63393931646345236
30
0
10
-3.8972016018592615
20
-0.78225471168125393
30
0
10
-3.9874084779712562
20
-0.83069377331438032
30
0
0
SPLINE
5
693
100
AcDbEntity
8
0
100
AcDbSpline
70
0
71
2
72
6
73
3
74
0
42
0.000000001
43
0.0000000001
44
0.0000000001
40
-1
40
-1
40
-1
40
0
40
0
40
0
10
-3.9874084779712562
20
-0.83069377331438032
30
0
10
-3.9995593528811519
20
-0.83717899910240146
30
0
10
-4.0106566813979603
20
-0.83956699107778865
30
0
0
SPLINE
5
694
100
AcDbEntity
8
0
100
AcDbSpline
70
0
71
2
72
6
73
3
74
0
42
0.000000001
43
0.0000000001
44
0.0000000001
40
-1
40
-1
40
-1
40
0
40
0
40
0
10
-4.0106566813979603
20
-0.83956699107778865
30
0
10
-4.0753911053930922
20
-0.85349694591309389
30
0
10
-4.1557879268228497
20
-0.78564836731810772
30
0
0
SPLINE
5
695
100
AcDbEntity
8
0
100
AcDbSpline
70
0
71
2
72
6
73
3
74
0
42
0.000000001
43
0.0000000001
44
0.0000000001
40
-1
40
-1
40
-1
40
0
40
0
40
0
10
-4.1557879268228497
20
-0.78564836731810772
30
0
10
-4.2031486365831627
20
-0.25979005379391729
30
0
10
-4.1759188469426141
20
0.18922995853286101
30
0
0
SPLINE
5
696
100
AcDbEntity
8
0
100
AcDbSpline
70
0
71
2
72
6
73
3
74
0
42
0.000000001
43
0.0000000001
44
0.0000000001
40
-1
40
-1
40
-1
40
0
40
0
40
0
10
-4.1759188469426141
20
0.18922995853286101
30
0
10
-4.1549870355805831
20
0.58657944190699218
30
0
10
-4.0707735222464478
20
0.68984989324248325
30
0
0
SPLINE
5
697
100
AcDbEntity
8
0
100
AcDbSpline
70
0
71
2
72
6
73
3
74
0
42
0.000000001
43
0.0000000001
44
0.0000000001
40
-1
40
-1
40
-1
40
0
40
0
40
0
10
-4.0707735222464478
20
0.68984989324248325
30
0
10
-4.0616661738780842
20
0.7014855978051906
30
0
10
-4.0640541658534701
20
0.7125829263219986
30
0
0
SPLINE
5
698
100
AcDbEntity
8
0
100
AcDbSpline
70
0
71
2
72
6
73
3
74
0
42
0.000000001
43
0.0000000001
44
0.0000000001
40
-1
40
-1
40
-1
40
0
40
0
40
0
10
-4.0640541658534701
20
0.7125829263219986
30
0
10
-4.0704221576188813
20
0.74217586354350662
30
0
10
-4.1355778743528218
20
0.75718323092455742
30
0
0
SPLINE
5
699
100
AcDbEntity
8
0
100
AcDbSpline
70
0
71
2
72
6
73
3
74
0
42
0.000000001
43
0.0000000001
44
0.0000000001
40
-1
40
-1
40
-1
40
0
40
0
40
0
10
-4.1355778743528218
20
0.75718323092455742
30
0
10
-4.1661071599540351
20
0.76416001190232696
30
0
10
-4.1938504812460566
20
0.75819003196385915
30
0
0
SPLINE
5
700
100
AcDbEntity
8
0
100
AcDbSpline
70
0
71
2
72
6
73
3
74
0
42
0.000000001
43
0.0000000001
44
0.0000000001
40
-1
40
-1
40
-1
40
0
40
0
40
0
10
-4.1938504812460566
20
0.75819003196385915
30
0
10
-4.2289920368434544
20
0.75062805408403921
30
0
10
-4.260153586261449
20
0.7245706609028616
30
0
0
SPLINE
5
701
100
AcDbEntity
8
0
100
AcDbSpline
70
0
71
2
72
6
73
3
74
0
42
0.000000001
43
0.0000000001
44
0.0000000001
40
-1
40
-1
40
-1
40
0
40
0
40
0
10
-4.260153586261449
20
0.7245706609028616
30
0
10
-4.4476146830559706
20
0.52554527244238236
30
0
10
-4.5283639195181324
20
0.23530615209039113
30
0
0
SPLINE
5
702
100
AcDbEntity
8
0
100
AcDbSpline
70
0
71
2
72
6
73
3
74
0
42
0.000000001
43
0.0000000001
44
0.0000000001
40
-1
40
-1
40
-1
40
0
40
0
40
0
10
-4.5283639195181324
20
0.23530615209039113
30
0
10
-4.6174012084487295
20
-0.097355420806479839
30
0
10
-4.6151546848657103
20
-0.40456876512523232
30
0
0
SPLINE
5
703
100
AcDbEntity
8
0
100
AcDbSpline
70
0
71
2
72
6
73
3
74
0
42
0.000000001
43
0.0000000001
44
0.0000000001
40
-1
40
-1
40
-1
40
-0.66251749023113693
40
-0.66251749023113693
40
-0.66251749023113693
10
-4.6151546848657103
20
-0.40456876512523232
30
0
10
-4.6154317367016633
20
-0.54896250464506602
30
0
10
-4.6039655218960496
20
-0.69876395640522426
30
0
0
SPLINE
5
704
100
AcDbEntity
8
0
100
AcDbSpline
70
4
71
5
72
16
73
10
74
0
42
0.000000001
43
0.0000000001
44
0.0000000001
40
0.15259396010529266
40
0.15259396010529266
40
0.15259396010529266
40
0.15259396010529266
40
0.15259396010529266
40
0.15259396010529266
40
0.21744216994703106
40
0.31744216994703101
40
0.41744216994703093
40
0.51744216994703096
40
0.53576812995000522
40
0.53576812995000522
40
0.53576812995000522
40
0.53576812995000522
40
0.53576812995000522
40
0.53576812995000522
41
1
41
1
41
1
41
1
41
1
41
1
41
1
41
1
41
1
41
1
10
-4.6039655209155006
20
-0.69876397235836496
30
0
10
-4.6030400968433467
20
-0.7138195577475579
30
0
10
-4.6005723442071353
20
-0.75165414266272224
30
0
10
-4.596126207699057
20
-0.81061206982025891
30
0
10
-4.5888690829274958
20
-0.88753202573652212
30
0
10
-4.579422912030477
20
-0.96138804820058321
30
0
10
-4.5701008890946557
20
-1.0171461220684199
30
0
10
-4.5629757243932527
20
-1.0526103784424135
30
0
10
-4.5588971609505311
20
-1.0710072044309953
30
0
10
-4.5582602763111044
20
-1.0738366689493275
30
0
0
ARC
5
705
100
AcDbEntity
8
0
100
AcDbCircle
10
-0.010401715447828313
20
-18.537776730889355
30
0
40
18.046390774242123
210
0
220
0
230
1
100
AcDbArc
50
104.59644495607067
51
110.70131251593327
0
SPLINE
5
706
100
AcDbEntity
8
0
100
AcDbSpline
70
0
71
2
72
6
73
3
74
0
42
0.000000001
43
0.0000000001
44
0.0000000001
40
-0.83690519021161092
40
-0.83690519021161092
40
-0.83690519021161092
40
0
40
0
40
0
10
-6.3897335876768215
20
-1.6565343346487824
30
0
10
-6.354211681767219
20
-1.5414645553285835
30
0
10
-6.4016056315852277
20
-1.4222930143484922
30
0
0
SPLINE
5
707
100
AcDbEntity
8
0
100
AcDbSpline
70
0
71
2
72
6
73
3
74
0
42
0.000000001
43
0.0000000001
44
0.0000000001
40
-1
40
-1
40
-1
40
0
40
0
40
0
10
-6.4016056315852277
20
-1.4222930143484922
30
0
10
-6.4505452993979233
20
-1.2992347832728319
30
0
10
-6.5764556658754545
20
-1.1925356630457742
30
0
0
SPLINE
5
708
100
AcDbEntity
8
0
100
AcDbSpline
70
0
71
2
72
6
73
3
74
0
42
0.000000001
43
0.0000000001
44
0.0000000001
40
-1
40
-1
40
-1
40
0
40
0
40
0
10
-6.5764556658754545
20
-1.1925356630457742
30
0
10
-6.4944692946268576
20
-1.1273539753873527
30
0
10
-6.4233702892321043
20
-1.0603938945791986
30
0
0
SPLINE
5
709
100
AcDbEntity
8
0
100
AcDbSpline
70
0
71
2
72
6
73
3
74
0
42
0.000000001
43
0.0000000001
44
0.0000000001
40
-1
40
-1
40
-1
40
0
40
0
40
0
10
-6.4233702892321043
20
-1.0603938945791986
30
0
10
-6.2801335811152672
20
-0.93420497640810229
30
0
10
-6.2468285845137217
20
-0.79269060768533461
30
0
0
SPLINE
5
710
100
AcDbEntity
8
0
100
AcDbSpline
70
0
71
2
72
6
73
3
74
0
42
0.000000001
43
0.0000000001
44
0.0000000001
40
-1
40
-1
40
-1
40
0
40
0
40
0
10
-6.2468285845137217
20
-0.79269060768533461
30
0
10
-6.2414938243291367
20
-0.76002897991185925
30
0
10
-6.2526799667221669
20
-0.73190155369566223
30
0
0
SPLINE
5
711
100
AcDbEntity
8
0
100
AcDbSpline
70
0
71
2
72
6
73
3
74
0
42
0.000000001
43
0.0000000001
44
0.0000000001
40
-1
40
-1
40
-1
40
0
40
0
40
0
10
-6.2526799667221669
20
-0.73190155369566223
30
0
10
-6.2743532303428244
20
-0.67740438193303454
30
0
10
-6.3344029205535604
20
-0.66463758994304933
30
0
0
SPLINE
5
712
100
AcDbEntity
8
0
100
AcDbSpline
70
0
71
2
72
6
73
3
74
0
42
0.000000001
43
0.0000000001
44
0.0000000001
40
-1
40
-1
40
-1
40
0
40
0
40
0
10
-6.3344029205535604
20
-0.66463758994304933
30
0
10
-6.367064792144209
20
-0.6593027246910268
30
0
10
-6.3951923055815589
20
-0.67048890177149145
30
0
0
SPLINE
5
713
100
AcDbEntity
8
0
100
AcDbSpline
70
0
71
2
72
6
73
3
74
0
42
0.000000001
43
0.0000000001
44
0.0000000001
40
-1
40
-1
40
-1
40
0
40
0
40
0
10
-6.3951923055815589
20
-0.67048890177149145
30
0
10
-6.4496893901230337
20
-0.69216213070471422
30
0
10
-6.4642141422925281
20
-0.75291115527289543
30
0
0
SPLINE
5
714
100
AcDbEntity
8
0
100
AcDbSpline
70
0
71
2
72
6
73
3
74
0
42
0.000000001
43
0.0000000001
44
0.0000000001
40
-1
40
-1
40
-1
40
0
40
0
40
0
10
-6.4642141422925281
20
-0.75291115527289543
30
0
10
-6.4776801635725203
20
-0.81120264148694954
30
0
10
-6.5635622143024124
20
-0.89218619685197209
30
0
0
SPLINE
5
715
100
AcDbEntity
8
0
100
AcDbSpline
70
0
71
2
72
6
73
3
74
0
42
0.000000001
43
0.0000000001
44
0.0000000001
40
-1
40
-1
40
-1
40
0
40
0
40
0
10
-6.5635622143024124
20
-0.89218619685197209
30
0
10
-6.6501435636971795
20
-0.97141137377800724
30
0
10
-6.7676692821123341
20
-1.0649790598254467
30
0
0
SPLINE
5
716
100
AcDbEntity
8
0
100
AcDbSpline
70
0
71
2
72
6
73
3
74
0
42
0.000000001
43
0.0000000001
44
0.0000000001
40
-1
40
-1
40
-1
40
0
40
0
40
0
10
-6.7676692821123341
20
-1.0649790598254467
30
0
10
-6.8480344946261456
20
-1.0216073058981088
30
0
10
-6.9733468996941053
20
-0.96760689754204932
30
0
0
SPLINE
5
717
100
AcDbEntity
8
0
100
AcDbSpline
70
0
71
2
72
6
73
3
74
0
42
0.000000001
43
0.0000000001
44
0.0000000001
40
-1
40
-1
40
-1
40
0
40
0
40
0
10
-6.9733468996941053
20
-0.96760689754204932
30
0
10
-7.4482881773924934
20
-0.77168197571592823
30
0
10
-7.5035200069419776
20
-0.63280217642009884
30
0
0
SPLINE
5
718
100
AcDbEntity
8
0
100
AcDbSpline
70
0
71
2
72
6
73
3
74
0
42
0.000000001
43
0.0000000001
44
0.0000000001
40
-1
40
-1
40
-1
40
0
40
0
40
0
10
-7.5035200069419776
20
-0.63280217642009884
30
0
10
-7.5440699638976003
20
-0.530839776670045
30
0
10
-7.3489351377270733
20
-0.45323559295963223
30
0
0
SPLINE
5
719
100
AcDbEntity
8
0
100
AcDbSpline
70
0
71
2
72
6
73
3
74
0
42
0.000000001
43
0.0000000001
44
0.0000000001
40
-1
40
-1
40
-1
40
0
40
0
40
0
10
-7.3489351377270733
20
-0.45323559295963223
30
0
10
-7.1977496112669455
20
-0.3931098347850559
30
0
10
-7.1425177817174612
20
-0.53198963408088551
30
0
0
SPLINE
5
720
100
AcDbEntity
8
0
100
AcDbSpline
70
0
71
2
72
6
73
3
74
0
42
0.000000001
43
0.0000000001
44
0.0000000001
40
-1
40
-1
40
-1
40
0
40
0
40
0
10
-7.1425177817174612
20
-0.53198963408088551
30
0
10
-7.1271368185833275
20
-0.57066488873873245
30
0
10
-7.12512038287786
20
-0.61669143593349385
30
0
0
SPLINE
5
721
100
AcDbEntity
8
0
100
AcDbSpline
70
0
71
2
72
6
73
3
74
0
42
0.000000001
43
0.0000000001
44
0.0000000001
40
-1
40
-1
40
-1
40
0
40
0
40
0
10
-7.12512038287786
20
-0.61669143593349385
30
0
10
-7.1230432835689443
20
-0.63215343418443815
30
0
10
-7.1167510524572899
20
-0.64797517684691375
30
0
0
SPLINE
5
722
100
AcDbEntity
8
0
100
AcDbSpline
70
0
71
2
72
6
73
3
74
0
42
0.000000001
43
0.0000000001
44
0.0000000001
40
-1
40
-1
40
-1
40
0
40
0
40
0
10
-7.1167510524572899
20
-0.64797517684691375
30
0
10
-7.0873873072695668
20
-0.72180997593846496
30
0
10
-7.0037646162403977
20
-0.71705777230048995
30
0
0
SPLINE
5
723
100
AcDbEntity
8
0
100
AcDbSpline
70
0
71
2
72
6
73
3
74
0
42
0.000000001
43
0.0000000001
44
0.0000000001
40
-1
40
-1
40
-1
40
0
40
0
40
0
10
-7.0037646162403977
20
-0.71705777230048995
30
0
10
-6.9883025396914444
20
-0.71498074286901137
30
0
10
-6.9742387393621916
20
-0.70938763698506224
30
0
0
SPLINE
5
724
100
AcDbEntity
8
0
100
AcDbSpline
70
0
71
2
72
6
73
3
74
0
42
0.000000001
43
0.0000000001
44
0.0000000001
40
-1
40
-1
40
-1
40
0
40
0
40
0
10
-6.9742387393621916
20
-0.70938763698506224
30
0
10
-6.9478691682580651
20
-0.69890058513230402
30
0
10
-6.9299095496977845
20
-0.67750596042636391
30
0
0
SPLINE
5
725
100
AcDbEntity
8
0
100
AcDbSpline
70
0
71
2
72
6
73
3
74
0
42
0.000000001
43
0.0000000001
44
0.0000000001
40
-1
40
-1
40
-1
40
0
40
0
40
0
10
-6.9299095496977845
20
-0.67750596042636391
30
0
10
-6.900682631719075
20
-0.64348646050357883
30
0
10
-6.9051561002980382
20
-0.59640118342445159
30
0
0
SPLINE
5
726
100
AcDbEntity
8
0
100
AcDbSpline
70
0
71
2
72
6
73
3
74
0
42
0.000000001
43
0.0000000001
44
0.0000000001
40
-1
40
-1
40
-1
40
0
40
0
40
0
10
-6.9051561002980382
20
-0.59640118342445159
30
0
10
-6.9106074202405772
20
-0.51102044549718761
30
0
10
-6.9399711654283003
20
-0.43718564640563656
30
0
0
SPLINE
5
727
100
AcDbEntity
8
0
100
AcDbSpline
70
0
71
2
72
6
73
3
74
0
42
0.000000001
43
0.0000000001
44
0.0000000001
40
-1
40
-1
40
-1
40
0
40
0
40
0
10
-6.9399711654283003
20
-0.43718564640563656
30
0
10
-7.0189735995941263
20
-0.2385349355686594
30
0
10
-7.2286687015701565
20
-0.21809291869912206
30
0
0
SPLINE
5
728
100
AcDbEntity
8
0
100
AcDbSpline
70
0
71
2
72
6
73
3
74
0
42
0.000000001
43
0.0000000001
44
0.0000000001
40
-1
40
-1
40
-1
40
0
40
0
40
0
10
-7.2286687015701565
20
-0.21809291869912206
30
0
10
-7.3344053663734563
20
-0.21331561078627675
30
0
10
-7.432851772430622
20
-0.2524672739271947
30
0
0
SPLINE
5
729
100
AcDbEntity
8
0
100
AcDbSpline
70
0
71
2
72
6
73
3
74
0
42
0.000000001
43
0.0000000001
44
0.0000000001
40
-1
40
-1
40
-1
40
0
40
0
40
0
10
-7.432851772430622
20
-0.2524672739271947
30
0
10
-7.5172343999638223
20
-0.28602583985602192
30
0
10
-7.5950056394096777
20
-0.35156727192597403
30
0
0
SPLINE
5
730
100
AcDbEntity
8
0
100
AcDbSpline
70
0
71
2
72
6
73
3
74
0
42
0.000000001
43
0.0000000001
44
0.0000000001
40
-1
40
-1
40
-1
40
0
40
0
40
0
10
-7.5950056394096777
20
-0.35156727192597403
30
0
10
-7.7174860102615064
20
-0.46339365217315037
30
0
10
-7.7304352000302048
20
-0.61513634293527641
30
0
0
SPLINE
5
731
100
AcDbEntity
8
0
100
AcDbSpline
70
0
71
2
72
6
73
3
74
0
42
0.000000001
43
0.0000000001
44
0.0000000001
40
-1
40
-1
40
-1
40
0
40
0
40
0
10
-7.7304352000302048
20
-0.61513634293527641
30
0
10
-7.7412058496595648
20
-0.73140065732500814
30
0
10
-7.6929654111368766
20
-0.85270068440398572
30
0
0
SPLINE
5
732
100
AcDbEntity
8
0
100
AcDbSpline
70
0
71
2
72
6
73
3
74
0
42
0.000000001
43
0.0000000001
44
0.0000000001
40
-1
40
-1
40
-1
40
0
40
0
40
0
10
-7.6929654111368766
20
-0.85270068440398572
30
0
10
-7.6097680868550803
20
-1.0618993981249183
30
0
10
-7.3922861361788978
20
-1.2299096469848614
30
0
0
SPLINE
5
733
100
AcDbEntity
8
0
100
AcDbSpline
70
0
71
2
72
6
73
3
74
0
42
0.000000001
43
0.0000000001
44
0.0000000001
40
-1
40
-1
40
-1
40
0
40
0
40
0
10
-7.3922861361788978
20
-1.2299096469848614
30
0
10
-7.2684529983496926
20
-1.3211466183662799
30
0
10
-7.1111979885022611
20
-1.3889122693191396
30
0
0
SPLINE
5
734
100
AcDbEntity
8
0
100
AcDbSpline
70
0
71
2
72
6
73
3
74
0
42
0.000000001
43
0.0000000001
44
0.0000000001
40
-1
40
-1
40
-1
40
0
40
0
40
0
10
-7.1111979885022611
20
-1.3889122693191396
30
0
10
-7.1080418432832024
20
-1.3917288456437182
30
0
10
-7.1038267332857501
20
-1.392088598727107
30
0
0
SPLINE
5
735
100
AcDbEntity
8
0
100
AcDbSpline
70
0
71
2
72
6
73
3
74
0
42
0.000000001
43
0.0000000001
44
0.0000000001
40
-1
40
-1
40
-1
40
0
40
0
40
0
10
-7.1038267332857501
20
-1.392088598727107
30
0
10
-7.1718100114191214
20
-1.4822417467891138
30
0
10
-7.1983619707621456
20
-1.5844217953993247
30
0
0
SPLINE
5
736
100
AcDbEntity
8
0
100
AcDbSpline
70
0
71
2
72
6
73
3
74
0
42
0.000000001
43
0.0000000001
44
0.0000000001
40
-1
40
-1
40
-1
40
0
40
0
40
0
10
-7.1983619707621456
20
-1.5844217953993247
30
0
10
-7.2274114966474468
20
-1.7059194490398371
30
0
10
-7.1882597901472352
20
-1.8043659641234429
30
0
0
SPLINE
5
737
100
AcDbEntity
8
0
100
AcDbSpline
70
0
71
2
72
6
73
3
74
0
42
0.000000001
43
0.0000000001
44
0.0000000001
40
-1
40
-1
40
-1
40
-0.48413443536694578
40
-0.48413443536694578
40
-0.48413443536694578
10
-7.1882597901472352
20
-1.8043659641234429
30
0
10
-7.1547183190219004
20
-1.8887056069701404
30
0
10
-7.085015388425437
20
-1.9359075176323042
30
0
0
ARC
5
738
100
AcDbEntity
8
0
100
AcDbCircle
10
-0.010401715447828313
20
-18.537776730889355
30
0
40
18.046390774777485
210
0
220
0
230
1
100
AcDbArc
50
113.08048139006118
51
117.84067423826568
0
SPLINE
5
739
100
AcDbEntity
8
0
100
AcDbSpline
70
0
71
2
72
6
73
3
74
0
42
0.000000001
43
0.0000000001
44
0.0000000001
40
-0.29452948893861147
40
-0.29452948893861147
40
-0.29452948893861147
40
0
40
0
40
0
10
-8.4383276321655547
20
-2.5802617375190326
30
0
10
-8.4198332952715376
20
-2.517985904002237
30
0
10
-8.4115801813841546
20
-2.4445755251557637
30
0
0
SPLINE
5
740
100
AcDbEntity
8
0
100
AcDbSpline
70
0
71
2
72
6
73
3
74
0
42
0.000000001
43
0.0000000001
44
0.0000000001
40
-1
40
-1
40
-1
40
0
40
0
40
0
10
-8.4115801813841546
20
-2.4445755251557637
30
0
10
-8.4020801511380565
20
-2.303102950377931
30
0
10
-8.4162107396941082
20
-2.1654075694555321
30
0
0
SPLINE
5
741
100
AcDbEntity
8
0
100
AcDbSpline
70
0
71
2
72
6
73
3
74
0
42
0.000000001
43
0.0000000001
44
0.0000000001
40
-1
40
-1
40
-1
40
0
40
0
40
0
10
-8.4162107396941082
20
-2.1654075694555321
30
0
10
-8.4227177841844671
20
-2.07920348420837
30
0
10
-8.423106607321948
20
-2.0047447195255561
30
0
0
SPLINE
5
742
100
AcDbEntity
8
0
100
AcDbSpline
70
0
71
2
72
6
73
3
74
0
42
0.000000001
43
0.0000000001
44
0.0000000001
40
-1
40
-1
40
-1
40
0
40
0
40
0
10
-8.423106607321948
20
-2.0047447195255561
30
0
10
-8.4242673613154206
20
-1.8837577691405825
30
0
10
-8.3910982565162016
20
-1.7918184401653254
30
0
0
SPLINE
5
743
100
AcDbEntity
8
0
100
AcDbSpline
70
0
71
2
72
6
73
3
74
0
42
0.000000001
43
0.0000000001
44
0.0000000001
40
-1
40
-1
40
-1
40
0
40
0
40
0
10
-8.3910982565162016
20
-1.7918184401653254
30
0
10
-8.3757545847998589
20
-1.7475617856510846
30
0
10
-8.3845650474424396
20
-1.7265530325016818
30
0
0
SPLINE
5
744
100
AcDbEntity
8
0
100
AcDbSpline
70
0
71
2
72
6
73
3
74
0
42
0.000000001
43
0.0000000001
44
0.0000000001
40
-1
40
-1
40
-1
40
0
40
0
40
0
10
-8.3845650474424396
20
-1.7265530325016818
30
0
10
-8.393375510085022
20
-1.7055442793522793
30
0
10
-8.3951236228882173
20
-1.702188378335963
30
0
0
SPLINE
5
745
100
AcDbEntity
8
0
100
AcDbSpline
70
0
71
2
72
6
73
3
74
0
42
0.000000001
43
0.0000000001
44
0.0000000001
40
-1
40
-1
40
-1
40
0
40
0
40
0
10
-8.3951236228882173
20
-1.702188378335963
30
0
10
-8.4134781134885284
20
-1.6669527496356733
30
0
10
-8.4560569007428015
20
-1.6507350648823091
30
0
0
SPLINE
5
746
100
AcDbEntity
8
0
100
AcDbSpline
70
0
71
2
72
6
73
3
74
0
42
0.000000001
43
0.0000000001
44
0.0000000001
40
-1
40
-1
40
-1
40
0
40
0
40
0
10
-8.4560569007428015
20
-1.6507350648823091
30
0
10
-8.4978318771387027
20
-1.6319654165837665
30
0
10
-8.5213224350192078
20
-1.6442018159249341
30
0
0
SPLINE
5
747
100
AcDbEntity
8
0
100
AcDbSpline
70
0
71
2
72
6
73
3
74
0
42
0.000000001
43
0.0000000001
44
0.0000000001
40
-1
40
-1
40
-1
40
0
40
0
40
0
10
-8.5213224350192078
20
-1.6442018159249341
30
0
10
-8.5440090987931576
20
-1.6538862083563477
30
0
10
-8.5473649165612855
20
-1.6556342777949646
30
0
0
SPLINE
5
748
100
AcDbEntity
8
0
100
AcDbSpline
70
0
71
2
72
6
73
3
74
0
42
0.000000001
43
0.0000000001
44
0.0000000001
40
-1
40
-1
40
-1
40
0
40
0
40
0
10
-8.5473649165612855
20
-1.6556342777949646
30
0
10
-8.5809227612497949
20
-1.6731147987228316
30
0
10
-8.5972105614526519
20
-1.7114639216683354
30
0
0
SPLINE
5
749
100
AcDbEntity
8
0
100
AcDbSpline
70
0
71
2
72
6
73
3
74
0
42
0.000000001
43
0.0000000001
44
0.0000000001
40
-1
40
-1
40
-1
40
0
40
0
40
0
10
-8.5972105614526519
20
-1.7114639216683354
30
0
10
-8.6498128945097932
20
-1.8561895192022084
30
0
10
-8.64393131766351
20
-2.0067148801455348
30
0
0
SPLINE
5
750
100
AcDbEntity
8
0
100
AcDbSpline
70
0
71
2
72
6
73
3
74
0
42
0.000000001
43
0.0000000001
44
0.0000000001
40
-1
40
-1
40
-1
40
0
40
0
40
0
10
-8.64393131766351
20
-2.0067148801455348
30
0
10
-8.6440334848332121
20
-2.0515651370218246
30
0
10
-8.6386109766676356
20
-2.123401819229001
30
0
0
SPLINE
5
751
100
AcDbEntity
8
0
100
AcDbSpline
70
0
71
2
72
6
73
3
74
0
42
0.000000001
43
0.0000000001
44
0.0000000001
40
-1
40
-1
40
-1
40
0
40
0
40
0
10
-8.6386109766676356
20
-2.123401819229001
30
0
10
-8.6092650897724372
20
-2.4131603171065428
30
0
10
-8.6508557924526581
20
-2.5585496359329225
30
0
0
SPLINE
5
752
100
AcDbEntity
8
0
100
AcDbSpline
70
0
71
2
72
6
73
3
74
0
42
0.000000001
43
0.0000000001
44
0.0000000001
40
-1
40
-1
40
-1
40
0
40
0
40
0
10
-8.6508557924526581
20
-2.5585496359329225
30
0
10
-8.6805286300213957
20
-2.6572007452585247
30
0
10
-8.7291875506062375
20
-2.6825475244544488
30
0
0
SPLINE
5
753
100
AcDbEntity
8
0
100
AcDbSpline
70
0
71
2
72
6
73
3
74
0
42
0.000000001
43
0.0000000001
44
0.0000000001
40
-1
40
-1
40
-1
40
0
40
0
40
0
10
-8.7291875506062375
20
-2.6825475244544488
30
0
10
-8.7946254559714809
20
-2.7166345966377388
30
0
10
-8.8860094327521626
20
-2.6149145518335883
30
0
0
SPLINE
5
754
100
AcDbEntity
8
0
100
AcDbSpline
70
0
71
2
72
6
73
3
74
0
42
0.000000001
43
0.0000000001
44
0.0000000001
40
-1
40
-1
40
-1
40
0
40
0
40
0
10
-8.8860094327521626
20
-2.6149145518335883
30
0
10
-8.9438678125753768
20
-2.5447934802045387
30
0
10
-8.9893171843336646
20
-2.4575430507151355
30
0
0
SPLINE
5
755
100
AcDbEntity
8
0
100
AcDbSpline
70
0
71
2
72
6
73
3
74
0
42
0.000000001
43
0.0000000001
44
0.0000000001
40
-1
40
-1
40
-1
40
0
40
0
40
0
10
-8.9893171843336646
20
-2.4575430507151355
30
0
10
-9.1038147568601229
20
-2.2377388599870924
30
0
10
-9.2473454824597496
20
-1.6960155335334248
30
0
0
SPLINE
5
756
100
AcDbEntity
8
0
100
AcDbSpline
70
0
71
2
72
6
73
3
74
0
42
0.000000001
43
0.0000000001
44
0.0000000001
40
-1
40
-1
40
-1
40
0
40
0
40
0
10
-9.2473454824597496
20
-1.6960155335334248
30
0
10
-9.5036377438677899
20
-0.73306429610968415
30
0
10
-9.7120771889619704
20
-0.30834648981470347
30
0
0
SPLINE
5
757
100
AcDbEntity
8
0
100
AcDbSpline
70
0
71
2
72
6
73
3
74
0
42
0.000000001
43
0.0000000001
44
0.0000000001
40
-1
40
-1
40
-1
40
0
40
0
40
0
10
-9.7120771889619704
20
-0.30834648981470347
30
0
10
-9.4789520643084657
20
-0.23170677327826034
30
0
10
-9.3380088835217894
20
-0.1582884639604053
30
0
0
LINE
5
758
100
AcDbEntity
8
0
100
AcDbLine
10
-9.3380088835217894
20
-0.15828846396040533
30
0
11
-9.2859941659808634
21
-0.13119362616700797
31
0
0
SPLINE
5
759
100
AcDbEntity
8
0
100
AcDbSpline
70
0
71
2
72
6
73
3
74
0
42
0.000000001
43
0.0000000001
44
0.0000000001
40
-1
40
-1
40
-1
40
0
40
0
40
0
10
-9.2859941659808634
20
-0.13119362616700805
30
0
10
-9.1651857253065732
20
-0.068263646751703877
30
0
10
-9.0926914422274141
20
0.050560206590149641
30
0
0
SPLINE
5
760
100
AcDbEntity
8
0
100
AcDbSpline
70
0
71
2
72
6
73
3
74
0
42
0.000000001
43
0.0000000001
44
0.0000000001
40
-1
40
-1
40
-1
40
0
40
0
40
0
10
-9.0926914422274141
20
0.050560206590149641
30
0
10
-9.0196738170497905
20
0.18885510043416559
30
0
10
-9.0764855751122244
20
0.29791822054410849
30
0
0
SPLINE
5
761
100
AcDbEntity
8
0
100
AcDbSpline
70
0
71
2
72
6
73
3
74
0
42
0.000000001
43
0.0000000001
44
0.0000000001
40
-1
40
-1
40
-1
40
0
40
0
40
0
10
-9.0764855751122244
20
0.29791822054410849
30
0
10
-9.1429116934047592
20
0.42543829675465417
30
0
10
-9.3153579727334375
20
0.46573398144643846
30
0
0
SPLINE
5
762
100
AcDbEntity
8
0
100
AcDbSpline
70
0
71
2
72
6
73
3
74
0
42
0.000000001
43
0.0000000001
44
0.0000000001
40
-1
40
-1
40
-1
40
0
40
0
40
0
10
-9.3153579727334375
20
0.46573398144643846
30
0
10
-9.3568522236629317
20
0.46758426315981583
30
0
10
-9.3887322843396621
20
0.4509777119043929
30
0
0
SPLINE
5
763
100
AcDbEntity
8
0
100
AcDbSpline
70
0
71
2
72
6
73
3
74
0
42
0.000000001
43
0.0000000001
44
0.0000000001
40
-1
40
-1
40
-1
40
0
40
0
40
0
10
-9.3887322843396621
20
0.4509777119043929
30
0
10
-9.4508143719367759
20
0.41863870915972035
30
0
10
-9.4588851271614018
20
0.34403958348418556
30
0
0
SPLINE
5
764
100
AcDbEntity
8
0
100
AcDbSpline
70
0
71
2
72
6
73
3
74
0
42
0.000000001
43
0.0000000001
44
0.0000000001
40
-1
40
-1
40
-1
40
0
40
0
40
0
10
-9.4588851271614018
20
0.34403958348418556
30
0
10
-9.4599316379000182
20
0.30509716948710275
30
0
10
-9.4441991430461911
20
0.27489505931852992
30
0
0
SPLINE
5
765
100
AcDbEntity
8
0
100
AcDbSpline
70
0
71
2
72
6
73
3
74
0
42
0.000000001
43
0.0000000001
44
0.0000000001
40
-1
40
-1
40
-1
40
0
40
0
40
0
10
-9.4441991430461911
20
0.27489505931852992
30
0
10
-9.4092380144613053
20
0.20777920344513004
30
0
10
-9.3355129018227938
20
0.20138631548047614
30
0
0
SPLINE
5
766
100
AcDbEntity
8
0
100
AcDbSpline
70
0
71
2
72
6
73
3
74
0
42
0.000000001
43
0.0000000001
44
0.0000000001
40
-1
40
-1
40
-1
40
0
40
0
40
0
10
-9.3355129018227938
20
0.20138631548047614
30
0
10
-9.2863628001413741
20
0.19712447457921725
30
0
10
-9.2750004138372244
20
0.17531178395867708
30
0
0
SPLINE
5
767
100
AcDbEntity
8
0
100
AcDbSpline
70
0
71
2
72
6
73
3
74
0
42
0.000000001
43
0.0000000001
44
0.0000000001
40
-1
40
-1
40
-1
40
0
40
0
40
0
10
-9.2750004138372244
20
0.17531178395867708
30
0
10
-9.2627640578606361
20
0.15182130932635776
30
0
10
-9.2816740272682861
20
0.11850603790532839
30
0
0
SPLINE
5
768
100
AcDbEntity
8
0
100
AcDbSpline
70
0
71
2
72
6
73
3
74
0
42
0.000000001
43
0.0000000001
44
0.0000000001
40
-1
40
-1
40
-1
40
0
40
0
40
0
10
-9.2816740272682861
20
0.11850603790532839
30
0
10
-9.3245274811343375
20
0.049253289455829054
30
0
10
-9.3832538342115175
20
0.01866231278519739
30
0
0
LINE
5
769
100
AcDbEntity
8
0
100
AcDbLine
10
-9.3832538342115175
20
0.018662312785197394
30
0
11
-9.4411060476389093
21
-0.013606571029015887
31
0
0
SPLINE
5
770
100
AcDbEntity
8
0
100
AcDbSpline
70
0
71
2
72
6
73
3
74
0
42
0.000000001
43
0.0000000001
44
0.0000000001
40
-1
40
-1
40
-1
40
0
40
0
40
0
10
-9.4411060476389093
20
-0.013606571029015975
30
0
10
-9.5619144883131995
20
-0.076536550444320145
30
0
10
-9.7950396545908021
20
-0.15317628866305152
30
0
0
SPLINE
5
771
100
AcDbEntity
8
0
100
AcDbSpline
70
0
71
2
72
6
73
3
74
0
42
0.000000001
43
0.0000000001
44
0.0000000001
40
-1
40
-1
40
-1
40
0
40
0
40
0
10
-9.7950396545908021
20
-0.15317628866305152
30
0
10
-9.9179968922085191
20
0.066487707568650592
30
0
10
-10.039027715432834
20
0.22102646895076286
30
0
0
SPLINE
5
772
100
AcDbEntity
8
0
100
AcDbSpline
70
0
71
2
72
6
73
3
74
0
42
0.000000001
43
0.0000000001
44
0.0000000001
40
-1
40
-1
40
-1
40
0
40
0
40
0
10
-10.039027715432834
20
0.22102646895076286
30
0
10
-10.072553465036561
20
0.25262578595976432
30
0
10
-10.105377657680775
20
0.24192697613403374
30
0
0
SPLINE
5
773
100
AcDbEntity
8
0
100
AcDbSpline
70
0
71
2
72
6
73
3
74
0
42
0.000000001
43
0.0000000001
44
0.0000000001
40
-1
40
-1
40
-1
40
0
40
0
40
0
10
-10.105377657680775
20
0.24192697613403374
30
0
10
-10.136523983065016
20
0.23210217934532348
30
0
10
-10.148269220381176
20
0.22598400135702784
30
0
0
SPLINE
5
774
100
AcDbEntity
8
0
100
AcDbSpline
70
0
71
2
72
6
73
3
74
0
42
0.000000001
43
0.0000000001
44
0.0000000001
40
-1
40
-1
40
-1
40
0
40
0
40
0
10
-10.148269220381176
20
0.22598400135702784
30
0
10
-10.186860833345973
20
0.2058813545889468
30
0
10
-10.218390054847283
20
0.16812587737006798
30
0
0
SPLINE
5
775
100
AcDbEntity
8
0
100
AcDbSpline
70
0
71
2
72
6
73
3
74
0
42
0.000000001
43
0.0000000001
44
0.0000000001
40
-1
40
-1
40
-1
40
0
40
0
40
0
10
-10.218390054847283
20
0.16812587737006798
30
0
10
-10.256560687153669
20
0.12264433637947371
30
0
10
-10.262500457751043
20
0.072620189137602834
30
0
0
SPLINE
5
776
100
AcDbEntity
8
0
100
AcDbSpline
70
0
71
2
72
6
73
3
74
0
42
0.000000001
43
0.0000000001
44
0.0000000001
40
-1
40
-1
40
-1
40
0
40
0
40
0
10
-10.262500457751043
20
0.072620189137602834
30
0
10
-10.269314305562057
20
0.024273981562745888
30
0
10
-10.248337645756958
20
-0.015995498662018031
30
0
0
SPLINE
5
777
100
AcDbEntity
8
0
100
AcDbSpline
70
0
71
2
72
6
73
3
74
0
42
0.000000001
43
0.0000000001
44
0.0000000001
40
-1
40
-1
40
-1
40
0
40
0
40
0
10
-10.248337645756958
20
-0.015995498662018031
30
0
10
-10.238723372256
20
-0.034452288266241964
30
0
10
-10.22487926620942
20
-0.052838980622294918
30
0
0
SPLINE
5
778
100
AcDbEntity
8
0
100
AcDbSpline
70
0
71
2
72
6
73
3
74
0
42
0.000000001
43
0.0000000001
44
0.0000000001
40
-1
40
-1
40
-1
40
0
40
0
40
0
10
-10.22487926620942
20
-0.052838980622294918
30
0
10
-10.187717014995252
20
-0.099609616460132763
30
0
10
-10.151007860336327
20
-0.17008120685346975
30
0
0
SPLINE
5
779
100
AcDbEntity
8
0
100
AcDbSpline
70
0
71
2
72
6
73
3
74
0
42
0.000000001
43
0.0000000001
44
0.0000000001
40
-1
40
-1
40
-1
40
0
40
0
40
0
10
-10.151007860336327
20
-0.17008120685346975
30
0
10
-10.131779226605266
20
-0.2069949525582965
30
0
10
-10.112410316870157
20
-0.25236821505932677
30
0
0
SPLINE
5
780
100
AcDbEntity
8
0
100
AcDbSpline
70
0
71
2
72
6
73
3
74
0
42
0.000000001
43
0.0000000001
44
0.0000000001
40
-1
40
-1
40
-1
40
0
40
0
40
0
10
-10.112410316870157
20
-0.25236821505932677
30
0
10
-10.250559023280314
20
-0.29019987742346848
30
0
10
-10.398213777167095
20
-0.36711429309512555
30
0
0
SPLINE
5
781
100
AcDbEntity
8
0
100
AcDbSpline
70
0
71
2
72
6
73
3
74
0
42
0.000000001
43
0.0000000001
44
0.0000000001
40
-1
40
-1
40
-1
40
0
40
0
40
0
10
-10.398213777167095
20
-0.36711429309512555
30
0
10
-10.492175894222871
20
-0.4160598308335049
30
0
10
-10.573238058011592
20
-0.47748433033938881
30
0
0
SPLINE
5
782
100
AcDbEntity
8
0
100
AcDbSpline
70
0
71
2
72
6
73
3
74
0
42
0.000000001
43
0.0000000001
44
0.0000000001
40
-1
40
-1
40
-1
40
0
40
0
40
0
10
-10.573238058011592
20
-0.47748433033938881
30
0
10
-10.65685211076284
20
-0.53810508597337459
30
0
10
-10.707814470311961
20
-0.62864720810820329
30
0
0
SPLINE
5
783
100
AcDbEntity
8
0
100
AcDbSpline
70
0
71
2
72
6
73
3
74
0
42
0.000000001
43
0.0000000001
44
0.0000000001
40
-1
40
-1
40
-1
40
-0.74466740723968139
40
-0.74466740723968139
40
-0.74466740723968139
10
-10.707814470311961
20
-0.62864720810820329
30
0
10
-10.72313835728449
20
-0.65569299495162825
30
0
10
-10.732153831149637
20
-0.6839030053021008
30
0
0
SPLINE
5
784
100
AcDbEntity
8
0
100
AcDbSpline
70
0
71
2
72
6
73
3
74
0
42
0.000000001
43
0.0000000001
44
0.0000000001
40
-0.82690336928314911
40
-0.82690336928314911
40
-0.82690336928314911
40
0
40
0
40
0
10
-10.732153908816622
20
-0.68390305761048276
30
0
10
-10.850261816945594
20
-0.50853757042127423
30
0
10
-10.984800154400153
20
-0.36042055165727888
30
0
0
SPLINE
5
785
100
AcDbEntity
8
0
100
AcDbSpline
70
0
71
2
72
6
73
3
74
0
42
0.000000001
43
0.0000000001
44
0.0000000001
40
-1
40
-1
40
-1
40
0
40
0
40
0
10
-10.984800154400153
20
-0.36042055165727888
30
0
10
-11.023318063644281
20
-0.32435074727562485
30
0
10
-11.050489898398254
20
-0.34155825469280565
30
0
0
SPLINE
5
786
100
AcDbEntity
8
0
100
AcDbSpline
70
0
71
2
72
6
73
3
74
0
42
0.000000001
43
0.0000000001
44
0.0000000001
40
-1
40
-1
40
-1
40
0
40
0
40
0
10
-11.050489898398254
20
-0.34155825469280565
30
0
10
-11.077075476992524
20
-0.35615528736489704
30
0
10
-11.080272186758043
20
-0.3581797147728662
30
0
0
SPLINE
5
787
100
AcDbEntity
8
0
100
AcDbSpline
70
0
71
2
72
6
73
3
74
0
42
0.000000001
43
0.0000000001
44
0.0000000001
40
-1
40
-1
40
-1
40
0
40
0
40
0
10
-11.080272186758043
20
-0.3581797147728662
30
0
10
-11.128222436734946
20
-0.38854587479128971
30
0
10
-11.163174138443919
20
-0.44650979802701513
30
0
0
SPLINE
5
788
100
AcDbEntity
8
0
100
AcDbSpline
70
0
71
2
72
6
73
3
74
0
42
0.000000001
43
0.0000000001
44
0.0000000001
40
-1
40
-1
40
-1
40
0
40
0
40
0
10
-11.163174138443919
20
-0.44650979802701513
30
0
10
-11.219544450688906
20
-0.54491029186875295
30
0
10
-11.180068442664957
20
-0.60724561683872569
30
0
0
LINE
5
789
100
AcDbEntity
8
0
100
AcDbLine
10
-11.180068442664956
20
-0.60724561683872569
30
0
11
-11.172982971847173
21
-0.6184340613674546
31
0
0
SPLINE
5
790
100
AcDbEntity
8
0
100
AcDbSpline
70
0
71
2
72
6
73
3
74
0
42
0.000000001
43
0.0000000001
44
0.0000000001
40
-1
40
-1
40
-1
40
0
40
0
40
0
10
-11.172982971847173
20
-0.61843406136745449
30
0
10
-11.126953529829686
20
-0.66990112933605239
30
0
10
-11.0803921514284
20
-0.74342474023239913
30
0
0
SPLINE
5
791
100
AcDbEntity
8
0
100
AcDbSpline
70
0
71
2
72
6
73
3
74
0
42
0.000000001
43
0.0000000001
44
0.0000000001
40
-1
40
-1
40
-1
40
0
40
0
40
0
10
-11.0803921514284
20
-0.74342474023239913
30
0
10
-10.987269193744938
20
-0.89047227922980254
30
0
10
-10.88940781621428
20
-1.1263323419249756
30
0
0
SPLINE
5
792
100
AcDbEntity
8
0
100
AcDbSpline
70
0
71
2
72
6
73
3
74
0
42
0.000000001
43
0.0000000001
44
0.0000000001
40
-1
40
-1
40
-1
40
0
40
0
40
0
10
-10.88940781621428
20
-1.1263323419249756
30
0
10
-10.810298051253181
20
-1.3113656991512026
30
0
10
-10.721972553945688
20
-1.5286318489625059
30
0
0
SPLINE
5
793
100
AcDbEntity
8
0
100
AcDbSpline
70
0
71
2
72
6
73
3
74
0
42
0.000000001
43
0.0000000001
44
0.0000000001
40
-1
40
-1
40
-1
40
0
40
0
40
0
10
-10.721972553945688
20
-1.5286318489625059
30
0
10
-10.619370210836465
20
-1.7861225928682172
30
0
10
-10.499986442747923
20
-2.066576254335923
30
0
0
SPLINE
5
794
100
AcDbEntity
8
0
100
AcDbSpline
70
0
71
2
72
6
73
3
74
0
42
0.000000001
43
0.0000000001
44
0.0000000001
40
-1
40
-1
40
-1
40
0
40
0
40
0
10
-10.499986442747923
20
-2.066576254335923
30
0
10
-10.288068248597561
20
-2.563870045295368
30
0
10
-10.046151106823823
20
-2.9458738091795911
30
0
0
SPLINE
5
795
100
AcDbEntity
8
0
100
AcDbSpline
70
0
71
2
72
6
73
3
74
0
42
0.000000001
43
0.0000000001
44
0.0000000001
40
-1
40
-1
40
-1
40
-0.12490574762785953
40
-0.12490574762785953
40
-0.12490574762785953
10
-10.046151106823823
20
-2.9458738091795911
30
0
10
-9.908856000278643
20
-3.1626722017143267
30
0
10
-9.7465907034825943
20
-3.3430788403938871
30
0
0
ARC
5
796
100
AcDbEntity
8
0
100
AcDbCircle
10
-0.010401715447828313
20
-18.537776730889355
30
0
40
18.04639077472714
210
0
220
0
230
1
100
AcDbArc
50
122.6502158798565
51
123.64127587450129
0
LINE
5
797
100
AcDbEntity
8
0
100
AcDbLine
10
-10.007947763295585
20
-3.5137528685773467
30
0
11
-10.007947763027019
21
-5.0137528689811424
31
0
0
LINE
5
798
100
AcDbEntity
8
0
100
AcDbLine
10
-10.007947763027019
20
-5.0137528689811424
30
0
11
9.9871443321313595
21
-5.0137528689811424
31
0
0
LINE
5
799
100
AcDbEntity
8
0
100
AcDbLine
10
9.9871443321313595
20
-5.0137528689811424
30
0
11
9.9871443321313595
21
-3.5137528689811419
31
0
0
ARC
5
800
100
AcDbEntity
8
0
100
AcDbCircle
10
-0.010401715447828313
20
-18.537776730889355
30
0
40
18.046390774242191
210
0
220
-0
230
1
100
AcDbArc
50
56.358724125498355
51
58.622456293096079
0
SPLINE
5
801
100
AcDbEntity
8
0
100
AcDbSpline
70
0
71
2
72
6
73
3
74
0
42
0.000000001
43
0.0000000001
44
0.0000000001
40
-0.16549931999831818
40
-0.16549931999831818
40
-0.16549931999831818
40
0
40
0
40
0
10
9.3859037826624707
20
-3.130581559498133
30
0
10
9.4253683210117476
20
-3.115189688948373
30
0
10
9.4662971846172628
20
-3.093223874598876
30
0
0
SPLINE
5
802
100
AcDbEntity
8
0
100
AcDbSpline
70
0
71
2
72
6
73
3
74
0
42
0.000000001
43
0.0000000001
44
0.0000000001
40
-1
40
-1
40
-1
40
0
40
0
40
0
10
9.4662971846172628
20
-3.093223874598876
30
0
10
9.5865420533557728
20
-3.02699700955338
30
0
10
9.6968276378795917
20
-2.9480384069373535
30
0
0
SPLINE
5
803
100
AcDbEntity
8
0
100
AcDbSpline
70
0
71
2
72
6
73
3
74
0
42
0.000000001
43
0.0000000001
44
0.0000000001
40
-1
40
-1
40
-1
40
0
40
0
40
0
10
9.6968276378795917
20
-2.9480384069373535
30
0
10
9.7699034891446459
20
-2.8973429565250517
30
0
10
9.8370634910865977
20
-2.8563349933416435
30
0
0
SPLINE
5
804
100
AcDbEntity
8
0
100
AcDbSpline
70
0
71
2
72
6
73
3
74
0
42
0.000000001
43
0.0000000001
44
0.0000000001
40
-1
40
-1
40
-1
40
0
40
0
40
0
10
9.8370634910865977
20
-2.8563349933416435
30
0
10
9.9400899222830077
20
-2.7928940421502868
30
0
10
10.03595605652802
20
-2.7738493438283776
30
0
0
SPLINE
5
805
100
AcDbEntity
8
0
100
AcDbSpline
70
0
71
2
72
6
73
3
74
0
42
0.000000001
43
0.0000000001
44
0.0000000001
40
-1
40
-1
40
-1
40
0
40
0
40
0
10
10.03595605652802
20
-2.7738493438283776
30
0
10
10.08178149420816
20
-2.7641483649109988
30
0
10
10.095228120163956
20
-2.7457586784959527
30
0
0
SPLINE
5
806
100
AcDbEntity
8
0
100
AcDbSpline
70
0
71
2
72
6
73
3
74
0
42
0.000000001
43
0.0000000001
44
0.0000000001
40
-1
40
-1
40
-1
40
0
40
0
40
0
10
10.095228120163956
20
-2.7457586784959527
30
0
10
10.108674666009803
20
-2.7273689431611405
30
0
10
10.110646719533561
20
-2.7241395508183852
30
0
0
SPLINE
5
807
100
AcDbEntity
8
0
100
AcDbSpline
70
0
71
2
72
6
73
3
74
0
42
0.000000001
43
0.0000000001
44
0.0000000001
40
-1
40
-1
40
-1
40
0
40
0
40
0
10
10.110646719533561
20
-2.7241395508183852
30
0
10
10.131352498816767
20
-2.6902322129786702
30
0
10
10.123266135960817
20
-2.6453927531406438
30
0
0
SPLINE
5
808
100
AcDbEntity
8
0
100
AcDbSpline
70
0
71
2
72
6
73
3
74
0
42
0.000000001
43
0.0000000001
44
0.0000000001
40
-1
40
-1
40
-1
40
0
40
0
40
0
10
10.123266135960817
20
-2.6453927531406438
30
0
10
10.11616571975679
20
-2.5989385482114762
30
0
10
10.095175390518436
20
-2.5861206405849417
30
0
0
SPLINE
5
809
100
AcDbEntity
8
0
100
AcDbSpline
70
0
71
2
72
6
73
3
74
0
42
0.000000001
43
0.0000000001
44
0.0000000001
40
-1
40
-1
40
-1
40
0
40
0
40
0
10
10.095175390518436
20
-2.5861206405849417
30
0
10
10.075171088041966
20
-2.5716880367870294
30
0
10
10.07194177580916
20
-2.569716032183039
30
0
0
SPLINE
5
810
100
AcDbEntity
8
0
100
AcDbSpline
70
0
71
2
72
6
73
3
74
0
42
0.000000001
43
0.0000000001
44
0.0000000001
40
-1
40
-1
40
-1
40
0
40
0
40
0
10
10.07194177580916
20
-2.569716032183039
30
0
10
10.039648893810968
20
-2.5499961329024168
30
0
10
9.9983960369087814
20
-2.5558393705073441
30
0
0
SPLINE
5
811
100
AcDbEntity
8
0
100
AcDbSpline
70
0
71
2
72
6
73
3
74
0
42
0.000000001
43
0.0000000001
44
0.0000000001
40
-1
40
-1
40
-1
40
0
40
0
40
0
10
9.9983960369087814
20
-2.5558393705073441
30
0
10
9.8472877602323923
20
-2.5854851270527828
30
0
10
9.7213982741179485
20
-2.6682155724452974
30
0
0
SPLINE
5
812
100
AcDbEntity
8
0
100
AcDbSpline
70
0
71
2
72
6
73
3
74
0
42
0.000000001
43
0.0000000001
44
0.0000000001
40
-1
40
-1
40
-1
40
0
40
0
40
0
10
9.7213982741179485
20
-2.6682155724452974
30
0
10
9.6829314778291931
20
-2.6912770072624714
30
0
10
9.6242020737666554
20
-2.7329995383913421
30
0
0
SPLINE
5
813
100
AcDbEntity
8
0
100
AcDbSpline
70
0
71
2
72
6
73
3
74
0
42
0.000000001
43
0.0000000001
44
0.0000000001
40
-1
40
-1
40
-1
40
0
40
0
40
0
10
9.6242020737666554
20
-2.7329995383913421
30
0
10
9.2530914922188838
20
-3.0140132870812542
30
0
10
9.1239200843910435
20
-2.9351337633384138
30
0
0
SPLINE
5
814
100
AcDbEntity
8
0
100
AcDbSpline
70
0
71
2
72
6
73
3
74
0
42
0.000000001
43
0.0000000001
44
0.0000000001
40
-1
40
-1
40
-1
40
0
40
0
40
0
10
9.1239200843910435
20
-2.9351337633384138
30
0
10
9.0735947577610769
20
-2.8977521883569302
30
0
10
9.0775124999858274
20
-2.8114743847159143
30
0
0
SPLINE
5
815
100
AcDbEntity
8
0
100
AcDbSpline
70
0
71
2
72
6
73
3
74
0
42
0.000000001
43
0.0000000001
44
0.0000000001
40
-1
40
-1
40
-1
40
0
40
0
40
0
10
9.0775124999858274
20
-2.8114743847159143
30
0
10
9.0980663974310119
20
-2.5890506668105062
30
0
10
9.3711868092345512
20
-2.1417945675698604
30
0
0
LINE
5
816
100
AcDbEntity
8
0
100
AcDbLine
10
9.3711868092345512
20
-2.1417945675698609
30
0
11
9.387948677149307
21
-2.1143456939758511
31
0
0
SPLINE
5
817
100
AcDbEntity
8
0
100
AcDbSpline
70
0
71
2
72
6
73
3
74
0
42
0.000000001
43
0.0000000001
44
0.0000000001
40
-1
40
-1
40
-1
40
0
40
0
40
0
10
9.387948677149307
20
-2.1143456939758511
30
0
10
9.7260050391722679
20
-1.952802457671502
30
0
10
9.988543784422669
20
-1.7806116193644683
30
0
0
SPLINE
5
818
100
AcDbEntity
8
0
100
AcDbSpline
70
0
71
2
72
6
73
3
74
0
42
0.000000001
43
0.0000000001
44
0.0000000001
40
-1
40
-1
40
-1
40
0
40
0
40
0
10
9.988543784422669
20
-1.7806116193644683
30
0
10
10.677620435708317
20
-1.3346531856654247
30
0
10
10.958628670248768
20
-0.87448015793336531
30
0
0
SPLINE
5
819
100
AcDbEntity
8
0
100
AcDbSpline
70
0
71
2
72
6
73
3
74
0
42
0.000000001
43
0.0000000001
44
0.0000000001
40
-1
40
-1
40
-1
40
0
40
0
40
0
10
10.958628670248768
20
-0.87448015793336531
30
0
10
11.055256162047884
20
-0.71624506017521217
30
0
10
11.078264929599912
20
-0.59507407661238598
30
0
0
SPLINE
5
820
100
AcDbEntity
8
0
100
AcDbSpline
70
0
71
2
72
6
73
3
74
0
42
0.000000001
43
0.0000000001
44
0.0000000001
40
-1
40
-1
40
-1
40
0
40
0
40
0
10
11.078264929599912
20
-0.59507407661238598
30
0
10
11.118909355064213
20
-0.37605151143183768
30
0
10
10.96390360959384
20
-0.2813960486965939
30
0
0
SPLINE
5
821
100
AcDbEntity
8
0
100
AcDbSpline
70
0
71
2
72
6
73
3
74
0
42
0.000000001
43
0.0000000001
44
0.0000000001
40
-1
40
-1
40
-1
40
0
40
0
40
0
10
10.96390360959384
20
-0.2813960486965939
30
0
10
10.884786140824714
20
-0.23308235171679936
30
0
10
10.765686253975922
20
-0.23572257739682448
30
0
0
SPLINE
5
822
100
AcDbEntity
8
0
100
AcDbSpline
70
0
71
2
72
6
73
3
74
0
42
0.000000001
43
0.0000000001
44
0.0000000001
40
-1
40
-1
40
-1
40
0
40
0
40
0
10
10.765686253975922
20
-0.23572257739682448
30
0
10
10.330367543810738
20
-0.2625025282383775
30
0
10
9.7993539530869889
20
-0.82715072876171924
30
0
0
SPLINE
5
823
100
AcDbEntity
8
0
100
AcDbSpline
70
0
71
2
72
6
73
3
74
0
42
0.000000001
43
0.0000000001
44
0.0000000001
40
-1
40
-1
40
-1
40
0
40
0
40
0
10
9.7993539530869889
20
-0.82715072876171924
30
0
10
9.506547101497361
20
-1.1360303087701578
30
0
10
9.2649784698391002
20
-1.5316178929456383
30
0
0
SPLINE
5
824
100
AcDbEntity
8
0
100
AcDbSpline
70
0
71
2
72
6
73
3
74
0
42
0.000000001
43
0.0000000001
44
0.0000000001
40
-1
40
-1
40
-1
40
0
40
0
40
0
10
9.2649784698391002
20
-1.5316178929456383
30
0
10
9.0352419636443102
20
-1.9078294435043901
30
0
10
8.9134018431824895
20
-2.3033774974157346
30
0
0
SPLINE
5
825
100
AcDbEntity
8
0
100
AcDbSpline
70
0
71
2
72
6
73
3
74
0
42
0.000000001
43
0.0000000001
44
0.0000000001
40
-1
40
-1
40
-1
40
-0.06294642665524848
40
-0.06294642665524848
40
-0.06294642665524848
10
8.9134018431824895
20
-2.3033774974157346
30
0
10
8.8187019786452403
20
-2.5945198049687792
30
0
10
8.8428102431250757
20
-2.8122286488719501
30
0
0
ARC
5
826
100
AcDbEntity
8
0
100
AcDbCircle
10
-0.010401715447828313
20
-18.537776730889355
30
0
40
18.04639089854976
210
0
220
-0
230
1
100
AcDbArc
50
60.621240348978795
51
63.281279473273209
0
SPLINE
5
827
100
AcDbEntity
8
0
100
AcDbSpline
70
0
71
2
72
6
73
3
74
0
42
0.000000001
43
0.0000000001
44
0.0000000001
40
-0.21065998343620199
40
-0.21065998343620199
40
-0.21065998343620199
40
0
40
0
40
0
10
8.1034517444105596
20
-2.4182977679862399
30
0
10
8.1515850632865288
20
-2.3969593596914054
30
0
10
8.2012071091164902
20
-2.3648107653126935
30
0
0
SPLINE
5
828
100
AcDbEntity
8
0
100
AcDbSpline
70
0
71
2
72
6
73
3
74
0
42
0.000000001
43
0.0000000001
44
0.0000000001
40
-1
40
-1
40
-1
40
0
40
0
40
0
10
8.2012071091164902
20
-2.3648107653126935
30
0
10
8.3155995632907782
20
-2.2889214212670446
30
0
10
8.4190196315728389
20
-2.2011623159994489
30
0
0
SPLINE
5
829
100
AcDbEntity
8
0
100
AcDbSpline
70
0
71
2
72
6
73
3
74
0
42
0.000000001
43
0.0000000001
44
0.0000000001
40
-1
40
-1
40
-1
40
0
40
0
40
0
10
8.4190196315728389
20
-2.2011623159994489
30
0
10
8.4876797957306387
20
-2.1446301075829743
30
0
10
8.5512406612755623
20
-2.0982389955411751
30
0
0
SPLINE
5
830
100
AcDbEntity
8
0
100
AcDbSpline
70
0
71
2
72
6
73
3
74
0
42
0.000000001
43
0.0000000001
44
0.0000000001
40
-1
40
-1
40
-1
40
0
40
0
40
0
10
8.5512406612755623
20
-2.0982389955411751
30
0
10
8.6487020403319441
20
-2.0265418588789559
30
0
10
8.7426776948482647
20
-1.9996793834255733
30
0
0
SPLINE
5
831
100
AcDbEntity
8
0
100
AcDbSpline
70
0
71
2
72
6
73
3
74
0
42
0.000000001
43
0.0000000001
44
0.0000000001
40
-1
40
-1
40
-1
40
0
40
0
40
0
10
8.7426776948482647
20
-1.9996793834255733
30
0
10
8.7875503417215342
20
-1.9862434133035887
30
0
10
8.7994394101358662
20
-1.9668103906802747
30
0
0
SPLINE
5
832
100
AcDbEntity
8
0
100
AcDbSpline
70
0
71
2
72
6
73
3
74
0
42
0.000000001
43
0.0000000001
44
0.0000000001
40
-1
40
-1
40
-1
40
0
40
0
40
0
10
8.7994394101358662
20
-1.9668103906802747
30
0
10
8.8113283946892356
20
-1.9473773258895999
30
0
10
8.813028245386171
20
-1.9439967227463517
30
0
0
SPLINE
5
833
100
AcDbEntity
8
0
100
AcDbSpline
70
0
71
2
72
6
73
3
74
0
42
0.000000001
43
0.0000000001
44
0.0000000001
40
-1
40
-1
40
-1
40
0
40
0
40
0
10
8.813028245386171
20
-1.9439967227463517
30
0
10
8.8308760030261855
20
-1.9085017315176607
30
0
10
8.8191302506148599
20
-1.8644789678254992
30
0
0
SPLINE
5
834
100
AcDbEntity
8
0
100
AcDbSpline
70
0
71
2
72
6
73
3
74
0
42
0.000000001
43
0.0000000001
44
0.0000000001
40
-1
40
-1
40
-1
40
0
40
0
40
0
10
8.8191302506148599
20
-1.8644789678254992
30
0
10
8.8082343396910421
20
-1.8187658603943511
30
0
10
8.7862611740085974
20
-1.8077172103705368
30
0
0
SPLINE
5
835
100
AcDbEntity
8
0
100
AcDbSpline
70
0
71
2
72
6
73
3
74
0
42
0.000000001
43
0.0000000001
44
0.0000000001
40
-1
40
-1
40
-1
40
0
40
0
40
0
10
8.7862611740085974
20
-1.8077172103705368
30
0
10
8.7651379336746231
20
-1.7949782587750998
30
0
10
8.761757414392342
20
-1.7932784502455279
30
0
0
SPLINE
5
836
100
AcDbEntity
8
0
100
AcDbSpline
70
0
71
2
72
6
73
3
74
0
42
0.000000001
43
0.0000000001
44
0.0000000001
40
-1
40
-1
40
-1
40
0
40
0
40
0
10
8.761757414392342
20
-1.7932784502455279
30
0
10
8.7279524731523832
20
-1.7762804914518928
30
0
10
8.6873197352266924
20
-1.7854958176513254
30
0
0
SPLINE
5
837
100
AcDbEntity
8
0
100
AcDbSpline
70
0
71
2
72
6
73
3
74
0
42
0.000000001
43
0.0000000001
44
0.0000000001
40
-1
40
-1
40
-1
40
0
40
0
40
0
10
8.6873197352266924
20
-1.7854958176513254
30
0
10
8.5391606192271343
20
-1.8274655508824198
30
0
10
8.4204996096768614
20
-1.92026670454719
30
0
0
SPLINE
5
838
100
AcDbEntity
8
0
100
AcDbSpline
70
0
71
2
72
6
73
3
74
0
42
0.000000001
43
0.0000000001
44
0.0000000001
40
-1
40
-1
40
-1
40
0
40
0
40
0
10
8.4204996096768614
20
-1.92026670454719
30
0
10
8.3840592056366887
20
-1.9464128542816383
30
0
10
8.3289591454923038
20
-1.9928229380719715
30
0
0
SPLINE
5
839
100
AcDbEntity
8
0
100
AcDbSpline
70
0
71
2
72
6
73
3
74
0
42
0.000000001
43
0.0000000001
44
0.0000000001
40
-1
40
-1
40
-1
40
0
40
0
40
0
10
8.3289591454923038
20
-1.9928229380719715
30
0
10
7.9822104984135329
20
-2.3033984787034369
30
0
10
7.8469908592451549
20
-2.2354067067799397
30
0
0
SPLINE
5
840
100
AcDbEntity
8
0
100
AcDbSpline
70
0
71
2
72
6
73
3
74
0
42
0.000000001
43
0.0000000001
44
0.0000000001
40
-1
40
-1
40
-1
40
0
40
0
40
0
10
7.8469908592451549
20
-2.2354067067799397
30
0
10
7.7937623596987109
20
-2.2022895286914723
30
0
10
7.7905729430289457
20
-2.1159817322501078
30
0
0
SPLINE
5
841
100
AcDbEntity
8
0
100
AcDbSpline
70
0
71
2
72
6
73
3
74
0
42
0.000000001
43
0.0000000001
44
0.0000000001
40
-1
40
-1
40
-1
40
0
40
0
40
0
10
7.7905729430289457
20
-2.1159817322501078
30
0
10
7.79276922636042
20
-1.8926211508428703
30
0
10
8.0281907890911857
20
-1.4244230459202851
30
0
0
LINE
5
842
100
AcDbEntity
8
0
100
AcDbLine
10
8.0281907890911857
20
-1.4244230459202849
30
0
11
8.0426390140067809
21
-1.3956889255342377
31
0
0
SPLINE
5
843
100
AcDbEntity
8
0
100
AcDbSpline
70
0
71
2
72
6
73
3
74
0
42
0.000000001
43
0.0000000001
44
0.0000000001
40
-1
40
-1
40
-1
40
0
40
0
40
0
10
8.0426390140067809
20
-1.395688925534238
30
0
10
8.3662684098885549
20
-1.2068971481150899
30
0
10
8.6137604236119572
20
-1.0137029952592946
30
0
0
SPLINE
5
844
100
AcDbEntity
8
0
100
AcDbSpline
70
0
71
2
72
6
73
3
74
0
42
0.000000001
43
0.0000000001
44
0.0000000001
40
-1
40
-1
40
-1
40
0
40
0
40
0
10
8.6137604236119572
20
-1.0137029952592946
30
0
10
9.2638365261238231
20
-0.51259760028002799
30
0
10
9.5060571543034271
20
-0.030877753672157952
30
0
0
SPLINE
5
845
100
AcDbEntity
8
0
100
AcDbSpline
70
0
71
2
72
6
73
3
74
0
42
0.000000001
43
0.0000000001
44
0.0000000001
40
-1
40
-1
40
-1
40
0
40
0
40
0
10
9.5060571543034271
20
-0.030877753672157952
30
0
10
9.5893471397420296
20
0.13476643324533674
30
0
10
9.6023151367364168
20
0.25741895745825116
30
0
0
SPLINE
5
846
100
AcDbEntity
8
0
100
AcDbSpline
70
0
71
2
72
6
73
3
74
0
42
0.000000001
43
0.0000000001
44
0.0000000001
40
-1
40
-1
40
-1
40
0
40
0
40
0
10
9.6023151367364168
20
0.25741895745825116
30
0
10
9.6248135711164959
20
0.47904177629700723
30
0
10
9.4625499454117659
20
0.56063193212235696
30
0
0
SPLINE
5
847
100
AcDbEntity
8
0
100
AcDbSpline
70
0
71
2
72
6
73
3
74
0
42
0.000000001
43
0.0000000001
44
0.0000000001
40
-1
40
-1
40
-1
40
0
40
0
40
0
10
9.4625499454117659
20
0.56063193212235696
30
0
10
9.3797279358139836
20
0.60227688267429658
30
0
10
9.2612483954161959
20
0.5898530207076782
30
0
0
SPLINE
5
848
100
AcDbEntity
8
0
100
AcDbSpline
70
0
71
2
72
6
73
3
74
0
42
0.000000001
43
0.0000000001
44
0.0000000001
40
-1
40
-1
40
-1
40
0
40
0
40
0
10
9.2612483954161959
20
0.5898530207076782
30
0
10
8.8296055295908502
20
0.52737117079074936
30
0
10
8.3468161534920089
20
-0.079025928652897204
30
0
0
SPLINE
5
849
100
AcDbEntity
8
0
100
AcDbSpline
70
0
71
2
72
6
73
3
74
0
42
0.000000001
43
0.0000000001
44
0.0000000001
40
-1
40
-1
40
-1
40
0
40
0
40
0
10
8.3468161534920089
20
-0.079025928652897204
30
0
10
8.0803972774908868
20
-0.41093469592835752
30
0
10
7.872172398229103
20
-0.82504499550016841
30
0
0
SPLINE
5
850
100
AcDbEntity
8
0
100
AcDbSpline
70
0
71
2
72
6
73
3
74
0
42
0.000000001
43
0.0000000001
44
0.0000000001
40
-1
40
-1
40
-1
40
0
40
0
40
0
10
7.872172398229103
20
-0.82504499550016841
30
0
10
7.6741464544794749
20
-1.2188720116563463
30
0
10
7.5852414446668428
20
-1.623098652462488
30
0
0
SPLINE
5
851
100
AcDbEntity
8
0
100
AcDbSpline
70
0
71
2
72
6
73
3
74
0
42
0.000000001
43
0.0000000001
44
0.0000000001
40
-1
40
-1
40
-1
40
-0.017892720493356731
40
-0.017892720493356731
40
-0.017892720493356731
10
7.5852414446668428
20
-1.623098652462488
30
0
10
7.5114135764315959
20
-1.9353666914799668
30
0
10
7.5610188630844695
20
-2.1565127259270405
30
0
0
ARC
5
852
100
AcDbEntity
8
0
100
AcDbCircle
10
-0.010401715447828313
20
-18.537776730889355
30
0
40
18.046390774259994
210
0
220
-0
230
1
100
AcDbArc
50
65.193619111355048
51
67.850276057638297
0
SPLINE
5
853
100
AcDbEntity
8
0
100
AcDbSpline
70
0
71
2
72
6
73
3
74
0
42
0.000000001
43
0.0000000001
44
0.0000000001
40
-0.24573182457381129
40
-0.24573182457381129
40
-0.24573182457381129
40
0
40
0
40
0
10
6.7935966427380512
20
-1.8231774771445552
30
0
10
6.8483716359742948
20
-1.7941828871311829
30
0
10
6.9034482340519867
20
-1.7490379268027645
30
0
0
SPLINE
5
854
100
AcDbEntity
8
0
100
AcDbSpline
70
0
71
2
72
6
73
3
74
0
42
0.000000001
43
0.0000000001
44
0.0000000001
40
-1
40
-1
40
-1
40
0
40
0
40
0
10
6.9034482340519867
20
-1.7490379268027645
30
0
10
7.0040557617401937
20
-1.6659653713394815
30
0
10
7.0943187022279339
20
-1.5728638128594512
30
0
0
SPLINE
5
855
100
AcDbEntity
8
0
100
AcDbSpline
70
0
71
2
72
6
73
3
74
0
42
0.000000001
43
0.0000000001
44
0.0000000001
40
-1
40
-1
40
-1
40
0
40
0
40
0
10
7.0943187022279339
20
-1.5728638128594512
30
0
10
7.1614054025157641
20
-1.5033105874995194
30
0
10
7.2268824716521829
20
-1.4432688330470669
30
0
0
SPLINE
5
856
100
AcDbEntity
8
0
100
AcDbSpline
70
0
71
2
72
6
73
3
74
0
42
0.000000001
43
0.0000000001
44
0.0000000001
40
-1
40
-1
40
-1
40
0
40
0
40
0
10
7.2268824716521829
20
-1.4432688330470669
30
0
10
7.3166278386985164
20
-1.3621210751790362
30
0
10
7.407420475994436
20
-1.3259311146636314
30
0
0
SPLINE
5
857
100
AcDbEntity
8
0
100
AcDbSpline
70
0
71
2
72
6
73
3
74
0
42
0.000000001
43
0.0000000001
44
0.0000000001
40
-1
40
-1
40
-1
40
0
40
0
40
0
10
7.407420475994436
20
-1.3259311146636314
30
0
10
7.4507118910816867
20
-1.3080444405659906
30
0
10
7.4605834655728218
20
-1.2875128957360258
30
0
0
SPLINE
5
858
100
AcDbEntity
8
0
100
AcDbSpline
70
0
71
2
72
6
73
3
74
0
42
0.000000001
43
0.0000000001
44
0.0000000001
40
-1
40
-1
40
-1
40
0
40
0
40
0
10
7.4605834655728218
20
-1.2875128957360258
30
0
10
7.4704550400639578
20
-1.2669813509060606
30
0
10
7.4718057968134728
20
-1.263446746797021
30
0
0
SPLINE
5
859
100
AcDbEntity
8
0
100
AcDbSpline
70
0
71
2
72
6
73
3
74
0
42
0.000000001
43
0.0000000001
44
0.0000000001
40
-1
40
-1
40
-1
40
0
40
0
40
0
10
7.4718057968134728
20
-1.263446746797021
30
0
10
7.485988206562431
20
-1.2263348065511352
30
0
10
7.4698686591569299
20
-1.1837187028235228
30
0
0
SPLINE
5
860
100
AcDbEntity
8
0
100
AcDbSpline
70
0
71
2
72
6
73
3
74
0
42
0.000000001
43
0.0000000001
44
0.0000000001
40
-1
40
-1
40
-1
40
0
40
0
40
0
10
7.4698686591569299
20
-1.1837187028235228
30
0
10
7.4561917921807099
20
-1.140010675416149
30
0
10
7.4314504402293267
20
-1.1305557132451367
30
0
0
SPLINE
5
861
100
AcDbEntity
8
0
100
AcDbSpline
70
0
71
2
72
6
73
3
74
0
42
0.000000001
43
0.0000000001
44
0.0000000001
40
-1
40
-1
40
-1
40
0
40
0
40
0
10
7.4314504402293267
20
-1.1305557132451367
30
0
10
7.4091515933448413
20
-1.1200087603792435
30
0
10
7.4056171645981781
20
-1.1186580706448475
30
0
0
SPLINE
5
862
100
AcDbEntity
8
0
100
AcDbSpline
70
0
71
2
72
6
73
3
74
0
42
0.000000001
43
0.0000000001
44
0.0000000001
40
-1
40
-1
40
-1
40
0
40
0
40
0
10
7.4056171645981781
20
-1.1186580706448475
30
0
10
7.3702721756820573
20
-1.1051509052404085
30
0
10
7.3307740637433598
20
-1.1184114022740039
30
0
0
SPLINE
5
863
100
AcDbEntity
8
0
100
AcDbSpline
70
0
71
2
72
6
73
3
74
0
42
0.000000001
43
0.0000000001
44
0.0000000001
40
-1
40
-1
40
-1
40
0
40
0
40
0
10
7.3307740637433598
20
-1.1184114022740039
30
0
10
7.187594843380217
20
-1.1750884965666979
30
0
10
7.0788828678930127
20
-1.279367908219583
30
0
0
SPLINE
5
864
100
AcDbEntity
8
0
100
AcDbSpline
70
0
71
2
72
6
73
3
74
0
42
0.000000001
43
0.0000000001
44
0.0000000001
40
-1
40
-1
40
-1
40
0
40
0
40
0
10
7.0788828678930127
20
-1.279367908219583
30
0
10
7.022759665776082
20
-1.330832269178829
30
0
10
6.9625844151220315
20
-1.3929001252479942
30
0
0
SPLINE
5
865
100
AcDbEntity
8
0
100
AcDbSpline
70
0
71
2
72
6
73
3
74
0
42
0.000000001
43
0.0000000001
44
0.0000000001
40
-1
40
-1
40
-1
40
0
40
0
40
0
10
6.9625844151220315
20
-1.3929001252479942
30
0
10
6.7721869133063661
20
-1.5996351712703374
30
0
10
6.6359190135636714
20
-1.6488264450248278
30
0
0
SPLINE
5
866
100
AcDbEntity
8
0
100
AcDbSpline
70
0
71
2
72
6
73
3
74
0
42
0.000000001
43
0.0000000001
44
0.0000000001
40
-1
40
-1
40
-1
40
0
40
0
40
0
10
6.6359190135636714
20
-1.6488264450248278
30
0
10
6.576880030626941
20
-1.6708221483095622
30
0
10
6.5326989698441666
20
-1.6539382585691322
30
0
0
SPLINE
5
867
100
AcDbEntity
8
0
100
AcDbSpline
70
0
71
2
72
6
73
3
74
0
42
0.000000001
43
0.0000000001
44
0.0000000001
40
-1
40
-1
40
-1
40
0
40
0
40
0
10
6.5326989698441666
20
-1.6539382585691322
30
0
10
6.4708454146033283
20
-1.6303007861264827
30
0
10
6.5255493205656041
20
-1.4871538791322245
30
0
0
SPLINE
5
868
100
AcDbEntity
8
0
100
AcDbSpline
70
0
71
2
72
6
73
3
74
0
42
0.000000001
43
0.0000000001
44
0.0000000001
40
-1
40
-1
40
-1
40
0
40
0
40
0
10
6.5255493205656041
20
-1.4871538791322245
30
0
10
6.6383337563034681
20
-1.1920242563206243
30
0
10
7.0278963337284521
20
-0.68671415620775234
30
0
0
SPLINE
5
869
100
AcDbEntity
8
0
100
AcDbSpline
70
0
71
2
72
6
73
3
74
0
42
0.000000001
43
0.0000000001
44
0.0000000001
40
-1
40
-1
40
-1
40
0
40
0
40
0
10
7.0278963337284521
20
-0.68671415620775234
30
0
10
7.208309176564927
20
-0.44780886417216698
30
0
10
7.2528946849689149
20
-0.40003674471751327
30
0
0
SPLINE
5
870
100
AcDbEntity
8
0
100
AcDbSpline
70
0
71
2
72
6
73
3
74
0
42
0.000000001
43
0.0000000001
44
0.0000000001
40
-1
40
-1
40
-1
40
0
40
0
40
0
10
7.2528946849689149
20
-0.40003674471751327
30
0
10
7.2687433686359899
20
-0.37976396594218198
30
0
10
7.2761722626978464
20
-0.36032434479197922
30
0
0
SPLINE
5
871
100
AcDbEntity
8
0
100
AcDbSpline
70
0
71
2
72
6
73
3
74
0
42
0.000000001
43
0.0000000001
44
0.0000000001
40
-1
40
-1
40
-1
40
0
40
0
40
0
10
7.2761722626978464
20
-0.36032434479197922
30
0
10
7.2930561859458356
20
-0.31614319632801346
30
0
10
7.2709595293643998
20
-0.27326832654576733
30
0
0
SPLINE
5
872
100
AcDbEntity
8
0
100
AcDbSpline
70
0
71
2
72
6
73
3
74
0
42
0.000000001
43
0.0000000001
44
0.0000000001
40
-1
40
-1
40
-1
40
0
40
0
40
0
10
7.2709595293643998
20
-0.27326832654576733
30
0
10
7.22567446788414
20
-0.18507597356711719
30
0
10
7.1108036923126834
20
-0.14117785354048804
30
0
0
SPLINE
5
873
100
AcDbEntity
8
0
100
AcDbSpline
70
0
71
2
72
6
73
3
74
0
42
0.000000001
43
0.0000000001
44
0.0000000001
40
-1
40
-1
40
-1
40
0
40
0
40
0
10
7.1108036923126834
20
-0.14117785354048804
30
0
10
6.9729586914819839
20
-0.088500082702484759
30
0
10
6.8996362706598919
20
-0.16377150932890261
30
0
0
SPLINE
5
874
100
AcDbEntity
8
0
100
AcDbSpline
70
0
71
2
72
6
73
3
74
0
42
0.000000001
43
0.0000000001
44
0.0000000001
40
-1
40
-1
40
-1
40
0
40
0
40
0
10
6.8996362706598919
20
-0.16377150932890261
30
0
10
6.8789024014966396
20
-0.18622820247887706
30
0
10
6.855467219879718
20
-0.21575357775979404
30
0
0
SPLINE
5
875
100
AcDbEntity
8
0
100
AcDbSpline
70
0
71
2
72
6
73
3
74
0
42
0.000000001
43
0.0000000001
44
0.0000000001
40
-1
40
-1
40
-1
40
0
40
0
40
0
10
6.855467219879718
20
-0.21575357775979404
30
0
10
6.760857037718611
20
-0.11883811621379799
30
0
10
6.6053396301110405
20
-0.059406796181135008
30
0
0
SPLINE
5
876
100
AcDbEntity
8
0
100
AcDbSpline
70
0
71
2
72
6
73
3
74
0
42
0.000000001
43
0.0000000001
44
0.0000000001
40
-1
40
-1
40
-1
40
0
40
0
40
0
10
6.6053396301110405
20
-0.059406796181135008
30
0
10
6.4480549642895433
20
0.00069988547250588481
30
0
10
6.2848051992947118
20
-0.0078006249905404855
30
0
0
SPLINE
5
877
100
AcDbEntity
8
0
100
AcDbSpline
70
0
71
2
72
6
73
3
74
0
42
0.000000001
43
0.0000000001
44
0.0000000001
40
-1
40
-1
40
-1
40
0
40
0
40
0
10
6.2848051992947118
20
-0.0078006249905404855
30
0
10
6.083667023036166
20
-0.020049585231227282
30
0
10
5.9278137413471947
20
-0.12049123660998738
30
0
0
SPLINE
5
878
100
AcDbEntity
8
0
100
AcDbSpline
70
0
71
2
72
6
73
3
74
0
42
0.000000001
43
0.0000000001
44
0.0000000001
40
-1
40
-1
40
-1
40
0
40
0
40
0
10
5.9278137413471947
20
-0.12049123660998738
30
0
10
5.69302082922687
20
-0.27380449558597364
30
0
10
5.5822623945830401
20
-0.56363256295877162
30
0
0
SPLINE
5
879
100
AcDbEntity
8
0
100
AcDbSpline
70
0
71
2
72
6
73
3
74
0
42
0.000000001
43
0.0000000001
44
0.0000000001
40
-1
40
-1
40
-1
40
0
40
0
40
0
10
5.5822623945830401
20
-0.56363256295877162
30
0
10
5.5066225631847052
20
-0.76156372929459959
30
0
10
5.5185117985939804
20
-0.98484312578934552
30
0
0
SPLINE
5
880
100
AcDbEntity
8
0
100
AcDbSpline
70
0
71
2
72
6
73
3
74
0
42
0.000000001
43
0.0000000001
44
0.0000000001
40
-1
40
-1
40
-1
40
0
40
0
40
0
10
5.5185117985939804
20
-0.98484312578934552
30
0
10
5.5366490123976915
20
-1.2712701729358922
30
0
10
5.7557872224998796
20
-1.3550143228437372
30
0
0
SPLINE
5
881
100
AcDbEntity
8
0
100
AcDbSpline
70
0
71
2
72
6
73
3
74
0
42
0.000000001
43
0.0000000001
44
0.0000000001
40
-1
40
-1
40
-1
40
0
40
0
40
0
10
5.7557872224998796
20
-1.3550143228437372
30
0
10
5.9836038883663498
20
-1.4319483687475605
30
0
10
6.2524355162011531
20
-1.2531616974408084
30
0
0
LINE
5
882
100
AcDbEntity
8
0
100
AcDbLine
10
6.2524355162011531
20
-1.2531616974408084
30
0
11
6.3340766108108708
21
-1.1932208627775009
31
0
0
SPLINE
5
883
100
AcDbEntity
8
0
100
AcDbSpline
70
0
71
2
72
6
73
3
74
0
42
0.000000001
43
0.0000000001
44
0.0000000001
40
-1
40
-1
40
-1
40
-0.18641333422728384
40
-0.18641333422728384
40
-0.18641333422728384
10
6.334076610810869
20
-1.1932208627775007
30
0
10
6.2526379063242405
20
-1.453756713497534
30
0
10
6.2844725600935325
20
-1.6248592464000327
30
0
0
ARC
5
884
100
AcDbEntity
8
0
100
AcDbCircle
10
-0.010401715447828313
20
-18.537776730889355
30
0
40
18.046390774390787
210
0
220
-0
230
1
100
AcDbArc
50
69.585071509198201
51
75.090827374252143
0
SPLINE
5
885
100
AcDbEntity
8
0
100
AcDbSpline
70
0
71
2
72
6
73
3
74
0
42
0.000000001
43
0.0000000001
44
0.0000000001
40
-0.19451160033098741
40
-0.19451160033098741
40
-0.19451160033098741
40
0
40
0
40
0
10
4.6327090410983631
20
-1.0989194712557129
30
0
10
4.656382382799638
20
-1.0250318709166912
30
0
10
4.6793316149989019
20
-0.94733799856390599
30
0
0
SPLINE
5
886
100
AcDbEntity
8
0
100
AcDbSpline
70
0
71
2
72
6
73
3
74
0
42
0.000000001
43
0.0000000001
44
0.0000000001
40
-1
40
-1
40
-1
40
0
40
0
40
0
10
4.6793316149989019
20
-0.94733799856390599
30
0
10
5.105179419076193
20
-0.78694986871240746
30
0
10
5.2767658879505914
20
-0.63561884073426445
30
0
0
SPLINE
5
887
100
AcDbEntity
8
0
100
AcDbSpline
70
0
71
2
72
6
73
3
74
0
42
0.000000001
43
0.0000000001
44
0.0000000001
40
-1
40
-1
40
-1
40
0
40
0
40
0
10
5.2767658879505914
20
-0.63561884073426445
30
0
10
5.393004755848593
20
-0.53260078622823837
30
0
10
5.4113210636149915
20
-0.46112639555930457
30
0
0
SPLINE
5
888
100
AcDbEntity
8
0
100
AcDbSpline
70
0
71
2
72
6
73
3
74
0
42
0.000000001
43
0.0000000001
44
0.0000000001
40
-1
40
-1
40
-1
40
0
40
0
40
0
10
5.4113210636149915
20
-0.46112639555930457
30
0
10
5.4183657328443111
20
-0.43363649710097152
30
0
10
5.4116425858568462
20
-0.40652419722487537
30
0
0
SPLINE
5
889
100
AcDbEntity
8
0
100
AcDbSpline
70
0
71
2
72
6
73
3
74
0
42
0.000000001
43
0.0000000001
44
0.0000000001
40
-1
40
-1
40
-1
40
0
40
0
40
0
10
5.4116425858568462
20
-0.40652419722487537
30
0
10
5.3941068086733068
20
-0.34539272689277772
30
0
10
5.3299633485609368
20
-0.32895507215204983
30
0
0
SPLINE
5
890
100
AcDbEntity
8
0
100
AcDbSpline
70
0
71
2
72
6
73
3
74
0
42
0.000000001
43
0.0000000001
44
0.0000000001
40
-1
40
-1
40
-1
40
0
40
0
40
0
10
5.3299633485609368
20
-0.32895507215204983
30
0
10
5.3024732682478062
20
-0.32191035631990617
30
0
10
5.2748912585124677
20
-0.33046641780130692
30
0
0
SPLINE
5
891
100
AcDbEntity
8
0
100
AcDbSpline
70
0
71
2
72
6
73
3
74
0
42
0.000000001
43
0.0000000001
44
0.0000000001
40
-1
40
-1
40
-1
40
0
40
0
40
0
10
5.2748912585124677
20
-0.33046641780130692
30
0
10
5.2330717693039315
20
-0.34123281050408572
30
0
10
5.2089715501355052
20
-0.38192941271723002
30
0
0
SPLINE
5
892
100
AcDbEntity
8
0
100
AcDbSpline
70
0
71
2
72
6
73
3
74
0
42
0.000000001
43
0.0000000001
44
0.0000000001
40
-1
40
-1
40
-1
40
0
40
0
40
0
10
5.2089715501355052
20
-0.38192941271723002
30
0
10
5.1149187146834514
20
-0.53555247548087259
30
0
10
4.7455979085321571
20
-0.68113085496371484
30
0
0
SPLINE
5
893
100
AcDbEntity
8
0
100
AcDbSpline
70
0
71
2
72
6
73
3
74
0
42
0.000000001
43
0.0000000001
44
0.0000000001
40
-1
40
-1
40
-1
40
0
40
0
40
0
10
4.7455979085321571
20
-0.68113085496371484
30
0
10
4.8366635863825076
20
-0.33339293218894317
30
0
10
4.9337429548658287
20
0.022569350570109
30
0
0
SPLINE
5
894
100
AcDbEntity
8
0
100
AcDbSpline
70
0
71
2
72
6
73
3
74
0
42
0.000000001
43
0.0000000001
44
0.0000000001
40
-1
40
-1
40
-1
40
0
40
0
40
0
10
4.9337429548658287
20
0.022569350570109
30
0
10
4.9919792413430031
20
0.24982055992211608
30
0
10
5.0914381634354759
20
0.38643390220578472
30
0
0
SPLINE
5
895
100
AcDbEntity
8
0
100
AcDbSpline
70
0
71
2
72
6
73
3
74
0
42
0.000000001
43
0.0000000001
44
0.0000000001
40
-1
40
-1
40
-1
40
0
40
0
40
0
10
5.0914381634354759
20
0.38643390220578472
30
0
10
5.1006933923437945
20
0.39968645644288919
30
0
10
5.1044505585866622
20
0.41434777199162626
30
0
0
SPLINE
5
896
100
AcDbEntity
8
0
100
AcDbSpline
70
0
71
2
72
6
73
3
74
0
42
0.000000001
43
0.0000000001
44
0.0000000001
40
-1
40
-1
40
-1
40
0
40
0
40
0
10
5.1044505585866622
20
0.41434777199162626
30
0
10
5.1190096069045454
20
0.47116048340222999
30
0
10
5.0505370523402817
20
0.53167435461955714
30
0
0
SPLINE
5
897
100
AcDbEntity
8
0
100
AcDbSpline
70
0
71
2
72
6
73
3
74
0
42
0.000000001
43
0.0000000001
44
0.0000000001
40
-1
40
-1
40
-1
40
0
40
0
40
0
10
5.0505370523402817
20
0.53167435461955714
30
0
10
5.0213060756045715
20
0.55478914731207052
30
0
10
4.9828199631661905
20
0.56465174947707175
30
0
0
SPLINE
5
898
100
AcDbEntity
8
0
100
AcDbSpline
70
0
71
2
72
6
73
3
74
0
42
0.000000001
43
0.0000000001
44
0.0000000001
40
-1
40
-1
40
-1
40
0
40
0
40
0
10
4.9828199631661905
20
0.56465174947707175
30
0
10
4.8618636097884202
20
0.59564849913850504
30
0
10
4.7483048738984355
20
0.48022585635180282
30
0
0
SPLINE
5
899
100
AcDbEntity
8
0
100
AcDbSpline
70
0
71
2
72
6
73
3
74
0
42
0.000000001
43
0.0000000001
44
0.0000000001
40
-1
40
-1
40
-1
40
0
40
0
40
0
10
4.7483048738984355
20
0.48022585635180282
30
0
10
4.6120546778734113
20
0.32960428700640115
30
0
10
4.5247711359747189
20
0.15666926642061199
30
0
0
SPLINE
5
900
100
AcDbEntity
8
0
100
AcDbSpline
70
0
71
2
72
6
73
3
74
0
42
0.000000001
43
0.0000000001
44
0.0000000001
40
-1
40
-1
40
-1
40
0
40
0
40
0
10
4.5247711359747189
20
0.15666926642061199
30
0
10
4.4955507266444004
20
0.10361373290358368
30
0
10
4.4639820476348193
20
0.041394718045647191
30
0
0
SPLINE
5
901
100
AcDbEntity
8
0
100
AcDbSpline
70
0
71
2
72
6
73
3
74
0
42
0.000000001
43
0.0000000001
44
0.0000000001
40
-1
40
-1
40
-1
40
0
40
0
40
0
10
4.4639820476348193
20
0.041394718045647191
30
0
10
4.2558298308745215
20
-0.39742607080115488
30
0
10
4.0255979179503809
20
-0.53372838720499838
30
0
0
SPLINE
5
902
100
AcDbEntity
8
0
100
AcDbSpline
70
0
71
2
72
6
73
3
74
0
42
0.000000001
43
0.0000000001
44
0.0000000001
40
-1
40
-1
40
-1
40
0
40
0
40
0
10
4.0255979179503809
20
-0.53372838720499838
30
0
10
3.9588306760916923
20
-0.57325603513354095
30
0
10
3.9038504927335835
20
-0.55916659764389998
30
0
0
SPLINE
5
903
100
AcDbEntity
8
0
100
AcDbSpline
70
0
71
2
72
6
73
3
74
0
42
0.000000001
43
0.0000000001
44
0.0000000001
40
-1
40
-1
40
-1
40
0
40
0
40
0
10
3.9038504927335835
20
-0.55916659764389998
30
0
10
3.8030535391627263
20
-0.53333597486782325
30
0
10
3.8659863649984274
20
-0.28775780283400115
30
0
0
SPLINE
5
904
100
AcDbEntity
8
0
100
AcDbSpline
70
0
71
2
72
6
73
3
74
0
42
0.000000001
43
0.0000000001
44
0.0000000001
40
-1
40
-1
40
-1
40
0
40
0
40
0
10
3.8659863649984274
20
-0.28775780283400115
30
0
10
3.9397210729091405
20
-2.823493831249737e-05
30
0
10
4.3115779368268887
20
0.49839797678695219
30
0
0
LINE
5
905
100
AcDbEntity
8
0
100
AcDbLine
10
4.3115779368268887
20
0.49839797678695219
30
0
11
4.3731227212928285
21
0.58613657106508177
31
0
0
SPLINE
5
906
100
AcDbEntity
8
0
100
AcDbSpline
70
0
71
2
72
6
73
3
74
0
42
0.000000001
43
0.0000000001
44
0.0000000001
40
-1
40
-1
40
-1
40
0
40
0
40
0
10
4.3731227212928285
20
0.5861365710650821
30
0
10
4.3865588149893293
20
0.60808278483329248
30
0
10
4.3917249243986261
20
0.62824211644465533
30
0
0
SPLINE
5
907
100
AcDbEntity
8
0
100
AcDbSpline
70
0
71
2
72
6
73
3
74
0
42
0.000000001
43
0.0000000001
44
0.0000000001
40
-1
40
-1
40
-1
40
0
40
0
40
0
10
4.3917249243986261
20
0.62824211644465533
30
0
10
4.403466132986475
20
0.6740589775848036
30
0
10
4.378462032352874
20
0.71366800031999056
30
0
0
SPLINE
5
908
100
AcDbEntity
8
0
100
AcDbSpline
70
0
71
2
72
6
73
3
74
0
42
0.000000001
43
0.0000000001
44
0.0000000001
40
-1
40
-1
40
-1
40
0
40
0
40
0
10
4.378462032352874
20
0.71366800031999056
30
0
10
4.3344215104047175
20
0.79330983526307786
30
0
10
4.2189631958214235
20
0.82289763593272935
30
0
0
SPLINE
5
909
100
AcDbEntity
8
0
100
AcDbSpline
70
0
71
2
72
6
73
3
74
0
42
0.000000001
43
0.0000000001
44
0.0000000001
40
-1
40
-1
40
-1
40
0
40
0
40
0
10
4.2189631958214235
20
0.82289763593272935
30
0
10
4.0631860702583804
20
0.8628176932857704
30
0
10
3.9794655684232922
20
0.7495134581235916
30
0
0
SPLINE
5
910
100
AcDbEntity
8
0
100
AcDbSpline
70
0
71
2
72
6
73
3
74
0
42
0.000000001
43
0.0000000001
44
0.0000000001
40
-1
40
-1
40
-1
40
0
40
0
40
0
10
3.9794655684232922
20
0.7495134581235916
30
0
10
3.8586783487841481
20
0.57539915709525846
30
0
10
3.7455641876628141
20
0.30166730315138063
30
0
0
SPLINE
5
911
100
AcDbEntity
8
0
100
AcDbSpline
70
0
71
2
72
6
73
3
74
0
42
0.000000001
43
0.0000000001
44
0.0000000001
40
-1
40
-1
40
-1
40
0
40
0
40
0
10
3.7455641876628141
20
0.30166730315138063
30
0
10
3.6901812172196267
20
0.16938302628658186
30
0
10
3.6558969645717423
20
0.035598089999215543
30
0
0
SPLINE
5
912
100
AcDbEntity
8
0
100
AcDbSpline
70
0
71
2
72
6
73
3
74
0
42
0.000000001
43
0.0000000001
44
0.0000000001
40
-1
40
-1
40
-1
40
0
40
0
40
0
10
3.6558969645717423
20
0.035598089999215543
30
0
10
3.5831014899682159
20
-0.2484663763277847
30
0
10
3.618137320822481
20
-0.45470033585801828
30
0
0
SPLINE
5
913
100
AcDbEntity
8
0
100
AcDbSpline
70
0
71
2
72
6
73
3
74
0
42
0.000000001
43
0.0000000001
44
0.0000000001
40
-1
40
-1
40
-1
40
0
40
0
40
0
10
3.618137320822481
20
-0.45470033585801828
30
0
10
3.6583956488502314
20
-0.7091452519322079
30
0
10
3.8530366775154894
20
-0.77269597068803664
30
0
0
SPLINE
5
914
100
AcDbEntity
8
0
100
AcDbSpline
70
0
71
2
72
6
73
3
74
0
42
0.000000001
43
0.0000000001
44
0.0000000001
40
-1
40
-1
40
-1
40
0
40
0
40
0
10
3.8530366775154894
20
-0.77269597068803664
30
0
10
4.0019527744628069
20
-0.80890470354247324
30
0
10
4.1262780405857908
20
-0.7353013914109251
30
0
0
SPLINE
5
915
100
AcDbEntity
8
0
100
AcDbSpline
70
0
71
2
72
6
73
3
74
0
42
0.000000001
43
0.0000000001
44
0.0000000001
40
-1
40
-1
40
-1
40
0
40
0
40
0
10
4.1262780405857908
20
-0.7353013914109251
30
0
10
4.2607518508160016
20
-0.65258063027555901
30
0
10
4.3701756877680307
20
-0.53805106485768739
30
0
0
SPLINE
5
916
100
AcDbEntity
8
0
100
AcDbSpline
70
0
71
2
72
6
73
3
74
0
42
0.000000001
43
0.0000000001
44
0.0000000001
40
-1
40
-1
40
-1
40
0
40
0
40
0
10
4.3701756877680307
20
-0.53805106485768739
30
0
10
4.3566477578549696
20
-0.57559769222984913
30
0
10
4.256178619154344
20
-0.88381868024502575
30
0
0
SPLINE
5
917
100
AcDbEntity
8
0
100
AcDbSpline
70
0
71
2
72
6
73
3
74
0
42
0.000000001
43
0.0000000001
44
0.0000000001
40
-1
40
-1
40
-1
40
-0.75087151876708624
40
-0.75087151876708624
40
-0.75087151876708624
10
4.256178619154344
20
-0.88381868024502575
30
0
10
4.1703282507011181
20
-0.92263760548594265
30
0
10
4.0916409568863008
20
-0.96377701850127284
30
0
0
ARC
5
918
100
AcDbEntity
8
0
100
AcDbCircle
10
-0.010401715447828313
20
-18.537776730889355
30
0
40
18.046390774242546
210
0
220
-0
230
1
100
AcDbArc
50
76.861516939030935
51
85.309902965664548
0
SPLINE
5
919
100
AcDbEntity
8
0
100
AcDbSpline
70
0
71
2
72
6
73
3
74
0
42
0.000000001
43
0.0000000001
44
0.0000000001
40
-0.34297492646932254
40
-0.34297492646932254
40
-0.34297492646932254
40
0
40
0
40
0
10
1.465183970524393
20
-0.55181368021062893
30
0
10
1.5271810430565202
20
-0.50060517090950463
30
0
10
1.5818951362399241
20
-0.42140354520997275
30
0
0
SPLINE
5
920
100
AcDbEntity
8
0
100
AcDbSpline
70
0
71
2
72
6
73
3
74
0
42
0.000000001
43
0.0000000001
44
0.0000000001
40
-1
40
-1
40
-1
40
0
40
0
40
0
10
1.5818951362399241
20
-0.42140354520997275
30
0
10
1.6586883234056307
20
-0.30761588104276971
30
0
10
1.7208109126775506
20
-0.18704160939666675
30
0
0
SPLINE
5
921
100
AcDbEntity
8
0
100
AcDbSpline
70
0
71
2
72
6
73
3
74
0
42
0.000000001
43
0.0000000001
44
0.0000000001
40
-1
40
-1
40
-1
40
0
40
0
40
0
10
1.7208109126775506
20
-0.18704160939666675
30
0
10
1.7627140538207933
20
-0.10859267382104176
30
0
10
1.8037719774726675
20
-0.041463203312988507
30
0
0
SPLINE
5
922
100
AcDbEntity
8
0
100
AcDbSpline
70
0
71
2
72
6
73
3
74
0
42
0.000000001
43
0.0000000001
44
0.0000000001
40
-1
40
-1
40
-1
40
0
40
0
40
0
10
1.8037719774726675
20
-0.041463203312988507
30
0
10
1.8665135564432807
20
0.061990622529301376
30
0
10
1.9431359028036941
20
0.12267037423841554
30
0
0
SPLINE
5
923
100
AcDbEntity
8
0
100
AcDbSpline
70
0
71
2
72
6
73
3
74
0
42
0.000000001
43
0.0000000001
44
0.0000000001
40
-1
40
-1
40
-1
40
0
40
0
40
0
10
1.9431359028036941
20
0.12267037423841554
30
0
10
1.9794900344565507
20
0.15220775466218681
30
0
10
1.9830670416211824
20
0.1747065843158172
30
0
0
SPLINE
5
924
100
AcDbEntity
8
0
100
AcDbSpline
70
0
71
2
72
6
73
3
74
0
42
0.000000001
43
0.0000000001
44
0.0000000001
40
-1
40
-1
40
-1
40
0
40
0
40
0
10
1.9830670416211824
20
0.1747065843158172
30
0
10
1.9866439551807593
20
0.1972054209581012
30
0
10
1.9869256817792729
20
0.20097882792365546
30
0
0
SPLINE
5
925
100
AcDbEntity
8
0
100
AcDbSpline
70
0
71
2
72
6
73
3
74
0
42
0.000000001
43
0.0000000001
44
0.0000000001
40
-1
40
-1
40
-1
40
0
40
0
40
0
10
1.9869256817792729
20
0.20097882792365546
30
0
10
1.9898836992452125
20
0.24059810338109824
30
0
10
1.9622329286991635
20
0.27681137872335088
30
0
0
SPLINE
5
926
100
AcDbEntity
8
0
100
AcDbSpline
70
0
71
2
72
6
73
3
74
0
42
0.000000001
43
0.0000000001
44
0.0000000001
40
-1
40
-1
40
-1
40
0
40
0
40
0
10
1.9622329286991635
20
0.27681137872335088
30
0
10
1.9347229278473159
20
0.31491136453703444
30
0
10
1.9101966250167064
20
0.31674252452949209
30
0
0
SPLINE
5
927
100
AcDbEntity
8
0
100
AcDbSpline
70
0
71
2
72
6
73
3
74
0
42
0.000000001
43
0.0000000001
44
0.0000000001
40
-1
40
-1
40
-1
40
0
40
0
40
0
10
1.9101966250167064
20
0.31674252452949209
30
0
10
1.8858111854853536
20
0.32046038800472765
30
0
10
1.8820378721248539
20
0.3207421076145881
30
0
0
SPLINE
5
928
100
AcDbEntity
8
0
100
AcDbSpline
70
0
71
2
72
6
73
3
74
0
42
0.000000001
43
0.0000000001
44
0.0000000001
40
-1
40
-1
40
-1
40
0
40
0
40
0
10
1.8820378721248539
20
0.3207421076145881
30
0
10
1.8443050193350239
20
0.32355928274723056
30
0
10
1.8102601531081013
20
0.29954077505231469
30
0
0
SPLINE
5
929
100
AcDbEntity
8
0
100
AcDbSpline
70
0
71
2
72
6
73
3
74
0
42
0.000000001
43
0.0000000001
44
0.0000000001
40
-1
40
-1
40
-1
40
0
40
0
40
0
10
1.8102601531081013
20
0.29954077505231469
30
0
10
1.6893144584760615
20
0.20422697169081877
30
0
10
1.6150267772817162
20
0.073178012397852807
30
0
0
SPLINE
5
930
100
AcDbEntity
8
0
100
AcDbSpline
70
0
71
2
72
6
73
3
74
0
42
0.000000001
43
0.0000000001
44
0.0000000001
40
-1
40
-1
40
-1
40
0
40
0
40
0
10
1.6150267772817162
20
0.073178012397852807
30
0
10
1.5913157703456673
20
0.03510817732300725
30
0
10
1.5580861064082503
20
-0.028811318450558374
30
0
0
SPLINE
5
931
100
AcDbEntity
8
0
100
AcDbSpline
70
0
71
2
72
6
73
3
74
0
42
0.000000001
43
0.0000000001
44
0.0000000001
40
-1
40
-1
40
-1
40
0
40
0
40
0
10
1.5580861064082503
20
-0.028811318450558374
30
0
10
1.3560317292045714
20
-0.44817490692995537
30
0
10
1.2051004584528322
20
-0.43690621688236575
30
0
0
SPLINE
5
932
100
AcDbEntity
8
0
100
AcDbSpline
70
0
71
2
72
6
73
3
74
0
42
0.000000001
43
0.0000000001
44
0.0000000001
40
-1
40
-1
40
-1
40
0
40
0
40
0
10
1.2051004584528322
20
-0.43690621688236575
30
0
10
1.1432638647755489
20
-0.42659814572915322
30
0
10
1.1073921096703383
20
-0.34803336169120686
30
0
0
SPLINE
5
933
100
AcDbEntity
8
0
100
AcDbSpline
70
0
71
2
72
6
73
3
74
0
42
0.000000001
43
0.0000000001
44
0.0000000001
40
-1
40
-1
40
-1
40
0
40
0
40
0
10
1.1073921096703383
20
-0.34803336169120686
30
0
10
1.0242177878797607
20
-0.14072488337512618
30
0
10
1.0632356358616779
20
0.38187475802405696
30
0
0
LINE
5
934
100
AcDbEntity
8
0
100
AcDbLine
10
1.0632356358616779
20
0.3818747580240569
30
0
11
1.0656302280852035
21
0.41394759397061104
31
0
0
SPLINE
5
935
100
AcDbEntity
8
0
100
AcDbSpline
70
0
71
2
72
6
73
3
74
0
42
0.000000001
43
0.0000000001
44
0.0000000001
40
-1
40
-1
40
-1
40
0
40
0
40
0
10
1.0656302280852032
20
0.41394759397061098
30
0
10
1.2927699662073775
20
0.7119171569559487
30
0
10
1.4478502632676364
20
0.98491235658084075
30
0
0
SPLINE
5
936
100
AcDbEntity
8
0
100
AcDbSpline
70
0
71
2
72
6
73
3
74
0
42
0.000000001
43
0.0000000001
44
0.0000000001
40
-1
40
-1
40
-1
40
0
40
0
40
0
10
1.4478502632676364
20
0.98491235658084075
30
0
10
1.8576145971599527
20
1.6961076508595165
30
0
10
1.8977592956266967
20
2.2338001712804796
30
0
0
SPLINE
5
937
100
AcDbEntity
8
0
100
AcDbSpline
70
0
71
2
72
6
73
3
74
0
42
0.000000001
43
0.0000000001
44
0.0000000001
40
-1
40
-1
40
-1
40
0
40
0
40
0
10
1.8977592956266967
20
2.2338001712804796
30
0
10
1.9115634516800488
20
2.4186911218691316
30
0
10
1.8767630433832205
20
2.5370158539593417
30
0
0
SPLINE
5
938
100
AcDbEntity
8
0
100
AcDbSpline
70
0
71
2
72
6
73
3
74
0
42
0.000000001
43
0.0000000001
44
0.0000000001
40
-1
40
-1
40
-1
40
0
40
0
40
0
10
1.8767630433832205
20
2.5370158539593417
30
0
10
1.8130185777833223
20
2.7504625603873727
30
0
10
1.6319009873576973
20
2.7639849933365372
30
0
0
SPLINE
5
939
100
AcDbEntity
8
0
100
AcDbSpline
70
0
71
2
72
6
73
3
74
0
42
0.000000001
43
0.0000000001
44
0.0000000001
40
-1
40
-1
40
-1
40
0
40
0
40
0
10
1.6319009873576973
20
2.7639849933365372
30
0
10
1.5394556056684257
20
2.7708870643745604
30
0
10
1.4346744456363254
20
2.7142067120347599
30
0
0
SPLINE
5
940
100
AcDbEntity
8
0
100
AcDbSpline
70
0
71
2
72
6
73
3
74
0
42
0.000000001
43
0.0000000001
44
0.0000000001
40
-1
40
-1
40
-1
40
0
40
0
40
0
10
1.4346744456363254
20
2.7142067120347599
30
0
10
1.0595059411279486
20
2.4917923725422129
30
0
10
0.84454380674128104
20
1.7470814859106922
30
0
0
SPLINE
5
941
100
AcDbEntity
8
0
100
AcDbSpline
70
0
71
2
72
6
73
3
74
0
42
0.000000001
43
0.0000000001
44
0.0000000001
40
-1
40
-1
40
-1
40
0
40
0
40
0
10
0.84454380674128104
20
1.7470814859106922
30
0
10
0.72488279131870825
20
1.3386409288255077
30
0
10
0.69037241516263503
20
0.87641373956398683
30
0
0
SPLINE
5
942
100
AcDbEntity
8
0
100
AcDbSpline
70
0
71
2
72
6
73
3
74
0
42
0.000000001
43
0.0000000001
44
0.0000000001
40
-1
40
-1
40
-1
40
0
40
0
40
0
10
0.69037241516263503
20
0.87641373956398683
30
0
10
0.65755237064303051
20
0.43682661767557168
30
0
10
0.72956894204973466
20
0.029252217902935404
30
0
0
SPLINE
5
943
100
AcDbEntity
8
0
100
AcDbSpline
70
0
71
2
72
6
73
3
74
0
42
0.000000001
43
0.0000000001
44
0.0000000001
40
-1
40
-1
40
-1
40
0
40
0
40
0
10
0.72956894204973466
20
0.029252217902935404
30
0
10
0.78137032587963695
20
-0.29333782846128043
30
0
10
0.91542847881570522
20
-0.47978223469452153
30
0
0
SPLINE
5
944
100
AcDbEntity
8
0
100
AcDbSpline
70
0
71
2
72
6
73
3
74
0
42
0.000000001
43
0.0000000001
44
0.0000000001
40
-1
40
-1
40
-1
40
-0.87149483838140529
40
-0.87149483838140529
40
-0.87149483838140529
10
0.91542847881570522
20
-0.47978223469452153
30
0
10
0.93053892863115795
20
-0.49943881596237444
30
0
10
0.94629348832193205
20
-0.51676248969321048
30
0
0
ARC
5
945
100
AcDbEntity
8
0
100
AcDbCircle
10
-0.010401715447828313
20
-18.537776730889355
30
0
40
18.046390774731389
210
0
220
-0
230
1
100
AcDbArc
50
86.961148313508417
51
89.91413534487117
0
SPLINE
5
946
100
AcDbEntity
8
0
100
AcDbSpline
70
0
71
2
72
6
73
3
74
0
42
0.000000001
43
0.0000000001
44
0.0000000001
40
-0.34768563637165106
40
-0.34768563637165106
40
-0.34768563637165106
40
0
40
0
40
0
10
0.016642973590475146
20
-0.49140622149001117
30
0
10
0.075143602094953924
20
-0.43488273717705178
30
0
10
0.12381986113392091
20
-0.35030467718063929
30
0
0
SPLINE
5
947
100
AcDbEntity
8
0
100
AcDbSpline
70
0
71
2
72
6
73
3
74
0
42
0.000000001
43
0.0000000001
44
0.0000000001
40
-1
40
-1
40
-1
40
0
40
0
40
0
10
0.12381986113392091
20
-0.35030467718063929
30
0
10
0.19099723572097765
20
-0.23058823530532463
30
0
10
0.24299568062208921
20
-0.10531440400484102
30
0
0
SPLINE
5
948
100
AcDbEntity
8
0
100
AcDbSpline
70
0
71
2
72
6
73
3
74
0
42
0.000000001
43
0.0000000001
44
0.0000000001
40
-1
40
-1
40
-1
40
0
40
0
40
0
10
0.24299568062208921
20
-0.10531440400484102
30
0
10
0.27830674881276035
20
-0.023685749759822523
30
0
10
0.31370616518193006
20
0.046592271171453682
30
0
0
SPLINE
5
949
100
AcDbEntity
8
0
100
AcDbSpline
70
0
71
2
72
6
73
3
74
0
42
0.000000001
43
0.0000000001
44
0.0000000001
40
-1
40
-1
40
-1
40
0
40
0
40
0
10
0.31370616518193006
20
0.046592271171453682
30
0
10
0.36772917331770832
20
0.15485451946278683
30
0
10
0.43910289980216666
20
0.22162882138333526
30
0
0
SPLINE
5
950
100
AcDbEntity
8
0
100
AcDbSpline
70
0
71
2
72
6
73
3
74
0
42
0.000000001
43
0.0000000001
44
0.0000000001
40
-1
40
-1
40
-1
40
0
40
0
40
0
10
0.43910289980216666
20
0.22162882138333526
30
0
10
0.47290533031743137
20
0.25405528313593029
30
0
10
0.474620337631453
20
0.27677204051791104
30
0
0
SPLINE
5
951
100
AcDbEntity
8
0
100
AcDbSpline
70
0
71
2
72
6
73
3
74
0
42
0.000000001
43
0.0000000001
44
0.0000000001
40
-1
40
-1
40
-1
40
0
40
0
40
0
10
0.474620337631453
20
0.27677204051791104
30
0
10
0.47633525108274133
20
0.29948879716853
30
0
10
0.47630576845203454
20
0.30327259166327908
30
0
0
SPLINE
5
952
100
AcDbEntity
8
0
100
AcDbSpline
70
0
71
2
72
6
73
3
74
0
42
0.000000001
43
0.0000000001
44
0.0000000001
40
-1
40
-1
40
-1
40
0
40
0
40
0
10
0.47630576845203454
20
0.30327259166327908
30
0
10
0.47599621253138952
20
0.34300093205440946
30
0
10
0.44546155416343569
20
0.37681810315366582
30
0
0
SPLINE
5
953
100
AcDbEntity
8
0
100
AcDbSpline
70
0
71
2
72
6
73
3
74
0
42
0.000000001
43
0.0000000001
44
0.0000000001
40
-1
40
-1
40
-1
40
0
40
0
40
0
10
0.44546155416343569
20
0.37681810315366582
30
0
10
0.41491206061739533
20
0.41252717076893647
30
0
10
0.39031824116612734
20
0.41233554025159169
30
0
0
SPLINE
5
954
100
AcDbEntity
8
0
100
AcDbSpline
70
0
71
2
72
6
73
3
74
0
42
0.000000001
43
0.0000000001
44
0.0000000001
40
-1
40
-1
40
-1
40
0
40
0
40
0
10
0.39031824116612734
20
0.41233554025159169
30
0
10
0.36570968039950574
20
0.41403580698162129
30
0
10
0.36192597976749036
20
0.41400632508227497
30
0
0
SPLINE
5
955
100
AcDbEntity
8
0
100
AcDbSpline
70
0
71
2
72
6
73
3
74
0
42
0.000000001
43
0.0000000001
44
0.0000000001
40
-1
40
-1
40
-1
40
0
40
0
40
0
10
0.36192597976749036
20
0.41400632508227497
30
0
10
0.32408925503553465
20
0.41371150828289999
30
0
10
0.29213450074702824
20
0.3869751041368496
30
0
0
SPLINE
5
956
100
AcDbEntity
8
0
100
AcDbSpline
70
0
71
2
72
6
73
3
74
0
42
0.000000001
43
0.0000000001
44
0.0000000001
40
-1
40
-1
40
-1
40
0
40
0
40
0
10
0.29213450074702824
20
0.3869751041368496
30
0
10
0.17943516642933491
20
0.2820396849228905
30
0
10
0.11617406459885293
20
0.14532639989105622
30
0
0
SPLINE
5
957
100
AcDbEntity
8
0
100
AcDbSpline
70
0
71
2
72
6
73
3
74
0
42
0.000000001
43
0.0000000001
44
0.0000000001
40
-1
40
-1
40
-1
40
0
40
0
40
0
10
0.11617406459885293
20
0.14532639989105622
30
0
10
0.095673501700245453
20
0.10543591088192658
30
0
10
0.067811910101666414
20
0.03900064751272888
30
0
0
SPLINE
5
958
100
AcDbEntity
8
0
100
AcDbSpline
70
0
71
2
72
6
73
3
74
0
42
0.000000001
43
0.0000000001
44
0.0000000001
40
-1
40
-1
40
-1
40
0
40
0
40
0
10
0.067811910101666414
20
0.03900064751272888
30
0
10
-0.099077607280346383
20
-0.39555622986638106
30
0
10
-0.25042436541406971
20
-0.39673549596683871
30
0
0
SPLINE
5
959
100
AcDbEntity
8
0
100
AcDbSpline
70
0
71
2
72
6
73
3
74
0
42
0.000000001
43
0.0000000001
44
0.0000000001
40
-1
40
-1
40
-1
40
0
40
0
40
0
10
-0.25042436541406971
20
-0.39673549596683871
30
0
10
-0.3128991306179093
20
-0.39154662699236831
30
0
10
-0.35510914411198602
20
-0.3161972881360306
30
0
0
SPLINE
5
960
100
AcDbEntity
8
0
100
AcDbSpline
70
0
71
2
72
6
73
3
74
0
42
0.000000001
43
0.0000000001
44
0.0000000001
40
-1
40
-1
40
-1
40
0
40
0
40
0
10
-0.35510914411198602
20
-0.3161972881360306
30
0
10
-0.45504706601494177
20
-0.11642946101471935
30
0
10
-0.45913027579740734
20
0.40760880576507247
30
0
0
LINE
5
961
100
AcDbEntity
8
0
100
AcDbLine
10
-0.45913027579740734
20
0.40760880576507247
30
0
11
-0.45938086938208295
21
0.43976993261763814
31
0
0
SPLINE
5
962
100
AcDbEntity
8
0
100
AcDbSpline
70
0
71
2
72
6
73
3
74
0
42
0.000000001
43
0.0000000001
44
0.0000000001
40
-1
40
-1
40
-1
40
0
40
0
40
0
10
-0.45938086938208295
20
0.43976993261763803
30
0
10
-0.25750972468435568
20
0.75540637227299923
30
0
10
-0.1254006027675113
20
1.040228171756278
30
0
0
SPLINE
5
963
100
AcDbEntity
8
0
100
AcDbSpline
70
0
71
2
72
6
73
3
74
0
42
0.000000001
43
0.0000000001
44
0.0000000001
40
-1
40
-1
40
-1
40
0
40
0
40
0
10
-0.1254006027675113
20
1.040228171756278
30
0
10
0.22450072967927023
20
1.7827068674010171
30
0
10
0.22029959522486584
20
2.3218795612579384
30
0
0
SPLINE
5
964
100
AcDbEntity
8
0
100
AcDbSpline
70
0
71
2
72
6
73
3
74
0
42
0.000000001
43
0.0000000001
44
0.0000000001
40
-1
40
-1
40
-1
40
0
40
0
40
0
10
0.22029959522486584
20
2.3218795612579384
30
0
10
0.21885499312733725
20
2.5072794842857014
30
0
10
0.17444357485933015
20
2.6223422348580305
30
0
0
SPLINE
5
965
100
AcDbEntity
8
0
100
AcDbSpline
70
0
71
2
72
6
73
3
74
0
42
0.000000001
43
0.0000000001
44
0.0000000001
40
-1
40
-1
40
-1
40
0
40
0
40
0
10
0.17444357485933015
20
2.6223422348580305
30
0
10
0.093365026595254946
20
2.8298250591856862
30
0
10
-0.08825114886912612
20
2.8284099393531839
30
0
0
SPLINE
5
966
100
AcDbEntity
8
0
100
AcDbSpline
70
0
71
2
72
6
73
3
74
0
42
0.000000001
43
0.0000000001
44
0.0000000001
40
-1
40
-1
40
-1
40
0
40
0
40
0
10
-0.08825114886912612
20
2.8284099393531839
30
0
10
-0.18095101652027462
20
2.8276876390357808
30
0
10
-0.28071704987201412
20
2.7625839338547689
30
0
0
SPLINE
5
967
100
AcDbEntity
8
0
100
AcDbSpline
70
0
71
2
72
6
73
3
74
0
42
0.000000001
43
0.0000000001
44
0.0000000001
40
-1
40
-1
40
-1
40
0
40
0
40
0
10
-0.28071704987201412
20
2.7625839338547689
30
0
10
-0.63632801365450675
20
2.5100757406715686
30
0
10
-0.78933102827003898
20
1.7502118703591698
30
0
0
SPLINE
5
968
100
AcDbEntity
8
0
100
AcDbSpline
70
0
71
2
72
6
73
3
74
0
42
0.000000001
43
0.0000000001
44
0.0000000001
40
-1
40
-1
40
-1
40
0
40
0
40
0
10
-0.78933102827003898
20
1.7502118703591698
30
0
10
-0.87500426988385172
20
1.3333155487690194
30
0
10
-0.87139276610275251
20
0.86981592892507775
30
0
0
SPLINE
5
969
100
AcDbEntity
8
0
100
AcDbSpline
70
0
71
2
72
6
73
3
74
0
42
0.000000001
43
0.0000000001
44
0.0000000001
40
-1
40
-1
40
-1
40
0
40
0
40
0
10
-0.87139276610275251
20
0.86981592892507775
30
0
10
-0.86795815518045072
20
0.42901870059869485
30
0
10
-0.76267403228267172
20
0.028745629592353852
30
0
0
SPLINE
5
970
100
AcDbEntity
8
0
100
AcDbSpline
70
0
71
2
72
6
73
3
74
0
42
0.000000001
43
0.0000000001
44
0.0000000001
40
-1
40
-1
40
-1
40
0
40
0
40
0
10
-0.76267403228267172
20
0.028745629592353852
30
0
10
-0.68452419414887211
20
-0.28849296229019245
30
0
10
-0.5355902059278782
20
-0.46328361460571177
30
0
0
SPLINE
5
971
100
AcDbEntity
8
0
100
AcDbSpline
70
0
71
2
72
6
73
3
74
0
42
0.000000001
43
0.0000000001
44
0.0000000001
40
-1
40
-1
40
-1
40
-0.86963077697269264
40
-0.86963077697269264
40
-0.86963077697269264
10
-0.5355902059278782
20
-0.46328361460571177
30
0
10
-0.51867283452448831
20
-0.48189738145109662
30
0
10
-0.50129219622902388
20
-0.49806369139893703
30
0
0
ARC
5
972
100
AcDbEntity
8
0
100
AcDbCircle
10
-0.010401715447828313
20
-18.537776730889355
30
0
40
18.046390775201623
210
0
220
0
230
1
100
AcDbArc
50
91.55872843385049
51
94.423855052590099
0
SPLINE
5
973
100
AcDbEntity
8
0
100
AcDbSpline
70
0
71
2
72
6
73
3
74
0
42
0.000000001
43
0.0000000001
44
0.0000000001
40
-0.33427528086620373
40
-0.33427528086620373
40
-0.33427528086620373
40
0
40
0
40
0
10
-1.4023946127852971
20
-0.54515113679748906
30
0
10
-1.3506003919276022
20
-0.48317341099508238
30
0
10
-1.311942884022526
20
-0.39434586331461852
30
0
0
SPLINE
5
974
100
AcDbEntity
8
0
100
AcDbSpline
70
0
71
2
72
6
73
3
74
0
42
0.000000001
43
0.0000000001
44
0.0000000001
40
-1
40
-1
40
-1
40
0
40
0
40
0
10
-1.311942884022526
20
-0.39434586331461852
30
0
10
-1.2603093807997321
20
-0.27452555850914956
30
0
10
-1.2224564217400968
20
-0.15049954467602972
30
0
0
SPLINE
5
975
100
AcDbEntity
8
0
100
AcDbSpline
70
0
71
2
72
6
73
3
74
0
42
0.000000001
43
0.0000000001
44
0.0000000001
40
-1
40
-1
40
-1
40
0
40
0
40
0
10
-1.2224564217400968
20
-0.15049954467602972
30
0
10
-1.1944854726188765
20
-0.058001422972199068
30
0
10
-1.1636079834902666
20
0.025298274059283764
30
0
0
SPLINE
5
976
100
AcDbEntity
8
0
100
AcDbSpline
70
0
71
2
72
6
73
3
74
0
42
0.000000001
43
0.0000000001
44
0.0000000001
40
-1
40
-1
40
-1
40
0
40
0
40
0
10
-1.1636079834902666
20
0.025298274059283764
30
0
10
-1.1207625361310019
20
0.13845063662354415
30
0
10
-1.0564763400836596
20
0.21207333167756665
30
0
0
SPLINE
5
977
100
AcDbEntity
8
0
100
AcDbSpline
70
0
71
2
72
6
73
3
74
0
42
0.000000001
43
0.0000000001
44
0.0000000001
40
-1
40
-1
40
-1
40
0
40
0
40
0
10
-1.0564763400836596
20
0.21207333167756665
30
0
10
-1.0261113458845308
20
0.24773909758576881
30
0
10
-1.0266928050299342
20
0.27051307882096598
30
0
0
SPLINE
5
978
100
AcDbEntity
8
0
100
AcDbSpline
70
0
71
2
72
6
73
3
74
0
42
0.000000001
43
0.0000000001
44
0.0000000001
40
-1
40
-1
40
-1
40
0
40
0
40
0
10
-1.0266928050299342
20
0.27051307882096598
30
0
10
-1.0272742641753383
20
0.29328706005616445
30
0
10
-1.0276846533448021
20
0.29704864891376009
30
0
0
SPLINE
5
979
100
AcDbEntity
8
0
100
AcDbSpline
70
0
71
2
72
6
73
3
74
0
42
0.000000001
43
0.0000000001
44
0.0000000001
40
-1
40
-1
40
-1
40
0
40
0
40
0
10
-1.0276846533448021
20
0.29704864891376009
30
0
10
-1.0319935767390094
20
0.33654383892829742
30
0
10
-1.0657787348421912
20
0.36711400735151201
30
0
0
SPLINE
5
980
100
AcDbEntity
8
0
100
AcDbSpline
70
0
71
2
72
6
73
3
74
0
42
0.000000001
43
0.0000000001
44
0.0000000001
40
-1
40
-1
40
-1
40
0
40
0
40
0
10
-1.0657787348421912
20
0.36711400735151201
30
0
10
-1.0978882931013074
20
0.39977016478825667
30
0
10
-1.1242184819855916
20
0.39689754240523667
30
0
0
SPLINE
5
981
100
AcDbEntity
8
0
100
AcDbSpline
70
0
71
2
72
6
73
3
74
0
42
0.000000001
43
0.0000000001
44
0.0000000001
40
-1
40
-1
40
-1
40
0
40
0
40
0
10
-1.1242184819855916
20
0.39689754240523667
30
0
10
-1.1488732576495868
20
0.39611088867510136
30
0
10
-1.1526346598834052
20
0.39570051986628302
30
0
0
SPLINE
5
982
100
AcDbEntity
8
0
100
AcDbSpline
70
0
71
2
72
6
73
3
74
0
42
0.000000001
43
0.0000000001
44
0.0000000001
40
-1
40
-1
40
-1
40
0
40
0
40
0
10
-1.1526346598834052
20
0.39570051986628302
30
0
10
-1.1902494287166996
20
0.39159675033551716
30
0
10
-1.2193491715199345
20
0.36177818905088488
30
0
0
SPLINE
5
983
100
AcDbEntity
8
0
100
AcDbSpline
70
0
71
2
72
6
73
3
74
0
42
0.000000001
43
0.0000000001
44
0.0000000001
40
-1
40
-1
40
-1
40
0
40
0
40
0
10
-1.2193491715199345
20
0.36177818905088488
30
0
10
-1.3209077691036246
20
0.24602658682398465
30
0
10
-1.3700792053759947
20
0.1036374750074054
30
0
0
SPLINE
5
984
100
AcDbEntity
8
0
100
AcDbSpline
70
0
71
2
72
6
73
3
74
0
42
0.000000001
43
0.0000000001
44
0.0000000001
40
-1
40
-1
40
-1
40
0
40
0
40
0
10
-1.3700792053759947
20
0.1036374750074054
30
0
10
-1.3965456246290888
20
0.032237734694705901
30
0
10
-1.4217808237831935
20
-0.050446388762903624
30
0
0
SPLINE
5
985
100
AcDbEntity
8
0
100
AcDbSpline
70
0
71
2
72
6
73
3
74
0
42
0.000000001
43
0.0000000001
44
0.0000000001
40
-1
40
-1
40
-1
40
0
40
0
40
0
10
-1.4217808237831935
20
-0.050446388762903624
30
0
10
-1.4969051487238816
20
-0.32127276073157407
30
0
10
-1.5957283169974121
20
-0.42721002200566682
30
0
0
SPLINE
5
986
100
AcDbEntity
8
0
100
AcDbSpline
70
0
71
2
72
6
73
3
74
0
42
0.000000001
43
0.0000000001
44
0.0000000001
40
-1
40
-1
40
-1
40
0
40
0
40
0
10
-1.5957283169974121
20
-0.42721002200566682
30
0
10
-1.6382324327150231
20
-0.47371607124936871
30
0
10
-1.685250707132864
20
-0.47884576280218072
30
0
0
ENDSEC
0
SECTION
2
OBJECTS
0
DICTIONARY
5
C
100
AcDbDictionary
3
ACAD_GROUP
350
D
3
ACAD_MLINESTYLE
350
17
0
DICTIONARY
5
D
100
AcDbDictionary
0
DICTIONARY
5
1A
330
C
100
AcDbDictionary
0
DICTIONARY
5
17
100
AcDbDictionary
0
ENDSEC
0
EOF
