0
SECTION
2
HEADER
9
$INSUNITS
70
1
9
$ACADVER
1
AC1014
9
$HANDSEED
5
FFFF
0
ENDSEC
0
SECTION
2
TABLES
0
TABLE
2
VPORT
5
8
100
AcDbSymbolTable
0
ENDTAB
0
TABLE
2
LTYPE
5
5
100
AcDbSymbolTable
0
LTYPE
5
14
100
AcDbSymbolTableRecord
100
AcDbLinetypeTableRecord
2
BYBLOCK
70
0
0
LTYPE
5
15
100
AcDbSymbolTableRecord
100
AcDbLinetypeTableRecord
2
BYLAYER
70
0
0
ENDTAB
0
TABLE
2
LAYER
5
2
100
AcDbSymbolTable
70
2
0
LAYER
5
50
100
AcDbSymbolTableRecord
100
AcDbLayerTableRecord
2
0
70
0
6
CONTINUOUS
0
ENDTAB
0
TABLE
2
STYLE
5
3
100
AcDbSymbolTable
70
1
0
STYLE
5
11
100
AcDbSymbolTableRecord
100
AcDbTextStyleTableRecord
2
STANDARD
70
0
0
ENDTAB
0
TABLE
2
VIEW
5
6
100
AcDbSymbolTable
70
0
0
ENDTAB
0
TABLE
2
UCS
5
7
100
AcDbSymbolTable
70
0
0
ENDTAB
0
TABLE
2
APPID
5
9
100
AcDbSymbolTable
70
2
0
APPID
5
12
100
AcDbSymbolTableRecord
100
AcDbRegAppTableRecord
2
ACAD
70
0
0
ENDTAB
0
TABLE
2
DIMSTYLE
5
A
100
AcDbSymbolTable
70
1
0
ENDTAB
0
TABLE
2
BLOCK_RECORD
5
1
100
AcDbSymbolTable
70
1
0
BLOCK_RECORD
5
1F
100
AcDbSymbolTableRecord
100
AcDbBlockTableRecord
2
*MODEL_SPACE
0
BLOCK_RECORD
5
1B
100
AcDbSymbolTableRecord
100
AcDbBlockTableRecord
2
*PAPER_SPACE
0
ENDTAB
0
ENDSEC
0
SECTION
2
BLOCKS
0
BLOCK
5
20
100
AcDbEntity
100
AcDbBlockBegin
2
*MODEL_SPACE
0
ENDBLK
5
21
100
AcDbEntity
100
AcDbBlockEnd
0
BLOCK
5
1C
100
AcDbEntity
100
AcDbBlockBegin
2
*PAPER_SPACE
0
ENDBLK
5
1D
100
AcDbEntity
100
AcDbBlockEnd
0
ENDSEC
0
SECTION
2
ENTITIES
0
ARC
5
100
100
AcDbEntity
8
0
100
AcDbCircle
10
-4.6750000255319435
20
-3.6500000925514691
30
0
40
0.49999999999999978
210
0
220
0
230
1
100
AcDbArc
50
180
51
270.00000000000011
0
ARC
5
101
100
AcDbEntity
8
0
100
AcDbCircle
10
-0.42500002553193877
20
-3.6500000925514673
30
0
40
0.50000000000000122
210
0
220
0
230
1
100
AcDbArc
50
270.00000000000006
51
360
0
ARC
5
102
100
AcDbEntity
8
0
100
AcDbCircle
10
0.57499997446806139
20
0.94903315989028147
30
0
40
0.49999999999999989
210
0
220
0
230
1
100
AcDbArc
50
124.6235354791694
51
180
0
ARC
5
103
100
AcDbEntity
8
0
100
AcDbCircle
10
-2.550000025531443
20
5.4749999074485407
30
0
40
4.9999999999999991
210
0
220
0
230
1
100
AcDbArc
50
-55.376464520830616
51
235.37646452081799
0
ARC
5
104
100
AcDbEntity
8
0
100
AcDbCircle
10
-5.6750000255319444
20
0.94903315989097103
30
0
40
0.50000000000000044
210
0
220
-0
230
1
100
AcDbArc
50
0
51
55.376464520818061
0
CIRCLE
5
105
100
AcDbEntity
8
0
100
AcDbCircle
10
-0.55000002553143845
20
0.47499990744853682
30
0
40
0.31500000000000011
210
0
220
0
230
1
0
CIRCLE
5
106
100
AcDbEntity
8
0
100
AcDbCircle
10
-0.5500000255319385
20
-3.5250000925514673
30
0
40
0.28125000000000017
210
0
220
0
230
1
0
CIRCLE
5
107
100
AcDbEntity
8
0
100
AcDbCircle
10
-2.5500000255319413
20
8.4749999074485416
30
0
40
0.31499999999999989
210
0
220
0
230
1
0
CIRCLE
5
108
100
AcDbEntity
8
0
100
AcDbCircle
10
-2.5500000255314417
20
2.4750009806750692
30
0
40
0.31499999999999989
210
0
220
0
230
1
0
CIRCLE
5
109
100
AcDbEntity
8
0
100
AcDbCircle
10
-4.5500000255314426
20
-1.5250000925514662
30
0
40
0.3150000000000005
210
0
220
0
230
1
0
CIRCLE
5
110
100
AcDbEntity
8
0
100
AcDbCircle
10
-2.5500000255314417
20
-1.5250000925514662
30
0
40
0.315
210
0
220
0
230
1
0
CIRCLE
5
111
100
AcDbEntity
8
0
100
AcDbCircle
10
-2.5500000255319413
20
0.47500098067506941
30
0
40
0.315
210
0
220
0
230
1
0
CIRCLE
5
112
100
AcDbEntity
8
0
100
AcDbCircle
10
-0.55000002553143812
20
-1.5250000925514655
30
0
40
0.31500000000000011
210
0
220
0
230
1
0
CIRCLE
5
113
100
AcDbEntity
8
0
100
AcDbCircle
10
1.4499999744680601
20
6.4749999074485407
30
0
40
0.31500000000000011
210
0
220
0
230
1
0
CIRCLE
5
114
100
AcDbEntity
8
0
100
AcDbCircle
10
1.4499999744680601
20
4.4749999074485434
30
0
40
0.31500000000000011
210
0
220
0
230
1
0
CIRCLE
5
115
100
AcDbEntity
8
0
100
AcDbCircle
10
-2.5500000255314412
20
-3.5250000925514682
30
0
40
0.315
210
0
220
0
230
1
0
CIRCLE
5
116
100
AcDbEntity
8
0
100
AcDbCircle
10
-6.5500000255314426
20
6.4749999074485407
30
0
40
0.31500000000000011
210
0
220
0
230
1
0
CIRCLE
5
117
100
AcDbEntity
8
0
100
AcDbCircle
10
-4.5500000255319426
20
-3.5250000925514682
30
0
40
0.2812500000000005
210
0
220
0
230
1
0
CIRCLE
5
118
100
AcDbEntity
8
0
100
AcDbCircle
10
-4.5500000255314426
20
0.47499990744853587
30
0
40
0.3150000000000005
210
0
220
0
230
1
0
CIRCLE
5
119
100
AcDbEntity
8
0
100
AcDbCircle
10
-4.5500000255319435
20
2.474999907448538
30
0
40
0.2812500000000005
210
0
220
0
230
1
0
CIRCLE
5
120
100
AcDbEntity
8
0
100
AcDbCircle
10
-6.5500000255314426
20
4.4749999074485416
30
0
40
0.31499999999999945
210
0
220
0
230
1
0
CIRCLE
5
121
100
AcDbEntity
8
0
100
AcDbCircle
10
-0.5500000255319395
20
2.4749999074485389
30
0
40
0.28125000000000017
210
0
220
0
230
1
0
CIRCLE
5
122
100
AcDbEntity
8
0
100
AcDbCircle
10
-4.5500000255314426
20
-1.5250000925514662
30
0
40
0.3150000000000005
210
0
220
-0
230
1
0
CIRCLE
5
123
100
AcDbEntity
8
0
100
AcDbCircle
10
-0.55000002553143801
20
-1.5250000925514653
30
0
40
0.31500000000000028
210
0
220
-0
230
1
0
CIRCLE
5
124
100
AcDbEntity
8
0
100
AcDbCircle
10
-0.55000002553193961
20
2.4749999074485389
30
0
40
0.28125000000000028
210
0
220
-0
230
1
0
CIRCLE
5
125
100
AcDbEntity
8
0
100
AcDbCircle
10
-4.5500000255319426
20
-3.5250000925514682
30
0
40
0.28125000000000044
210
0
220
-0
230
1
0
CIRCLE
5
126
100
AcDbEntity
8
0
100
AcDbCircle
10
-4.5500000255319435
20
2.474999907448538
30
0
40
0.28125000000000044
210
0
220
-0
230
1
0
CIRCLE
5
127
100
AcDbEntity
8
0
100
AcDbCircle
10
-0.55000002553193827
20
-3.5250000925514673
30
0
40
0.28125000000000028
210
0
220
-0
230
1
0
CIRCLE
5
128
100
AcDbEntity
8
0
100
AcDbCircle
10
-0.55000002553143845
20
0.47499990744853682
30
0
40
0.31500000000000028
210
0
220
-0
230
1
0
CIRCLE
5
129
100
AcDbEntity
8
0
100
AcDbCircle
10
-4.5500000255314426
20
0.47499990744853587
30
0
40
0.3150000000000005
210
0
220
-0
230
1
0
LINE
5
130
100
AcDbEntity
8
0
100
AcDbLine
10
0.074999974468062336
20
-3.4068248875553944
30
0
11
1.0141279117709028
21
-2.2876186247642636
31
0
0
LINE
5
131
100
AcDbEntity
8
0
100
AcDbLine
10
1.0137635891187091
20
-1.8050936854875466
30
0
11
0.0749999744680616
21
-0.68974640868426107
31
0
0
ARC
5
132
100
AcDbEntity
8
0
100
AcDbCircle
10
0.72686154576419904
20
-2.0465729134120343
30
0
40
0.37499999999999961
210
-0
220
0
230
1
100
AcDbArc
50
-40.000071347798446
51
40.086591834869594
0
LINE
5
133
100
AcDbEntity
8
0
100
AcDbLine
10
-6.1137636401825892
20
-1.8050936854875477
30
0
11
-5.1750000255319435
21
-0.68974640868426185
31
0
0
LINE
5
134
100
AcDbEntity
8
0
100
AcDbLine
10
-5.1750000255319435
20
-3.4068248875553953
30
0
11
-6.1141279628347842
21
-2.2876186247642645
31
0
0
ARC
5
135
100
AcDbEntity
8
0
100
AcDbCircle
10
-5.8268615968280804
20
-2.0465729134120352
30
0
40
0.37499999999999917
210
0
220
0
230
1
100
AcDbArc
50
139.91340816513031
51
220.00007134779844
0
LINE
5
136
100
AcDbEntity
8
0
100
AcDbLine
10
-2.3132918566082603
20
-5.0887637072021157
30
0
11
-1.1979445798049746
21
-4.1500000925514682
31
0
0
LINE
5
137
100
AcDbEntity
8
0
100
AcDbLine
10
-3.9150230586761086
20
-4.1500000925514691
30
0
11
-2.7958167958849769
21
-5.0891280298543089
31
0
0
ARC
5
138
100
AcDbEntity
8
0
100
AcDbCircle
10
-2.5547710845327476
20
-4.8018616638476059
30
0
40
0.37499999999999906
210
0
220
0
230
1
100
AcDbArc
50
229.99992865220145
51
310.08659183486958
0
CIRCLE
5
139
100
AcDbEntity
8
0
100
AcDbCircle
10
-2.550000025531443
20
5.4749999074485407
30
0
40
1.5000000000000038
210
0
220
0
230
1
0
CIRCLE
5
140
100
AcDbEntity
8
0
100
AcDbCircle
10
-4.5500000255314976
20
8.4749999074485416
30
0
40
0.3150000000000005
210
0
220
0
230
1
0
CIRCLE
5
141
100
AcDbEntity
8
0
100
AcDbCircle
10
-0.55000002553193983
20
8.4749999074485416
30
0
40
0.31500000000000011
210
0
220
0
230
1
0
CIRCLE
5
142
100
AcDbEntity
8
0
100
AcDbCircle
10
-4.5500000255315713
20
6.4749999074485407
30
0
40
0.31499999999999984
210
0
220
0
230
1
0
CIRCLE
5
143
100
AcDbEntity
8
0
100
AcDbCircle
10
-0.5500000255319395
20
6.4749999074485407
30
0
40
0.31499999999999984
210
0
220
0
230
1
0
CIRCLE
5
144
100
AcDbEntity
8
0
100
AcDbCircle
10
-4.5500000255314434
20
4.4749999074485416
30
0
40
0.3150000000000005
210
0
220
0
230
1
0
CIRCLE
5
145
100
AcDbEntity
8
0
100
AcDbCircle
10
-0.55000002553193983
20
4.475001907448541
30
0
40
0.31500000000000011
210
0
220
0
230
1
0
LINE
5
146
100
AcDbEntity
8
0
100
AcDbLine
10
-5.1750000255319435
20
0.94903315989097103
30
0
11
-5.1750000255319435
21
-0.68974640868426185
31
0
0
LINE
5
147
100
AcDbEntity
8
0
100
AcDbLine
10
0.0749999744680616
20
-0.68974640868426107
30
0
11
0.074999974468061156
21
0.94903315989028147
31
0
0
LINE
5
148
100
AcDbEntity
8
0
100
AcDbLine
10
-5.1750000255319435
20
-3.4068248875553953
30
0
11
-5.1750000255319435
21
-3.6500000925514686
31
0
0
LINE
5
149
100
AcDbEntity
8
0
100
AcDbLine
10
0.074999974468062336
20
-3.4068248875553944
30
0
11
0.074999974468062405
21
-3.6500000925514686
31
0
0
LINE
5
150
100
AcDbEntity
8
0
100
AcDbLine
10
-0.4250000255319375
20
-4.1500000925514682
30
0
11
-1.1979445798049746
21
-4.1500000925514682
31
0
0
LINE
5
151
100
AcDbEntity
8
0
100
AcDbLine
10
-3.9150230586761086
20
-4.1500000925514691
30
0
11
-4.6750000255319426
21
-4.1500000925514691
31
0
0
ENDSEC
0
SECTION
2
OBJECTS
0
DICTIONARY
5
C
100
AcDbDictionary
3
ACAD_GROUP
350
D
3
ACAD_MLINESTYLE
350
17
0
DICTIONARY
5
D
100
AcDbDictionary
0
DICTIONARY
5
1A
330
C
100
AcDbDictionary
0
DICTIONARY
5
17
100
AcDbDictionary
0
ENDSEC
0
EOF
