  0
SECTION
  2
HEADER
  9
$ACADVER
  1
AC1015
  9
$ACADMAINTVER
 70
     6
  9
$DWGCODEPAGE
  3
ANSI_1252
  9
$INSBASE
 10
0.0
 20
0.0
 30
0.0
  9
$EXTMIN
 10
-7.3397570177
 20
-7.3222825316
 30
0.0
  9
$EXTMAX
 10
7.3371003332
 20
7.3167512574
 30
0.0
  9
$LIMMIN
 10
0.0
 20
0.0
  9
$LIMMAX
 10
12.0
 20
9.0
  9
$ORTHOMODE
 70
     0
  9
$REGENMODE
 70
     1
  9
$FILLMODE
 70
     1
  9
$QTEXTMODE
 70
     0
  9
$MIRRTEXT
 70
     1
  9
$LTSCALE
 40
1.0
  9
$ATTMODE
 70
     1
  9
$TEXTSIZE
 40
0.125
  9
$TRACEWID
 40
0.05
  9
$TEXTSTYLE
  7
Standard
  9
$CLAYER
  8
0
  9
$CELTYPE
  6
ByLayer
  9
$CECOLOR
 62
   256
  9
$CELTSCALE
 40
1.0
  9
$DISPSILH
 70
     0
  9
$DIMSCALE
 40
1.0
  9
$DIMASZ
 40
0.13
  9
$DIMEXO
 40
0.0
  9
$DIMDLI
 40
0.38
  9
$DIMRND
 40
0.0
  9
$DIMDLE
 40
0.0
  9
$DIMEXE
 40
0.125
  9
$DIMTP
 40
0.0
  9
$DIMTM
 40
0.0
  9
$DIMTXT
 40
0.125
  9
$DIMCEN
 40
0.09
  9
$DIMTSZ
 40
0.0
  9
$DIMTOL
 70
     0
  9
$DIMLIM
 70
     0
  9
$DIMTIH
 70
     1
  9
$DIMTOH
 70
     1
  9
$DIMSE1
 70
     0
  9
$DIMSE2
 70
     0
  9
$DIMTAD
 70
     0
  9
$DIMZIN
 70
     1
  9
$DIMBLK
  1

  9
$DIMASO
 70
     1
  9
$DIMSHO
 70
     1
  9
$DIMPOST
  1

  9
$DIMAPOST
  1

  9
$DIMALT
 70
     0
  9
$DIMALTD
 70
     2
  9
$DIMALTF
 40
25.4
  9
$DIMLFAC
 40
1.0
  9
$DIMTOFL
 70
     0
  9
$DIMTVP
 40
0.0
  9
$DIMTIX
 70
     0
  9
$DIMSOXD
 70
     0
  9
$DIMSAH
 70
     0
  9
$DIMBLK1
  1

  9
$DIMBLK2
  1

  9
$DIMSTYLE
  2
Standard
  9
$DIMCLRD
 70
     0
  9
$DIMCLRE
 70
     0
  9
$DIMCLRT
 70
     0
  9
$DIMTFAC
 40
1.0
  9
$DIMGAP
 40
0.06
  9
$DIMJUST
 70
     0
  9
$DIMSD1
 70
     0
  9
$DIMSD2
 70
     0
  9
$DIMTOLJ
 70
     1
  9
$DIMTZIN
 70
     1
  9
$DIMALTZ
 70
     0
  9
$DIMALTTZ
 70
     0
  9
$DIMUPT
 70
     0
  9
$DIMDEC
 70
     2
  9
$DIMTDEC
 70
     2
  9
$DIMALTU
 70
     2
  9
$DIMALTTD
 70
     2
  9
$DIMTXSTY
  7
Standard
  9
$DIMAUNIT
 70
     0
  9
$DIMADEC
 70
     2
  9
$DIMALTRND
 40
0.0
  9
$DIMAZIN
 70
     0
  9
$DIMDSEP
 70
    46
  9
$DIMATFIT
 70
     3
  9
$DIMFRAC
 70
     0
  9
$DIMLDRBLK
  1

  9
$DIMLUNIT
 70
     2
  9
$DIMLWD
 70
    -2
  9
$DIMLWE
 70
    -2
  9
$DIMTMOVE
 70
     0
  9
$LUNITS
 70
     2
  9
$LUPREC
 70
     2
  9
$SKETCHINC
 40
0.1
  9
$FILLETRAD
 40
0.5
  9
$AUNITS
 70
     0
  9
$AUPREC
 70
     2
  9
$MENU
  1
.
  9
$ELEVATION
 40
0.0
  9
$PELEVATION
 40
0.0
  9
$THICKNESS
 40
0.0
  9
$LIMCHECK
 70
     0
  9
$CHAMFERA
 40
0.0
  9
$CHAMFERB
 40
0.0
  9
$CHAMFERC
 40
0.0
  9
$CHAMFERD
 40
0.0
  9
$SKPOLY
 70
     0
  9
$TDCREATE
 40
2459849.475787893
  9
$TDUCREATE
 40
2459849.684121227
  9
$TDUPDATE
 40
2459849.475822847
  9
$TDUUPDATE
 40
2459849.68415618
  9
$TDINDWG
 40
0.0000000116
  9
$TDUSRTIMER
 40
0.0000000116
  9
$USRTIMER
 70
     1
  9
$ANGBASE
 50
0.0
  9
$ANGDIR
 70
     0
  9
$PDMODE
 70
     0
  9
$PDSIZE
 40
-1.0
  9
$PLINEWID
 40
0.0
  9
$SPLFRAME
 70
     0
  9
$SPLINETYPE
 70
     6
  9
$SPLINESEGS
 70
     8
  9
$HANDSEED
  5
216
  9
$SURFTAB1
 70
     6
  9
$SURFTAB2
 70
     6
  9
$SURFTYPE
 70
     6
  9
$SURFU
 70
     6
  9
$SURFV
 70
     6
  9
$UCSBASE
  2

  9
$UCSNAME
  2

  9
$UCSORG
 10
0.0
 20
0.0
 30
0.0
  9
$UCSXDIR
 10
1.0
 20
0.0
 30
0.0
  9
$UCSYDIR
 10
0.0
 20
1.0
 30
0.0
  9
$UCSORTHOREF
  2

  9
$UCSORTHOVIEW
 70
     0
  9
$UCSORGTOP
 10
0.0
 20
0.0
 30
0.0
  9
$UCSORGBOTTOM
 10
0.0
 20
0.0
 30
0.0
  9
$UCSORGLEFT
 10
0.0
 20
0.0
 30
0.0
  9
$UCSORGRIGHT
 10
0.0
 20
0.0
 30
0.0
  9
$UCSORGFRONT
 10
0.0
 20
0.0
 30
0.0
  9
$UCSORGBACK
 10
0.0
 20
0.0
 30
0.0
  9
$PUCSBASE
  2

  9
$PUCSNAME
  2

  9
$PUCSORG
 10
0.0
 20
0.0
 30
0.0
  9
$PUCSXDIR
 10
1.0
 20
0.0
 30
0.0
  9
$PUCSYDIR
 10
0.0
 20
1.0
 30
0.0
  9
$PUCSORTHOREF
  2

  9
$PUCSORTHOVIEW
 70
     0
  9
$PUCSORGTOP
 10
0.0
 20
0.0
 30
0.0
  9
$PUCSORGBOTTOM
 10
0.0
 20
0.0
 30
0.0
  9
$PUCSORGLEFT
 10
0.0
 20
0.0
 30
0.0
  9
$PUCSORGRIGHT
 10
0.0
 20
0.0
 30
0.0
  9
$PUCSORGFRONT
 10
0.0
 20
0.0
 30
0.0
  9
$PUCSORGBACK
 10
0.0
 20
0.0
 30
0.0
  9
$USERI1
 70
     0
  9
$USERI2
 70
     0
  9
$USERI3
 70
     0
  9
$USERI4
 70
     0
  9
$USERI5
 70
     0
  9
$USERR1
 40
0.0
  9
$USERR2
 40
0.0
  9
$USERR3
 40
0.0
  9
$USERR4
 40
0.0
  9
$USERR5
 40
0.0
  9
$WORLDVIEW
 70
     1
  9
$SHADEDGE
 70
     3
  9
$SHADEDIF
 70
    70
  9
$TILEMODE
 70
     1
  9
$MAXACTVP
 70
    64
  9
$PINSBASE
 10
0.0
 20
0.0
 30
0.0
  9
$PLIMCHECK
 70
     0
  9
$PEXTMIN
 10
1.0000000000E+20
 20
1.0000000000E+20
 30
1.0000000000E+20
  9
$PEXTMAX
 10
-1.0000000000E+20
 20
-1.0000000000E+20
 30
-1.0000000000E+20
  9
$PLIMMIN
 10
0.0
 20
0.0
  9
$PLIMMAX
 10
12.0
 20
9.0
  9
$UNITMODE
 70
     0
  9
$VISRETAIN
 70
     1
  9
$PLINEGEN
 70
     0
  9
$PSLTSCALE
 70
     1
  9
$TREEDEPTH
 70
  3020
  9
$CMLSTYLE
  2
Standard
  9
$CMLJUST
 70
     0
  9
$CMLSCALE
 40
1.0
  9
$PROXYGRAPHICS
 70
     1
  9
$MEASUREMENT
 70
     0
  9
$CELWEIGHT
370
    -1
  9
$ENDCAPS
280
     0
  9
$JOINSTYLE
280
     0
  9
$LWDISPLAY
290
     1
  9
$INSUNITS
 70
     1
  9
$HYPERLINKBASE
  1

  9
$STYLESHEET
  1

  9
$XEDIT
290
     1
  9
$CEPSNTYPE
380
     0
  9
$PSTYLEMODE
290
     1
  9
$FINGERPRINTGUID
  2
{11c94e02-6645-44d4-b485-1f5c0d6cddd5}
  9
$VERSIONGUID
  2
{FAEB1C32-E019-11D5-929B-00C0DF256EC4}
  9
$EXTNAMES
290
     1
  9
$PSVPSCALE
 40
0.0
  9
$OLESTARTUP
290
     0
  0
ENDSEC
  0
SECTION
  2
CLASSES
  0
CLASS
  1
ACDBDICTIONARYWDFLT
  2
AcDbDictionaryWithDefault
  3
ObjectDBX Classes
 90
        0
280
     0
281
     0
  0
CLASS
  1
VISUALSTYLE
  2
AcDbVisualStyle
  3
ObjectDBX Classes
 90
     4095
280
     0
281
     0
  0
CLASS
  1
MATERIAL
  2
AcDbMaterial
  3
ObjectDBX Classes
 90
     1153
280
     0
281
     0
  0
CLASS
  1
SCALE
  2
AcDbScale
  3
ObjectDBX Classes
 90
     1153
280
     0
281
     0
  0
CLASS
  1
TABLESTYLE
  2
AcDbTableStyle
  3
ObjectDBX Classes
 90
     4095
280
     0
281
     0
  0
CLASS
  1
MLEADERSTYLE
  2
AcDbMLeaderStyle
  3
ACDB_MLEADERSTYLE_CLASS
 90
     4095
280
     0
281
     0
  0
CLASS
  1
SUN
  2
AcDbSun
  3
SCENEOE
 90
     1153
280
     0
281
     0
  0
CLASS
  1
ACDBPLACEHOLDER
  2
AcDbPlaceHolder
  3
ObjectDBX Classes
 90
        0
280
     0
281
     0
  0
CLASS
  1
LAYOUT
  2
AcDbLayout
  3
ObjectDBX Classes
 90
        0
280
     0
281
     0
  0
ENDSEC
  0
SECTION
  2
TABLES
  0
TABLE
  2
VPORT
  5
8
330
0
100
AcDbSymbolTable
 70
     1
  0
VPORT
  5
29
330
8
100
AcDbSymbolTableRecord
100
AcDbViewportTableRecord
  2
*Active
 70
     0
 10
0.0
 20
0.0
 11
1.0
 21
1.0
 12
-0.0013283422
 22
-0.0027656371
 13
0.0
 23
0.0
 14
0.5
 24
0.5
 15
0.5
 25
0.5
 16
0.0
 26
0.0
 36
1.0
 17
0.0
 27
0.0
 37
0.0
 40
14.9318144647
 41
1.0025837472
 42
50.0
 43
0.0
 44
0.0
 50
0.0
 51
0.0
 71
     0
 72
   100
 73
     1
 74
     3
 75
     0
 76
     0
 77
     0
 78
     0
281
     0
 65
     1
110
0.0
120
0.0
130
0.0
111
1.0
121
0.0
131
0.0
112
0.0
122
1.0
132
0.0
 79
     0
146
0.0
  0
ENDTAB
  0
TABLE
  2
LTYPE
  5
5
330
0
100
AcDbSymbolTable
 70
     6
  0
LTYPE
  5
14
330
5
100
AcDbSymbolTableRecord
100
AcDbLinetypeTableRecord
  2
ByBlock
 70
     0
  3

 72
    65
 73
     0
 40
0.0
  0
LTYPE
  5
15
330
5
100
AcDbSymbolTableRecord
100
AcDbLinetypeTableRecord
  2
ByLayer
 70
     0
  3

 72
    65
 73
     0
 40
0.0
  0
LTYPE
  5
16
330
5
100
AcDbSymbolTableRecord
100
AcDbLinetypeTableRecord
  2
Continuous
 70
     0
  3
Solid line
 72
    65
 73
     0
 40
0.0
  0
LTYPE
  5
6E
330
5
100
AcDbSymbolTableRecord
100
AcDbLinetypeTableRecord
  2
HIDDEN
 70
     0
  3
Hidden __ __ __ __ __ __ __ __ __ __ __ __ __ __
 72
    65
 73
     2
 40
0.075
 49
0.05
 74
     0
 49
-0.025
 74
     0
  0
LTYPE
  5
6F
330
5
100
AcDbSymbolTableRecord
100
AcDbLinetypeTableRecord
  2
PHANTOM
 70
     0
  3
Phantom ______  __  __  ______  __  __  ______
 72
    65
 73
     6
 40
0.5
 49
0.25
 74
     0
 49
-0.05
 74
     0
 49
0.05
 74
     0
 49
-0.05
 74
     0
 49
0.05
 74
     0
 49
-0.05
 74
     0
  0
LTYPE
  5
70
330
5
100
AcDbSymbolTableRecord
100
AcDbLinetypeTableRecord
  2
CENTER
 70
     0
  3
Center ____ _ ____ _ ____ _ ____ _ ____ _ ____
 72
    65
 73
     4
 40
0.4
 49
0.25
 74
     0
 49
-0.05
 74
     0
 49
0.05
 74
     0
 49
-0.05
 74
     0
  0
LTYPE
  5
71
330
5
100
AcDbSymbolTableRecord
100
AcDbLinetypeTableRecord
  2
CENTERX2
 70
     0
  3
Center (2x) ________  __  ________  __  _____
 72
    65
 73
     4
 40
0.8
 49
0.5
 74
     0
 49
-0.1
 74
     0
 49
0.1
 74
     0
 49
-0.1
 74
     0
  0
LTYPE
  5
72
330
5
100
AcDbSymbolTableRecord
100
AcDbLinetypeTableRecord
  2
DOT2
 70
     0
  3
Dot (.5x) ........................................
 72
    65
 73
     2
 40
0.025
 49
0.0
 74
     0
 49
-0.025
 74
     0
  0
ENDTAB
  0
TABLE
  2
LAYER
  5
2
330
0
100
AcDbSymbolTable
 70
     1
  0
LAYER
  5
10
330
2
100
AcDbSymbolTableRecord
100
AcDbLayerTableRecord
  2
0
 70
     0
 62
     7
  6
Continuous
370
    -3
390
F
  0
ENDTAB
  0
TABLE
  2
STYLE
  5
3
330
0
100
AcDbSymbolTable
 70
     2
  0
STYLE
  5
11
330
3
100
AcDbSymbolTableRecord
100
AcDbTextStyleTableRecord
  2
Standard
 70
     0
 40
0.0
 41
1.0
 50
0.0
 71
     0
 42
0.125
  3
txt
  4

  0
STYLE
  5
212
330
3
100
AcDbSymbolTableRecord
100
AcDbTextStyleTableRecord
  2
SLDTEXTSTYLE0
 70
     0
 40
0.0
 41
0.7
 50
0.0
 71
     0
 42
0.125
  3
TXT
  4

  0
ENDTAB
  0
TABLE
  2
VIEW
  5
6
330
0
100
AcDbSymbolTable
 70
     0
  0
ENDTAB
  0
TABLE
  2
UCS
  5
7
330
0
100
AcDbSymbolTable
 70
     0
  0
ENDTAB
  0
TABLE
  2
APPID
  5
9
330
0
100
AcDbSymbolTable
 70
     1
  0
APPID
  5
12
330
9
100
AcDbSymbolTableRecord
100
AcDbRegAppTableRecord
  2
ACAD
 70
     0
  0
ENDTAB
  0
TABLE
  2
DIMSTYLE
  5
A
330
0
100
AcDbSymbolTable
 70
     1
100
AcDbDimStyleTable
  0
DIMSTYLE
105
27
330
A
100
AcDbSymbolTableRecord
100
AcDbDimStyleTableRecord
  2
Standard
 70
     0
178
     0
340
11
  0
ENDTAB
  0
TABLE
  2
BLOCK_RECORD
  5
1
330
0
100
AcDbSymbolTable
 70
     1
  0
BLOCK_RECORD
  5
1F
330
1
100
AcDbSymbolTableRecord
100
AcDbBlockTableRecord
  2
*Model_Space
340
22
  0
BLOCK_RECORD
  5
1B
330
1
100
AcDbSymbolTableRecord
100
AcDbBlockTableRecord
  2
*Paper_Space
340
1E
  0
BLOCK_RECORD
  5
23
330
1
100
AcDbSymbolTableRecord
100
AcDbBlockTableRecord
  2
*Paper_Space0
340
26
  0
ENDTAB
  0
ENDSEC
  0
SECTION
  2
BLOCKS
  0
BLOCK
  5
20
330
1F
100
AcDbEntity
  8
0
100
AcDbBlockBegin
  2
*Model_Space
 70
     0
 10
0.0
 20
0.0
 30
0.0
  3
*Model_Space
  1

  0
ENDBLK
  5
21
330
1F
100
AcDbEntity
  8
0
100
AcDbBlockEnd
  0
BLOCK
  5
1C
330
1B
100
AcDbEntity
 67
     1
  8
0
100
AcDbBlockBegin
  2
*Paper_Space
 70
     0
 10
0.0
 20
0.0
 30
0.0
  3
*Paper_Space
  1

  0
ENDBLK
  5
1D
330
1B
100
AcDbEntity
 67
     1
  8
0
100
AcDbBlockEnd
  0
BLOCK
  5
24
330
23
100
AcDbEntity
  8
0
100
AcDbBlockBegin
  2
*Paper_Space0
 70
     0
 10
0.0
 20
0.0
 30
0.0
  3
*Paper_Space0
  1

  0
ENDBLK
  5
25
330
23
100
AcDbEntity
  8
0
100
AcDbBlockEnd
  0
ENDSEC
  0
SECTION
  2
ENTITIES
  0
LINE
  5
73
330
1F
100
AcDbEntity
  8
0
  6
Continuous
 62
     7
100
AcDbLine
 10
1.85536
 20
-3.32065
 30
0.0
 11
1.83611
 21
-4.36004
 31
0.0
  0
LINE
  5
74
330
1F
100
AcDbEntity
  8
0
  6
Continuous
 62
     7
100
AcDbLine
 10
1.83611
 20
-4.36004
 30
0.0
 11
1.34422
 21
-4.34481
 31
0.0
  0
LINE
  5
75
330
1F
100
AcDbEntity
  8
0
  6
Continuous
 62
     7
100
AcDbLine
 10
0.28949
 20
-4.3499
 30
0.0
 11
0.05115
 21
-4.32961
 31
0.0
  0
LINE
  5
76
330
1F
100
AcDbEntity
  8
0
  6
Continuous
 62
     7
100
AcDbLine
 10
3.12841
 20
-0.9422
 30
0.0
 11
3.28786
 21
-0.97373
 31
0.0
  0
LINE
  5
77
330
1F
100
AcDbEntity
  8
0
  6
Continuous
 62
     7
100
AcDbLine
 10
3.28786
 20
-0.97373
 30
0.0
 11
3.07798
 21
-1.19187
 31
0.0
  0
LINE
  5
78
330
1F
100
AcDbEntity
  8
0
  6
Continuous
 62
     7
100
AcDbLine
 10
2.18012
 20
0.09788
 30
0.0
 11
1.88836
 21
0.24241
 31
0.0
  0
LINE
  5
79
330
1F
100
AcDbEntity
  8
0
  6
Continuous
 62
     7
100
AcDbLine
 10
-4.54444
 20
5.75607
 30
0.0
 11
-4.63935
 21
5.68595
 31
0.0
  0
LINE
  5
7A
330
1F
100
AcDbEntity
  8
0
  6
Continuous
 62
     7
100
AcDbLine
 10
-4.63935
 20
5.68595
 30
0.0
 11
-4.5225
 21
5.60019
 31
0.0
  0
LINE
  5
7B
330
1F
100
AcDbEntity
  8
0
  6
Continuous
 62
     7
100
AcDbLine
 10
-4.2798
 20
5.40746
 30
0.0
 11
-4.1717
 21
5.29544
 31
0.0
  0
LINE
  5
7C
330
1F
100
AcDbEntity
  8
0
  6
Continuous
 62
     7
100
AcDbLine
 10
-4.1717
 20
5.29544
 30
0.0
 11
-4.33637
 21
5.38764
 31
0.0
  0
LINE
  5
7D
330
1F
100
AcDbEntity
  8
0
  6
Continuous
 62
     7
100
AcDbLine
 10
2.52762
 20
-5.33625
 30
0.0
 11
2.70027
 21
-5.36075
 31
0.0
  0
LINE
  5
7E
330
1F
100
AcDbEntity
  8
0
  6
Continuous
 62
     7
100
AcDbLine
 10
2.70027
 20
-5.36075
 30
0.0
 11
2.52606
 21
-5.44929
 31
0.0
  0
LINE
  5
7F
330
1F
100
AcDbEntity
  8
0
  6
Continuous
 62
     7
100
AcDbLine
 10
-2.60471
 20
-5.45148
 30
0.0
 11
-2.97956
 21
-5.253
 31
0.0
  0
LINE
  5
80
330
1F
100
AcDbEntity
  8
0
  6
Continuous
 62
     7
100
AcDbLine
 10
2.4121
 20
-4.33656
 30
0.0
 11
2.10363
 21
-4.33658
 31
0.0
  0
LINE
  5
81
330
1F
100
AcDbEntity
  8
0
  6
Continuous
 62
     7
100
AcDbLine
 10
2.10363
 20
-4.33658
 30
0.0
 11
2.12704
 21
-4.20993
 31
0.0
  0
LINE
  5
82
330
1F
100
AcDbEntity
  8
0
  6
Continuous
 62
     7
100
AcDbLine
 10
3.63123
 20
-4.34164
 30
0.0
 11
3.30447
 21
-4.33658
 31
0.0
  0
LINE
  5
83
330
1F
100
AcDbEntity
  8
0
  6
Continuous
 62
     7
100
AcDbLine
 10
3.65418
 20
-3.85198
 30
0.0
 11
3.63123
 21
-4.34164
 31
0.0
  0
LINE
  5
84
330
1F
100
AcDbEntity
  8
0
  6
Continuous
 62
     7
100
AcDbLine
 10
2.35994
 20
-1.47937
 30
0.0
 11
2.19127
 21
-1.50725
 31
0.0
  0
LINE
  5
85
330
1F
100
AcDbEntity
  8
0
  6
Continuous
 62
     7
100
AcDbLine
 10
2.19127
 20
-1.50725
 30
0.0
 11
2.25376
 21
-1.38639
 31
0.0
  0
LINE
  5
86
330
1F
100
AcDbEntity
  8
0
  6
Continuous
 62
     7
100
AcDbLine
 10
1.61362
 20
0.01399
 30
0.0
 11
1.49718
 21
-0.03569
 31
0.0
  0
LINE
  5
87
330
1F
100
AcDbEntity
  8
0
  6
Continuous
 62
     7
100
AcDbLine
 10
1.48736
 20
0.07201
 30
0.0
 11
1.61362
 21
0.01399
 31
0.0
  0
LINE
  5
88
330
1F
100
AcDbEntity
  8
0
  6
Continuous
 62
     7
100
AcDbLine
 10
4.3129
 20
-0.59004
 30
0.0
 11
4.44107
 21
-0.4578
 31
0.0
  0
LINE
  5
89
330
1F
100
AcDbEntity
  8
0
  6
Continuous
 62
     7
100
AcDbLine
 10
0.09931
 20
0.45868
 30
0.0
 11
0.0193
 21
0.35052
 31
0.0
  0
LINE
  5
8A
330
1F
100
AcDbEntity
  8
0
  6
Continuous
 62
     7
100
AcDbLine
 10
0.0193
 20
0.35052
 30
0.0
 11
-0.10924
 21
0.59053
 31
0.0
  0
LINE
  5
8B
330
1F
100
AcDbEntity
  8
0
  6
Continuous
 62
     7
100
AcDbLine
 10
-0.80397
 20
1.33692
 30
0.0
 11
-1.02414
 21
1.48855
 31
0.0
  0
LINE
  5
8C
330
1F
100
AcDbEntity
  8
0
  6
Continuous
 62
     7
100
AcDbLine
 10
-1.02414
 20
1.48855
 30
0.0
 11
-0.89374
 21
1.51523
 31
0.0
  0
LINE
  5
8D
330
1F
100
AcDbEntity
  8
0
  6
Continuous
 62
     7
100
AcDbLine
 10
-0.26528
 20
1.40833
 30
0.0
 11
-0.44225
 21
1.5641
 31
0.0
  0
LINE
  5
8E
330
1F
100
AcDbEntity
  8
0
  6
Continuous
 62
     7
100
AcDbLine
 10
4.61758
 20
-3.92367
 30
0.0
 11
4.59222
 21
-3.80306
 31
0.0
  0
LINE
  5
8F
330
1F
100
AcDbEntity
  8
0
  6
Continuous
 62
     7
100
AcDbLine
 10
4.59222
 20
-3.80306
 30
0.0
 11
4.83754
 21
-3.76153
 31
0.0
  0
LINE
  5
90
330
1F
100
AcDbEntity
  8
0
  6
Continuous
 62
     7
100
AcDbLine
 10
-2.19929
 20
0.34958
 30
0.0
 11
-2.44763
 21
0.72954
 31
0.0
  0
LINE
  5
91
330
1F
100
AcDbEntity
  8
0
  6
Continuous
 62
     7
100
AcDbLine
 10
-2.44763
 20
0.72954
 30
0.0
 11
-2.16824
 21
0.72956
 31
0.0
  0
LINE
  5
92
330
1F
100
AcDbEntity
  8
0
  6
Continuous
 62
     7
100
AcDbLine
 10
-3.95644
 20
1.67567
 30
0.0
 11
-3.7854
 21
1.43101
 31
0.0
  0
LINE
  5
93
330
1F
100
AcDbEntity
  8
0
  6
Continuous
 62
     7
100
AcDbLine
 10
-3.7854
 20
1.43101
 30
0.0
 11
-4.18355
 21
1.43048
 31
0.0
  0
LINE
  5
94
330
1F
100
AcDbEntity
  8
0
  6
Continuous
 62
     7
100
AcDbLine
 10
-5.22469
 20
2.8358
 30
0.0
 11
-5.40005
 21
2.88419
 31
0.0
  0
LINE
  5
95
330
1F
100
AcDbEntity
  8
0
  6
Continuous
 62
     7
100
AcDbLine
 10
-5.40005
 20
2.88419
 30
0.0
 11
-5.26365
 21
2.94134
 31
0.0
  0
LINE
  5
96
330
1F
100
AcDbEntity
  8
0
  6
Continuous
 62
     7
100
AcDbLine
 10
-1.78191
 20
-3.50845
 30
0.0
 11
-1.78106
 21
-4.34038
 31
0.0
  0
LINE
  5
97
330
1F
100
AcDbEntity
  8
0
  6
Continuous
 62
     7
100
AcDbLine
 10
-3.18146
 20
-4.17299
 30
0.0
 11
-3.09528
 21
-4.34875
 31
0.0
  0
LINE
  5
98
330
1F
100
AcDbEntity
  8
0
  6
Continuous
 62
     7
100
AcDbLine
 10
-3.09528
 20
-4.34875
 30
0.0
 11
-3.45434
 21
-4.34353
 31
0.0
  0
LINE
  5
99
330
1F
100
AcDbEntity
  8
0
  6
Continuous
 62
     7
100
AcDbLine
 10
-1.90666
 20
-2.00974
 30
0.0
 11
-1.70542
 21
-1.95282
 31
0.0
  0
LINE
  5
9A
330
1F
100
AcDbEntity
  8
0
  6
Continuous
 62
     7
100
AcDbLine
 10
5.35353
 20
-0.42312
 30
0.0
 11
5.21713
 21
-0.49108
 31
0.0
  0
LINE
  5
9B
330
1F
100
AcDbEntity
  8
0
  6
Continuous
 62
     7
100
AcDbLine
 10
5.88641
 20
1.09976
 30
0.0
 11
5.89105
 21
1.29461
 31
0.0
  0
LINE
  5
9C
330
1F
100
AcDbEntity
  8
0
  6
Continuous
 62
     7
100
AcDbLine
 10
5.87666
 20
-0.19314
 30
0.0
 11
5.77413
 21
-0.06927
 31
0.0
  0
LINE
  5
9D
330
1F
100
AcDbEntity
  8
0
  6
Continuous
 62
     7
100
AcDbLine
 10
5.77413
 20
-0.06927
 30
0.0
 11
5.87127
 21
-0.01186
 31
0.0
  0
LINE
  5
9E
330
1F
100
AcDbEntity
  8
0
  6
Continuous
 62
     7
100
AcDbLine
 10
-5.639
 20
2.53185
 30
0.0
 11
-5.84394
 21
2.47199
 31
0.0
  0
LINE
  5
9F
330
1F
100
AcDbEntity
  8
0
  6
Continuous
 62
     7
100
AcDbLine
 10
-5.80793
 20
2.63194
 30
0.0
 11
-5.639
 21
2.53185
 31
0.0
  0
LINE
  5
A0
330
1F
100
AcDbEntity
  8
0
  6
Continuous
 62
     7
100
AcDbLine
 10
-4.7529
 20
4.39312
 30
0.0
 11
-5.04097
 21
4.58193
 31
0.0
  0
LINE
  5
A1
330
1F
100
AcDbEntity
  8
0
  6
Continuous
 62
     7
100
AcDbLine
 10
-5.04097
 20
4.58193
 30
0.0
 11
-4.90876
 21
4.66254
 31
0.0
  0
ARC
  5
A2
330
1F
100
AcDbEntity
  8
0
  6
Continuous
 62
     7
100
AcDbCircle
 10
4.0922859931
 20
-3.9262957018
 30
0.0
 40
0.3834588430969859
100
AcDbArc
 50
241.6299450319
 51
301.7729306822
  0
LWPOLYLINE
  5
A3
330
1F
100
AcDbEntity
  8
0
  6
Continuous
 62
     7
100
AcDbPolyline
 90
        7
 70
   128
 43
0.0
 10
3.9100787771
 20
-4.2637
 10
3.9418119084
 20
-4.0501726806
 10
3.9677005149
 20
-3.7842730184
 10
3.9741691418
 20
-3.504687657
 10
3.961205761
 20
-3.3314550143
 10
3.9299657956
 20
-3.1802350385
 10
3.83456
 20
-3.01383
  0
LWPOLYLINE
  5
A4
330
1F
100
AcDbEntity
  8
0
  6
Continuous
 62
     7
100
AcDbPolyline
 90
        6
 70
   128
 43
0.0
 10
3.8345592228
 20
-3.01383
 10
3.6636676563
 20
-2.9274707813
 10
3.47674125
 20
-2.95621875
 10
3.3473903704
 20
-3.04647
 10
3.2171750463
 20
-3.19858625
 10
3.0886
 20
-3.41685
  0
LWPOLYLINE
  5
A5
330
1F
100
AcDbEntity
  8
0
  6
Continuous
 62
     7
100
AcDbPolyline
 90
        8
 70
   128
 43
0.0
 10
3.0885977069
 20
-3.41685
 10
3.0387185742
 20
-3.1987151953
 10
2.9718954688
 20
-3.0446315625
 10
2.8394724438
 20
-2.9325300146
 10
2.7144620576
 20
-2.9413107887
 10
2.567123284
 20
-3.0289079022
 10
2.3971809793
 20
-3.1946235683
 10
2.20436
 20
-3.43776
  0
LWPOLYLINE
  5
A6
330
1F
100
AcDbEntity
  8
0
  6
Continuous
 62
     7
100
AcDbPolyline
 90
        7
 70
   128
 43
0.0
 10
2.2043592817
 20
-3.43776
 10
2.2152156641
 20
-3.2129355469
 10
2.1981678125
 20
-3.06111375
 10
2.1205399561
 20
-2.9465837402
 10
1.9908000011
 20
-2.9338652833
 10
1.8505178616
 20
-2.9682426684
 10
1.51664
 20
-3.0771
  0
LWPOLYLINE
  5
A7
330
1F
100
AcDbEntity
  8
0
  6
Continuous
 62
     7
100
AcDbPolyline
 90
        3
 70
   128
 43
0.0
 10
1.516639013
 20
-3.0771
 10
1.5638946278
 20
-3.237915191
 10
1.60792
 20
-3.29514
  0
LWPOLYLINE
  5
A8
330
1F
100
AcDbEntity
  8
0
  6
Continuous
 62
     7
100
AcDbPolyline
 90
        5
 70
   128
 43
0.0
 10
1.6079197718
 20
-3.29514
 10
1.724578457
 20
-3.2370492188
 10
1.7835719409
 20
-3.226171875
 10
1.8299739063
 20
-3.241438125
 10
1.85536
 20
-3.32065
  0
LWPOLYLINE
  5
A9
330
1F
100
AcDbEntity
  8
0
  6
Continuous
 62
     7
100
AcDbPolyline
 90
        5
 70
   128
 43
0.0
 10
1.3442196715
 20
-4.34481
 10
1.504030103
 20
-3.9580469005
 10
1.5572125683
 20
-3.6158999238
 10
1.524197955
 20
-3.3783688745
 10
1.42536
 20
-3.16838
  0
LWPOLYLINE
  5
AA
330
1F
100
AcDbEntity
  8
0
  6
Continuous
 62
     7
100
AcDbPolyline
 90
       11
 70
   128
 43
0.0
 10
1.4253594275
 20
-3.16838
 10
1.2564544213
 20
-3.0284348611
 10
1.0808603704
 20
-2.9529263889
 10
0.904634375
 20
-2.9355275
 10
0.7131658459
 20
-2.9775349011
 10
0.5371862598
 20
-3.0760708496
 10
0.385319071
 20
-3.2221266663
 10
0.2661877344
 20
-3.4066936719
 10
0.173173125
 20
-3.69711875
 10
0.1741269531
 20
-4.0186388281
 10
0.28949
 20
-4.3499
  0
LWPOLYLINE
  5
AB
330
1F
100
AcDbEntity
  8
0
  6
Continuous
 62
     7
100
AcDbPolyline
 90
        3
 70
   128
 43
0.0
 10
0.0511499958
 20
-4.32961
 10
0.079042928
 20
-4.25777992
 10
0.12086
 20
-4.18889
  0
LWPOLYLINE
  5
AC
330
1F
100
AcDbEntity
  8
0
  6
Continuous
 62
     7
100
AcDbPolyline
 90
        3
 70
   128
 43
0.0
 10
0.1208599305
 20
-4.18889
 10
0.0770033805
 20
-4.1466535366
 10
-0.0249
 20
-4.07606
  0
LWPOLYLINE
  5
AD
330
1F
100
AcDbEntity
  8
0
  6
Continuous
 62
     7
100
AcDbPolyline
 90
        7
 70
   128
 43
0.0
 10
-0.0248999907
 20
-4.07606
 10
-0.1325334961
 20
-4.2173911914
 10
-0.2484379688
 20
-4.2930801563
 10
-0.4239607544
 20
-4.3011888354
 10
-0.5824995117
 20
-4.2069995508
 10
-0.7026980054
 20
-4.0377505298
 10
-0.7632
 20
-3.82068
  0
LWPOLYLINE
  5
AE
330
1F
100
AcDbEntity
  8
0
  6
Continuous
 62
     7
100
AcDbPolyline
 90
       10
 70
   128
 43
0.0
 10
-0.7631999301
 20
-3.82068
 10
-0.7626046097
 20
-3.629276098
 10
-0.7245117993
 20
-3.4750778467
 10
-0.6585191098
 20
-3.3563391779
 10
-0.574224082
 20
-3.2713140234
 10
-0.3891171753
 20
-3.1954199854
 10
-0.3075003781
 20
-3.2010589655
 10
-0.2459714062
 20
-3.2334271875
 10
-0.2117688477
 20
-3.3151457422
 10
-0.25309
 20
-3.43714
  0
LWPOLYLINE
  5
AF
330
1F
100
AcDbEntity
  8
0
  6
Continuous
 62
     7
100
AcDbPolyline
 90
        3
 70
   128
 43
0.0
 10
-0.2530899163
 20
-3.43714
 10
-0.1473115104
 20
-3.5353624589
 10
-0.03422
 20
-3.55367
  0
LWPOLYLINE
  5
B0
330
1F
100
AcDbEntity
  8
0
  6
Continuous
 62
     7
100
AcDbPolyline
 90
        3
 70
   128
 43
0.0
 10
-0.0342199997
 20
-3.55367
 10
0.0971660621
 20
-3.493887088
 10
0.15764
 20
-3.39657
  0
LWPOLYLINE
  5
B1
330
1F
100
AcDbEntity
  8
0
  6
Continuous
 62
     7
100
AcDbPolyline
 90
       12
 70
   128
 43
0.0
 10
0.1576399123
 20
-3.39657
 10
0.1625280347
 20
-3.2696545996
 10
0.1344806836
 20
-3.1634377344
 10
-0.0018289063
 20
-3.014153125
 10
-0.1559483444
 20
-2.9584822034
 10
-0.3371132495
 20
-2.9520496973
 10
-0.5296372379
 20
-2.9957445105
 10
-0.7178339258
 20
-3.0904555469
 10
-0.8860169296
 20
-3.2370717102
 10
-1.0184998657
 20
-3.4364819043
 10
-1.0995963504
 20
-3.689575033
 10
-1.11362
 20
-3.99724
  0
LWPOLYLINE
  5
B2
330
1F
100
AcDbEntity
  8
0
  6
Continuous
 62
     7
100
AcDbPolyline
 90
        7
 70
   128
 43
0.0
 10
-1.1136195087
 20
-3.99724
 10
-1.0905242187
 20
-4.089181875
 10
-1.04907125
 20
-4.2010925
 10
-1.0155551563
 20
-4.299251875
 10
-1.009990332
 20
-4.3326373437
 10
-1.0114441821
 20
-4.3435624609
 10
-1.01627
 20
-4.34994
  0
LWPOLYLINE
  5
B3
330
1F
100
AcDbEntity
  8
0
  6
Continuous
 62
     7
100
AcDbPolyline
 90
        4
 70
   128
 43
0.0
 10
-1.0162697533
 20
-4.34994
 10
-1.06690375
 20
-4.3520964062
 10
-1.1036475
 20
-4.33126625
 10
-1.13545
 20
-4.22065
  0
LWPOLYLINE
  5
B4
330
1F
100
AcDbEntity
  8
0
  6
Continuous
 62
     7
100
AcDbPolyline
 90
        5
 70
   128
 43
0.0
 10
-1.1354497099
 20
-4.22065
 10
-1.244430625
 20
-4.2809385937
 10
-1.3318825
 20
-4.30821875
 10
-1.397805625
 20
-4.3024895312
 10
-1.4422
 20
-4.26375
  0
ARC
  5
B5
330
1F
100
AcDbEntity
  8
0
  6
Continuous
 62
     7
100
AcDbCircle
 10
10.7480866543
 20
-3.6981096398
 30
0.0
 40
12.20340162523087
100
AcDbArc
 50
170.8558563498
 51
182.6566708371
  0
LWPOLYLINE
  5
B6
330
1F
100
AcDbEntity
  8
0
  6
Continuous
 62
     7
100
AcDbPolyline
 90
        6
 70
   128
 43
0.0
 10
-1.3002295663
 20
-1.75876
 10
-0.9411648043
 20
-1.59446608
 10
-0.664791357
 20
-1.38567232
 10
-0.4711092678
 20
-1.13237872
 10
-0.3489998105
 20
-0.77672518
 10
-0.34175
 20
-0.35926
  0
LWPOLYLINE
  5
B7
330
1F
100
AcDbEntity
  8
0
  6
Continuous
 62
     7
100
AcDbPolyline
 90
        5
 70
   128
 43
0.0
 10
-0.3417499187
 20
-0.35926
 10
-0.0644742074
 20
-0.4292654477
 10
0.1713826771
 20
-0.3841993894
 10
0.3282916746
 20
-0.2653477317
 10
0.46073
 20
-0.07086
  0
LWPOLYLINE
  5
B8
330
1F
100
AcDbEntity
  8
0
  6
Continuous
 62
     7
100
AcDbPolyline
 90
        5
 70
   128
 43
0.0
 10
0.4607298243
 20
-0.07086
 10
0.7870997875
 20
-0.3761403219
 10
1.0266068282
 20
-0.6537793754
 10
1.1538549135
 20
-0.8525297179
 10
1.22748
 20
-1.03421
  0
LWPOLYLINE
  5
B9
330
1F
100
AcDbEntity
  8
0
  6
Continuous
 62
     7
100
AcDbPolyline
 90
        5
 70
   128
 43
0.0
 10
1.2274796334
 20
-1.03421
 10
1.343501033
 20
-1.2885765376
 10
1.4929695757
 20
-1.4461413408
 10
1.633871881
 20
-1.5020371676
 10
1.79542
 20
-1.49818
  0
LWPOLYLINE
  5
BA
330
1F
100
AcDbEntity
  8
0
  6
Continuous
 62
     7
100
AcDbPolyline
 90
       14
 70
   128
 43
0.0
 10
1.7954197925
 20
-1.49818
 10
1.7992711969
 20
-1.7780056418
 10
1.9044831689
 20
-2.0572912671
 10
2.0895350507
 20
-2.3152421133
 10
2.3329059766
 20
-2.531063418
 10
2.6130750812
 20
-2.6839604184
 10
2.908521499
 20
-2.7531383521
 10
3.1033455859
 20
-2.7424773633
 10
3.289018208
 20
-2.6792043726
 10
3.4591628125
 20
-2.5571579687
 10
3.6074028467
 20
-2.3701767407
 10
3.7273617578
 20
-2.1120992773
 10
3.8126629932
 20
-1.7767641675
 10
3.85693
 20
-1.35801
  0
LWPOLYLINE
  5
BB
330
1F
100
AcDbEntity
  8
0
  6
Continuous
 62
     7
100
AcDbPolyline
 90
       10
 70
   128
 43
0.0
 10
3.8569297378
 20
-1.35801
 10
3.9608308398
 20
-1.6724926367
 10
4.0655317187
 20
-1.8857898437
 10
4.1607701758
 20
-2.0014855664
 10
4.2016339771
 20
-2.023852854
 10
4.23628375
 20
-2.02316375
 10
4.2818099805
 20
-1.9544083398
 10
4.2870864062
 20
-1.7988032813
 10
4.2418505664
 20
-1.5599325195
 10
4.13584
 20
-1.24138
  0
LWPOLYLINE
  5
BC
330
1F
100
AcDbEntity
  8
0
  6
Continuous
 62
     7
100
AcDbPolyline
 90
        7
 70
   128
 43
0.0
 10
4.1358395824
 20
-1.24138
 10
4.4612265621
 20
-1.6004562656
 10
4.7775947687
 20
-1.8368560023
 10
5.0849454003
 20
-1.9505788198
 10
5.3201095859
 20
-1.9538705937
 10
5.5497076596
 20
-1.8814277169
 10
5.77374
 20
-1.73325
  0
LWPOLYLINE
  5
BD
330
1F
100
AcDbEntity
  8
0
  6
Continuous
 62
     7
100
AcDbPolyline
 90
        5
 70
   128
 43
0.0
 10
5.7737376746
 20
-1.73325
 10
5.641292832
 20
-2.1520051334
 10
5.503628928
 20
-2.4946502995
 10
5.391804732
 20
-2.7104754554
 10
5.27676
 20
-2.87931
  0
LWPOLYLINE
  5
BE
330
1F
100
AcDbEntity
  8
0
  6
Continuous
 62
     7
100
AcDbPolyline
 90
        4
 70
   128
 43
0.0
 10
5.2767569625
 20
-2.87931
 10
5.416466681
 20
-2.986943465
 10
5.4955361677
 20
-3.0981117037
 10
5.49727
 20
-3.27994
  0
LWPOLYLINE
  5
BF
330
1F
100
AcDbEntity
  8
0
  6
Continuous
 62
     7
100
AcDbPolyline
 90
       10
 70
   128
 43
0.0
 10
5.4972659884
 20
-3.27994
 10
5.3528589453
 20
-3.0598080078
 10
5.1509521875
 20
-2.9540878125
 10
4.9785709149
 20
-2.9448302435
 10
4.8013070654
 20
-2.9916654053
 10
4.6309286774
 20
-3.0910516241
 10
4.4792037891
 20
-3.2394472266
 10
4.3262603125
 20
-3.5074234375
 10
4.2552941797
 20
-3.8478360547
 10
4.2942
 20
-4.25229
  0
LWPOLYLINE
  5
C0
330
1F
100
AcDbEntity
  8
0
  6
Continuous
 62
     7
100
AcDbPolyline
 90
        6
 70
   128
 43
0.0
 10
3.2934992332
 20
-1.85586
 10
3.1702710156
 20
-2.0119933008
 10
3.096436123
 20
-2.0625893628
 10
3.030491875
 20
-2.0857945312
 10
2.9968525781
 20
-2.0826855664
 10
2.97563
 20
-2.06236
  0
LWPOLYLINE
  5
C1
330
1F
100
AcDbEntity
  8
0
  6
Continuous
 62
     7
100
AcDbPolyline
 90
       10
 70
   128
 43
0.0
 10
2.975628132
 20
-2.06236
 10
3.0279145215
 20
-1.7938920715
 10
3.1485259602
 20
-1.5003621042
 10
3.2588408944
 20
-1.2957570894
 10
3.3565325
 20
-1.1494773438
 10
3.3972186853
 20
-1.1047318393
 10
3.4117320546
 20
-1.0952122412
 10
3.421621748
 20
-1.0952540796
 10
3.4256609134
 20
-1.1019647095
 10
3.42666
 20
-1.11147
  0
ARC
  5
C2
330
1F
100
AcDbEntity
  8
0
  6
Continuous
 62
     7
100
AcDbCircle
 10
0.3525206647
 20
-0.9456614889
 30
0.0
 40
3.07860695449635
100
AcDbArc
 50
342.8033187325
 51
356.9126533847
  0
LWPOLYLINE
  5
C3
330
1F
100
AcDbEntity
  8
0
  6
Continuous
 62
     7
100
AcDbPolyline
 90
        6
 70
   128
 43
0.0
 10
3.0779791629
 20
-1.19187
 10
2.989388103
 20
-1.2925355552
 10
2.9133255923
 20
-1.3741113376
 10
2.8636078953
 20
-1.4194749778
 10
2.848438391
 20
-1.4291161796
 10
2.83987
 20
-1.43153
  0
LWPOLYLINE
  5
C4
330
1F
100
AcDbEntity
  8
0
  6
Continuous
 62
     7
100
AcDbPolyline
 90
        6
 70
   128
 43
0.0
 10
2.8398679936
 20
-1.43153
 10
2.7980714882
 20
-1.4139339892
 10
2.7581751781
 20
-1.3799869942
 10
2.6851663174
 20
-1.2931749485
 10
2.629642935
 20
-1.1985589075
 10
2.61336
 20
-1.13842
  0
LWPOLYLINE
  5
C5
330
1F
100
AcDbEntity
  8
0
  6
Continuous
 62
     7
100
AcDbPolyline
 90
        5
 70
   128
 43
0.0
 10
2.6133586103
 20
-1.13842
 10
2.6671389063
 20
-1.0599551563
 10
2.79969125
 20
-0.99145125
 10
2.9678404688
 20
-0.9473767188
 10
3.12841
 20
-0.9422
  0
ARC
  5
C6
330
1F
100
AcDbEntity
  8
0
  6
Continuous
 62
     7
100
AcDbCircle
 10
3.8417799331
 20
-3.5350293389
 30
0.0
 40
3.144287209260835
100
AcDbArc
 50
105.7114440954
 51
123.2939939789
  0
ARC
  5
C7
330
1F
100
AcDbEntity
  8
0
  6
Continuous
 62
     7
100
AcDbCircle
 10
1.6450871923
 20
-0.3485750729
 30
0.0
 40
0.7301985182687366
100
AcDbArc
 50
292.3003801332
 51
310.1352591624
  0
LWPOLYLINE
  5
C8
330
1F
100
AcDbEntity
  8
0
  6
Continuous
 62
     7
100
AcDbPolyline
 90
        5
 70
   128
 43
0.0
 10
1.9221688349
 20
-1.02416
 10
1.9205237622
 20
-1.0235311011
 10
1.9196402539
 20
-1.0216858398
 10
1.9200576562
 20
-1.0145948438
 10
1.97283
 20
-0.90294
  0
LWPOLYLINE
  5
C9
330
1F
100
AcDbEntity
  8
0
  6
Continuous
 62
     7
100
AcDbPolyline
 90
        5
 70
   128
 43
0.0
 10
1.972829263
 20
-0.90294
 10
2.1672171686
 20
-0.6815955424
 10
2.4452036371
 20
-0.5132397632
 10
2.6983154006
 20
-0.4302912624
 10
2.9625
 20
-0.40063
  0
LWPOLYLINE
  5
CA
330
1F
100
AcDbEntity
  8
0
  6
Continuous
 62
     7
100
AcDbPolyline
 90
        6
 70
   128
 43
0.0
 10
2.9624986836
 20
-0.40063
 10
3.1454725
 20
-0.41190875
 10
3.2089059375
 20
-0.4231117187
 10
3.2269755859
 20
-0.4292595898
 10
3.2317694092
 20
-0.4323645581
 10
3.23342
 20
-0.43545
  0
LWPOLYLINE
  5
CB
330
1F
100
AcDbEntity
  8
0
  6
Continuous
 62
     7
100
AcDbPolyline
 90
        5
 70
   128
 43
0.0
 10
3.2334182206
 20
-0.43545
 10
3.2275430469
 20
-0.4421862109
 10
3.2111
 20
-0.4499984375
 10
3.1536425
 20
-0.4680475
 10
2.99033
 20
-0.50822
  0
LWPOLYLINE
  5
CC
330
1F
100
AcDbEntity
  8
0
  6
Continuous
 62
     7
100
AcDbPolyline
 90
        5
 70
   128
 43
0.0
 10
3.1300182418
 20
-0.2125
 10
2.9185822515
 20
-0.1769084608
 10
2.6362518362
 20
-0.0910979584
 10
2.4001022275
 20
-0.0012638008
 10
2.18012
 20
0.09788
  0
LWPOLYLINE
  5
CD
330
1F
100
AcDbEntity
  8
0
  6
Continuous
 62
     7
100
AcDbPolyline
 90
        3
 70
   128
 43
0.0
 10
1.8883596255
 20
0.24241
 10
1.9836333824
 20
0.2513114106
 10
2.058
 20
0.25563
  0
ARC
  5
CE
330
1F
100
AcDbEntity
  8
0
  6
Continuous
 62
     7
100
AcDbCircle
 10
2.085293398
 20
-1.3159885667
 30
0.0
 40
1.571855554146527
100
AcDbArc
 50
72.6562328578
 51
90.9949457895
  0
LWPOLYLINE
  5
CF
330
1F
100
AcDbEntity
  8
0
  6
Continuous
 62
     7
100
AcDbPolyline
 90
        6
 70
   128
 43
0.0
 10
2.5538689508
 20
0.1844
 10
2.99775375
 20
-0.017735
 10
3.1882307813
 20
-0.12844
 10
3.2416581445
 20
-0.1724534375
 10
3.2536759204
 20
-0.1899068359
 10
3.25428
 20
-0.20367
  0
ARC
  5
D0
330
1F
100
AcDbEntity
  8
0
  6
Continuous
 62
     7
100
AcDbCircle
 10
3.1763839119
 20
0.0137816057
 30
0.0
 40
0.2309826344269698
100
AcDbArc
 50
258.4206613343
 51
289.7086378087
  0
LWPOLYLINE
  5
D1
330
1F
100
AcDbEntity
  8
0
  6
Continuous
 62
     7
100
AcDbPolyline
 90
        6
 70
   128
 43
0.0
 10
2.4971999521
 20
0.53909
 10
2.3525290495
 20
0.5960561452
 10
2.163318369
 20
0.6374043135
 10
1.9536648154
 20
0.664344304
 10
1.7131055179
 20
0.679243364
 10
1.51707
 20
0.67779
  0
ARC
  5
D2
330
1F
100
AcDbEntity
  8
0
  6
Continuous
 62
     7
100
AcDbCircle
 10
1.7043305201
 20
-2.4541649918
 30
0.0
 40
3.137548201244795
100
AcDbArc
 50
93.421665134
 51
102.4035166589
  0
LWPOLYLINE
  5
D3
330
1F
100
AcDbEntity
  8
0
  6
Continuous
 62
     7
100
AcDbPolyline
 90
        8
 70
   128
 43
0.0
 10
1.0303994567
 20
0.61015
 10
1.002692735
 20
0.6050558878
 10
0.9902985938
 20
0.6066842188
 10
0.9862649002
 20
0.6121656741
 10
0.9882534888
 20
0.6215596411
 10
1.0083665941
 20
0.6503241037
 10
1.0392147313
 20
0.6835797485
 10
1.12737
 20
0.76778
  0
LWPOLYLINE
  5
D4
330
1F
100
AcDbEntity
  8
0
  6
Continuous
 62
     7
100
AcDbPolyline
 90
        8
 70
   128
 43
0.0
 10
1.1273696432
 20
0.76778
 10
1.3221181944
 20
0.92169875
 10
1.5547088889
 20
1.0880633333
 10
1.78148625
 20
1.26943625
 10
1.9214925586
 20
1.4168566602
 10
2.0152551562
 20
1.5752417187
 10
2.0443567383
 20
1.7456724805
 10
1.99038
 20
1.92923
  0
LWPOLYLINE
  5
D5
330
1F
100
AcDbEntity
  8
0
  6
Continuous
 62
     7
100
AcDbPolyline
 90
        3
 70
   128
 43
0.0
 10
1.9903797803
 20
1.92923
 10
1.8422881344
 20
2.1211923104
 10
1.6587
 20
2.27636
  0
LWPOLYLINE
  5
D6
330
1F
100
AcDbEntity
  8
0
  6
Continuous
 62
     7
100
AcDbPolyline
 90
        5
 70
   128
 43
0.0
 10
1.6586998786
 20
2.27636
 10
1.2668255251
 20
2.5236655962
 10
0.864120937
 20
2.6783787853
 10
0.4984832311
 20
2.7481384542
 10
0.05571
 20
2.783
  0
ARC
  5
D7
330
1F
100
AcDbEntity
  8
0
  6
Continuous
 62
     7
100
AcDbCircle
 10
-0.1797758968
 20
-0.6567915243
 30
0.0
 40
3.447842707443252
100
AcDbArc
 50
86.0836787675
 51
122.0136361484
  0
LWPOLYLINE
  5
D8
330
1F
100
AcDbEntity
  8
0
  6
Continuous
 62
     7
100
AcDbPolyline
 90
        5
 70
   128
 43
0.0
 10
-2.0075489686
 20
2.26671
 10
-2.28010375
 20
2.0932279687
 10
-2.3025478516
 20
2.0829934351
 10
-2.3036310303
 20
2.0833869382
 10
-2.30389
 20
2.08444
  0
ARC
  5
D9
330
1F
100
AcDbEntity
  8
0
  6
Continuous
 62
     7
100
AcDbCircle
 10
-1.254383204
 20
1.7769176275
 30
0.0
 40
1.093633299507312
100
AcDbArc
 50
151.0252493706
 51
163.6685616387
  0
ARC
  5
DA
330
1F
100
AcDbEntity
  8
0
  6
Continuous
 62
     7
100
AcDbCircle
 10
-1.463917338
 20
1.7833940176
 30
0.0
 40
0.9122362207791194
100
AcDbArc
 50
83.507632065
 51
144.9947260204
  0
LWPOLYLINE
  5
DB
330
1F
100
AcDbEntity
  8
0
  6
Continuous
 62
     7
100
AcDbPolyline
 90
        5
 70
   128
 43
0.0
 10
-1.3607693469
 20
2.68978
 10
-1.1839901563
 20
2.6832085938
 10
-1.06511125
 20
2.72627125
 10
-1.0060392188
 20
2.8079007813
 10
-1.00868
 20
2.91703
  0
LWPOLYLINE
  5
DC
330
1F
100
AcDbEntity
  8
0
  6
Continuous
 62
     7
100
AcDbPolyline
 90
        3
 70
   128
 43
0.0
 10
-1.0086795476
 20
2.91703
 10
-1.0808109658
 20
2.979912848
 10
-1.18648
 20
2.9898
  0
LWPOLYLINE
  5
DD
330
1F
100
AcDbEntity
  8
0
  6
Continuous
 62
     7
100
AcDbPolyline
 90
        6
 70
   128
 43
0.0
 10
-1.1864797337
 20
2.9898
 10
-1.2830329397
 20
2.976335861
 10
-1.4238125591
 20
2.9398517671
 10
-1.6940781658
 20
2.8501106432
 10
-1.9396988747
 20
2.7527192964
 10
-2.14124
 20
2.65588
  0
ARC
  5
DE
330
1F
100
AcDbEntity
  8
0
  6
Continuous
 62
     7
100
AcDbCircle
 10
-1.6233765196
 20
1.6905745464
 30
0.0
 40
1.095443540992589
100
AcDbArc
 50
118.2124738157
 51
129.9212492138
  0
LWPOLYLINE
  5
DF
330
1F
100
AcDbEntity
  8
0
  6
Continuous
 62
     7
100
AcDbPolyline
 90
        6
 70
   128
 43
0.0
 10
-2.326359899
 20
2.5307
 10
-2.3278453955
 20
2.5317366943
 10
-2.3292891016
 20
2.5347415234
 10
-2.3320215625
 20
2.5460240625
 10
-2.3366575
 20
2.58526
 10
-2.34094
 20
2.69505
  0
ARC
  5
E0
330
1F
100
AcDbEntity
  8
0
  6
Continuous
 62
     7
100
AcDbCircle
 10
-5.0062514958
 20
2.5852581693
 30
0.0
 40
2.667572286683035
100
AcDbArc
 50
2.3588436338
 51
13.631453324
  0
LWPOLYLINE
  5
E1
330
1F
100
AcDbEntity
  8
0
  6
Continuous
 62
     7
100
AcDbPolyline
 90
        6
 70
   128
 43
0.0
 10
-2.4138191554
 20
3.21394
 10
-2.4879829663
 20
3.4898841748
 10
-2.555810293
 20
3.6777869922
 10
-2.6294495804
 20
3.7956824325
 10
-2.6892860937
 20
3.8282378125
 10
-2.79016
 20
3.79272
  0
LWPOLYLINE
  5
E2
330
1F
100
AcDbEntity
  8
0
  6
Continuous
 62
     7
100
AcDbPolyline
 90
        5
 70
   128
 43
0.0
 10
-2.7901591278
 20
3.79272
 10
-2.843484375
 20
3.7214140625
 10
-2.8541
 20
3.6265525
 10
-2.823398125
 20
3.5219071875
 10
-2.75277
 20
3.42125
  0
LWPOLYLINE
  5
E3
330
1F
100
AcDbEntity
  8
0
  6
Continuous
 62
     7
100
AcDbPolyline
 90
        3
 70
   128
 43
0.0
 10
-2.7527677731
 20
3.42125
 10
-2.6416279917
 20
3.2712835411
 10
-2.57426
 20
3.12784
  0
LWPOLYLINE
  5
E4
330
1F
100
AcDbEntity
  8
0
  6
Continuous
 62
     7
100
AcDbPolyline
 90
        3
 70
   128
 43
0.0
 10
-2.5742589019
 20
3.12784
 10
-2.5210903744
 20
2.8277980301
 10
-2.52699
 20
2.62316
  0
LWPOLYLINE
  5
E5
330
1F
100
AcDbEntity
  8
0
  6
Continuous
 62
     7
100
AcDbPolyline
 90
        3
 70
   128
 43
0.0
 10
-2.5269881947
 20
2.62316
 10
-2.5297734419
 20
2.5847605222
 10
-2.53463
 20
2.56118
  0
LWPOLYLINE
  5
E6
330
1F
100
AcDbEntity
  8
0
  6
Continuous
 62
     7
100
AcDbPolyline
 90
        3
 70
   128
 43
0.0
 10
-2.5346288531
 20
2.56118
 10
-2.5450453459
 20
2.5499900173
 10
-2.55574
 20
2.54483
  0
LWPOLYLINE
  5
E7
330
1F
100
AcDbEntity
  8
0
  6
Continuous
 62
     7
100
AcDbPolyline
 90
        3
 70
   128
 43
0.0
 10
-2.5557392225
 20
2.54483
 10
-2.6342685043
 20
2.4725022726
 10
-2.66726
 20
2.39301
  0
LWPOLYLINE
  5
E8
330
1F
100
AcDbEntity
  8
0
  6
Continuous
 62
     7
100
AcDbPolyline
 90
       10
 70
   128
 43
0.0
 10
-2.6672585743
 20
2.39301
 10
-2.6843174208
 20
2.3414345438
 10
-2.694705625
 20
2.3227939063
 10
-2.6984709761
 20
2.3206632998
 10
-2.7010722465
 20
2.321335227
 10
-2.7035017711
 20
2.323947637
 10
-2.7079146191
 20
2.334975437
 10
-2.7162651252
 20
2.3875877455
 10
-2.7237596668
 20
2.4784531594
 10
-2.73754
 20
2.69753
  0
LWPOLYLINE
  5
E9
330
1F
100
AcDbEntity
  8
0
  6
Continuous
 62
     7
100
AcDbPolyline
 90
        5
 70
   128
 43
0.0
 10
-2.7375380824
 20
2.69753
 10
-2.8226758502
 20
3.3146175424
 10
-3.0190488819
 20
3.8974016352
 10
-3.2556142122
 20
4.3479223124
 10
-3.56802
 20
4.8055
  0
LWPOLYLINE
  5
EA
330
1F
100
AcDbEntity
  8
0
  6
Continuous
 62
     7
100
AcDbPolyline
 90
        5
 70
   128
 43
0.0
 10
-3.5680185153
 20
4.8055
 10
-3.5961560938
 20
4.855059375
 10
-3.58223125
 20
4.9006325
 10
-3.4953780041
 20
4.9735371035
 10
-3.35912
 20
5.06598
  0
ARC
  5
EB
330
1F
100
AcDbEntity
  8
0
  6
Continuous
 62
     7
100
AcDbCircle
 10
0.1977801481
 20
-0.4798726334
 30
0.0
 40
6.58847540096215
100
AcDbArc
 50
102.2225282581
 51
122.6745649011
  0
LWPOLYLINE
  5
EC
330
1F
100
AcDbEntity
  8
0
  6
Continuous
 62
     7
100
AcDbPolyline
 90
        7
 70
   128
 43
0.0
 10
-1.1970595581
 20
5.95926
 10
-0.8217958291
 20
6.0243133264
 10
-0.3622039771
 20
6.0587686589
 10
0.1313457651
 20
6.0633378278
 10
0.5101453941
 20
6.0464255318
 10
0.8543809009
 20
6.0118478295
 10
1.13962
 20
5.95995
  0
LWPOLYLINE
  5
ED
330
1F
100
AcDbEntity
  8
0
  6
Continuous
 62
     7
100
AcDbPolyline
 90
        7
 70
   128
 43
0.0
 10
1.1396196883
 20
5.95995
 10
2.0832890076
 20
5.6807871079
 10
2.9477718688
 20
5.2815116526
 10
3.7265247411
 20
4.7667130656
 10
4.2739969882
 20
4.2841751015
 10
4.7613301229
 20
3.735378699
 10
5.18535
 20
3.12255
  0
LWPOLYLINE
  5
EE
330
1F
100
AcDbEntity
  8
0
  6
Continuous
 62
     7
100
AcDbPolyline
 90
        9
 70
   128
 43
0.0
 10
5.1853459651
 20
3.12255
 10
5.2731097998
 20
2.9639083676
 10
5.3845564628
 20
2.7443709673
 10
5.4979424838
 20
2.5093942445
 10
5.563276527
 20
2.3679308695
 10
5.6137298208
 20
2.2526114995
 10
5.6408543206
 20
2.1831346642
 10
5.6465066761
 20
2.1644795852
 10
5.64791
 20
2.15565
  0
LWPOLYLINE
  5
EF
330
1F
100
AcDbEntity
  8
0
  6
Continuous
 62
     7
100
AcDbPolyline
 90
        5
 70
   128
 43
0.0
 10
5.6479061682
 20
2.15565
 10
5.6467568799
 20
2.154277334
 10
5.6433734766
 20
2.1527100781
 10
5.6303715625
 20
2.14906375
 10
5.42563
 20
2.12041
  0
LWPOLYLINE
  5
F0
330
1F
100
AcDbEntity
  8
0
  6
Continuous
 62
     7
100
AcDbPolyline
 90
        6
 70
   128
 43
0.0
 10
5.425627776
 20
2.12041
 10
5.1665646401
 20
2.0598671114
 10
4.8929546516
 20
1.9376336114
 10
4.6211303712
 20
1.7665302483
 10
4.3252713484
 20
1.519572543
 10
4.08131
 20
1.24353
  0
LWPOLYLINE
  5
F1
330
1F
100
AcDbEntity
  8
0
  6
Continuous
 62
     7
100
AcDbPolyline
 90
        7
 70
   128
 43
0.0
 10
4.0813083724
 20
1.24353
 10
3.9923217881
 20
1.076987058
 10
3.9597229883
 20
0.9973581592
 10
3.947645564
 20
0.9851209882
 10
3.932691875
 20
0.9849740625
 10
3.9007665046
 20
1.0104042099
 10
3.86388
 20
1.05471
  0
LWPOLYLINE
  5
F2
330
1F
100
AcDbEntity
  8
0
  6
Continuous
 62
     7
100
AcDbPolyline
 90
        4
 70
   128
 43
0.0
 10
3.8638781375
 20
1.05471
 10
3.8032135937
 20
1.093379375
 10
3.697705293
 20
1.0269924219
 10
3.57835
 20
0.81767
  0
LWPOLYLINE
  5
F3
330
1F
100
AcDbEntity
  8
0
  6
Continuous
 62
     7
100
AcDbPolyline
 90
        5
 70
   128
 43
0.0
 10
3.5783484226
 20
0.81767
 10
3.53322464
 20
0.7138508026
 10
3.478921776
 20
0.5757339885
 10
3.44553979
 20
0.4709760306
 10
3.4331
 20
0.39213
  0
LWPOLYLINE
  5
F4
330
1F
100
AcDbEntity
  8
0
  6
Continuous
 62
     7
100
AcDbPolyline
 90
        5
 70
   128
 43
0.0
 10
3.4330984739
 20
0.39213
 10
3.4327523047
 20
0.3250378125
 10
3.4283627393
 20
0.3045418945
 10
3.4194171875
 20
0.295374375
 10
3.39814
 20
0.30418
  0
LWPOLYLINE
  5
F5
330
1F
100
AcDbEntity
  8
0
  6
Continuous
 62
     7
100
AcDbPolyline
 90
        8
 70
   128
 43
0.0
 10
3.3981382378
 20
0.30418
 10
3.3704768312
 20
0.3327907789
 10
3.3312390214
 20
0.3633896859
 10
3.2321025883
 20
0.4304122077
 10
3.0057540122
 20
0.5642798669
 10
2.7921571976
 20
0.6720181738
 10
2.7251569848
 20
0.6977644211
 10
2.69128
 20
0.70451
  0
LWPOLYLINE
  5
F6
330
1F
100
AcDbEntity
  8
0
  6
Continuous
 62
     7
100
AcDbPolyline
 90
        3
 70
   128
 43
0.0
 10
2.6912787768
 20
0.70451
 10
2.6050719782
 20
0.6609918534
 10
2.58098
 20
0.58734
  0
LWPOLYLINE
  5
F7
330
1F
100
AcDbEntity
  8
0
  6
Continuous
 62
     7
100
AcDbPolyline
 90
        5
 70
   128
 43
0.0
 10
2.5809796776
 20
0.58734
 10
2.5771284375
 20
0.5436940625
 10
2.5623325
 20
0.522505
 10
2.5319321586
 20
0.5228388922
 10
2.4972
 20
0.53909
  0
LWPOLYLINE
  5
F8
330
1F
100
AcDbEntity
  8
0
  6
Continuous
 62
     7
100
AcDbPolyline
 90
        3
 70
   128
 43
0.0
 10
0.1586699404
 20
6.72454
 10
0.0978160454
 20
6.583152329
 10
-0.00993
 20
6.54073
  0
LWPOLYLINE
  5
F9
330
1F
100
AcDbEntity
  8
0
  6
Continuous
 62
     7
100
AcDbPolyline
 90
        4
 70
   128
 43
0.0
 10
-0.0099299978
 20
6.54073
 10
-0.0827321683
 20
6.5587003149
 10
-0.1396182586
 20
6.607074087
 10
-0.17853
 20
6.72454
  0
LWPOLYLINE
  5
FA
330
1F
100
AcDbEntity
  8
0
  6
Continuous
 62
     7
100
AcDbPolyline
 90
        3
 70
   128
 43
0.0
 10
-0.1785299909
 20
6.72454
 10
-0.1176760454
 20
6.8659185229
 10
-0.00993
 20
6.90834
  0
LWPOLYLINE
  5
FB
330
1F
100
AcDbEntity
  8
0
  6
Continuous
 62
     7
100
AcDbPolyline
 90
        4
 70
   128
 43
0.0
 10
-0.0099299978
 20
6.90834
 10
0.0628721683
 20
6.8903699046
 10
0.1197582586
 20
6.8419976691
 10
0.15867
 20
6.72454
  0
LWPOLYLINE
  5
FC
330
1F
100
AcDbEntity
  8
0
  6
Continuous
 62
     7
100
AcDbPolyline
 90
        3
 70
   128
 43
0.0
 10
4.1183993572
 20
-1.00183
 10
4.0341769498
 20
-0.9338059578
 10
4.00806
 20
-0.87918
  0
LWPOLYLINE
  5
FD
330
1F
100
AcDbEntity
  8
0
  6
Continuous
 62
     7
100
AcDbPolyline
 90
        6
 70
   128
 43
0.0
 10
4.0080580186
 20
-0.87918
 10
4.0142139063
 20
-0.8536635938
 10
4.0200138828
 20
-0.8502198111
 10
4.0279402905
 20
-0.8502269165
 10
4.0720127119
 20
-0.8764537128
 10
4.12813
 20
-0.9267
  0
LWPOLYLINE
  5
FE
330
1F
100
AcDbEntity
  8
0
  6
Continuous
 62
     7
100
AcDbPolyline
 90
       12
 70
   128
 43
0.0
 10
4.1281285248
 20
-0.9267
 10
4.2324412388
 20
-1.0303086239
 10
4.2576635469
 20
-1.0600535288
 10
4.2628241057
 20
-1.0687158609
 10
4.2639345288
 20
-1.0733446729
 10
4.2634656892
 20
-1.0748629922
 10
4.2622998652
 20
-1.0758687783
 10
4.2581330225
 20
-1.0763130223
 10
4.2529651564
 20
-1.0752747835
 10
4.2393320313
 20
-1.0702021875
 10
4.192964082
 20
-1.0462438672
 10
4.1184
 20
-1.00183
  0
LWPOLYLINE
  5
FF
330
1F
100
AcDbEntity
  8
0
  6
Continuous
 62
     7
100
AcDbPolyline
 90
        4
 70
   128
 43
0.0
 10
4.1435177871
 20
-0.45196
 10
4.07799
 20
-0.56217625
 10
4.0349434375
 20
-0.5769348437
 10
3.98504
 20
-0.56479
  0
LWPOLYLINE
  5
100
330
1F
100
AcDbEntity
  8
0
  6
Continuous
 62
     7
100
AcDbPolyline
 90
        4
 70
   128
 43
0.0
 10
3.9850398311
 20
-0.56479
 10
3.9856684375
 20
-0.5216326562
 10
4.01229
 20
-0.48844375
 10
4.14352
 20
-0.45196
  0
ARC
  5
101
330
1F
100
AcDbEntity
  8
0
  6
Continuous
 62
     7
100
AcDbCircle
 10
0.0136963513
 20
0.039644084
 30
0.0
 40
7.364058883850223
100
AcDbArc
 50
232.4677194853
 51
264.0265783529
  0
ARC
  5
102
330
1F
100
AcDbEntity
  8
0
  6
Continuous
 62
     7
100
AcDbCircle
 10
-0.0076819314
 20
0.0276239575
 30
0.0
 40
7.349906489074426
100
AcDbArc
 50
264.1825755485
 51
320.0112424437
  0
ARC
  5
103
330
1F
100
AcDbEntity
  8
0
  6
Continuous
 62
     7
100
AcDbCircle
 10
0.0423221939
 20
0.0014405954
 30
0.0
 40
7.2947781393063
100
AcDbArc
 50
319.9164104638
 51
47.0067539208
  0
ARC
  5
104
330
1F
100
AcDbEntity
  8
0
  6
Continuous
 62
     7
100
AcDbCircle
 10
0.0299570026
 20
0.0173968418
 30
0.0
 40
7.291563964495121
100
AcDbArc
 50
46.8502065012
 51
76.0165685043
  0
ARC
  5
105
330
1F
100
AcDbEntity
  8
0
  6
Continuous
 62
     7
100
AcDbCircle
 10
-0.0045756135
 20
-0.0031754017
 30
0.0
 40
7.319926659102354
100
AcDbArc
 50
75.7931904435
 51
108.1244239044
  0
LWPOLYLINE
  5
106
330
1F
100
AcDbEntity
  8
0
  6
Continuous
 62
     7
100
AcDbPolyline
 90
        5
 70
   128
 43
0.0
 10
-2.281669322
 20
6.95356
 10
-2.9061002176
 20
6.7171855008
 10
-3.5454534048
 20
6.3997385024
 10
-4.0485586976
 20
6.0985804408
 10
-4.54444
 20
5.75607
  0
LWPOLYLINE
  5
107
330
1F
100
AcDbEntity
  8
0
  6
Continuous
 62
     7
100
AcDbPolyline
 90
        3
 70
   128
 43
0.0
 10
-4.5224977291
 20
5.60019
 10
-4.3851302976
 20
5.4961570797
 10
-4.2798
 20
5.40746
  0
LWPOLYLINE
  5
108
330
1F
100
AcDbEntity
  8
0
  6
Continuous
 62
     7
100
AcDbPolyline
 90
        3
 70
   128
 43
0.0
 10
-4.3363693192
 20
5.38764
 10
-4.6686868666
 20
5.5578828045
 10
-4.95427
 20
5.64701
  0
ARC
  5
109
330
1F
100
AcDbEntity
  8
0
  6
Continuous
 62
     7
100
AcDbCircle
 10
-5.1127289774
 20
5.1926305096
 30
0.0
 40
0.4812179400033607
100
AcDbArc
 50
70.7741808672
 51
114.7230533286
  0
LWPOLYLINE
  5
10A
330
1F
100
AcDbEntity
  8
0
  6
Continuous
 62
     7
100
AcDbPolyline
 90
        6
 70
   128
 43
0.0
 10
-5.3139887457
 20
5.62974
 10
-5.4854699946
 20
5.5192492158
 10
-5.5828140851
 20
5.3668758274
 10
-5.6258848314
 20
5.1829850816
 10
-5.6339880139
 20
4.9398936792
 10
-5.62681
 20
4.68439
  0
LWPOLYLINE
  5
10B
330
1F
100
AcDbEntity
  8
0
  6
Continuous
 62
     7
100
AcDbPolyline
 90
       14
 70
   128
 43
0.0
 10
-5.6268098786
 20
4.68439
 10
-5.6586524074
 20
4.3618968056
 10
-5.7453125926
 20
4.0088244444
 10
-5.859765
 20
3.66554875
 10
-5.9475853906
 20
3.4388096289
 10
-6.024435625
 20
3.2573260938
 10
-6.0789142969
 20
3.1381316992
 10
-6.0982333044
 20
3.0998598996
 10
-6.0991481787
 20
3.0984715028
 10
-6.0993994967
 20
3.0981873609
 10
-6.0995310608
 20
3.098105784
 10
-6.0995696868
 20
3.0981092787
 10
-6.0995974143
 20
3.0981361029
 10
-6.09962
 20
3.09826
  0
LWPOLYLINE
  5
10C
330
1F
100
AcDbEntity
  8
0
  6
Continuous
 62
     7
100
AcDbPolyline
 90
       17
 70
   128
 43
0.0
 10
-6.0996155101
 20
3.09826
 10
-6.1078150525
 20
3.1543268403
 10
-6.0997287931
 20
3.2287023344
 10
-6.0606695475
 20
3.4124416514
 10
-5.9460865039
 20
3.8304398828
 10
-5.8772199832
 20
4.0722466852
 10
-5.8215176929
 20
4.282960542
 10
-5.7916583774
 20
4.4352826141
 10
-5.7903819429
 20
4.4810158437
 10
-5.7938504003
 20
4.4947826017
 10
-5.8003207812
 20
4.5019140625
 10
-5.8139600192
 20
4.5003638666
 10
-5.8337577808
 20
4.4852482178
 10
-5.882178829
 20
4.426523344
 10
-5.951533636
 20
4.3218635844
 10
-6.0221628196
 20
4.2042832004
 10
-6.10817
 20
4.05306
  0
ARC
  5
10D
330
1F
100
AcDbEntity
  8
0
  6
Continuous
 62
     7
100
AcDbCircle
 10
-0.0453646594
 20
-0.0028729041
 30
0.0
 40
7.294392358245258
100
AcDbArc
 50
146.2180103723
 51
232.6321506338
  0
LWPOLYLINE
  5
10E
330
1F
100
AcDbEntity
  8
0
  6
Continuous
 62
     7
100
AcDbPolyline
 90
       10
 70
   128
 43
0.0
 10
-2.9795587532
 20
-5.253
 10
-2.4979855903
 20
-5.2032484488
 10
-1.9221133486
 20
-5.1724842587
 10
-1.2780031156
 20
-5.1589384848
 10
-0.5917147324
 20
-5.1608421823
 10
0.1106919603
 20
-5.1764264064
 10
0.7910298388
 20
-5.2033370104
 10
1.437089511
 20
-5.2400617188
 10
2.0241824179
 20
-5.2849246693
 10
2.52762
 20
-5.33625
  0
ARC
  5
10F
330
1F
100
AcDbEntity
  8
0
  6
Continuous
 62
     7
100
AcDbCircle
 10
0.790528556
 20
-2.5691693131
 30
0.0
 40
3.362612203991229
100
AcDbArc
 50
280.1341170607
 51
301.0727239216
  0
LWPOLYLINE
  5
110
330
1F
100
AcDbEntity
  8
0
  6
Continuous
 62
     7
100
AcDbPolyline
 90
        5
 70
   128
 43
0.0
 10
1.3821894728
 20
-5.87932
 10
0.763716919
 20
-5.9816819475
 10
0.1398839123
 20
-6.0257908762
 10
-0.324749779
 20
-6.0175232735
 10
-0.74314
 20
-5.96981
  0
ARC
  5
111
330
1F
100
AcDbEntity
  8
0
  6
Continuous
 62
     7
100
AcDbCircle
 10
-0.0996402776
 20
-0.0566380634
 30
0.0
 40
5.948083206813164
100
AcDbArc
 50
245.0924207034
 51
263.7892423212
  0
LWPOLYLINE
  5
112
330
1F
100
AcDbEntity
  8
0
  6
Continuous
 62
     7
100
AcDbPolyline
 90
        5
 70
   128
 43
0.0
 10
2.1270398549
 20
-4.20993
 10
2.2230826566
 20
-3.8685640083
 10
2.3644528691
 20
-3.5580349946
 10
2.4995064019
 20
-3.3601336246
 10
2.59687
 20
-3.28337
  0
LWPOLYLINE
  5
113
330
1F
100
AcDbEntity
  8
0
  6
Continuous
 62
     7
100
AcDbPolyline
 90
        3
 70
   128
 43
0.0
 10
2.5968687741
 20
-3.28337
 10
2.6896039034
 20
-3.286233849
 10
2.7577
 20
-3.32138
  0
LWPOLYLINE
  5
114
330
1F
100
AcDbEntity
  8
0
  6
Continuous
 62
     7
100
AcDbPolyline
 90
        5
 70
   128
 43
0.0
 10
2.7576980628
 20
-3.32138
 10
2.7876291821
 20
-3.381204791
 10
2.7979009126
 20
-3.4951282163
 10
2.7967106361
 20
-3.640782643
 10
2.79105
 20
-3.85062
  0
LWPOLYLINE
  5
115
330
1F
100
AcDbEntity
  8
0
  6
Continuous
 62
     7
100
AcDbPolyline
 90
        7
 70
   128
 43
0.0
 10
2.7910485042
 20
-3.85062
 10
2.788243821
 20
-4.0576652714
 10
2.7865110477
 20
-4.1975058355
 10
2.7614975
 20
-4.31226375
 10
2.6557321875
 20
-4.3426345312
 10
2.5547685547
 20
-4.339597207
 10
2.4121
 20
-4.33656
  0
LWPOLYLINE
  5
116
330
1F
100
AcDbEntity
  8
0
  6
Continuous
 62
     7
100
AcDbPolyline
 90
        5
 70
   128
 43
0.0
 10
3.3044697731
 20
-4.33658
 10
3.0723970898
 20
-4.3390073633
 10
3.0206031665
 20
-4.3334434253
 10
2.9969948438
 20
-4.3157182812
 10
2.99038
 20
-4.26326
  0
ARC
  5
117
330
1F
100
AcDbEntity
  8
0
  6
Continuous
 62
     7
100
AcDbCircle
 10
4.6783507606
 20
-4.4770513147
 30
0.0
 40
1.70145673632905
100
AcDbArc
 50
160.0645326921
 51
172.7815948069
  0
LWPOLYLINE
  5
118
330
1F
100
AcDbEntity
  8
0
  6
Continuous
 62
     7
100
AcDbPolyline
 90
        7
 70
   128
 43
0.0
 10
3.0788497662
 20
-3.89692
 10
3.1795274365
 20
-3.6469263013
 10
3.2889912109
 20
-3.4529255664
 10
3.4017872705
 20
-3.3222327124
 10
3.5124615625
 20
-3.2621626563
 10
3.5823723047
 20
-3.2649631445
 10
3.6473
 20
-3.30457
  0
LWPOLYLINE
  5
119
330
1F
100
AcDbEntity
  8
0
  6
Continuous
 62
     7
100
AcDbPolyline
 90
        5
 70
   128
 43
0.0
 10
3.6472997327
 20
-3.30457
 10
3.6749287872
 20
-3.3608172198
 10
3.6778512256
 20
-3.4709758547
 10
3.6686795972
 20
-3.6221552118
 10
3.65418
 20
-3.85198
  0
LWPOLYLINE
  5
11A
330
1F
100
AcDbEntity
  8
0
  6
Continuous
 62
     7
100
AcDbPolyline
 90
        4
 70
   128
 43
0.0
 10
3.6604784605
 20
-0.96566
 10
3.707274375
 20
-1.0273439063
 10
3.7022175
 20
-1.10267875
 10
3.63879
 20
-1.23846
  0
LWPOLYLINE
  5
11B
330
1F
100
AcDbEntity
  8
0
  6
Continuous
 62
     7
100
AcDbPolyline
 90
        6
 70
   128
 43
0.0
 10
3.6387884711
 20
-1.23846
 10
3.5964814293
 20
-1.3258451708
 10
3.592530432
 20
-1.3295598284
 10
3.5917380176
 20
-1.3291946338
 10
3.591624375
 20
-1.3137478125
 10
3.60105
 20
-1.25794
  0
LWPOLYLINE
  5
11C
330
1F
100
AcDbEntity
  8
0
  6
Continuous
 62
     7
100
AcDbPolyline
 90
        3
 70
   128
 43
0.0
 10
3.6010498137
 20
-1.25794
 10
3.6161404051
 20
-1.1434615386
 10
3.62097
 20
-1.05105
  0
LWPOLYLINE
  5
11D
330
1F
100
AcDbEntity
  8
0
  6
Continuous
 62
     7
100
AcDbPolyline
 90
        5
 70
   128
 43
0.0
 10
3.6209680903
 20
-1.05105
 10
3.6277055859
 20
-0.9927078516
 10
3.6449015625
 20
-0.9643040625
 10
3.6523641797
 20
-0.9627698828
 10
3.66048
 20
-0.96566
  0
LWPOLYLINE
  5
11E
330
1F
100
AcDbEntity
  8
0
  6
Continuous
 62
     7
100
AcDbPolyline
 90
        6
 70
   128
 43
0.0
 10
1.7263793101
 20
-0.82865
 10
1.6766768958
 20
-0.8768272598
 10
1.6513787988
 20
-0.8889859692
 10
1.6469823889
 20
-0.886065806
 10
1.64410875
 20
-0.8800273438
 10
1.64163
 20
-0.85036
  0
LWPOLYLINE
  5
11F
330
1F
100
AcDbEntity
  8
0
  6
Continuous
 62
     7
100
AcDbPolyline
 90
        8
 70
   128
 43
0.0
 10
1.6416292491
 20
-0.85036
 10
1.6585102491
 20
-0.7798493836
 10
1.711121875
 20
-0.7068826563
 10
1.9145825
 20
-0.51779125
 10
2.0521806611
 20
-0.4185559936
 10
2.186041165
 20
-0.3399026188
 10
2.2778967921
 20
-0.3007003299
 10
2.34934
 20
-0.28801
  0
LWPOLYLINE
  5
120
330
1F
100
AcDbEntity
  8
0
  6
Continuous
 62
     7
100
AcDbPolyline
 90
        8
 70
   128
 43
0.0
 10
2.3493393669
 20
-0.28801
 10
2.3791281282
 20
-0.2894003803
 10
2.3927278125
 20
-0.291959375
 10
2.3974101141
 20
-0.2955745142
 10
2.3956573389
 20
-0.3008403711
 10
2.3746560697
 20
-0.3163210862
 10
2.3416709204
 20
-0.3347190449
 10
2.24589
 20
-0.38462
  0
ARC
  5
121
330
1F
100
AcDbEntity
  8
0
  6
Continuous
 62
     7
100
AcDbCircle
 10
3.2392595928
 20
-2.1130467327
 30
0.0
 40
1.993550659917441
100
AcDbArc
 50
119.8870741632
 51
133.8377260044
  0
LWPOLYLINE
  5
122
330
1F
100
AcDbEntity
  8
0
  6
Continuous
 62
     7
100
AcDbPolyline
 90
        3
 70
   128
 43
0.0
 10
1.8584892506
 20
-0.67509
 10
1.772666416
 20
-0.7720545107
 10
1.72638
 20
-0.82865
  0
LWPOLYLINE
  5
123
330
1F
100
AcDbEntity
  8
0
  6
Continuous
 62
     7
100
AcDbPolyline
 90
        6
 70
   128
 43
0.0
 10
3.4169277807
 20
-0.76341
 10
3.3758017187
 20
-0.7595198438
 10
3.35800125
 20
-0.74914875
 10
3.3574830273
 20
-0.7417974023
 10
3.3623576562
 20
-0.7331432813
 10
3.3877
 20
-0.71235
  0
LWPOLYLINE
  5
124
330
1F
100
AcDbEntity
  8
0
  6
Continuous
 62
     7
100
AcDbPolyline
 90
        5
 70
   128
 43
0.0
 10
3.3876980384
 20
-0.71235
 10
3.450585
 20
-0.686109375
 10
3.5009075
 20
-0.6872625
 10
3.53281375
 20
-0.705324375
 10
3.54045
 20
-0.72981
  0
ARC
  5
125
330
1F
100
AcDbEntity
  8
0
  6
Continuous
 62
     7
100
AcDbCircle
 10
3.4484722412
 20
-0.6355296563
 30
0.0
 40
0.1317129275569082
100
AcDbArc
 50
256.1443144899
 51
314.2910561481
  0
LWPOLYLINE
  5
126
330
1F
100
AcDbEntity
  8
0
  6
Continuous
 62
     7
100
AcDbPolyline
 90
        8
 70
   128
 43
0.0
 10
2.7014186063
 20
-1.65269
 10
2.7087500125
 20
-1.6535037543
 10
2.7118432227
 20
-1.655302832
 10
2.7127070679
 20
-1.6586147729
 10
2.7109514062
 20
-1.6633045312
 10
2.6844701347
 20
-1.6938284951
 10
2.6469824095
 20
-1.7328663681
 10
2.56173
 20
-1.83819
  0
LWPOLYLINE
  5
127
330
1F
100
AcDbEntity
  8
0
  6
Continuous
 62
     7
100
AcDbPolyline
 90
        6
 70
   128
 43
0.0
 10
2.5617278467
 20
-1.83819
 10
2.4626414227
 20
-1.9729559622
 10
2.4346443502
 20
-2.0051323798
 10
2.4270501096
 20
-2.0118801408
 10
2.4247684501
 20
-2.0132306673
 10
2.42346
 20
-2.01356
  0
LWPOLYLINE
  5
128
330
1F
100
AcDbEntity
  8
0
  6
Continuous
 62
     7
100
AcDbPolyline
 90
        8
 70
   128
 43
0.0
 10
2.4234591507
 20
-2.01356
 10
2.411039687
 20
-2.0093160391
 10
2.3977681922
 20
-2.0006829135
 10
2.3687138134
 20
-1.9762330131
 10
2.3107067238
 20
-1.915801472
 10
2.2640339182
 20
-1.8549510115
 10
2.2528817712
 20
-1.8344099164
 10
2.24996
 20
-1.82294
  0
LWPOLYLINE
  5
129
330
1F
100
AcDbEntity
  8
0
  6
Continuous
 62
     7
100
AcDbPolyline
 90
        7
 70
   128
 43
0.0
 10
2.2499591816
 20
-1.82294
 10
2.2550388716
 20
-1.8134324434
 10
2.2656147656
 20
-1.8043670117
 10
2.307664375
 20
-1.7797967187
 10
2.44146
 20
-1.72311125
 10
2.6088293638
 20
-1.6693438882
 10
2.70142
 20
-1.65269
  0
ARC
  5
12A
330
1F
100
AcDbEntity
  8
0
  6
Continuous
 62
     7
100
AcDbCircle
 10
2.3131628201
 20
-0.8834849579
 30
0.0
 40
0.5977182345878251
100
AcDbArc
 50
274.4885335189
 51
293.1437046121
  0
ARC
  5
12B
330
1F
100
AcDbEntity
  8
0
  6
Continuous
 62
     7
100
AcDbCircle
 10
2.4398845133
 20
-1.4357932076
 30
0.0
 40
0.1925699185299937
100
AcDbArc
 50
117.8512980022
 51
165.1347368668
  0
LWPOLYLINE
  5
12C
330
1F
100
AcDbEntity
  8
0
  6
Continuous
 62
     7
100
AcDbPolyline
 90
        8
 70
   128
 43
0.0
 10
2.3499189869
 20
-1.26553
 10
2.3807646858
 20
-1.2752444156
 10
2.4129861472
 20
-1.2939005453
 10
2.47595625
 20
-1.341155
 10
2.5337210938
 20
-1.3977371875
 10
2.5482000586
 20
-1.4196522266
 10
2.5502024097
 20
-1.4276321729
 10
2.54809
 20
-1.4331
  0
LWPOLYLINE
  5
12D
330
1F
100
AcDbEntity
  8
0
  6
Continuous
 62
     7
100
AcDbPolyline
 90
       10
 70
   128
 43
0.0
 10
2.0237290484
 20
-0.19735
 10
2.0171280061
 20
-0.2117038111
 10
2.0033525884
 20
-0.2256966056
 10
1.9625938525
 20
-0.2554147656
 10
1.8141203516
 20
-0.335775625
 10
1.6307119092
 20
-0.4143730469
 10
1.4647709375
 20
-0.4671475
 10
1.39900605
 20
-0.4764538676
 10
1.3686998486
 20
-0.4700394531
 10
1.36126
 20
-0.45576
  0
LWPOLYLINE
  5
12E
330
1F
100
AcDbEntity
  8
0
  6
Continuous
 62
     7
100
AcDbPolyline
 90
        5
 70
   128
 43
0.0
 10
1.3612597946
 20
-0.45576
 10
1.371455637
 20
-0.426239849
 10
1.3926277796
 20
-0.3973452751
 10
1.4547716314
 20
-0.3380396224
 10
1.62236
 20
-0.22994
  0
LWPOLYLINE
  5
12F
330
1F
100
AcDbEntity
  8
0
  6
Continuous
 62
     7
100
AcDbPolyline
 90
        7
 70
   128
 43
0.0
 10
1.6223598184
 20
-0.22994
 10
1.7391542187
 20
-0.18979
 10
1.87111625
 20
-0.168855
 10
1.9790426562
 20
-0.170315
 10
2.0117414258
 20
-0.180436875
 10
2.0206307642
 20
-0.1880196875
 10
2.02373
 20
-0.19735
  0
LWPOLYLINE
  5
130
330
1F
100
AcDbEntity
  8
0
  6
Continuous
 62
     7
100
AcDbPolyline
 90
       11
 70
   128
 43
0.0
 10
4.2862497915
 20
-0.0456
 10
4.1375906445
 20
-0.1275492578
 10
4.0508026562
 20
-0.1635584375
 10
4.0303986965
 20
-0.1671168292
 10
4.0203052109
 20
-0.1657535223
 10
4.0146832132
 20
-0.1602012745
 10
4.0147766187
 20
-0.1508395654
 10
4.0313254766
 20
-0.1207347433
 10
4.0572817394
 20
-0.08952183
 10
4.123937582
 20
-0.024384979
 10
4.26994
 20
0.08836
  0
LWPOLYLINE
  5
131
330
1F
100
AcDbEntity
  8
0
  6
Continuous
 62
     7
100
AcDbPolyline
 90
        5
 70
   128
 43
0.0
 10
4.2699383
 20
0.08836
 10
4.5801032173
 20
0.2374265478
 10
4.9126006502
 20
0.3158990387
 10
5.1502538313
 20
0.3202174398
 10
5.33525
 20
0.26773
  0
LWPOLYLINE
  5
132
330
1F
100
AcDbEntity
  8
0
  6
Continuous
 62
     7
100
AcDbPolyline
 90
        6
 70
   128
 43
0.0
 10
5.3352493001
 20
0.26773
 10
5.4335967162
 20
0.2154721305
 10
5.4376938387
 20
0.2081631499
 10
5.4347063062
 20
0.2013091431
 10
5.3819164063
 20
0.1854123438
 10
5.17444
 20
0.17015
  0
LWPOLYLINE
  5
133
330
1F
100
AcDbEntity
  8
0
  6
Continuous
 62
     7
100
AcDbPolyline
 90
        5
 70
   128
 43
0.0
 10
5.1744387844
 20
0.17015
 10
4.9391587642
 20
0.1446263962
 10
4.6581510733
 20
0.0878411373
 10
4.4491743722
 20
0.0264265542
 10
4.28625
 20
-0.0456
  0
LWPOLYLINE
  5
134
330
1F
100
AcDbEntity
  8
0
  6
Continuous
 62
     7
100
AcDbPolyline
 90
        4
 70
   128
 43
0.0
 10
1.4971795045
 20
-0.03569
 10
1.3494161719
 20
-0.0818132422
 10
1.262161875
 20
-0.0723396875
 10
1.24434
 20
-0.03514
  0
LWPOLYLINE
  5
135
330
1F
100
AcDbEntity
  8
0
  6
Continuous
 62
     7
100
AcDbPolyline
 90
        5
 70
   128
 43
0.0
 10
1.2443396519
 20
-0.03514
 10
1.26246125
 20
0.0331539063
 10
1.312915
 20
0.07656375
 10
1.38983625
 20
0.0909092187
 10
1.48736
 20
0.07201
  0
ARC
  5
136
330
1F
100
AcDbEntity
  8
0
  6
Continuous
 62
     7
100
AcDbCircle
 10
8.8917134043
 20
4.3381584889
 30
0.0
 40
6.905245293392896
100
AcDbArc
 50
228.3592649566
 51
231.939944391
  0
LWPOLYLINE
  5
137
330
1F
100
AcDbEntity
  8
0
  6
Continuous
 62
     7
100
AcDbPolyline
 90
        8
 70
   128
 43
0.0
 10
4.3034694326
 20
-0.82231
 10
4.2960493457
 20
-0.8114749951
 10
4.2965480469
 20
-0.8035996484
 10
4.3056160754
 20
-0.7980978881
 10
4.3184125
 20
-0.7960959375
 10
4.4173113279
 20
-0.8079246033
 10
4.5270624268
 20
-0.8364281368
 10
4.73032
 20
-0.91563
  0
ARC
  5
138
330
1F
100
AcDbEntity
  8
0
  6
Continuous
 62
     7
100
AcDbCircle
 10
3.2189582603
 20
-3.6574572408
 30
0.0
 40
3.130786852684559
100
AcDbArc
 50
50.315795399
 51
61.1354037004
  0
LWPOLYLINE
  5
139
330
1F
100
AcDbEntity
  8
0
  6
Continuous
 62
     7
100
AcDbPolyline
 90
        4
 70
   128
 43
0.0
 10
5.2181379063
 20
-1.24808
 10
5.2206589258
 20
-1.251650293
 10
5.2207470313
 20
-1.2564110938
 10
5.17916
 20
-1.29842
  0
LWPOLYLINE
  5
13A
330
1F
100
AcDbEntity
  8
0
  6
Continuous
 62
     7
100
AcDbPolyline
 90
        5
 70
   128
 43
0.0
 10
5.17915553
 20
-1.29842
 10
5.08137875
 20
-1.3524803125
 10
4.96775
 20
-1.3408575
 10
4.82371625
 20
-1.2581084375
 10
4.63472
 20
-1.09879
  0
LWPOLYLINE
  5
13B
330
1F
100
AcDbEntity
  8
0
  6
Continuous
 62
     7
100
AcDbPolyline
 90
        7
 70
   128
 43
0.0
 10
4.9935363409
 20
-0.57215
 10
4.9754516406
 20
-0.6408286914
 10
4.918436875
 20
-0.6765764063
 10
4.7623400992
 20
-0.6817560602
 10
4.5712081666
 20
-0.6467406987
 10
4.4270122436
 20
-0.6125709933
 10
4.3129
 20
-0.59004
  0
LWPOLYLINE
  5
13C
330
1F
100
AcDbEntity
  8
0
  6
Continuous
 62
     7
100
AcDbPolyline
 90
        3
 70
   128
 43
0.0
 10
4.4410693364
 20
-0.4578
 10
4.5985801517
 20
-0.3516335693
 10
4.7452
 20
-0.31731
  0
LWPOLYLINE
  5
13D
330
1F
100
AcDbEntity
  8
0
  6
Continuous
 62
     7
100
AcDbPolyline
 90
        5
 70
   128
 43
0.0
 10
4.7451985164
 20
-0.31731
 10
4.9054454687
 20
-0.3197745312
 10
4.97551375
 20
-0.37773625
 10
4.9925101562
 20
-0.4691948437
 10
4.99354
 20
-0.57215
  0
LWPOLYLINE
  5
13E
330
1F
100
AcDbEntity
  8
0
  6
Continuous
 62
     7
100
AcDbPolyline
 90
       13
 70
   128
 43
0.0
 10
4.5930682205
 20
1.17895
 10
4.5979189302
 20
1.1304980891
 10
4.5860556954
 20
1.0749793154
 10
4.5359794359
 20
0.9455797092
 10
4.3798376758
 20
0.6552637305
 10
4.23142875
 20
0.42408125
 10
4.0821531055
 20
0.2199911133
 10
3.9546901562
 20
0.0762348438
 10
3.9010909902
 20
0.0343635933
 10
3.8787290744
 20
0.0260536063
 10
3.865605854
 20
0.0280164583
 10
3.8540057544
 20
0.0464422729
 10
3.85592
 20
0.10269
  0
ARC
  5
13F
330
1F
100
AcDbEntity
  8
0
  6
Continuous
 62
     7
100
AcDbCircle
 10
6.0437949245
 20
-0.5418742242
 30
0.0
 40
2.280847869776168
100
AcDbArc
 50
138.0358511031
 51
163.5846463093
  0
LWPOLYLINE
  5
140
330
1F
100
AcDbEntity
  8
0
  6
Continuous
 62
     7
100
AcDbPolyline
 90
        6
 70
   128
 43
0.0
 10
4.3478396934
 20
0.98325
 10
4.50608
 20
1.127
 10
4.5646640625
 20
1.1690325
 10
4.5834121484
 20
1.1785784375
 10
4.58947396
 20
1.1799826172
 10
4.59307
 20
1.17895
  0
LWPOLYLINE
  5
141
330
1F
100
AcDbEntity
  8
0
  6
Continuous
 62
     7
100
AcDbPolyline
 90
        7
 70
   128
 43
0.0
 10
3.6976680042
 20
0.33222
 10
3.6854110213
 20
0.2173437007
 10
3.6816759892
 20
0.1858251524
 10
3.676623645
 20
0.1708729834
 10
3.6695717654
 20
0.1656253363
 10
3.6590473437
 20
0.1680009375
 10
3.60699
 20
0.21571
  0
LWPOLYLINE
  5
142
330
1F
100
AcDbEntity
  8
0
  6
Continuous
 62
     7
100
AcDbPolyline
 90
        6
 70
   128
 43
0.0
 10
3.6069891584
 20
0.21571
 10
3.5887675621
 20
0.276590109
 10
3.590719444
 20
0.3578820268
 10
3.6240653856
 20
0.5032567661
 10
3.6730633632
 20
0.6241278998
 10
3.72768
 20
0.70838
  0
LWPOLYLINE
  5
143
330
1F
100
AcDbEntity
  8
0
  6
Continuous
 62
     7
100
AcDbPolyline
 90
        7
 70
   128
 43
0.0
 10
3.7276791775
 20
0.70838
 10
3.7863018073
 20
0.7631825092
 10
3.8023822983
 20
0.7725478646
 10
3.8113316162
 20
0.7743404858
 10
3.8166429291
 20
0.7722840292
 10
3.8199046875
 20
0.7671570312
 10
3.81977
 20
0.74035
  0
LWPOLYLINE
  5
144
330
1F
100
AcDbEntity
  8
0
  6
Continuous
 62
     7
100
AcDbPolyline
 90
        3
 70
   128
 43
0.0
 10
3.8197683537
 20
0.74035
 10
3.7502866784
 20
0.5147681926
 10
3.69767
 20
0.33222
  0
LWPOLYLINE
  5
145
330
1F
100
AcDbEntity
  8
0
  6
Continuous
 62
     7
100
AcDbPolyline
 90
        7
 70
   128
 43
0.0
 10
-0.6071099733
 20
1.4131
 10
-0.3277984998
 20
1.157244857
 10
-0.0584912787
 20
0.8730078477
 10
0.0362457158
 20
0.7615453608
 10
0.1067694459
 20
0.6690332165
 10
0.1433958428
 20
0.6092297354
 10
0.1523
 20
0.57991
  0
ARC
  5
146
330
1F
100
AcDbEntity
  8
0
  6
Continuous
 62
     7
100
AcDbCircle
 10
-0.1090697224
 20
0.6219594248
 30
0.0
 40
0.2647305786526774
100
AcDbArc
 50
321.9189304537
 51
350.8605112773
  0
ARC
  5
147
330
1F
100
AcDbEntity
  8
0
  6
Continuous
 62
     7
100
AcDbCircle
 10
-2.3008165381
 20
-0.7528429789
 30
0.0
 40
2.570536688441229
100
AcDbArc
 50
31.5070911571
 51
54.3868932158
  0
LWPOLYLINE
  5
148
330
1F
100
AcDbEntity
  8
0
  6
Continuous
 62
     7
100
AcDbPolyline
 90
        3
 70
   128
 43
0.0
 10
-0.8937399688
 20
1.51523
 10
-0.7437087603
 20
1.5078051706
 10
-0.60711
 20
1.4131
  0
LWPOLYLINE
  5
149
330
1F
100
AcDbEntity
  8
0
  6
Continuous
 62
     7
100
AcDbPolyline
 90
        5
 70
   128
 43
0.0
 10
0.5879798743
 20
1.10777
 10
0.6268875
 20
1.03609375
 10
0.6389959375
 20
1.0036357812
 10
0.6397824609
 20
0.9914145508
 10
0.63575
 20
0.98307
  0
LWPOLYLINE
  5
14A
330
1F
100
AcDbEntity
  8
0
  6
Continuous
 62
     7
100
AcDbPolyline
 90
        7
 70
   128
 43
0.0
 10
0.6357498291
 20
0.98307
 10
0.6089908788
 20
0.9727663121
 10
0.5768223026
 20
0.9726769964
 10
0.4987454687
 20
0.9882620312
 10
0.25313625
 20
1.08444125
 10
-0.0264235938
 20
1.2362498437
 10
-0.26528
 20
1.40833
  0
LWPOLYLINE
  5
14B
330
1F
100
AcDbEntity
  8
0
  6
Continuous
 62
     7
100
AcDbPolyline
 90
        5
 70
   128
 43
0.0
 10
-0.4422497444
 20
1.5641
 10
-0.1025346061
 20
1.5670227027
 10
0.2108613434
 20
1.4760821658
 10
0.4217954399
 20
1.3290949887
 10
0.58798
 20
1.10777
  0
LWPOLYLINE
  5
14C
330
1F
100
AcDbEntity
  8
0
  6
Continuous
 62
     7
100
AcDbPolyline
 90
        7
 70
   128
 43
0.0
 10
0.8936097303
 20
1.54207
 10
0.9000688798
 20
1.4988277111
 10
0.89570875
 20
1.4766082813
 10
0.8846010779
 20
1.4657240683
 10
0.8660237793
 20
1.4621600952
 10
0.7406322261
 20
1.5026870694
 10
0.56236
 20
1.58972
  0
ARC
  5
14D
330
1F
100
AcDbEntity
  8
0
  6
Continuous
 62
     7
100
AcDbCircle
 10
0.0302903431
 20
0.6715194982
 30
0.0
 40
1.061221052352292
100
AcDbArc
 50
59.9090013152
 51
76.9397689898
  0
LWPOLYLINE
  5
14E
330
1F
100
AcDbEntity
  8
0
  6
Continuous
 62
     7
100
AcDbPolyline
 90
       11
 70
   128
 43
0.0
 10
0.2700999731
 20
1.70529
 10
0.2533244824
 20
1.7096677588
 10
0.2511495247
 20
1.71300949
 10
0.2510700179
 20
1.7171621889
 10
0.2648933393
 20
1.736076623
 10
0.289213125
 20
1.7549203125
 10
0.4161360645
 20
1.8185676709
 10
0.5848652344
 20
1.8623159766
 10
0.7461725684
 20
1.8478713721
 10
0.8086592761
 20
1.8068598981
 10
0.85083
 20
1.73694
  0
LWPOLYLINE
  5
14F
330
1F
100
AcDbEntity
  8
0
  6
Continuous
 62
     7
100
AcDbPolyline
 90
        3
 70
   128
 43
0.0
 10
0.8508299045
 20
1.73694
 10
0.8837048045
 20
1.6165305382
 10
0.89361
 20
1.54207
  0
LWPOLYLINE
  5
150
330
1F
100
AcDbEntity
  8
0
  6
Continuous
 62
     7
100
AcDbPolyline
 90
        3
 70
   128
 43
0.0
 10
-1.0180197597
 20
-0.83321
 10
-1.0951108544
 20
-0.9206737747
 10
-1.18402
 20
-0.98707
  0
ARC
  5
151
330
1F
100
AcDbEntity
  8
0
  6
Continuous
 62
     7
100
AcDbCircle
 10
-1.5437019133
 20
-0.5351871905
 30
0.0
 40
0.577554539995415
100
AcDbArc
 50
287.5923828626
 51
308.5184955075
  0
LWPOLYLINE
  5
152
330
1F
100
AcDbEntity
  8
0
  6
Continuous
 62
     7
100
AcDbPolyline
 90
       12
 70
   128
 43
0.0
 10
-1.3691398102
 20
-1.08573
 10
-1.3722860105
 20
-1.0839922025
 10
-1.3756417674
 20
-1.0807010404
 10
-1.3834388604
 20
-1.070863326
 10
-1.4025068171
 20
-1.0418605814
 10
-1.4494875187
 20
-0.9604050643
 10
-1.5548325
 20
-0.759075
 10
-1.66362
 20
-0.53005875
 10
-1.6982948018
 20
-0.443139797
 10
-1.7040173078
 20
-0.4212733658
 10
-1.7043398377
 20
-0.4155070101
 10
-1.70358
 20
-0.41277
  0
LWPOLYLINE
  5
153
330
1F
100
AcDbEntity
  8
0
  6
Continuous
 62
     7
100
AcDbPolyline
 90
        5
 70
   128
 43
0.0
 10
-1.7035793601
 20
-0.41277
 10
-1.6819535742
 20
-0.4113057031
 10
-1.6374360938
 20
-0.422948125
 10
-1.49776875
 20
-0.47768
 10
-1.14219
 20
-0.65782
  0
LWPOLYLINE
  5
154
330
1F
100
AcDbEntity
  8
0
  6
Continuous
 62
     7
100
AcDbPolyline
 90
        5
 70
   128
 43
0.0
 10
-1.1421898453
 20
-0.65782
 10
-1.0488489715
 20
-0.7168835629
 10
-1.0117725
 20
-0.751785
 10
-1.001480625
 20
-0.788888125
 10
-1.01802
 20
-0.83321
  0
ARC
  5
155
330
1F
100
AcDbEntity
  8
0
  6
Continuous
 62
     7
100
AcDbCircle
 10
-1.4097476404
 20
-0.2769550888
 30
0.0
 40
0.5097845524984738
100
AcDbArc
 50
15.0201467208
 51
39.6578143639
  0
LWPOLYLINE
  5
156
330
1F
100
AcDbEntity
  8
0
  6
Continuous
 62
     7
100
AcDbPolyline
 90
        5
 70
   128
 43
0.0
 10
-0.917379429
 20
-0.14484
 10
-0.859955351
 20
-0.3119053824
 10
-0.8461878965
 20
-0.3667574122
 10
-0.8444218524
 20
-0.3820597912
 10
-0.8453
 20
-0.38922
  0
LWPOLYLINE
  5
157
330
1F
100
AcDbEntity
  8
0
  6
Continuous
 62
     7
100
AcDbPolyline
 90
        6
 70
   128
 43
0.0
 10
-0.8452994617
 20
-0.38922
 10
-0.8484257422
 20
-0.3917924292
 10
-0.8547814062
 20
-0.3925395898
 10
-0.876333125
 20
-0.3891273438
 10
-0.9488525
 20
-0.36666125
 10
-1.16399
 20
-0.29104
  0
LWPOLYLINE
  5
158
330
1F
100
AcDbEntity
  8
0
  6
Continuous
 62
     7
100
AcDbPolyline
 90
        8
 70
   128
 43
0.0
 10
-1.1639895402
 20
-0.29104
 10
-1.2824637556
 20
-0.2521963711
 10
-1.3643347049
 20
-0.2229828447
 10
-1.408803477
 20
-0.2023360137
 10
-1.4272148853
 20
-0.1877339526
 10
-1.4323548306
 20
-0.1752938229
 10
-1.4283410938
 20
-0.1621614062
 10
-1.37834
 20
-0.11789
  0
LWPOLYLINE
  5
159
330
1F
100
AcDbEntity
  8
0
  6
Continuous
 62
     7
100
AcDbPolyline
 90
        5
 70
   128
 43
0.0
 10
-1.3783398106
 20
-0.11789
 10
-1.2823135206
 20
-0.0410582957
 10
-1.1597092531
 20
0.0226515066
 10
-1.0641465311
 20
0.0520585756
 10
-1.01728
 20
0.04839
  0
LWPOLYLINE
  5
15A
330
1F
100
AcDbEntity
  8
0
  6
Continuous
 62
     7
100
AcDbPolyline
 90
        5
 70
   128
 43
0.0
 10
5.0516579095
 20
0.51261
 10
4.8923557965
 20
0.5054836864
 10
4.7542370918
 20
0.4877291552
 10
4.6650424413
 20
0.4672305544
 10
4.6249
 20
0.45022
  0
LWPOLYLINE
  5
15B
330
1F
100
AcDbEntity
  8
0
  6
Continuous
 62
     7
100
AcDbPolyline
 90
        7
 70
   128
 43
0.0
 10
4.6248980394
 20
0.45022
 10
4.5875573436
 20
0.4414340334
 10
4.5715742187
 20
0.44437375
 10
4.5659575601
 20
0.4522765784
 10
4.5666940259
 20
0.4639998145
 10
4.6031618183
 20
0.5171887787
 10
4.65086
 20
0.55387
  0
LWPOLYLINE
  5
15C
330
1F
100
AcDbEntity
  8
0
  6
Continuous
 62
     7
100
AcDbPolyline
 90
       13
 70
   128
 43
0.0
 10
4.6508589129
 20
0.55387
 10
4.831159375
 20
0.615317168
 10
5.0321925
 20
0.6314810937
 10
5.231073125
 20
0.6147854102
 10
5.4752944531
 20
0.555306814
 10
5.5586597771
 20
0.5175430536
 10
5.578574567
 20
0.5024218382
 10
5.5859375
 20
0.4917770313
 10
5.585967666
 20
0.4837390109
 10
5.5797841406
 20
0.4769472925
 10
5.5500495044
 20
0.4682276402
 10
5.5088135766
 20
0.4657964646
 10
5.39217
 20
0.47324
  0
LWPOLYLINE
  5
15D
330
1F
100
AcDbEntity
  8
0
  6
Continuous
 62
     7
100
AcDbPolyline
 90
        3
 70
   128
 43
0.0
 10
5.3921693892
 20
0.47324
 10
5.2149901754
 20
0.4996576461
 10
5.05166
 20
0.51261
  0
LWPOLYLINE
  5
15E
330
1F
100
AcDbEntity
  8
0
  6
Continuous
 62
     7
100
AcDbPolyline
 90
       13
 70
   128
 43
0.0
 10
0.8566994367
 20
-3.15734
 10
1.0132353564
 20
-3.197020961
 10
1.1304427344
 20
-3.3039325317
 10
1.2095569092
 20
-3.4598777438
 10
1.2518126562
 20
-3.6466596289
 10
1.2569053299
 20
-3.8699970598
 10
1.2190464646
 20
-4.0836243058
 10
1.1602984603
 20
-4.2280084273
 10
1.076946875
 20
-4.3382145313
 10
0.997936875
 20
-4.3913614136
 10
0.9056551562
 20
-4.412384082
 10
0.8004675781
 20
-4.3958908423
 10
0.68274
 20
-4.33649
  0
LWPOLYLINE
  5
15F
330
1F
100
AcDbEntity
  8
0
  6
Continuous
 62
     7
100
AcDbPolyline
 90
        5
 70
   128
 43
0.0
 10
0.6827395263
 20
-4.33649
 10
0.5552030822
 20
-4.1902375776
 10
0.4844028019
 20
-3.9769268128
 10
0.4705816442
 20
-3.7795750076
 10
0.49518
 20
-3.57009
  0
LWPOLYLINE
  5
160
330
1F
100
AcDbEntity
  8
0
  6
Continuous
 62
     7
100
AcDbPolyline
 90
        5
 70
   128
 43
0.0
 10
0.4951799596
 20
-3.57009
 10
0.5570920678
 20
-3.368590903
 10
0.6469823987
 20
-3.2352177683
 10
0.7404702098
 20
-3.176610005
 10
0.8567
 20
-3.15734
  0
ARC
  5
161
330
1F
100
AcDbEntity
  8
0
  6
Continuous
 62
     7
100
AcDbCircle
 10
5.0761120925
 20
-3.8985256114
 30
0.0
 40
0.4987569026044538
100
AcDbArc
 50
247.461934978
 51
314.6904867912
  0
LWPOLYLINE
  5
162
330
1F
100
AcDbEntity
  8
0
  6
Continuous
 62
     7
100
AcDbPolyline
 90
        4
 70
   128
 43
0.0
 10
4.8849385554
 20
-4.35919
 10
4.7883385754
 20
-4.2903193901
 10
4.7068230669
 20
-4.1771988166
 10
4.61758
 20
-3.92367
  0
LWPOLYLINE
  5
163
330
1F
100
AcDbEntity
  8
0
  6
Continuous
 62
     7
100
AcDbPolyline
 90
        3
 70
   128
 43
0.0
 10
4.837538783
 20
-3.76153
 10
5.0542692378
 20
-3.721095312
 10
5.16081
 20
-3.69644
  0
LWPOLYLINE
  5
164
330
1F
100
AcDbEntity
  8
0
  6
Continuous
 62
     7
100
AcDbPolyline
 90
        8
 70
   128
 43
0.0
 10
5.1608095019
 20
-3.69644
 10
5.1754361601
 20
-3.6934257283
 10
5.1822457812
 20
-3.6941809375
 10
5.1848533286
 20
-3.696716994
 10
5.1845644897
 20
-3.7007737451
 10
5.1763174973
 20
-3.7117973887
 10
5.1629330215
 20
-3.7228115778
 10
5.12438
 20
-3.74536
  0
LWPOLYLINE
  5
165
330
1F
100
AcDbEntity
  8
0
  6
Continuous
 62
     7
100
AcDbPolyline
 90
        3
 70
   128
 43
0.0
 10
5.1243755761
 20
-3.74536
 10
5.0289056538
 20
-3.7810536922
 10
4.9664
 20
-3.7892
  0
LWPOLYLINE
  5
166
330
1F
100
AcDbEntity
  8
0
  6
Continuous
 62
     7
100
AcDbPolyline
 90
        5
 70
   128
 43
0.0
 10
4.9663998011
 20
-3.7892
 10
4.8186364062
 20
-3.8306539063
 10
4.73870375
 20
-3.93150125
 10
4.7344067187
 20
-4.0680579687
 10
4.81355
 20
-4.21664
  0
LWPOLYLINE
  5
167
330
1F
100
AcDbEntity
  8
0
  6
Continuous
 62
     7
100
AcDbPolyline
 90
        5
 70
   128
 43
0.0
 10
4.8135490868
 20
-4.21664
 10
4.9498288
 20
-4.3184334176
 10
5.111659728
 20
-4.3416013568
 10
5.247386
 20
-4.3046079476
 10
5.38306
 20
-4.21901
  0
LWPOLYLINE
  5
168
330
1F
100
AcDbEntity
  8
0
  6
Continuous
 62
     7
100
AcDbPolyline
 90
        5
 70
   128
 43
0.0
 10
5.3830597344
 20
-4.21901
 10
5.4834476826
 20
-4.1412269341
 10
5.5317414063
 20
-4.1197146875
 10
5.543754707
 20
-4.1220433203
 10
5.55259
 20
-4.13063
  0
LWPOLYLINE
  5
169
330
1F
100
AcDbEntity
  8
0
  6
Continuous
 62
     7
100
AcDbPolyline
 90
        5
 70
   128
 43
0.0
 10
5.5525856694
 20
-4.13063
 10
5.5696225
 20
-4.1597539648
 10
5.5701985352
 20
-4.1710342212
 10
5.565848125
 20
-4.1774060938
 10
5.55286
 20
-4.17474
  0
LWPOLYLINE
  5
16A
330
1F
100
AcDbEntity
  8
0
  6
Continuous
 62
     7
100
AcDbPolyline
 90
        5
 70
   128
 43
0.0
 10
5.5528578796
 20
-4.17474
 10
5.5432738672
 20
-4.168228418
 10
5.5310409375
 20
-4.1675648438
 10
5.5004075
 20
-4.18140375
 10
5.42688
 20
-4.2531
  0
LWPOLYLINE
  5
16B
330
1F
100
AcDbEntity
  8
0
  6
Continuous
 62
     7
100
AcDbPolyline
 90
        3
 70
   128
 43
0.0
 10
5.1145572362
 20
-3.34487
 10
5.0701582541
 20
-3.4593827693
 10
4.98491
 20
-3.51694
  0
LWPOLYLINE
  5
16C
330
1F
100
AcDbEntity
  8
0
  6
Continuous
 62
     7
100
AcDbPolyline
 90
        6
 70
   128
 43
0.0
 10
4.9849054006
 20
-3.51694
 10
4.8090659961
 20
-3.5887691406
 10
4.723478479
 20
-3.6106851074
 10
4.6658192187
 20
-3.599801875
 10
4.652662793
 20
-3.5656332031
 10
4.66657
 20
-3.50385
  0
LWPOLYLINE
  5
16D
330
1F
100
AcDbEntity
  8
0
  6
Continuous
 62
     7
100
AcDbPolyline
 90
        5
 70
   128
 43
0.0
 10
4.6665696647
 20
-3.50385
 10
4.7205054726
 20
-3.3638812838
 10
4.8031116371
 20
-3.2536454227
 10
4.8827733546
 20
-3.2003456258
 10
4.97107
 20
-3.18648
  0
LWPOLYLINE
  5
16E
330
1F
100
AcDbEntity
  8
0
  6
Continuous
 62
     7
100
AcDbPolyline
 90
        3
 70
   128
 43
0.0
 10
4.9710696138
 20
-3.18648
 10
5.0890375571
 20
-3.2412964288
 10
5.11456
 20
-3.34487
  0
LWPOLYLINE
  5
16F
330
1F
100
AcDbEntity
  8
0
  6
Continuous
 62
     7
100
AcDbPolyline
 90
        3
 70
   128
 43
0.0
 10
3.1863680975
 20
0.14048
 10
3.0547163296
 20
0.2443259162
 10
2.93743
 20
0.32421
  0
LWPOLYLINE
  5
170
330
1F
100
AcDbEntity
  8
0
  6
Continuous
 62
     7
100
AcDbPolyline
 90
        8
 70
   128
 43
0.0
 10
2.9374295332
 20
0.32421
 10
2.9073436431
 20
0.3405489587
 10
2.8606974011
 20
0.3686272932
 10
2.8242510338
 20
0.3962362488
 10
2.8093684375
 20
0.4158398437
 10
2.808801665
 20
0.4229256079
 10
2.8126246484
 20
0.4288716211
 10
2.83587
 20
0.43644
  0
LWPOLYLINE
  5
171
330
1F
100
AcDbEntity
  8
0
  6
Continuous
 62
     7
100
AcDbPolyline
 90
       11
 70
   128
 43
0.0
 10
2.8358693198
 20
0.43644
 10
3.00848198
 20
0.398684978
 10
3.1786495898
 20
0.2864224805
 10
3.3041709595
 20
0.1593413599
 10
3.3370012198
 20
0.1088965823
 10
3.3439360824
 20
0.088328359
 10
3.3428442188
 20
0.0771304687
 10
3.3378829471
 20
0.0719821524
 10
3.3291415747
 20
0.0700145923
 10
3.2695251612
 20
0.0903184128
 10
3.18637
 20
0.14048
  0
LWPOLYLINE
  5
172
330
1F
100
AcDbEntity
  8
0
  6
Continuous
 62
     7
100
AcDbPolyline
 90
        9
 70
   128
 43
0.0
 10
-0.0027099997
 20
2.21583
 10
-0.0051875203
 20
2.2096215671
 10
-0.0105044165
 20
2.2038179199
 10
-0.0329254883
 20
2.1878446094
 10
-0.1158745313
 20
2.146064375
 10
-0.2400109961
 20
2.0945894531
 10
-0.39378875
 20
2.03752
 10
-0.7440835938
 20
1.922998125
 10
-1.07439
 20
1.8353
  0
ARC
  5
173
330
1F
100
AcDbEntity
  8
0
  6
Continuous
 62
     7
100
AcDbCircle
 10
-2.0444697197
 20
7.2497000086
 30
0.0
 40
5.500616598683276
100
AcDbArc
 50
272.1897126568
 51
280.1577205667
  0
LWPOLYLINE
  5
174
330
1F
100
AcDbEntity
  8
0
  6
Continuous
 62
     7
100
AcDbPolyline
 90
       10
 70
   128
 43
0.0
 10
-1.8342989167
 20
1.7531
 10
-2.021900957
 20
1.7461229883
 10
-2.1581232813
 20
1.7460582813
 10
-2.2437499023
 20
1.7546403711
 10
-2.2698924331
 20
1.76386977
 10
-2.27956375
 20
1.77360375
 10
-2.2790355493
 20
1.7875204517
 10
-2.2663477539
 20
1.8046829102
 10
-2.1359309346
 20
1.8889606976
 10
-1.94035
 20
1.98796
  0
ARC
  5
175
330
1F
100
AcDbEntity
  8
0
  6
Continuous
 62
     7
100
AcDbCircle
 10
-0.7134909191
 20
-0.4523272304
 30
0.0
 40
2.731333659585081
100
AcDbArc
 50
93.0212608476
 51
116.6910400421
  0
LWPOLYLINE
  5
176
330
1F
100
AcDbEntity
  8
0
  6
Continuous
 62
     7
100
AcDbPolyline
 90
        7
 70
   128
 43
0.0
 10
-0.8574497747
 20
2.27521
 10
-0.5787760938
 20
2.2830459375
 10
-0.30108375
 20
2.27282
 10
-0.0878895313
 20
2.2489440625
 10
-0.0253281445
 20
2.2332660547
 10
-0.0085299438
 20
2.2247333154
 10
-0.00271
 20
2.21583
  0
LWPOLYLINE
  5
177
330
1F
100
AcDbEntity
  8
0
  6
Continuous
 62
     7
100
AcDbPolyline
 90
        5
 70
   128
 43
0.0
 10
-1.3728392875
 20
0.35659
 10
-1.3651032813
 20
0.3404073242
 10
-1.36777
 20
0.3144285937
 10
-1.40104
 20
0.23885375
 10
-1.55641
 20
0.03363
  0
LWPOLYLINE
  5
178
330
1F
100
AcDbEntity
  8
0
  6
Continuous
 62
     7
100
AcDbPolyline
 90
        5
 70
   128
 43
0.0
 10
-1.5564098602
 20
0.03363
 10
-1.7195554451
 20
-0.1111254842
 10
-1.7776241147
 20
-0.1516457115
 10
-1.793967201
 20
-0.1605107867
 10
-1.80151
 20
-0.16271
  0
LWPOLYLINE
  5
179
330
1F
100
AcDbEntity
  8
0
  6
Continuous
 62
     7
100
AcDbPolyline
 90
        5
 70
   128
 43
0.0
 10
-1.8015093221
 20
-0.16271
 10
-1.8965230953
 20
-0.1113058996
 10
-1.9786206086
 20
-0.0009638112
 10
-2.0727675081
 20
0.1496786896
 10
-2.19929
 20
0.34958
  0
LWPOLYLINE
  5
17A
330
1F
100
AcDbEntity
  8
0
  6
Continuous
 62
     7
100
AcDbPolyline
 90
        5
 70
   128
 43
0.0
 10
-2.1682398056
 20
0.72956
 10
-1.9901721632
 20
0.724596841
 10
-1.8680950976
 20
0.6953489997
 10
-1.7703241232
 20
0.641302089
 10
-1.63751
 20
0.54852
  0
ARC
  5
17B
330
1F
100
AcDbEntity
  8
0
  6
Continuous
 62
     7
100
AcDbCircle
 10
-16.5222443177
 20
-20.2558471176
 30
0.0
 40
25.58079387170198
100
AcDbArc
 50
53.6854436097
 51
54.4177189252
  0
ARC
  5
17C
330
1F
100
AcDbEntity
  8
0
  6
Continuous
 62
     7
100
AcDbCircle
 10
-3.8375989894
 20
-3.0833777094
 30
0.0
 40
4.780430762730003
100
AcDbArc
 50
47.1621381079
 51
67.51897382
  0
ARC
  5
17D
330
1F
100
AcDbEntity
  8
0
  6
Continuous
 62
     7
100
AcDbCircle
 10
-1.1707127827
 20
3.8911766141
 30
0.0
 40
2.691500768876808
100
AcDbArc
 50
244.2562045673
 51
251.8379405472
  0
LWPOLYLINE
  5
17E
330
1F
100
AcDbEntity
  8
0
  6
Continuous
 62
     7
100
AcDbPolyline
 90
        9
 70
   128
 43
0.0
 10
-2.3397592109
 20
1.46682
 10
-2.3440195966
 20
1.4718174475
 10
-2.3448902881
 20
1.4764314941
 10
-2.3402052048
 20
1.482639279
 10
-2.3288287103
 20
1.4879987903
 10
-2.2882421875
 20
1.4962075
 10
-2.0941925
 20
1.5022025
 10
-1.8425915625
 20
1.48611375
 10
-1.61842
 20
1.44925
  0
ARC
  5
17F
330
1F
100
AcDbEntity
  8
0
  6
Continuous
 62
     7
100
AcDbCircle
 10
-2.1123314368
 20
-0.5150030302
 30
0.0
 40
2.025398395669407
100
AcDbArc
 50
47.6964440164
 51
75.8855858257
  0
LWPOLYLINE
  5
180
330
1F
100
AcDbEntity
  8
0
  6
Continuous
 62
     7
100
AcDbPolyline
 90
        5
 70
   128
 43
0.0
 10
-0.7491195061
 20
0.98296
 10
-0.584848359
 20
0.8027661299
 10
-0.4500969523
 20
0.6004534874
 10
-0.380054161
 20
0.4509623759
 10
-0.35383
 20
0.3301
  0
LWPOLYLINE
  5
181
330
1F
100
AcDbEntity
  8
0
  6
Continuous
 62
     7
100
AcDbPolyline
 90
        8
 70
   128
 43
0.0
 10
-0.3538298325
 20
0.3301
 10
-0.3334439963
 20
0.2630469429
 10
-0.3295
 20
0.2311328125
 10
-0.3345399451
 20
0.2175595062
 10
-0.3473230762
 20
0.2158877881
 10
-0.3924072034
 20
0.2428922881
 10
-0.4471392018
 20
0.28955546
 10
-0.58726
 20
0.42202
  0
LWPOLYLINE
  5
182
330
1F
100
AcDbEntity
  8
0
  6
Continuous
 62
     7
100
AcDbPolyline
 90
        6
 70
   128
 43
0.0
 10
-3.5138580743
 20
3.81137
 10
-3.3294408189
 20
3.5448726835
 10
-3.198680354
 20
3.2957581453
 10
-3.1094482227
 20
3.0483829024
 10
-3.0410959378
 20
2.7377878748
 10
-2.99372
 20
2.38227
  0
LWPOLYLINE
  5
183
330
1F
100
AcDbEntity
  8
0
  6
Continuous
 62
     7
100
AcDbPolyline
 90
        5
 70
   128
 43
0.0
 10
-2.9937183763
 20
2.38227
 10
-2.9783286912
 20
2.2014288774
 10
-2.9781198892
 20
2.1564277182
 10
-2.9794640827
 20
2.145715902
 10
-2.98117
 20
2.14169
  0
LWPOLYLINE
  5
184
330
1F
100
AcDbEntity
  8
0
  6
Continuous
 62
     7
100
AcDbPolyline
 90
       10
 70
   128
 43
0.0
 10
-2.981168548
 20
2.14169
 10
-2.9876659268
 20
2.138751767
 10
-2.9963854224
 20
2.1404825732
 10
-3.0199991602
 20
2.1571105859
 10
-3.0758373709
 20
2.2205535514
 10
-3.1478760806
 20
2.3216168289
 10
-3.28249875
 20
2.5372625
 10
-3.428712963
 20
2.7978966667
 10
-3.566463287
 20
3.0697775
 10
-3.67694
 20
3.32102
  0
LWPOLYLINE
  5
185
330
1F
100
AcDbEntity
  8
0
  6
Continuous
 62
     7
100
AcDbPolyline
 90
        7
 70
   128
 43
0.0
 10
-3.6769377904
 20
3.32102
 10
-3.77963875
 20
3.6166389063
 10
-3.8681625
 20
3.92784375
 10
-3.923585
 20
4.1805017188
 10
-3.9331084793
 20
4.2687849383
 10
-3.9312735458
 20
4.2910935256
 10
-3.92698
 20
4.30048
  0
LWPOLYLINE
  5
186
330
1F
100
AcDbEntity
  8
0
  6
Continuous
 62
     7
100
AcDbPolyline
 90
        5
 70
   128
 43
0.0
 10
-3.9269792752
 20
4.30048
 10
-3.8523598438
 20
4.2731332813
 10
-3.76297875
 20
4.16663625
 10
-3.6523182813
 20
4.0047835938
 10
-3.51386
 20
3.81137
  0
LWPOLYLINE
  5
187
330
1F
100
AcDbEntity
  8
0
  6
Continuous
 62
     7
100
AcDbPolyline
 90
        3
 70
   128
 43
0.0
 10
5.2921462247
 20
0.87873
 10
5.0821669882
 20
0.8074967546
 10
4.94133
 20
0.77252
  0
LWPOLYLINE
  5
188
330
1F
100
AcDbEntity
  8
0
  6
Continuous
 62
     7
100
AcDbPolyline
 90
        5
 70
   128
 43
0.0
 10
4.941328304
 20
0.77252
 10
4.8537428132
 20
0.7609041755
 10
4.8203020386
 20
0.7653766675
 10
4.8117764062
 20
0.7778595312
 10
4.81815
 20
0.80808
  0
LWPOLYLINE
  5
189
330
1F
100
AcDbEntity
  8
0
  6
Continuous
 62
     7
100
AcDbPolyline
 90
        7
 70
   128
 43
0.0
 10
4.8181485003
 20
0.80808
 10
4.8755782061
 20
0.8744082447
 10
4.9562155853
 20
0.9235148698
 10
5.14203
 20
0.99445125
 10
5.35195125
 20
1.0302126562
 10
5.4298865625
 20
1.0226889258
 10
5.47494
 20
0.99402
  0
LWPOLYLINE
  5
18A
330
1F
100
AcDbEntity
  8
0
  6
Continuous
 62
     7
100
AcDbPolyline
 90
        5
 70
   128
 43
0.0
 10
5.4749353664
 20
0.99402
 10
5.4750645117
 20
0.9854255859
 10
5.4671254687
 20
0.9742228125
 10
5.3912000574
 20
0.9236685809
 10
5.29215
 20
0.87873
  0
ARC
  5
18B
330
1F
100
AcDbEntity
  8
0
  6
Continuous
 62
     7
100
AcDbCircle
 10
5.1263456754
 20
1.5450564903
 30
0.0
 40
0.2999915791194573
100
AcDbArc
 50
283.2492421027
 51
318.4857036504
  0
LWPOLYLINE
  5
18C
330
1F
100
AcDbEntity
  8
0
  6
Continuous
 62
     7
100
AcDbPolyline
 90
        7
 70
   128
 43
0.0
 10
5.1950985991
 20
1.25305
 10
5.0899196875
 20
1.2197482812
 10
5.0580479297
 20
1.219630293
 10
5.04014
 20
1.23031125
 10
5.0363095703
 20
1.2516239258
 10
5.0466703125
 20
1.2834010937
 10
5.11042
 20
1.37768
  0
LWPOLYLINE
  5
18D
330
1F
100
AcDbEntity
  8
0
  6
Continuous
 62
     7
100
AcDbPolyline
 90
        3
 70
   128
 43
0.0
 10
5.110417764
 20
1.37768
 10
5.1919559104
 20
1.4426606886
 10
5.2663
 20
1.4196
  0
ARC
  5
18E
330
1F
100
AcDbEntity
  8
0
  6
Continuous
 62
     7
100
AcDbCircle
 10
5.231121316
 20
1.2934518995
 30
0.0
 40
0.130960209885644
100
AcDbArc
 50
23.7616200993
 51
74.4197442459
  0
LWPOLYLINE
  5
18F
330
1F
100
AcDbEntity
  8
0
  6
Continuous
 62
     7
100
AcDbPolyline
 90
        7
 70
   128
 43
0.0
 10
-2.659948792
 20
0.57358
 10
-2.6386387902
 20
0.5630827526
 10
-2.6156352661
 20
0.5414597725
 10
-2.5641468401
 20
0.4786020296
 10
-2.4544444614
 20
0.3126549082
 10
-2.3591534177
 20
0.1397983535
 10
-2.28983
 20
-0.02047
  0
ARC
  5
190
330
1F
100
AcDbEntity
  8
0
  6
Continuous
 62
     7
100
AcDbCircle
 10
-6.9098086408
 20
-1.1948429814
 30
0.0
 40
4.766902217254859
100
AcDbArc
 50
2.0709657579
 51
14.2622067407
  0
LWPOLYLINE
  5
191
330
1F
100
AcDbEntity
  8
0
  6
Continuous
 62
     7
100
AcDbPolyline
 90
        5
 70
   128
 43
0.0
 10
-2.1460194757
 20
-1.02258
 10
-2.1552317188
 20
-1.0537279688
 10
-2.1786577563
 20
-1.05811927
 10
-2.2216620898
 20
-1.0448388867
 10
-2.38592
 20
-0.96018
  0
LWPOLYLINE
  5
192
330
1F
100
AcDbEntity
  8
0
  6
Continuous
 62
     7
100
AcDbPolyline
 90
        7
 70
   128
 43
0.0
 10
-2.3859199576
 20
-0.96018
 10
-2.4854824481
 20
-0.8997956155
 10
-2.5501559903
 20
-0.8325076545
 10
-2.5892463232
 20
-0.7285051059
 10
-2.6080746807
 20
-0.6016128835
 10
-2.6213679711
 20
-0.4191912078
 10
-2.63364
 20
-0.16678
  0
ARC
  5
193
330
1F
100
AcDbEntity
  8
0
  6
Continuous
 62
     7
100
AcDbCircle
 10
-15.7042182415
 20
-0.6594753284
 30
0.0
 40
13.07986274757813
100
AcDbArc
 50
2.1587415304
 51
4.8526673499
  0
LWPOLYLINE
  5
194
330
1F
100
AcDbEntity
  8
0
  6
Continuous
 62
     7
100
AcDbPolyline
 90
        5
 70
   128
 43
0.0
 10
-2.671238475
 20
0.447
 10
-2.67430625
 20
0.53643125
 10
-2.6691207812
 20
0.5636189062
 10
-2.6650104102
 20
0.5710125195
 10
-2.65995
 20
0.57358
  0
LWPOLYLINE
  5
195
330
1F
100
AcDbEntity
  8
0
  6
Continuous
 62
     7
100
AcDbPolyline
 90
       11
 70
   128
 43
0.0
 10
-2.8757598456
 20
0.53242
 10
-2.8750606619
 20
0.4198408049
 10
-2.8757213914
 20
0.264377335
 10
-2.8796879038
 20
0.0959079638
 10
-2.8932825847
 20
-0.0957565025
 10
-2.9132984375
 20
-0.1809607813
 10
-2.918915838
 20
-0.1881586972
 10
-2.9250450439
 20
-0.1906746265
 10
-2.9352458242
 20
-0.1849429015
 10
-2.9467198883
 20
-0.166807551
 10
-2.97378
 20
-0.08884
  0
LWPOLYLINE
  5
196
330
1F
100
AcDbEntity
  8
0
  6
Continuous
 62
     7
100
AcDbPolyline
 90
        3
 70
   128
 43
0.0
 10
-2.97377898
 20
-0.08884
 10
-2.9959083418
 20
0.0366697715
 10
-3.00285
 20
0.14853
  0
LWPOLYLINE
  5
197
330
1F
100
AcDbEntity
  8
0
  6
Continuous
 62
     7
100
AcDbPolyline
 90
        3
 70
   128
 43
0.0
 10
-3.0028491508
 20
0.14853
 10
-3.0133277523
 20
0.3148351174
 10
-3.04078
 20
0.45565
  0
LWPOLYLINE
  5
198
330
1F
100
AcDbEntity
  8
0
  6
Continuous
 62
     7
100
AcDbPolyline
 90
        4
 70
   128
 43
0.0
 10
-3.040777886
 20
0.45565
 10
-3.0919466942
 20
0.5647927547
 10
-3.099167607
 20
0.6202056774
 10
-3.03238
 20
0.71008
  0
LWPOLYLINE
  5
199
330
1F
100
AcDbEntity
  8
0
  6
Continuous
 62
     7
100
AcDbPolyline
 90
        7
 70
   128
 43
0.0
 10
-3.032379263
 20
0.71008
 10
-2.9697071671
 20
0.7739829026
 10
-2.9342107813
 20
0.7908240625
 10
-2.9120930698
 20
0.7861674579
 10
-2.8963357007
 20
0.7673364795
 10
-2.8760512043
 20
0.6413076269
 10
-2.87576
 20
0.53242
  0
LWPOLYLINE
  5
19A
330
1F
100
AcDbEntity
  8
0
  6
Continuous
 62
     7
100
AcDbPolyline
 90
        6
 70
   128
 43
0.0
 10
-3.4278185349
 20
1.12428
 10
-3.4227561816
 20
1.1222903711
 10
-3.4189814844
 20
1.11658625
 10
-3.4149725
 20
1.095623125
 10
-3.4188275
 20
1.0265975
 10
-3.45572
 20
0.86911
  0
LWPOLYLINE
  5
19B
330
1F
100
AcDbEntity
  8
0
  6
Continuous
 62
     7
100
AcDbPolyline
 90
        3
 70
   128
 43
0.0
 10
-3.4557177326
 20
0.86911
 10
-3.4998352499
 20
0.821749017
 10
-3.55104
 20
0.80748
  0
LWPOLYLINE
  5
19C
330
1F
100
AcDbEntity
  8
0
  6
Continuous
 62
     7
100
AcDbPolyline
 90
        5
 70
   128
 43
0.0
 10
-3.5510382314
 20
0.80748
 10
-3.5829797412
 20
0.8012850221
 10
-3.6219787829
 20
0.788465987
 10
-3.7151311283
 20
0.751064489
 10
-3.92396
 20
0.65159
  0
LWPOLYLINE
  5
19D
330
1F
100
AcDbEntity
  8
0
  6
Continuous
 62
     7
100
AcDbPolyline
 90
       10
 70
   128
 43
0.0
 10
-3.9239591501
 20
0.65159
 10
-4.1491968193
 20
0.5389463258
 10
-4.2373853076
 20
0.5021541626
 10
-4.2485408025
 20
0.4998713743
 10
-4.2518450977
 20
0.5000734116
 10
-4.2536424276
 20
0.5011678475
 10
-4.2537059375
 20
0.5040110937
 10
-4.2478926196
 20
0.5122869605
 10
-4.2381674459
 20
0.5218656764
 10
-4.20963
 20
0.54566
  0
LWPOLYLINE
  5
19E
330
1F
100
AcDbEntity
  8
0
  6
Continuous
 62
     7
100
AcDbPolyline
 90
        8
 70
   128
 43
0.0
 10
-4.2096296633
 20
0.54566
 10
-3.9307265145
 20
0.7631850752
 10
-3.7210780628
 20
0.9227769966
 10
-3.5733376518
 20
1.0312840077
 10
-3.4606642163
 20
1.1078965878
 10
-3.4368512168
 20
1.1212462216
 10
-3.430796927
 20
1.1237044202
 10
-3.42782
 20
1.12428
  0
ARC
  5
19F
330
1F
100
AcDbEntity
  8
0
  6
Continuous
 62
     7
100
AcDbCircle
 10
-4.2703402787
 20
-1.8972157506
 30
0.0
 40
3.32882737839035
100
AcDbArc
 50
88.5059810574
 51
96.7423395099
  0
LWPOLYLINE
  5
1A0
330
1F
100
AcDbEntity
  8
0
  6
Continuous
 62
     7
100
AcDbPolyline
 90
        5
 70
   128
 43
0.0
 10
-4.6611583139
 20
1.40859
 10
-4.7367282813
 20
1.4134967187
 10
-4.80517625
 20
1.46048875
 10
-4.8548160938
 20
1.5373139062
 10
-4.87396
 20
1.63172
  0
LWPOLYLINE
  5
1A1
330
1F
100
AcDbEntity
  8
0
  6
Continuous
 62
     7
100
AcDbPolyline
 90
        7
 70
   128
 43
0.0
 10
-4.8739586289
 20
1.63172
 10
-4.8549864063
 20
1.7624810938
 10
-4.80948625
 20
1.91469875
 10
-4.7545904687
 20
2.0408670312
 10
-4.7289726367
 20
2.0793370508
 10
-4.7162695115
 20
2.090634625
 10
-4.70743
 20
2.09348
  0
ARC
  5
1A2
330
1F
100
AcDbEntity
  8
0
  6
Continuous
 62
     7
100
AcDbCircle
 10
-5.0690192388
 20
0.1920577668
 30
0.0
 40
1.935498322083022
100
AcDbArc
 50
69.6616188085
 51
79.2327364062
  0
ARC
  5
1A3
330
1F
100
AcDbEntity
  8
0
  6
Continuous
 62
     7
100
AcDbCircle
 10
-4.5333868287
 20
1.3671578784
 30
0.0
 40
0.6542532936732088
100
AcDbArc
 50
28.1348563138
 51
77.9059416179
  0
LWPOLYLINE
  5
1A4
330
1F
100
AcDbEntity
  8
0
  6
Continuous
 62
     7
100
AcDbPolyline
 90
        5
 70
   128
 43
0.0
 10
-4.4045579715
 20
2.95026
 10
-4.0153910106
 20
2.7749993715
 10
-3.6548357005
 20
2.5230507482
 10
-3.4224418386
 20
2.2952526475
 10
-3.25988
 20
2.06066
  0
LWPOLYLINE
  5
1A5
330
1F
100
AcDbEntity
  8
0
  6
Continuous
 62
     7
100
AcDbPolyline
 90
        5
 70
   128
 43
0.0
 10
-3.2598789283
 20
2.06066
 10
-3.1898290625
 20
1.9234704688
 10
-3.1878102203
 20
1.9153082834
 10
-3.1886501416
 20
1.9108380151
 10
-3.191
 20
1.91016
  0
LWPOLYLINE
  5
1A6
330
1F
100
AcDbEntity
  8
0
  6
Continuous
 62
     7
100
AcDbPolyline
 90
        7
 70
   128
 43
0.0
 10
-3.1909980173
 20
1.91016
 10
-3.195051568
 20
1.9114075279
 10
-3.1999932744
 20
1.9137084024
 10
-3.2123880007
 20
1.920505192
 10
-3.2445995604
 20
1.9402630862
 10
-3.3268169254
 20
1.9944311386
 10
-3.51002
 20
2.12055
  0
LWPOLYLINE
  5
1A7
330
1F
100
AcDbEntity
  8
0
  6
Continuous
 62
     7
100
AcDbPolyline
 90
        5
 70
   128
 43
0.0
 10
-3.510018972
 20
2.12055
 10
-3.8805742893
 20
2.3493384166
 10
-4.3027969382
 20
2.5419528851
 10
-4.7125010533
 20
2.6853176486
 10
-5.22469
 20
2.8358
  0
ARC
  5
1A8
330
1F
100
AcDbEntity
  8
0
  6
Continuous
 62
     7
100
AcDbCircle
 10
-4.8221551366
 20
1.7949698426
 30
0.0
 40
1.228446598707728
100
AcDbArc
 50
70.1269302011
 51
111.0628422346
  0
LWPOLYLINE
  5
1A9
330
1F
100
AcDbEntity
  8
0
  6
Continuous
 62
     7
100
AcDbPolyline
 90
        6
 70
   128
 43
0.0
 10
-1.7810595317
 20
-4.34038
 10
-1.9310295313
 20
-4.3511752539
 10
-2.0080703135
 20
-4.3504373596
 10
-2.043966875
 20
-4.3359714062
 10
-2.0484720313
 20
-4.312787832
 10
-2.02751
 20
-4.27614
  0
LWPOLYLINE
  5
1AA
330
1F
100
AcDbEntity
  8
0
  6
Continuous
 62
     7
100
AcDbPolyline
 90
        3
 70
   128
 43
0.0
 10
-2.0275094847
 20
-4.27614
 10
-1.9947960634
 20
-4.2073754227
 10
-2.02894
 20
-4.15275
  0
LWPOLYLINE
  5
1AB
330
1F
100
AcDbEntity
  8
0
  6
Continuous
 62
     7
100
AcDbPolyline
 90
        4
 70
   128
 43
0.0
 10
-2.0289397615
 20
-4.15275
 10
-2.066395625
 20
-4.127206875
 10
-2.107095
 20
-4.1293125
 10
-2.2445
 20
-4.21269
  0
LWPOLYLINE
  5
1AC
330
1F
100
AcDbEntity
  8
0
  6
Continuous
 62
     7
100
AcDbPolyline
 90
        5
 70
   128
 43
0.0
 10
-2.2444997247
 20
-4.21269
 10
-2.4528471219
 20
-4.3013057978
 10
-2.6303918874
 20
-4.2721787821
 10
-2.7425090679
 20
-4.1712730858
 10
-2.82584
 20
-4.00543
  0
LWPOLYLINE
  5
1AD
330
1F
100
AcDbEntity
  8
0
  6
Continuous
 62
     7
100
AcDbPolyline
 90
        5
 70
   128
 43
0.0
 10
-2.8258397823
 20
-4.00543
 10
-2.8601852838
 20
-3.8836357523
 10
-2.85757125
 20
-3.82865125
 10
-2.8182392188
 20
-3.7984117187
 10
-2.73538
 20
-3.79099
  0
LWPOLYLINE
  5
1AE
330
1F
100
AcDbEntity
  8
0
  6
Continuous
 62
     7
100
AcDbPolyline
 90
       10
 70
   128
 43
0.0
 10
-2.735379174
 20
-3.79099
 10
-2.4281043945
 20
-3.7585412109
 10
-2.1987857812
 20
-3.6621603125
 10
-2.0475639648
 20
-3.5234555078
 10
-1.9854827267
 20
-3.4046505255
 10
-1.9674685571
 20
-3.2833089209
 10
-1.9935804361
 20
-3.1685466547
 10
-2.0638773438
 20
-3.0694796875
 10
-2.2264407617
 20
-2.9775612891
 10
-2.4678
 20
-2.95136
  0
LWPOLYLINE
  5
1AF
330
1F
100
AcDbEntity
  8
0
  6
Continuous
 62
     7
100
AcDbPolyline
 90
        5
 70
   128
 43
0.0
 10
-2.4677989051
 20
-2.95136
 10
-2.7255057683
 20
-3.0151851578
 10
-2.9448432666
 20
-3.1775762381
 10
-3.0805602343
 20
-3.3624440958
 10
-3.17617
 20
-3.58807
  0
ARC
  5
1B0
330
1F
100
AcDbEntity
  8
0
  6
Continuous
 62
     7
100
AcDbCircle
 10
-2.3527309742
 20
-3.888001641
 30
0.0
 40
0.8763618904202428
100
AcDbArc
 50
159.9862081204
 51
198.9773793275
  0
LWPOLYLINE
  5
1B1
330
1F
100
AcDbEntity
  8
0
  6
Continuous
 62
     7
100
AcDbPolyline
 90
        5
 70
   128
 43
0.0
 10
-3.4543379085
 20
-4.34353
 10
-3.756970625
 20
-4.345335625
 10
-3.7811727148
 20
-4.3423382031
 10
-3.7824440454
 20
-4.3417373584
 10
-3.78287
 20
-4.34111
  0
LWPOLYLINE
  5
1B2
330
1F
100
AcDbEntity
  8
0
  6
Continuous
 62
     7
100
AcDbPolyline
 90
       10
 70
   128
 43
0.0
 10
-3.7828697933
 20
-4.34111
 10
-3.7827501374
 20
-4.3405534964
 10
-3.7824931437
 20
-4.3398327019
 10
-3.781684597
 20
-4.337933571
 10
-3.7791575032
 20
-4.3326311642
 10
-3.7713706675
 20
-4.3172986831
 10
-3.7480505833
 20
-4.2725312763
 10
-3.682225017
 20
-4.144606439
 10
-3.6055363011
 20
-3.9889899169
 10
-3.52082
 20
-3.80566
  0
LWPOLYLINE
  5
1B3
330
1F
100
AcDbEntity
  8
0
  6
Continuous
 62
     7
100
AcDbPolyline
 90
        5
 70
   128
 43
0.0
 10
-3.5208182072
 20
-3.80566
 10
-3.2942032051
 20
-3.2595746694
 10
-3.131027753
 20
-2.7977857715
 10
-3.0539148111
 20
-2.5206621414
 10
-3.02712
 20
-2.34055
  0
LWPOLYLINE
  5
1B4
330
1F
100
AcDbEntity
  8
0
  6
Continuous
 62
     7
100
AcDbPolyline
 90
        3
 70
   128
 43
0.0
 10
-3.0271180971
 20
-2.34055
 10
-3.0564639283
 20
-2.1828259373
 10
-3.13236
 20
-2.09276
  0
LWPOLYLINE
  5
1B5
330
1F
100
AcDbEntity
  8
0
  6
Continuous
 62
     7
100
AcDbPolyline
 90
        5
 70
   128
 43
0.0
 10
-3.1323578414
 20
-2.09276
 10
-3.2398615625
 20
-2.0411025
 10
-3.361135
 20
-2.026465
 10
-3.4659534375
 20
-2.045735
 10
-3.52409
 20
-2.0958
  0
LWPOLYLINE
  5
1B6
330
1F
100
AcDbEntity
  8
0
  6
Continuous
 62
     7
100
AcDbPolyline
 90
        4
 70
   128
 43
0.0
 10
-3.5240894228
 20
-2.0958
 10
-3.53067875
 20
-2.13708625
 10
-3.5254864063
 20
-2.1496467187
 10
-3.51503
 20
-2.15426
  0
LWPOLYLINE
  5
1B7
330
1F
100
AcDbEntity
  8
0
  6
Continuous
 62
     7
100
AcDbPolyline
 90
        5
 70
   128
 43
0.0
 10
-3.5150290474
 20
-2.15426
 10
-3.4917740518
 20
-2.164294561
 10
-3.4719470312
 20
-2.1847104687
 10
-3.42721125
 20
-2.26199375
 10
-3.37789
 20
-2.47265
  0
ARC
  5
1B8
330
1F
100
AcDbEntity
  8
0
  6
Continuous
 62
     7
100
AcDbCircle
 10
-4.8899278542
 20
-2.3793689218
 30
0.0
 40
1.514913396523183
100
AcDbArc
 50
343.2133160007
 51
356.4697683518
  0
LWPOLYLINE
  5
1B9
330
1F
100
AcDbEntity
  8
0
  6
Continuous
 62
     7
100
AcDbPolyline
 90
       11
 70
   128
 43
0.0
 10
-3.4395681591
 20
-2.81689
 10
-3.4995046759
 20
-2.997897963
 10
-3.5884807407
 20
-3.2396103704
 10
-3.68982125
 20
-3.50028
 10
-3.7639085742
 20
-3.6831093359
 10
-3.8285345312
 20
-3.8355071875
 10
-3.8766635352
 20
-3.9398614453
 10
-3.8923430591
 20
-3.9685184424
 10
-3.8982260372
 20
-3.9765761746
 10
-3.9001029003
 20
-3.9781725428
 10
-3.90126
 20
-3.97856
  0
LWPOLYLINE
  5
1BA
330
1F
100
AcDbEntity
  8
0
  6
Continuous
 62
     7
100
AcDbPolyline
 90
        6
 70
   128
 43
0.0
 10
-3.901257759
 20
-3.97856
 10
-3.9024996521
 20
-3.9777505084
 10
-3.9040010059
 20
-3.9753532471
 10
-3.9077582031
 20
-3.9659826953
 10
-3.9482125
 20
-3.801295
 10
-4.03277
 20
-3.39735
  0
ARC
  5
1BB
330
1F
100
AcDbEntity
  8
0
  6
Continuous
 62
     7
100
AcDbCircle
 10
-46.6620509425
 20
-11.6703700656
 30
0.0
 40
43.42463141864422
100
AcDbArc
 50
10.9828088231
 51
12.1769021291
  0
LWPOLYLINE
  5
1BC
330
1F
100
AcDbEntity
  8
0
  6
Continuous
 62
     7
100
AcDbPolyline
 90
        8
 70
   128
 43
0.0
 10
-4.2144285412
 20
-2.51078
 10
-4.2163207607
 20
-2.4808019697
 10
-4.2235433891
 20
-2.4401137845
 10
-4.2490379883
 20
-2.3459492187
 10
-4.2976865698
 20
-2.2350066406
 10
-4.3673639063
 20
-2.158008125
 10
-4.4255471289
 20
-2.1451492188
 10
-4.49315
 20
-2.1768
  0
LWPOLYLINE
  5
1BD
330
1F
100
AcDbEntity
  8
0
  6
Continuous
 62
     7
100
AcDbPolyline
 90
        7
 70
   128
 43
0.0
 10
-4.4931483081
 20
-2.1768
 10
-4.5162814767
 20
-2.2129752157
 10
-4.5356712177
 20
-2.2695742197
 10
-4.586413744
 20
-2.4523732672
 10
-4.6341969292
 20
-2.6225081467
 10
-4.7009912041
 20
-2.8471906437
 10
-4.7916
 20
-3.13358
  0
ARC
  5
1BE
330
1F
100
AcDbEntity
  8
0
  6
Continuous
 62
     7
100
AcDbCircle
 10
-16.6336668173
 20
0.4973078326
 30
0.0
 40
12.38619899865881
100
AcDbArc
 50
338.9142505474
 51
342.9539752076
  0
LWPOLYLINE
  5
1BF
330
1F
100
AcDbEntity
  8
0
  6
Continuous
 62
     7
100
AcDbPolyline
 90
        8
 70
   128
 43
0.0
 10
-5.0768091923
 20
-3.95881
 10
-5.0804997241
 20
-3.9629240991
 10
-5.0834054105
 20
-3.9628049472
 10
-5.0864338876
 20
-3.9600822519
 10
-5.0928742187
 20
-3.9473423437
 10
-5.1092912495
 20
-3.8881808474
 10
-5.1287358864
 20
-3.7961357628
 10
-5.16622
 20
-3.61296
  0
LWPOLYLINE
  5
1C0
330
1F
100
AcDbEntity
  8
0
  6
Continuous
 62
     7
100
AcDbPolyline
 90
        9
 70
   128
 43
0.0
 10
-5.1662161594
 20
-3.61296
 10
-5.1855145312
 20
-3.5048388086
 10
-5.220291875
 20
-3.3154554688
 10
-5.2682364062
 20
-3.073929082
 10
-5.3270325
 20
-2.80937875
 10
-5.3943645312
 20
-2.5509235742
 10
-5.467916875
 20
-2.3276826563
 10
-5.5453739062
 20
-2.1687750977
 10
-5.62442
 20
-2.10332
  0
LWPOLYLINE
  5
1C1
330
1F
100
AcDbEntity
  8
0
  6
Continuous
 62
     7
100
AcDbPolyline
 90
       10
 70
   128
 43
0.0
 10
-5.6244163063
 20
-2.10332
 10
-5.6726716122
 20
-2.0770676788
 10
-5.7096388672
 20
-2.0298089063
 10
-5.7897228125
 20
-1.85083375
 10
-5.8629203516
 20
-1.5988742187
 10
-5.92748
 20
-1.30641
 10
-5.9816502734
 20
-1.0059207813
 10
-6.0236796875
 20
-0.72988625
 10
-6.0518167578
 20
-0.5107860938
 10
-6.06431
 20
-0.3811
  0
LWPOLYLINE
  5
1C2
330
1F
100
AcDbEntity
  8
0
  6
Continuous
 62
     7
100
AcDbPolyline
 90
        9
 70
   128
 43
0.0
 10
-6.0643079713
 20
-0.3811
 10
-6.0748910678
 20
-0.2428197308
 10
-6.0802514668
 20
-0.1485854267
 10
-6.0798302541
 20
-0.0971255847
 10
-6.0756439355
 20
-0.0744449951
 10
-6.0690369226
 20
-0.0657024432
 10
-6.059421875
 20
-0.0655459375
 10
-6.0389913832
 20
-0.0784362849
 10
-6.01742
 20
-0.09707
  0
ARC
  5
1C3
330
1F
100
AcDbEntity
  8
0
  6
Continuous
 62
     7
100
AcDbCircle
 10
-5.2901343727
 20
0.7942066816
 30
0.0
 40
1.150354186112965
100
AcDbArc
 50
230.7855056711
 51
268.653808644
  0
LWPOLYLINE
  5
1C4
330
1F
100
AcDbEntity
  8
0
  6
Continuous
 62
     7
100
AcDbPolyline
 90
        5
 70
   128
 43
0.0
 10
-5.3171567091
 20
-0.35583
 10
-5.1625378803
 20
-0.3465830022
 10
-5.0220300186
 20
-0.3128157459
 10
-4.8957848463
 20
-0.2631941642
 10
-4.73468
 20
-0.18847
  0
ARC
  5
1C5
330
1F
100
AcDbEntity
  8
0
  6
Continuous
 62
     7
100
AcDbCircle
 10
-6.382014072
 20
3.3617687017
 30
0.0
 40
3.913810064771352
100
AcDbArc
 50
294.8916292326
 51
310.6971958169
  0
LWPOLYLINE
  5
1C6
330
1F
100
AcDbEntity
  8
0
  6
Continuous
 62
     7
100
AcDbPolyline
 90
        6
 70
   128
 43
0.0
 10
-3.8299691959
 20
0.39445
 10
-3.6821446227
 20
0.5199439437
 10
-3.6168696875
 20
0.56883625
 10
-3.6033841016
 20
0.5740098438
 10
-3.598902251
 20
0.5736124023
 10
-3.59591
 20
0.57115
  0
LWPOLYLINE
  5
1C7
330
1F
100
AcDbEntity
  8
0
  6
Continuous
 62
     7
100
AcDbPolyline
 90
        7
 70
   128
 43
0.0
 10
-3.5959083264
 20
0.57115
 10
-3.5940602885
 20
0.5590133392
 10
-3.5971183366
 20
0.544331633
 10
-3.6112221875
 20
0.5080873438
 10
-3.674585
 20
0.38784375
 10
-3.7615353125
 20
0.2349732812
 10
-3.84761
 20
0.07403
  0
LWPOLYLINE
  5
1C8
330
1F
100
AcDbEntity
  8
0
  6
Continuous
 62
     7
100
AcDbPolyline
 90
        7
 70
   128
 43
0.0
 10
-3.8476088854
 20
0.07403
 10
-3.8859733822
 20
-0.0036913012
 10
-3.9475780925
 20
-0.1324904046
 10
-4.0143559763
 20
-0.2816185094
 10
-4.0798069523
 20
-0.4574906715
 10
-4.0907799202
 20
-0.5109004517
 10
-4.0884
 20
-0.53687
  0
LWPOLYLINE
  5
1C9
330
1F
100
AcDbEntity
  8
0
  6
Continuous
 62
     7
100
AcDbPolyline
 90
        5
 70
   128
 43
0.0
 10
-4.0883999171
 20
-0.53687
 10
-4.0444634375
 20
-0.5926776563
 10
-3.972475
 20
-0.63541375
 10
-3.8893565625
 20
-0.6433329688
 10
-3.81203
 20
-0.59469
  0
ARC
  5
1CA
330
1F
100
AcDbEntity
  8
0
  6
Continuous
 62
     7
100
AcDbCircle
 10
-9.0604208314
 20
3.055924198
 30
0.0
 40
6.393168182254628
100
AcDbArc
 50
325.1787544916
 51
332.791028959
  0
ARC
  5
1CB
330
1F
100
AcDbEntity
  8
0
  6
Continuous
 62
     7
100
AcDbCircle
 10
-2.0043959077
 20
-0.4307176796
 30
0.0
 40
1.481612109173139
100
AcDbArc
 50
146.4697974143
 51
157.6481266896
  0
ARC
  5
1CC
330
1F
100
AcDbEntity
  8
0
  6
Continuous
 62
     7
100
AcDbCircle
 10
-5.891029626
 20
0.2391729669
 30
0.0
 40
2.655727188555966
100
AcDbArc
 50
350.8792798614
 51
3.2058416525
  0
LWPOLYLINE
  5
1CD
330
1F
100
AcDbEntity
  8
0
  6
Continuous
 62
     7
100
AcDbPolyline
 90
        6
 70
   128
 43
0.0
 10
-3.268878291
 20
-0.1818
 10
-3.2682421064
 20
-0.6317865405
 10
-3.2346416192
 20
-0.9991358015
 10
-3.165202729
 20
-1.2945650419
 10
-3.0334429311
 20
-1.5649963142
 10
-2.8432
 20
-1.76796
  0
ARC
  5
1CE
330
1F
100
AcDbEntity
  8
0
  6
Continuous
 62
     7
100
AcDbCircle
 10
-2.1284069923
 20
-0.9339441402
 30
0.0
 40
1.098411790061287
100
AcDbArc
 50
229.4018679493
 51
281.6468976561
  0
LWPOLYLINE
  5
1CF
330
1F
100
AcDbEntity
  8
0
  6
Continuous
 62
     7
100
AcDbPolyline
 90
        3
 70
   128
 43
0.0
 10
-1.7054191255
 20
-1.95282
 10
-1.7555961344
 20
-2.823277065
 10
-1.78191
 20
-3.50845
  0
LWPOLYLINE
  5
1D0
330
1F
100
AcDbEntity
  8
0
  6
Continuous
 62
     7
100
AcDbPolyline
 90
        4
 70
   128
 43
0.0
 10
-4.0955782875
 20
3.08547
 10
-4.3069148832
 20
3.1689671693
 10
-4.5842224256
 20
3.2325754502
 10
-5.07855
 20
3.27774
  0
ARC
  5
1D1
330
1F
100
AcDbEntity
  8
0
  6
Continuous
 62
     7
100
AcDbCircle
 10
-5.0645684854
 20
0.5092040485
 30
0.0
 40
2.76857123398955
100
AcDbArc
 50
90.2892607992
 51
98.2333123481
  0
ARC
  5
1D2
330
1F
100
AcDbEntity
  8
0
  6
Continuous
 62
     7
100
AcDbCircle
 10
-3.1176603685
 20
2.2643481694
 30
0.0
 40
2.541934951718055
100
AcDbArc
 50
153.5325862989
 51
157.2036084632
  0
LWPOLYLINE
  5
1D3
330
1F
100
AcDbEntity
  8
0
  6
Continuous
 62
     7
100
AcDbPolyline
 90
        5
 70
   128
 43
0.0
 10
-5.3931690577
 20
3.39726
 10
-5.36328
 20
3.4578759375
 10
-5.319635
 20
3.48813
 10
-5.2079829616
 20
3.494129448
 10
-5.04063
 20
3.48399
  0
LWPOLYLINE
  5
1D4
330
1F
100
AcDbEntity
  8
0
  6
Continuous
 62
     7
100
AcDbPolyline
 90
        5
 70
   128
 43
0.0
 10
-5.0406287036
 20
3.48399
 10
-4.6628130573
 20
3.4356222579
 10
-4.3288040902
 20
3.3542083514
 10
-4.1118943425
 20
3.2667556399
 10
-4.01596
 20
3.19442
  0
ARC
  5
1D5
330
1F
100
AcDbEntity
  8
0
  6
Continuous
 62
     7
100
AcDbCircle
 10
-4.2312433798
 20
2.9797106318
 30
0.0
 40
0.3040516579737164
100
AcDbArc
 50
15.8004127688
 51
44.9234014223
  0
LWPOLYLINE
  5
1D6
330
1F
100
AcDbEntity
  8
0
  6
Continuous
 62
     7
100
AcDbPolyline
 90
        5
 70
   128
 43
0.0
 10
-3.93867962
 20
3.0625
 10
-3.9468817188
 20
3.0377460938
 10
-3.9650262329
 20
3.0322907446
 10
-3.9949549023
 20
3.0382936523
 10
-4.09558
 20
3.08547
  0
LWPOLYLINE
  5
1D7
330
1F
100
AcDbEntity
  8
0
  6
Continuous
 62
     7
100
AcDbPolyline
 90
       12
 70
   128
 43
0.0
 10
-4.2675376877
 20
3.68661
 10
-4.2240341665
 20
3.6123275062
 10
-4.2195039258
 20
3.5747905664
 10
-4.2419804175
 20
3.5521237866
 10
-4.2897082813
 20
3.5484145313
 10
-4.4148385292
 20
3.578223446
 10
-4.5786468375
 20
3.6433592489
 10
-4.8650650977
 20
3.7896808008
 10
-5.0176417697
 20
3.8822805698
 10
-5.1446294653
 20
3.9715711743
 10
-5.2385216412
 20
4.0576331823
 10
-5.26367
 20
4.10778
  0
LWPOLYLINE
  5
1D8
330
1F
100
AcDbEntity
  8
0
  6
Continuous
 62
     7
100
AcDbPolyline
 90
        4
 70
   128
 43
0.0
 10
-5.263667407
 20
4.10778
 10
-5.2554764062
 20
4.1384734375
 10
-5.1956392383
 20
4.1558079297
 10
-5.04645
 20
4.14409
  0
LWPOLYLINE
  5
1D9
330
1F
100
AcDbEntity
  8
0
  6
Continuous
 62
     7
100
AcDbPolyline
 90
        5
 70
   128
 43
0.0
 10
-5.0464483697
 20
4.14409
 10
-4.7606522752
 20
4.079500729
 10
-4.5215031776
 20
3.9619841197
 10
-4.3737989352
 20
3.836915027
 10
-4.26754
 20
3.68661
  0
LWPOLYLINE
  5
1DA
330
1F
100
AcDbEntity
  8
0
  6
Continuous
 62
     7
100
AcDbPolyline
 90
        3
 70
   128
 43
0.0
 10
5.6672987975
 20
-0.73825
 10
5.6380567462
 20
-0.8398248877
 10
5.59663
 20
-0.87012
  0
LWPOLYLINE
  5
1DB
330
1F
100
AcDbEntity
  8
0
  6
Continuous
 62
     7
100
AcDbPolyline
 90
        7
 70
   128
 43
0.0
 10
5.5966274006
 20
-0.87012
 10
5.4822483872
 20
-0.8590986624
 10
5.36226
 20
-0.83292
 10
5.242789375
 20
-0.7963284375
 10
5.2053119531
 20
-0.7790595703
 10
5.194991377
 20
-0.7713724658
 10
5.19137
 20
-0.76458
  0
LWPOLYLINE
  5
1DC
330
1F
100
AcDbEntity
  8
0
  6
Continuous
 62
     7
100
AcDbPolyline
 90
        8
 70
   128
 43
0.0
 10
5.1913674422
 20
-0.76458
 10
5.1927454067
 20
-0.7613646642
 10
5.195681377
 20
-0.7583699512
 10
5.2079383594
 20
-0.7501880469
 10
5.25222625
 20
-0.729218125
 10
5.3914575
 20
-0.67802
 10
5.5601808632
 20
-0.627745561
 10
5.64502
 20
-0.61192
  0
LWPOLYLINE
  5
1DD
330
1F
100
AcDbEntity
  8
0
  6
Continuous
 62
     7
100
AcDbPolyline
 90
        5
 70
   128
 43
0.0
 10
5.6450198016
 20
-0.61192
 10
5.6516994336
 20
-0.6144984766
 10
5.6574492187
 20
-0.6218884375
 10
5.66579375
 20
-0.64903
 10
5.6673
 20
-0.73825
  0
LWPOLYLINE
  5
1DE
330
1F
100
AcDbEntity
  8
0
  6
Continuous
 62
     7
100
AcDbPolyline
 90
        6
 70
   128
 43
0.0
 10
5.3590958513
 20
-0.27996
 10
5.4321154687
 20
-0.3066698437
 10
5.4500367383
 20
-0.3218931445
 10
5.45555875
 20
-0.33857625
 10
5.4293801562
 20
-0.3769645312
 10
5.35353
 20
-0.42312
  0
LWPOLYLINE
  5
1DF
330
1F
100
AcDbEntity
  8
0
  6
Continuous
 62
     7
100
AcDbPolyline
 90
        6
 70
   128
 43
0.0
 10
5.2171288513
 20
-0.49108
 10
5.2041007031
 20
-0.4915833984
 10
5.195193125
 20
-0.4801278125
 10
5.1892925964
 20
-0.4354345486
 10
5.1942827347
 20
-0.3886723077
 10
5.22329
 20
-0.30845
  0
LWPOLYLINE
  5
1E0
330
1F
100
AcDbEntity
  8
0
  6
Continuous
 62
     7
100
AcDbPolyline
 90
        3
 70
   128
 43
0.0
 10
5.2232864335
 20
-0.30845
 10
5.2828730413
 20
-0.2730413344
 10
5.3591
 20
-0.27996
  0
LWPOLYLINE
  5
1E1
330
1F
100
AcDbEntity
  8
0
  6
Continuous
 62
     7
100
AcDbPolyline
 90
       10
 70
   128
 43
0.0
 10
5.8910461861
 20
1.29461
 10
5.9415498066
 20
1.1219255446
 10
5.9878987565
 20
0.8561123085
 10
6.0447725
 20
0.35330625
 10
6.0643962891
 20
0.0757163477
 10
6.0720146875
 20
-0.1577832813
 10
6.0653863672
 20
-0.316694707
 10
6.0560292725
 20
-0.3586492407
 10
6.0497174188
 20
-0.3685833572
 10
6.04227
 20
-0.37052
  0
LWPOLYLINE
  5
1E2
330
1F
100
AcDbEntity
  8
0
  6
Continuous
 62
     7
100
AcDbPolyline
 90
        6
 70
   128
 43
0.0
 10
6.0422683325
 20
-0.37052
 10
6.0346090477
 20
-0.367123474
 10
6.0261068942
 20
-0.3606741377
 10
6.0064582571
 20
-0.3422403624
 10
5.961674343
 20
-0.2936399565
 10
5.87666
 20
-0.19314
  0
LWPOLYLINE
  5
1E3
330
1F
100
AcDbEntity
  8
0
  6
Continuous
 62
     7
100
AcDbPolyline
 90
        6
 70
   128
 43
0.0
 10
5.8712687079
 20
-0.01186
 10
5.9393284961
 20
0.074114668
 10
5.9720829688
 20
0.1927498438
 10
5.96447875
 20
0.49295375
 10
5.9140551563
 20
0.8186557813
 10
5.88641
 20
1.09976
  0
LWPOLYLINE
  5
1E4
330
1F
100
AcDbEntity
  8
0
  6
Continuous
 62
     7
100
AcDbPolyline
 90
        9
 70
   128
 43
0.0
 10
-3.8208595411
 20
1.13983
 10
-3.8594526352
 20
1.107394878
 10
-3.9166183279
 20
1.0671539883
 10
-4.06353618
 20
0.9713775825
 10
-4.4035332262
 20
0.7634190112
 10
-4.5763275607
 20
0.6624797582
 10
-4.728634372
 20
0.5770264118
 10
-4.8230112526
 20
0.5273240502
 10
-4.88626
 20
0.49831
  0
LWPOLYLINE
  5
1E5
330
1F
100
AcDbEntity
  8
0
  6
Continuous
 62
     7
100
AcDbPolyline
 90
        3
 70
   128
 43
0.0
 10
-4.8862597135
 20
0.49831
 10
-4.987286231
 20
0.4665606701
 10
-5.04215
 20
0.45728
  0
LWPOLYLINE
  5
1E6
330
1F
100
AcDbEntity
  8
0
  6
Continuous
 62
     7
100
AcDbPolyline
 90
        7
 70
   128
 43
0.0
 10
-5.042149326
 20
0.45728
 10
-5.149689488
 20
0.4909186355
 10
-5.260565
 20
0.547035
 10
-5.36820875
 20
0.61623125
 10
-5.3999834375
 20
0.6446765625
 10
-5.4076519531
 20
0.6558319531
 10
-5.40881
 20
0.66436
  0
LWPOLYLINE
  5
1E7
330
1F
100
AcDbEntity
  8
0
  6
Continuous
 62
     7
100
AcDbPolyline
 90
        6
 70
   128
 43
0.0
 10
-5.4088070637
 20
0.66436
 10
-5.4024480648
 20
0.6725284178
 10
-5.391573203
 20
0.6819574322
 10
-5.3604699424
 20
0.7046530888
 10
-5.2732001312
 20
0.7604241382
 10
-5.04767
 20
0.88905
  0
ARC
  5
1E8
330
1F
100
AcDbEntity
  8
0
  6
Continuous
 62
     7
100
AcDbCircle
 10
-3.8760311769
 20
-1.1686852208
 30
0.0
 40
2.367912275011891
100
AcDbArc
 50
92.3942106685
 51
119.6564084895
  0
LWPOLYLINE
  5
1E9
330
1F
100
AcDbEntity
  8
0
  6
Continuous
 62
     7
100
AcDbPolyline
 90
        6
 70
   128
 43
0.0
 10
-3.974949281
 20
1.19716
 10
-3.8536172242
 20
1.1937123728
 10
-3.8106534839
 20
1.1835843921
 10
-3.8045516306
 20
1.1773509335
 10
-3.8033607813
 20
1.1695482812
 10
-3.82086
 20
1.13983
  0
ARC
  5
1EA
330
1F
100
AcDbEntity
  8
0
  6
Continuous
 62
     7
100
AcDbCircle
 10
-6.2711779138
 20
1.9538859743
 30
0.0
 40
1.203009141564101
100
AcDbArc
 50
358.1438408379
 51
10.9160293613
  0
LWPOLYLINE
  5
1EB
330
1F
100
AcDbEntity
  8
0
  6
Continuous
 62
     7
100
AcDbPolyline
 90
        5
 70
   128
 43
0.0
 10
-5.0687977648
 20
1.91492
 10
-5.0610121875
 20
1.7510384375
 10
-5.0630444141
 20
1.7404512891
 10
-5.0649734619
 20
1.7377713916
 10
-5.06761
 20
1.73698
  0
ARC
  5
1EC
330
1F
100
AcDbEntity
  8
0
  6
Continuous
 62
     7
100
AcDbCircle
 10
-4.550003665
 20
2.84088799
 30
0.0
 40
1.219231187275401
100
AcDbArc
 50
228.6297960665
 51
244.8789894679
  0
LWPOLYLINE
  5
1ED
330
1F
100
AcDbEntity
  8
0
  6
Continuous
 62
     7
100
AcDbPolyline
 90
        8
 70
   128
 43
0.0
 10
-5.3558199424
 20
1.92591
 10
-5.4469752128
 20
1.9980133148
 10
-5.5075088402
 20
2.0490069585
 10
-5.5379529723
 20
2.080654285
 10
-5.5483514233
 20
2.0993163794
 10
-5.5486442392
 20
2.1124842654
 10
-5.5416264063
 20
2.1241560938
 10
-5.49223
 20
2.15652
  0
LWPOLYLINE
  5
1EE
330
1F
100
AcDbEntity
  8
0
  6
Continuous
 62
     7
100
AcDbPolyline
 90
        5
 70
   128
 43
0.0
 10
-5.4922254067
 20
2.15652
 10
-5.3777529688
 20
2.2021089063
 10
-5.25253125
 20
2.22523625
 10
-5.1465864063
 20
2.2203004688
 10
-5.08994
 20
2.1817
  0
LWPOLYLINE
  5
1EF
330
1F
100
AcDbEntity
  8
0
  6
Continuous
 62
     7
100
AcDbPolyline
 90
        3
 70
   128
 43
0.0
 10
-0.0087799977
 20
-6.52449
 10
0.1209082586
 20
-6.5853439546
 10
0.15982
 20
-6.69309
  0
LWPOLYLINE
  5
1F0
330
1F
100
AcDbEntity
  8
0
  6
Continuous
 62
     7
100
AcDbPolyline
 90
        3
 70
   128
 43
0.0
 10
0.1598199404
 20
-6.69309
 10
0.0989660454
 20
-6.8227782586
 10
-0.00878
 20
-6.86169
  0
LWPOLYLINE
  5
1F1
330
1F
100
AcDbEntity
  8
0
  6
Continuous
 62
     7
100
AcDbPolyline
 90
        3
 70
   128
 43
0.0
 10
-0.0087799977
 20
-6.86169
 10
-0.1384682586
 20
-6.8008360454
 10
-0.17738
 20
-6.69309
  0
LWPOLYLINE
  5
1F2
330
1F
100
AcDbEntity
  8
0
  6
Continuous
 62
     7
100
AcDbPolyline
 90
        3
 70
   128
 43
0.0
 10
-0.1773799909
 20
-6.69309
 10
-0.1165260454
 20
-6.5634017414
 10
-0.00878
 20
-6.52449
  0
LWPOLYLINE
  5
1F3
330
1F
100
AcDbEntity
  8
0
  6
Continuous
 62
     7
100
AcDbPolyline
 90
        9
 70
   128
 43
0.0
 10
-2.3565294705
 20
-3.3287
 10
-2.3595212833
 20
-3.3913496844
 10
-2.3973605786
 20
-3.4546586475
 10
-2.5392646289
 20
-3.5652576172
 10
-2.7056049976
 20
-3.6245033252
 10
-2.7739896909
 20
-3.6236207111
 10
-2.8197445312
 20
-3.5964021875
 10
-2.828991582
 20
-3.5113674609
 10
-2.75827
 20
-3.36085
  0
LWPOLYLINE
  5
1F4
330
1F
100
AcDbEntity
  8
0
  6
Continuous
 62
     7
100
AcDbPolyline
 90
        5
 70
   128
 43
0.0
 10
-2.7582682962
 20
-3.36085
 10
-2.589458125
 20
-3.2178299805
 10
-2.4951360156
 20
-3.1932099927
 10
-2.414875
 20
-3.2136142188
 10
-2.35653
 20
-3.3287
  0
ARC
  5
1F5
330
1F
100
AcDbEntity
  8
0
  6
Continuous
 62
     7
100
AcDbCircle
 10
-24.6124425757
 20
-7.8737731724
 30
0.0
 40
20.76437330763988
100
AcDbArc
 50
9.8038071378
 51
14.0818781267
  0
LWPOLYLINE
  5
1F6
330
1F
100
AcDbEntity
  8
0
  6
Continuous
 62
     7
100
AcDbPolyline
 90
       16
 70
   128
 43
0.0
 10
-4.1512992438
 20
-4.33812
 10
-4.1523197742
 20
-4.3471563419
 10
-4.1583858105
 20
-4.3551881177
 10
-4.1843244531
 20
-4.3684232227
 10
-4.2629851094
 20
-4.3830524543
 10
-4.3747021378
 20
-4.3896658869
 10
-4.5866575
 20
-4.38808875
 10
-4.7508035156
 20
-4.380775957
 10
-4.89444125
 20
-4.3714692187
 10
-4.9758884045
 20
-4.3649636838
 10
-5.0248172363
 20
-4.3602542651
 10
-5.0342771364
 20
-4.3589638643
 10
-5.0347659168
 20
-4.358833821
 10
-5.0348888708
 20
-4.3587785875
 10
-5.0349220256
 20
-4.3587505539
 10
-5.03493
 20
-4.35873
  0
ARC
  5
1F7
330
1F
100
AcDbEntity
  8
0
  6
Continuous
 62
     7
100
AcDbCircle
 10
-1.1108545829
 20
-5.4381190618
 30
0.0
 40
4.069818194099364
100
AcDbArc
 50
157.8496253564
 51
164.620092916
  0
ARC
  5
1F8
330
1F
100
AcDbEntity
  8
0
  6
Continuous
 62
     7
100
AcDbCircle
 10
-20.8804792874
 20
2.1597424311
 30
0.0
 40
17.11052504722867
100
AcDbArc
 50
339.2454280885
 51
341.9817276936
  0
LWPOLYLINE
  5
1F9
330
1F
100
AcDbEntity
  8
0
  6
Continuous
 62
     7
100
AcDbPolyline
 90
        8
 70
   128
 43
0.0
 10
-4.6090887287
 20
-3.13289
 10
-4.5629657029
 20
-2.9837105467
 10
-4.5284226832
 20
-2.8809268777
 10
-4.5055706671
 20
-2.8272721729
 10
-4.4913784375
 20
-2.8083514062
 10
-4.4860540771
 20
-2.8063194312
 10
-4.4811045703
 20
-2.8078902539
 10
-4.47206
 20
-2.82163
  0
ARC
  5
1FA
330
1F
100
AcDbEntity
  8
0
  6
Continuous
 62
     7
100
AcDbCircle
 10
-11.6623249459
 20
-4.9922053831
 30
0.0
 40
6.349610271039854
100
AcDbArc
 50
13.1806887038
 51
18.9538588928
  0
LWPOLYLINE
  5
1FB
330
1F
100
AcDbEntity
  8
0
  6
Continuous
 62
     7
100
AcDbPolyline
 90
       12
 70
   128
 43
0.0
 10
-5.4799853347
 20
-3.54435
 10
-5.4408741772
 20
-3.7024781525
 10
-5.4154464408
 20
-3.8240139597
 10
-5.4024606954
 20
-3.9392098131
 10
-5.4059569848
 20
-3.9581298392
 10
-5.4094080072
 20
-3.962413238
 10
-5.4139842944
 20
-3.9632184155
 10
-5.4241327055
 20
-3.9567357476
 10
-5.434277193
 20
-3.9447144224
 10
-5.4570864063
 20
-3.9079289062
 10
-5.5029236133
 20
-3.814257832
 10
-5.56205
 20
-3.67407
  0
LWPOLYLINE
  5
1FC
330
1F
100
AcDbEntity
  8
0
  6
Continuous
 62
     7
100
AcDbPolyline
 90
        5
 70
   128
 43
0.0
 10
-5.5620473201
 20
-3.67407
 10
-5.6738394714
 20
-3.364478695
 10
-5.7580448749
 20
-3.0586108883
 10
-5.7961190394
 20
-2.855777747
 10
-5.80238
 20
-2.71427
  0
LWPOLYLINE
  5
1FD
330
1F
100
AcDbEntity
  8
0
  6
Continuous
 62
     7
100
AcDbPolyline
 90
        8
 70
   128
 43
0.0
 10
-5.8023760638
 20
-2.71427
 10
-5.7963512422
 20
-2.6836145354
 10
-5.7891282813
 20
-2.6712048437
 10
-5.7809952756
 20
-2.6694450235
 10
-5.7708435815
 20
-2.6763608813
 10
-5.7456085882
 20
-2.7147579835
 10
-5.7194816835
 20
-2.7701016694
 10
-5.65699
 20
-2.92981
  0
LWPOLYLINE
  5
1FE
330
1F
100
AcDbEntity
  8
0
  6
Continuous
 62
     7
100
AcDbPolyline
 90
        8
 70
   128
 43
0.0
 10
-5.2070195281
 20
1.47381
 10
-5.1378526562
 20
1.4183096875
 10
-5.1306356247
 20
1.4032444159
 10
-5.1350748511
 20
1.3905119482
 10
-5.1533873949
 20
1.3790519537
 10
-5.1782862094
 20
1.3710700762
 10
-5.2475268958
 20
1.3580699677
 10
-5.45851
 20
1.33423
  0
LWPOLYLINE
  5
1FF
330
1F
100
AcDbEntity
  8
0
  6
Continuous
 62
     7
100
AcDbPolyline
 90
        3
 70
   128
 43
0.0
 10
-5.4585088895
 20
1.33423
 10
-5.6784007738
 20
1.3033864186
 10
-5.78633
 20
1.28177
  0
LWPOLYLINE
  5
200
330
1F
100
AcDbEntity
  8
0
  6
Continuous
 62
     7
100
AcDbPolyline
 90
        4
 70
   128
 43
0.0
 10
-5.7863297425
 20
1.28177
 10
-5.8300995313
 20
1.27791875
 10
-5.86087625
 20
1.293845
 10
-5.8973
 20
1.40033
  0
LWPOLYLINE
  5
201
330
1F
100
AcDbEntity
  8
0
  6
Continuous
 62
     7
100
AcDbPolyline
 90
        4
 70
   128
 43
0.0
 10
-5.8972976339
 20
1.40033
 10
-5.89640375
 20
1.63772875
 10
-5.8690751563
 20
1.7238335938
 10
-5.82764
 20
1.76805
  0
LWPOLYLINE
  5
202
330
1F
100
AcDbEntity
  8
0
  6
Continuous
 62
     7
100
AcDbPolyline
 90
        7
 70
   128
 43
0.0
 10
-5.8276399853
 20
1.76805
 10
-5.8042878906
 20
1.7684007
 10
-5.7749964254
 20
1.7617392601
 10
-5.7030478147
 20
1.7367043784
 10
-5.5321658918
 20
1.6596957792
 10
-5.3623522285
 20
1.5695507484
 10
-5.20702
 20
1.47381
  0
LWPOLYLINE
  5
203
330
1F
100
AcDbEntity
  8
0
  6
Continuous
 62
     7
100
AcDbPolyline
 90
        3
 70
   128
 43
0.0
 10
-5.8439397436
 20
2.47199
 10
-6.0146700045
 20
2.3654814317
 10
-6.14246
 20
2.25925
  0
LWPOLYLINE
  5
204
330
1F
100
AcDbEntity
  8
0
  6
Continuous
 62
     7
100
AcDbPolyline
 90
       13
 70
   128
 43
0.0
 10
-6.1424557618
 20
2.25925
 10
-6.2178802973
 20
2.1635746817
 10
-6.2726799461
 20
2.0989583378
 10
-6.3206303125
 20
2.0520279688
 10
-6.3252687518
 20
2.0496077303
 10
-6.3280694347
 20
2.0495664562
 10
-6.3289967647
 20
2.0510202591
 10
-6.3289441037
 20
2.0536871509
 10
-6.3218903763
 20
2.0708320134
 10
-6.3093382568
 20
2.0921614868
 10
-6.2048906641
 20
2.2276241211
 10
-6.0352428174
 20
2.393359187
 10
-5.82835
 20
2.52431
  0
LWPOLYLINE
  5
205
330
1F
100
AcDbEntity
  8
0
  6
Continuous
 62
     7
100
AcDbPolyline
 90
        5
 70
   128
 43
0.0
 10
-5.8283486704
 20
2.52431
 10
-5.8134295312
 20
2.5375785937
 10
-5.8126886792
 20
2.55109927
 10
-5.820252832
 20
2.5666118555
 10
-5.85795
 20
2.59977
  0
LWPOLYLINE
  5
206
330
1F
100
AcDbEntity
  8
0
  6
Continuous
 62
     7
100
AcDbPolyline
 90
        3
 70
   128
 43
0.0
 10
-5.8579491818
 20
2.59977
 10
-5.9103526944
 20
2.6467600122
 10
-5.92614
 20
2.68114
  0
LWPOLYLINE
  5
207
330
1F
100
AcDbEntity
  8
0
  6
Continuous
 62
     7
100
AcDbPolyline
 90
        6
 70
   128
 43
0.0
 10
-5.9261378341
 20
2.68114
 10
-5.9237270898
 20
2.6870325977
 10
-5.9168117187
 20
2.6890801563
 10
-5.8932949071
 20
2.6832179789
 10
-5.8669441406
 20
2.6704413227
 10
-5.80793
 20
2.63194
  0
LWPOLYLINE
  5
208
330
1F
100
AcDbEntity
  8
0
  6
Continuous
 62
     7
100
AcDbPolyline
 90
        5
 70
   128
 43
0.0
 10
-2.3409090643
 20
1.01796
 10
-2.3418197461
 20
1.0163671191
 10
-2.3444890625
 20
1.0148188281
 10
-2.354746875
 20
1.011888125
 10
-2.51628
 20
1.00232
  0
LWPOLYLINE
  5
209
330
1F
100
AcDbEntity
  8
0
  6
Continuous
 62
     7
100
AcDbPolyline
 90
        5
 70
   128
 43
0.0
 10
-2.5162781317
 20
1.00232
 10
-2.60594875
 20
1.0051865625
 10
-2.65931
 20
1.0162675
 10
-2.68499625
 20
1.0392846875
 10
-2.69164
 20
1.07796
  0
LWPOLYLINE
  5
20A
330
1F
100
AcDbEntity
  8
0
  6
Continuous
 62
     7
100
AcDbPolyline
 90
        3
 70
   128
 43
0.0
 10
-2.6916378126
 20
1.07796
 10
-2.6786212096
 20
1.1441378522
 10
-2.65567
 20
1.17584
  0
LWPOLYLINE
  5
20B
330
1F
100
AcDbEntity
  8
0
  6
Continuous
 62
     7
100
AcDbPolyline
 90
        9
 70
   128
 43
0.0
 10
-2.6556685215
 20
1.17584
 10
-2.6436269392
 20
1.1777471755
 10
-2.6287163169
 20
1.175564116
 10
-2.5926723437
 20
1.1648653125
 10
-2.48600875
 20
1.1182375
 10
-2.3854857812
 20
1.0609409375
 10
-2.3504398426
 20
1.0335073285
 10
-2.3428316407
 20
1.0239893171
 10
-2.34091
 20
1.01796
  0
LWPOLYLINE
  5
20C
330
1F
100
AcDbEntity
  8
0
  6
Continuous
 62
     7
100
AcDbPolyline
 90
        5
 70
   128
 43
0.0
 10
-3.3032776803
 20
1.47206
 10
-3.334578125
 20
1.4106215625
 10
-3.3686181641
 20
1.3959763916
 10
-3.4103089062
 20
1.4080098047
 10
-3.51158
 20
1.51116
  0
LWPOLYLINE
  5
20D
330
1F
100
AcDbEntity
  8
0
  6
Continuous
 62
     7
100
AcDbPolyline
 90
        7
 70
   128
 43
0.0
 10
-3.5115794873
 20
1.51116
 10
-3.5854992187
 20
1.6203070313
 10
-3.598510332
 20
1.6547344336
 10
-3.59525875
 20
1.67539875
 10
-3.5755216992
 20
1.6820507227
 10
-3.5390764062
 20
1.6744410937
 10
-3.41517
 20
1.61544
  0
LWPOLYLINE
  5
20E
330
1F
100
AcDbEntity
  8
0
  6
Continuous
 62
     7
100
AcDbPolyline
 90
        3
 70
   128
 43
0.0
 10
-3.415167801
 20
1.61544
 10
-3.3088334547
 20
1.5406713894
 10
-3.30328
 20
1.47206
  0
LWPOLYLINE
  5
20F
330
1F
100
AcDbEntity
  8
0
  6
Continuous
 62
     7
100
AcDbPolyline
 90
       12
 70
   128
 43
0.0
 10
-4.6887078623
 20
4.74835
 10
-4.6183143945
 20
4.7236971875
 10
-4.5622776563
 20
4.658443125
 10
-4.48737125
 20
4.4603375
 10
-4.457895437
 20
4.3059697461
 10
-4.4457685742
 20
4.19745875
 10
-4.444652822
 20
4.1746921997
 10
-4.4447077751
 20
4.1736576069
 10
-4.4447837656
 20
4.1732483933
 10
-4.4448198987
 20
4.1731879094
 10
-4.4448394562
 20
4.1731773571
 10
-4.44486
 20
4.17318
  0
ARC
  5
210
330
1F
100
AcDbEntity
  8
0
  6
Continuous
 62
     7
100
AcDbCircle
 10
-6.8838174328
 20
1.0829400459
 30
0.0
 40
3.936762684480322
100
AcDbArc
 50
51.7178884361
 51
57.2287242772
  0
LWPOLYLINE
  5
211
330
1F
100
AcDbEntity
  8
0
  6
Continuous
 62
     7
100
AcDbPolyline
 90
        3
 70
   128
 43
0.0
 10
-4.9087592936
 20
4.66254
 10
-4.7701764506
 20
4.7275233498
 10
-4.68871
 20
4.74835
  0
MTEXT
  5
213
330
1F
100
AcDbEntity
  8
0
  6
Continuous
 62
     7
100
AcDbMText
 10
-7.3397570177
 20
-7.3624229407
 30
0.0
 40
0.1903
 41
0.0
 71
     1
 72
     1
  1
SOLIDWORKS Educational Product.
  7
SLDTEXTSTYLE0
 73
     1
 44
1.0
  0
MTEXT
  5
214
330
1F
100
AcDbEntity
  8
0
  6
Continuous
 62
     7
100
AcDbMText
 10
-7.3397570177
 20
-7.6478729407
 30
0.0
 40
0.1903
 41
0.0
 71
     1
 72
     1
  1
For Instructional Use Only.
  7
SLDTEXTSTYLE0
 73
     1
 44
1.0
  0
ENDSEC
  0
SECTION
  2
OBJECTS
  0
DICTIONARY
  5
C
330
0
100
AcDbDictionary
281
     1
  3
ACAD_GROUP
350
D
  3
ACAD_LAYOUT
350
1A
  3
ACAD_MLINESTYLE
350
17
  3
ACAD_PLOTSETTINGS
350
19
  3
ACAD_PLOTSTYLENAME
350
E
  3
ACAD_SCALELIST
350
47
  3
DWGPROPS
350
215
  0
DICTIONARY
  5
D
102
{ACAD_REACTORS
330
C
102
}
330
C
100
AcDbDictionary
281
     1
  0
DICTIONARY
  5
1A
102
{ACAD_REACTORS
330
C
102
}
330
C
100
AcDbDictionary
281
     1
  3
Layout1
350
1E
  3
Layout2
350
26
  3
Model
350
22
  0
DICTIONARY
  5
17
102
{ACAD_REACTORS
330
C
102
}
330
C
100
AcDbDictionary
281
     1
  3
Standard
350
18
  0
DICTIONARY
  5
19
102
{ACAD_REACTORS
330
C
102
}
330
C
100
AcDbDictionary
281
     1
  0
ACDBDICTIONARYWDFLT
  5
E
102
{ACAD_REACTORS
330
C
102
}
330
C
100
AcDbDictionary
281
     1
  3
Normal
350
F
100
AcDbDictionaryWithDefault
340
F
  0
DICTIONARY
  5
47
102
{ACAD_REACTORS
330
C
102
}
330
C
100
AcDbDictionary
281
     1
  3
A0
350
48
  3
A1
350
49
  3
A2
350
4A
  3
A3
350
4B
  3
A4
350
4C
  3
A5
350
4D
  3
A6
350
4E
  3
A7
350
4F
  3
A8
350
50
  3
A9
350
51
  3
B0
350
52
  3
B1
350
53
  3
B2
350
54
  3
B3
350
55
  3
B4
350
56
  3
B5
350
57
  3
B6
350
58
  3
B7
350
59
  3
B8
350
5A
  3
B9
350
5B
  3
C0
350
5C
  3
C1
350
5D
  3
C2
350
5E
  3
C3
350
5F
  3
C4
350
60
  3
C5
350
61
  3
C6
350
62
  3
C7
350
63
  3
C8
350
64
  3
C9
350
65
  3
D0
350
66
  3
D1
350
67
  3
D2
350
68
  0
XRECORD
  5
215
102
{ACAD_REACTORS
330
C
102
}
330
C
100
AcDbXrecord
280
     1
  1
DWGPROPS COOKIE
  2

  3

  4

  6

  7

  8
Langmuir Admin
  9

300
=
301
=
302
=
303
=
304
=
305
=
306
=
307
=
308
=
309
=
 40
0.0
 41
2459849.684121227
 42
2459849.68415618
  1

 90
        0
  0
LAYOUT
  5
1E
102
{ACAD_REACTORS
330
1A
102
}
330
1A
100
AcDbPlotSettings
  1

  2
none_device
  4

  6

 40
0.0
 41
0.0
 42
0.0
 43
0.0
 44
0.0
 45
0.0
 46
0.0
 47
0.0
 48
0.0
 49
0.0
140
0.0
141
0.0
142
1.0
143
1.0
 70
   688
 72
     0
 73
     0
 74
     5
  7

 75
    16
147
1.0
148
0.0
149
0.0
100
AcDbLayout
  1
Layout1
 70
     1
 71
     1
 10
0.0
 20
0.0
 11
12.0
 21
9.0
 12
0.0
 22
0.0
 32
0.0
 14
1.0000000000E+20
 24
1.0000000000E+20
 34
1.0000000000E+20
 15
-1.0000000000E+20
 25
-1.0000000000E+20
 35
-1.0000000000E+20
146
0.0
 13
0.0
 23
0.0
 33
0.0
 16
1.0
 26
0.0
 36
0.0
 17
0.0
 27
1.0
 37
0.0
 76
     0
330
1B
  0
LAYOUT
  5
26
102
{ACAD_REACTORS
330
1A
102
}
330
1A
100
AcDbPlotSettings
  1

  2
none_device
  4

  6

 40
0.0
 41
0.0
 42
0.0
 43
0.0
 44
0.0
 45
0.0
 46
0.0
 47
0.0
 48
0.0
 49
0.0
140
0.0
141
0.0
142
1.0
143
1.0
 70
   688
 72
     0
 73
     0
 74
     5
  7

 75
    16
147
1.0
148
0.0
149
0.0
100
AcDbLayout
  1
Layout2
 70
     1
 71
     2
 10
0.0
 20
0.0
 11
0.0
 21
0.0
 12
0.0
 22
0.0
 32
0.0
 14
0.0
 24
0.0
 34
0.0
 15
0.0
 25
0.0
 35
0.0
146
0.0
 13
0.0
 23
0.0
 33
0.0
 16
1.0
 26
0.0
 36
0.0
 17
0.0
 27
1.0
 37
0.0
 76
     0
330
23
  0
LAYOUT
  5
22
102
{ACAD_REACTORS
330
1A
102
}
330
1A
100
AcDbPlotSettings
  1

  2
none_device
  4
ANSI_A_(11.00_x_8.50_Inches)
  6

 40
6.35
 41
19.05
 42
6.35000508
 43
19.05000254
 44
279.4
 45
215.9
 46
133.3693922644
 47
88.9403791298
 48
0.0
 49
0.0
140
0.0
141
0.0
142
0.5748330198
143
1.0
 70
  1696
 72
     0
 73
     0
 74
     0
  7

 75
     0
147
0.5913241897
148
-39.4088153714
149
0.0
100
AcDbLayout
  1
Model
 70
     1
 71
     0
 10
0.0
 20
0.0
 11
12.0
 21
9.0
 12
0.0
 22
0.0
 32
0.0
 14
-7.3397570177
 24
-7.3222825316
 34
0.0
 15
7.3371003332
 25
7.3167512574
 35
0.0
146
0.0
 13
0.0
 23
0.0
 33
0.0
 16
1.0
 26
0.0
 36
0.0
 17
0.0
 27
1.0
 37
0.0
 76
     0
330
1F
331
29
  0
MLINESTYLE
  5
18
102
{ACAD_REACTORS
330
17
102
}
330
17
100
AcDbMlineStyle
  2
Standard
 70
     0
  3

 62
   256
 51
90.0
 52
90.0
 71
     2
 49
0.5
 62
   256
  6
BYLAYER
 49
-0.5
 62
   256
  6
BYLAYER
  0
ACDBPLACEHOLDER
  5
F
102
{ACAD_REACTORS
330
E
102
}
330
E
  0
SCALE
  5
48
102
{ACAD_REACTORS
330
47
102
}
330
47
100
AcDbScale
 70
     0
300
1:1
140
1.0
141
1.0
290
     1
  0
SCALE
  5
49
102
{ACAD_REACTORS
330
47
102
}
330
47
100
AcDbScale
 70
     0
300
1:2
140
1.0
141
2.0
290
     0
  0
SCALE
  5
4A
102
{ACAD_REACTORS
330
47
102
}
330
47
100
AcDbScale
 70
     0
300
1:4
140
1.0
141
4.0
290
     0
  0
SCALE
  5
4B
102
{ACAD_REACTORS
330
47
102
}
330
47
100
AcDbScale
 70
     0
300
1:5
140
1.0
141
5.0
290
     0
  0
SCALE
  5
4C
102
{ACAD_REACTORS
330
47
102
}
330
47
100
AcDbScale
 70
     0
300
1:8
140
1.0
141
8.0
290
     0
  0
SCALE
  5
4D
102
{ACAD_REACTORS
330
47
102
}
330
47
100
AcDbScale
 70
     0
300
1:10
140
1.0
141
10.0
290
     0
  0
SCALE
  5
4E
102
{ACAD_REACTORS
330
47
102
}
330
47
100
AcDbScale
 70
     0
300
1:16
140
1.0
141
16.0
290
     0
  0
SCALE
  5
4F
102
{ACAD_REACTORS
330
47
102
}
330
47
100
AcDbScale
 70
     0
300
1:20
140
1.0
141
20.0
290
     0
  0
SCALE
  5
50
102
{ACAD_REACTORS
330
47
102
}
330
47
100
AcDbScale
 70
     0
300
1:30
140
1.0
141
30.0
290
     0
  0
SCALE
  5
51
102
{ACAD_REACTORS
330
47
102
}
330
47
100
AcDbScale
 70
     0
300
1:40
140
1.0
141
40.0
290
     0
  0
SCALE
  5
52
102
{ACAD_REACTORS
330
47
102
}
330
47
100
AcDbScale
 70
     0
300
1:50
140
1.0
141
50.0
290
     0
  0
SCALE
  5
53
102
{ACAD_REACTORS
330
47
102
}
330
47
100
AcDbScale
 70
     0
300
1:100
140
1.0
141
100.0
290
     0
  0
SCALE
  5
54
102
{ACAD_REACTORS
330
47
102
}
330
47
100
AcDbScale
 70
     0
300
2:1
140
2.0
141
1.0
290
     0
  0
SCALE
  5
55
102
{ACAD_REACTORS
330
47
102
}
330
47
100
AcDbScale
 70
     0
300
4:1
140
4.0
141
1.0
290
     0
  0
SCALE
  5
56
102
{ACAD_REACTORS
330
47
102
}
330
47
100
AcDbScale
 70
     0
300
8:1
140
8.0
141
1.0
290
     0
  0
SCALE
  5
57
102
{ACAD_REACTORS
330
47
102
}
330
47
100
AcDbScale
 70
     0
300
10:1
140
10.0
141
1.0
290
     0
  0
SCALE
  5
58
102
{ACAD_REACTORS
330
47
102
}
330
47
100
AcDbScale
 70
     0
300
100:1
140
100.0
141
1.0
290
     0
  0
SCALE
  5
59
102
{ACAD_REACTORS
330
47
102
}
330
47
100
AcDbScale
 70
     0
300
1/128" = 1'-0"
140
0.0078125
141
12.0
290
     0
  0
SCALE
  5
5A
102
{ACAD_REACTORS
330
47
102
}
330
47
100
AcDbScale
 70
     0
300
1/64" = 1'-0"
140
0.015625
141
12.0
290
     0
  0
SCALE
  5
5B
102
{ACAD_REACTORS
330
47
102
}
330
47
100
AcDbScale
 70
     0
300
1/32" = 1'-0"
140
0.03125
141
12.0
290
     0
  0
SCALE
  5
5C
102
{ACAD_REACTORS
330
47
102
}
330
47
100
AcDbScale
 70
     0
300
1/16" = 1'-0"
140
0.0625
141
12.0
290
     0
  0
SCALE
  5
5D
102
{ACAD_REACTORS
330
47
102
}
330
47
100
AcDbScale
 70
     0
300
3/32" = 1'-0"
140
0.09375
141
12.0
290
     0
  0
SCALE
  5
5E
102
{ACAD_REACTORS
330
47
102
}
330
47
100
AcDbScale
 70
     0
300
1/8" = 1'-0"
140
0.125
141
12.0
290
     0
  0
SCALE
  5
5F
102
{ACAD_REACTORS
330
47
102
}
330
47
100
AcDbScale
 70
     0
300
3/16" = 1'-0"
140
0.1875
141
12.0
290
     0
  0
SCALE
  5
60
102
{ACAD_REACTORS
330
47
102
}
330
47
100
AcDbScale
 70
     0
300
1/4" = 1'-0"
140
0.25
141
12.0
290
     0
  0
SCALE
  5
61
102
{ACAD_REACTORS
330
47
102
}
330
47
100
AcDbScale
 70
     0
300
3/8" = 1'-0"
140
0.375
141
12.0
290
     0
  0
SCALE
  5
62
102
{ACAD_REACTORS
330
47
102
}
330
47
100
AcDbScale
 70
     0
300
1/2" = 1'-0"
140
0.5
141
12.0
290
     0
  0
SCALE
  5
63
102
{ACAD_REACTORS
330
47
102
}
330
47
100
AcDbScale
 70
     0
300
3/4" = 1'-0"
140
0.75
141
12.0
290
     0
  0
SCALE
  5
64
102
{ACAD_REACTORS
330
47
102
}
330
47
100
AcDbScale
 70
     0
300
1" = 1'-0"
140
1.0
141
12.0
290
     0
  0
SCALE
  5
65
102
{ACAD_REACTORS
330
47
102
}
330
47
100
AcDbScale
 70
     0
300
1-1/2" = 1'-0"
140
1.5
141
12.0
290
     0
  0
SCALE
  5
66
102
{ACAD_REACTORS
330
47
102
}
330
47
100
AcDbScale
 70
     0
300
3" = 1'-0"
140
3.0
141
12.0
290
     0
  0
SCALE
  5
67
102
{ACAD_REACTORS
330
47
102
}
330
47
100
AcDbScale
 70
     0
300
6" = 1'-0"
140
6.0
141
12.0
290
     0
  0
SCALE
  5
68
102
{ACAD_REACTORS
330
47
102
}
330
47
100
AcDbScale
 70
     0
300
1'-0" = 1'-0"
140
12.0
141
12.0
290
     0
  0
ENDSEC
  0
EOF
