0
SECTION
2
HEADER
9
$INSUNITS
70
1
9
$ACADVER
1
AC1014
9
$HANDSEED
5
FFFF
0
ENDSEC
0
SECTION
2
TABLES
0
TABLE
2
VPORT
5
8
100
AcDbSymbolTable
0
ENDTAB
0
TABLE
2
LTYPE
5
5
100
AcDbSymbolTable
0
LTYPE
5
14
100
AcDbSymbolTableRecord
100
AcDbLinetypeTableRecord
2
BYBLOCK
70
0
0
LTYPE
5
15
100
AcDbSymbolTableRecord
100
AcDbLinetypeTableRecord
2
BYLAYER
70
0
0
ENDTAB
0
TABLE
2
LAYER
5
2
100
AcDbSymbolTable
70
2
0
LAYER
5
50
100
AcDbSymbolTableRecord
100
AcDbLayerTableRecord
2
0
70
0
6
CONTINUOUS
0
ENDTAB
0
TABLE
2
STYLE
5
3
100
AcDbSymbolTable
70
1
0
STYLE
5
11
100
AcDbSymbolTableRecord
100
AcDbTextStyleTableRecord
2
STANDARD
70
0
0
ENDTAB
0
TABLE
2
VIEW
5
6
100
AcDbSymbolTable
70
0
0
ENDTAB
0
TABLE
2
UCS
5
7
100
AcDbSymbolTable
70
0
0
ENDTAB
0
TABLE
2
APPID
5
9
100
AcDbSymbolTable
70
2
0
APPID
5
12
100
AcDbSymbolTableRecord
100
AcDbRegAppTableRecord
2
ACAD
70
0
0
ENDTAB
0
TABLE
2
DIMSTYLE
5
A
100
AcDbSymbolTable
70
1
0
ENDTAB
0
TABLE
2
BLOCK_RECORD
5
1
100
AcDbSymbolTable
70
1
0
BLOCK_RECORD
5
1F
100
AcDbSymbolTableRecord
100
AcDbBlockTableRecord
2
*MODEL_SPACE
0
BLOCK_RECORD
5
1B
100
AcDbSymbolTableRecord
100
AcDbBlockTableRecord
2
*PAPER_SPACE
0
ENDTAB
0
ENDSEC
0
SECTION
2
BLOCKS
0
BLOCK
5
20
100
AcDbEntity
100
AcDbBlockBegin
2
*MODEL_SPACE
0
ENDBLK
5
21
100
AcDbEntity
100
AcDbBlockEnd
0
BLOCK
5
1C
100
AcDbEntity
100
AcDbBlockBegin
2
*PAPER_SPACE
0
ENDBLK
5
1D
100
AcDbEntity
100
AcDbBlockEnd
0
ENDSEC
0
SECTION
2
ENTITIES
0
ARC
5
100
100
AcDbEntity
8
0
100
AcDbCircle
10
18.132688461139701
20
10.877962780203026
30
0
40
0.12499999999999557
210
0
220
0
230
1
100
AcDbArc
50
197.14785412524125
51
261.0824958139309
0
ARC
5
101
100
AcDbEntity
8
0
100
AcDbCircle
10
16.718202077508227
20
1.8632607179864762
30
0
40
9.0000000000005649
210
0
220
-0
230
1
100
AcDbArc
50
75.742907925401525
51
81.082495813928688
0
SPLINE
5
102
100
AcDbEntity
8
0
100
AcDbSpline
70
0
71
3
72
20
73
16
74
0
42
0.000000001
43
0.0000000001
44
0.0000000001
40
0
40
0
40
0
40
0
40
0.074417772180210714
40
0.074417772180210714
40
0.14883554436041585
40
0.14883554436041585
40
0.22325331654063008
40
0.22325331654063008
40
0.29767108872084069
40
0.29767108872084069
40
0.3720888609010522
40
0.3720888609010522
40
0.44163554032018559
40
0.44163554032018559
40
0.51118221973932898
40
0.51118221973932898
40
0.51118221973932898
40
0.51118221973932898
10
18.932376869273785
20
10.440141971251833
30
0
10
18.941912841375377
20
10.442249618386676
30
0
10
18.950945974033633
20
10.446199702666082
30
0
10
18.966989664561808
20
10.457340068715073
30
0
10
18.973846836005791
20
10.464423842513261
30
0
10
18.984459892015831
20
10.480821122885235
30
0
10
18.988114309981874
20
10.489977862521457
30
0
10
18.991707533377443
20
10.509176729860414
30
0
10
18.991611985632858
20
10.519035305927199
30
0
10
18.987647327451008
20
10.538160923485083
30
0
10
18.983816121306869
20
10.547245113648064
30
0
10
18.973244929477474
20
10.562903795549529
30
0
10
18.966800011369823
20
10.569472911573166
30
0
10
18.95186882767516
20
10.579973297609229
30
0
10
18.94350719833016
20
10.58381691692483
30
0
10
18.934661440871427
20
10.586064618715286
30
0
0
SPLINE
5
103
100
AcDbEntity
8
0
100
AcDbSpline
70
0
71
2
72
6
73
3
74
0
42
0.000000001
43
0.0000000001
44
0.0000000001
40
-0.50855961420909412
40
-0.50855961420909412
40
-0.50855961420909412
40
0
40
0
40
0
10
18.932376869273785
20
10.440141971251833
30
0
10
18.641144207323965
20
10.375773527322686
30
0
10
18.38175309341251
20
10.238624624121636
30
0
0
SPLINE
5
104
100
AcDbEntity
8
0
100
AcDbSpline
70
0
71
2
72
6
73
3
74
0
42
0.000000001
43
0.0000000001
44
0.0000000001
40
-1
40
-1
40
-1
40
0
40
0
40
0
10
18.38175309341251
20
10.238624624121636
30
0
10
17.871702537560058
20
9.9689435496337548
30
0
10
17.461317706093983
20
9.5175184328018911
30
0
0
SPLINE
5
105
100
AcDbEntity
8
0
100
AcDbSpline
70
0
71
2
72
6
73
3
74
0
42
0.000000001
43
0.0000000001
44
0.0000000001
40
-1
40
-1
40
-1
40
0
40
0
40
0
10
17.461317706093983
20
9.5175184328018911
30
0
10
17.050932123703248
20
9.066095568744009
30
0
10
16.740212265698897
20
8.4798306655928641
30
0
0
SPLINE
5
106
100
AcDbEntity
8
0
100
AcDbSpline
70
0
71
2
72
6
73
3
74
0
42
0.000000001
43
0.0000000001
44
0.0000000001
40
-1
40
-1
40
-1
40
0
40
0
40
0
10
16.740212265698897
20
8.4798306655928641
30
0
10
16.429491656769891
20
7.8935657624417228
30
0
10
16.20084861487382
20
7.2721245445837015
30
0
0
SPLINE
5
107
100
AcDbEntity
8
0
100
AcDbSpline
70
0
71
2
72
6
73
3
74
0
42
0.000000001
43
0.0000000001
44
0.0000000001
40
-1
40
-1
40
-1
40
0
40
0
40
0
10
16.20084861487382
20
7.2721245445837015
30
0
10
15.972205572977751
20
6.650684828574998
30
0
10
15.81391365864612
20
6.0409692992608237
30
0
0
SPLINE
5
108
100
AcDbEntity
8
0
100
AcDbSpline
70
0
71
2
72
6
73
3
74
0
42
0.000000001
43
0.0000000001
44
0.0000000001
40
-1
40
-1
40
-1
40
0
40
0
40
0
10
15.81391365864612
20
6.0409692992608237
30
0
10
15.655622495239147
20
5.4312537699466485
30
0
10
15.561819990587018
20
4.927066433828446
30
0
0
SPLINE
5
109
100
AcDbEntity
8
0
100
AcDbSpline
70
0
71
2
72
6
73
3
74
0
42
0.000000001
43
0.0000000001
44
0.0000000001
40
-1
40
-1
40
-1
40
0
40
0
40
0
10
15.561819990587018
20
4.927066433828446
30
0
10
15.397665607445793
20
4.1180209575908284
30
0
10
15.221786286685383
20
3.273799917570992
30
0
0
SPLINE
5
110
100
AcDbEntity
8
0
100
AcDbSpline
70
0
71
2
72
6
73
3
74
0
42
0.000000001
43
0.0000000001
44
0.0000000001
40
-1
40
-1
40
-1
40
0
40
0
40
0
10
15.221786286685383
20
3.273799917570992
30
0
10
15.045906965924974
20
2.4295788775511542
30
0
10
14.834852081382342
20
1.5970842769998213
30
0
0
SPLINE
5
111
100
AcDbEntity
8
0
100
AcDbSpline
70
0
71
2
72
6
73
3
74
0
42
0.000000001
43
0.0000000001
44
0.0000000001
40
-1
40
-1
40
-1
40
0
40
0
40
0
10
14.834852081382342
20
1.5970842769998213
30
0
10
14.412741561372423
20
1.7260615945095097
30
0
10
14.01994413633513
20
1.9195283216987011
30
0
0
SPLINE
5
112
100
AcDbEntity
8
0
100
AcDbSpline
70
0
71
2
72
6
73
3
74
0
42
0.000000001
43
0.0000000001
44
0.0000000001
40
-1
40
-1
40
-1
40
0
40
0
40
0
10
14.01994413633513
20
1.9195283216987011
30
0
10
13.627146711297838
20
2.1129965507372095
30
0
10
13.287113007396202
20
2.3650909697209688
30
0
0
SPLINE
5
113
100
AcDbEntity
8
0
100
AcDbSpline
70
0
71
2
72
6
73
3
74
0
42
0.000000001
43
0.0000000001
44
0.0000000001
40
-1
40
-1
40
-1
40
0
40
0
40
0
10
13.287113007396202
20
2.3650909697209688
30
0
10
12.947079678956895
20
2.6171838868554111
30
0
10
12.683260697816278
20
2.927902993935104
30
0
0
SPLINE
5
114
100
AcDbEntity
8
0
100
AcDbSpline
70
0
71
2
72
6
73
3
74
0
42
0.000000001
43
0.0000000001
44
0.0000000001
40
-1
40
-1
40
-1
40
0
40
0
40
0
10
12.683260697816278
20
2.927902993935104
30
0
10
12.41944134121333
20
3.2386236028641142
30
0
10
12.255287708996766
20
3.6021086838534404
30
0
0
SPLINE
5
115
100
AcDbEntity
8
0
100
AcDbSpline
70
0
71
2
72
6
73
3
74
0
42
0.000000001
43
0.0000000001
44
0.0000000001
40
-1
40
-1
40
-1
40
0
40
0
40
0
10
12.255287708996766
20
3.6021086838534404
30
0
10
12.12630964056242
20
3.8835154468851667
30
0
10
12.138034578181607
20
4.1766478984607387
30
0
0
SPLINE
5
116
100
AcDbEntity
8
0
100
AcDbSpline
70
0
71
2
72
6
73
3
74
0
42
0.000000001
43
0.0000000001
44
0.0000000001
40
-1
40
-1
40
-1
40
0
40
0
40
0
10
12.138034578181607
20
4.1766478984607387
30
0
10
12.149760266725451
20
4.4697803500363094
30
0
10
12.261150177806361
20
4.7101483295515649
30
0
0
SPLINE
5
117
100
AcDbEntity
8
0
100
AcDbSpline
70
0
71
2
72
6
73
3
74
0
42
0.000000001
43
0.0000000001
44
0.0000000001
40
-1
40
-1
40
-1
40
0
40
0
40
0
10
12.261150177806361
20
4.7101483295515649
30
0
10
12.372540839811924
20
4.950517059991479
30
0
10
12.566007567001115
20
5.1088082233984515
30
0
0
SPLINE
5
118
100
AcDbEntity
8
0
100
AcDbSpline
70
0
71
2
72
6
73
3
74
0
42
0.000000001
43
0.0000000001
44
0.0000000001
40
-1
40
-1
40
-1
40
0
40
0
40
0
10
12.566007567001115
20
5.1088082233984515
30
0
10
12.759475045114968
20
5.2671001377300826
30
0
10
13.005706244364475
20
5.2905507638931146
30
0
0
SPLINE
5
119
100
AcDbEntity
8
0
100
AcDbSpline
70
0
71
2
72
6
73
3
74
0
42
0.000000001
43
0.0000000001
44
0.0000000001
40
-1
40
-1
40
-1
40
0
40
0
40
0
10
13.005706244364475
20
5.2905507638931146
30
0
10
13.11123368663579
20
5.3022757015123014
30
0
10
13.240211755070138
20
5.2905507638931146
30
0
0
SPLINE
5
120
100
AcDbEntity
8
0
100
AcDbSpline
70
0
71
2
72
6
73
3
74
0
42
0.000000001
43
0.0000000001
44
0.0000000001
40
-1
40
-1
40
-1
40
0
40
0
40
0
10
13.240211755070138
20
5.2905507638931146
30
0
10
13.369190574429144
20
5.2788250753492694
30
0
10
13.509893580482679
20
5.214336416594425
30
0
0
SPLINE
5
121
100
AcDbEntity
8
0
100
AcDbSpline
70
0
71
2
72
6
73
3
74
0
42
0.000000001
43
0.0000000001
44
0.0000000001
40
-1
40
-1
40
-1
40
0
40
0
40
0
10
13.509893580482679
20
5.214336416594425
30
0
10
13.650597337460871
20
5.1498470069149223
30
0
10
13.797163563248654
20
5.0208689384805751
30
0
0
SPLINE
5
122
100
AcDbEntity
8
0
100
AcDbSpline
70
0
71
2
72
6
73
3
74
0
42
0.000000001
43
0.0000000001
44
0.0000000001
40
-1
40
-1
40
-1
40
0
40
0
40
0
10
13.797163563248654
20
5.0208689384805751
30
0
10
13.943729789036441
20
4.8918908700462289
30
0
10
14.084432795089974
20
4.6691102969597527
30
0
0
SPLINE
5
123
100
AcDbEntity
8
0
100
AcDbSpline
70
0
71
2
72
6
73
3
74
0
42
0.000000001
43
0.0000000001
44
0.0000000001
40
-1
40
-1
40
-1
40
0
40
0
40
0
10
14.084432795089974
20
4.6691102969597527
30
0
10
14.389290935209392
20
4.9270664338284469
30
0
10
14.330663994339481
20
5.2436495115670505
30
0
0
SPLINE
5
124
100
AcDbEntity
8
0
100
AcDbSpline
70
0
71
2
72
6
73
3
74
0
42
0.000000001
43
0.0000000001
44
0.0000000001
40
-1
40
-1
40
-1
40
0
40
0
40
0
10
14.330663994339481
20
5.2436495115670505
30
0
10
14.27203780439423
20
5.5602325893056541
30
0
10
14.002355978981692
20
5.8240511949839417
30
0
0
SPLINE
5
125
100
AcDbEntity
8
0
100
AcDbSpline
70
0
71
2
72
6
73
3
74
0
42
0.000000001
43
0.0000000001
44
0.0000000001
40
-1
40
-1
40
-1
40
0
40
0
40
0
10
14.002355978981692
20
5.8240511949839417
30
0
10
13.732674153569153
20
6.0878705515868878
30
0
10
13.32228932210308
20
6.2637498723472982
30
0
0
SPLINE
5
126
100
AcDbEntity
8
0
100
AcDbSpline
70
0
71
2
72
6
73
3
74
0
42
0.000000001
43
0.0000000001
44
0.0000000001
40
-1
40
-1
40
-1
40
0
40
0
40
0
10
13.32228932210308
20
6.2637498723472982
30
0
10
12.911903739712347
20
6.4396291931077112
30
0
10
12.513243845865459
20
6.4396291931077112
30
0
0
SPLINE
5
127
100
AcDbEntity
8
0
100
AcDbSpline
70
0
71
2
72
6
73
3
74
0
42
0.000000001
43
0.0000000001
44
0.0000000001
40
-1
40
-1
40
-1
40
0
40
0
40
0
10
12.513243845865459
20
6.4396291931077112
30
0
10
11.903529067475944
20
6.4279042554885244
30
0
10
11.522456580057838
20
6.1699473676951708
30
0
0
SPLINE
5
128
100
AcDbEntity
8
0
100
AcDbSpline
70
0
71
2
72
6
73
3
74
0
42
0.000000001
43
0.0000000001
44
0.0000000001
40
-1
40
-1
40
-1
40
0
40
0
40
0
10
11.522456580057838
20
6.1699473676951708
30
0
10
11.14138484356439
20
5.9119912308264766
30
0
10
10.971367991613572
20
5.5074688681699966
30
0
0
SPLINE
5
129
100
AcDbEntity
8
0
100
AcDbSpline
70
0
71
2
72
6
73
3
74
0
42
0.000000001
43
0.0000000001
44
0.0000000001
40
-1
40
-1
40
-1
40
0
40
0
40
0
10
10.971367991613572
20
5.5074688681699966
30
0
10
10.801351139662755
20
5.1029457545888581
30
0
10
10.848252391988819
20
4.5987584184706565
30
0
0
SPLINE
5
130
100
AcDbEntity
8
0
100
AcDbSpline
70
0
71
2
72
6
73
3
74
0
42
0.000000001
43
0.0000000001
44
0.0000000001
40
-1
40
-1
40
-1
40
0
40
0
40
0
10
10.848252391988819
20
4.5987584184706565
30
0
10
10.895153644314883
20
4.0945703314277972
30
0
10
11.14138484356439
20
3.6021086838534404
30
0
0
SPLINE
5
131
100
AcDbEntity
8
0
100
AcDbSpline
70
0
71
2
72
6
73
3
74
0
42
0.000000001
43
0.0000000001
44
0.0000000001
40
-1
40
-1
40
-1
40
0
40
0
40
0
10
11.14138484356439
20
3.6021086838534404
30
0
10
11.387616042813898
20
3.109646285354426
30
0
10
11.762825310497751
20
2.6992614538883526
30
0
0
SPLINE
5
132
100
AcDbEntity
8
0
100
AcDbSpline
70
0
71
2
72
6
73
3
74
0
42
0.000000001
43
0.0000000001
44
0.0000000001
40
-1
40
-1
40
-1
40
0
40
0
40
0
10
11.762825310497751
20
2.6992614538883526
30
0
10
12.138034578181607
20
2.2888751205729623
30
0
10
12.601183881707994
20
1.9547046364055785
30
0
0
SPLINE
5
133
100
AcDbEntity
8
0
100
AcDbSpline
70
0
71
2
72
6
73
3
74
0
42
0.000000001
43
0.0000000001
44
0.0000000001
40
-1
40
-1
40
-1
40
0
40
0
40
0
10
12.601183881707994
20
1.9547046364055785
30
0
10
13.064332434309726
20
1.6205341522381949
30
0
10
13.591970396590961
20
1.3743029529886874
30
0
0
SPLINE
5
134
100
AcDbEntity
8
0
100
AcDbSpline
70
0
71
2
72
6
73
3
74
0
42
0.000000001
43
0.0000000001
44
0.0000000001
40
-1
40
-1
40
-1
40
0
40
0
40
0
10
13.591970396590961
20
1.3743029529886874
30
0
10
14.119609109796851
20
1.1280717537391802
30
0
10
14.670697698241119
20
0.95219318390342744
30
0
0
SPLINE
5
135
100
AcDbEntity
8
0
100
AcDbSpline
70
0
71
2
72
6
73
3
74
0
42
0.000000001
43
0.0000000001
44
0.0000000001
40
-1
40
-1
40
-1
40
0
40
0
40
0
10
14.670697698241119
20
0.95219318390342744
30
0
10
14.471367751317675
20
0.22522302192477503
30
0
10
14.248587178231199
20
-0.44311794640999219
30
0
0
SPLINE
5
136
100
AcDbEntity
8
0
100
AcDbSpline
70
0
71
2
72
6
73
3
74
0
42
0.000000001
43
0.0000000001
44
0.0000000001
40
-1
40
-1
40
-1
40
0
40
0
40
0
10
14.248587178231199
20
-0.44311794640999219
30
0
10
14.025806605144723
20
-1.1114589147447596
30
0
10
13.767850468276029
20
-1.6977238178959027
30
0
0
SPLINE
5
137
100
AcDbEntity
8
0
100
AcDbSpline
70
0
71
2
72
6
73
3
74
0
42
0.000000001
43
0.0000000001
44
0.0000000001
40
-1
40
-1
40
-1
40
0
40
0
40
0
10
13.767850468276029
20
-1.6977238178959027
30
0
10
13.228486817450952
20
-1.357690113994267
30
0
10
12.753612200843046
20
-1.0469695050652565
30
0
0
SPLINE
5
138
100
AcDbEntity
8
0
100
AcDbSpline
70
0
71
2
72
6
73
3
74
0
42
0.000000001
43
0.0000000001
44
0.0000000001
40
-1
40
-1
40
-1
40
0
40
0
40
0
10
12.753612200843046
20
-1.0469695050652565
30
0
10
12.278738335159799
20
-0.73625039798556358
30
0
10
11.85662781514988
20
-0.49588091662099121
30
0
0
SPLINE
5
139
100
AcDbEntity
8
0
100
AcDbSpline
70
0
71
2
72
6
73
3
74
0
42
0.000000001
43
0.0000000001
44
0.0000000001
40
-1
40
-1
40
-1
40
0
40
0
40
0
10
11.85662781514988
20
-0.49588091662099121
30
0
10
11.434517295139962
20
-0.25551293710573569
30
0
10
11.076895433884888
20
-0.10894746224260858
30
0
0
SPLINE
5
140
100
AcDbEntity
8
0
100
AcDbSpline
70
0
71
2
72
6
73
3
74
0
42
0.000000001
43
0.0000000001
44
0.0000000001
40
-1
40
-1
40
-1
40
0
40
0
40
0
10
11.076895433884888
20
-0.10894746224260858
30
0
10
10.719274323554471
20
0.037619514469835691
30
0
10
10.426141871978901
20
0.037619514469835691
30
0
0
SPLINE
5
141
100
AcDbEntity
8
0
100
AcDbSpline
70
0
71
2
72
6
73
3
74
0
42
0.000000001
43
0.0000000001
44
0.0000000001
40
-1
40
-1
40
-1
40
0
40
0
40
0
10
10.426141871978901
20
0.037619514469835691
30
0
10
9.8164265303958906
20
0.037619514469835691
30
0
10
9.435354418440113
20
-0.24378799948654892
30
0
0
SPLINE
5
142
100
AcDbEntity
8
0
100
AcDbSpline
70
0
71
2
72
6
73
3
74
0
42
0.000000001
43
0.0000000001
44
0.0000000001
40
-1
40
-1
40
-1
40
0
40
0
40
0
10
9.435354418440113
20
-0.24378799948654892
30
0
10
9.0542824942155011
20
-0.52519401159361634
30
0
10
8.8901282988054415
20
-0.95316850226244554
30
0
0
SPLINE
5
143
100
AcDbEntity
8
0
100
AcDbSpline
70
0
71
2
72
6
73
3
74
0
42
0.000000001
43
0.0000000001
44
0.0000000001
40
-1
40
-1
40
-1
40
0
40
0
40
0
10
8.8901282988054415
20
-0.95316850226244554
30
0
10
8.7259742911265459
20
-1.3811414910819577
30
0
10
8.7494247295584131
20
-1.8853288272001587
30
0
0
SPLINE
5
144
100
AcDbEntity
8
0
100
AcDbSpline
70
0
71
2
72
6
73
3
74
0
42
0.000000001
43
0.0000000001
44
0.0000000001
40
-1
40
-1
40
-1
40
-0.86906082196331458
40
-0.86906082196331458
40
-0.86906082196331458
10
8.7494247295584131
20
-1.8853288272001587
30
0
10
8.7524953352726467
20
-1.951346702567982
30
0
10
8.7585814039617755
20
-2.0163594279023918
30
0
0
SPLINE
5
145
100
AcDbEntity
8
0
100
AcDbSpline
70
0
71
3
72
22
73
18
74
0
42
0.000000001
43
0.0000000001
44
0.0000000001
40
0
40
0
40
0
40
0
40
0.074417772180207245
40
0.074417772180207245
40
0.14883554436041929
40
0.14883554436041929
40
0.22325331654062644
40
0.22325331654062644
40
0.29767108872083614
40
0.29767108872083614
40
0.37208886090104626
40
0.37208886090104626
40
0.44650663308125654
40
0.44650663308125654
40
0.48920968630393519
40
0.48920968630393519
40
0.53191273952661422
40
0.53191273952661422
40
0.53191273952661422
40
0.53191273952661422
10
8.6163928132185639
20
-2.0560104700105968
30
0
10
8.6206457066332742
20
-2.0648019339370682
30
0
10
8.6265751084668629
20
-2.0726786620225051
30
0
10
8.6411194324728484
20
-2.0857159317013245
30
0
10
8.6495953029804795
20
-2.0907518298907171
30
0
10
8.6680002983342899
20
-2.0972912417523157
30
0
10
8.6777534613933884
20
-2.0987322350828697
30
0
10
8.6972631656699058
20
-2.0977945781561775
30
0
10
8.7068331834808319
20
-2.0954248924102141
30
0
10
8.7245262152356418
20
-2.0871505713629834
30
0
10
8.7324800741525035
20
-2.0813250430807813
30
0
10
8.7457070803287174
20
-2.0669530540366803
30
0
10
8.7508537701997522
20
-2.0585439973233823
30
0
10
8.7561893405043278
20
-2.0441296177041521
30
0
10
8.7575395580201043
20
-2.0386725131598094
30
0
10
8.7589990500422328
20
-2.0275597943387784
30
0
10
8.759103737313227
20
-2.0219391077327584
30
0
10
8.7585814039617738
20
-2.0163594279023873
30
0
0
ARC
5
146
100
AcDbEntity
8
0
100
AcDbCircle
10
16.718202077508227
20
1.8632607179864762
30
0
40
9.0000000000005329
210
0
220
0
230
1
100
AcDbArc
50
98.917504186069934
51
205.8154957568718
0
ARC
5
147
100
AcDbEntity
8
0
100
AcDbCircle
10
15.303715693876962
20
10.877962780203038
30
0
40
0.12500000000000355
210
0
220
0
230
1
100
AcDbArc
50
278.91750418607342
51
342.852145874754
0
LINE
5
148
100
AcDbEntity
8
0
100
AcDbLine
10
15.423159080806288
20
10.841107966150419
30
0
11
15.794774502801133
21
12.045482639561264
31
0
0
ARC
5
149
100
AcDbEntity
8
0
100
AcDbCircle
10
15.914217889730452
20
12.008627825508652
30
0
40
0.1249999999999996
210
0
220
-0
230
1
100
AcDbArc
50
90
51
162.85214587475613
0
LINE
5
150
100
AcDbEntity
8
0
100
AcDbLine
10
15.914217889730452
20
12.133627825508652
30
0
11
17.522186265286219
21
12.133627825508652
31
0
0
ARC
5
151
100
AcDbEntity
8
0
100
AcDbCircle
10
17.522186265286219
20
12.00862782550865
30
0
40
0.12500000000000031
210
0
220
-0
230
1
100
AcDbArc
50
17.147854125244628
51
90
0
LINE
5
152
100
AcDbEntity
8
0
100
AcDbLine
10
17.641629652215538
20
12.045482639561264
30
0
11
18.013245074210385
21
10.841107966150421
31
0
0
LWPOLYLINE
5
153
100
AcDbEntity
8
0
100
AcDbPolyline
90
14
70
1
43
0.0
10
15.241299830321694
20
12.795482639561264
42
-0.32903541478669851
10
15.360743217251015
20
12.883627825508652
10
15.704364428700609
20
12.883627825508652
42
-2.1489197485962741
10
17.732039726316064
20
12.883627825508652
10
18.075660937765662
20
12.88362782550865
42
-0.32903541478670262
10
18.195104324694977
20
12.795482639561264
10
18.595633979663031
20
11.497399342038156
42
0.27350158921408629
10
18.689800464198807
20
11.41183651763335
42
-0.33609406701273403
10
26.444157393430899
20
2.547580228652595
10
26.444157393430682
20
1.1789412073215275
42
-0.93211208512272214
10
6.9922467615857684
20
1.1789412073215422
10
6.9922467615851742
20
2.5475802286525875
42
-0.33609406701274125
10
14.746603690817786
20
11.411836517633761
42
0.27350158921407558
10
14.840770175353638
20
11.497399342038157
0
SPLINE
5
154
100
AcDbEntity
8
0
100
AcDbSpline
70
0
71
2
72
6
73
3
74
0
42
0.000000001
43
0.0000000001
44
0.0000000001
40
-1
40
-1
40
-1
40
0
40
0
40
0
10
11.52831942432976
20
-3.9841557387059061
30
0
10
11.328989477406317
20
-3.9724308010867193
30
0
10
11.10034606004792
20
-3.8727665785496566
30
0
0
SPLINE
5
155
100
AcDbEntity
8
0
100
AcDbSpline
70
0
71
2
72
6
73
3
74
0
42
0.000000001
43
0.0000000001
44
0.0000000001
40
-1
40
-1
40
-1
40
0
40
0
40
0
10
11.10034606004792
20
-3.8727665785496566
30
0
10
10.871703018151852
20
-3.7731008541632765
30
0
10
10.648922445065375
20
-3.6030840022124582
30
0
0
SPLINE
5
156
100
AcDbEntity
8
0
100
AcDbSpline
70
0
71
2
72
6
73
3
74
0
42
0.000000001
43
0.0000000001
44
0.0000000001
40
-1
40
-1
40
-1
40
0
40
0
40
0
10
10.648922445065375
20
-3.6030840022124582
30
0
10
10.426141871978901
20
-3.4330671502616408
30
0
10
10.23267439386505
20
-3.2161490459847593
30
0
0
SPLINE
5
157
100
AcDbEntity
8
0
100
AcDbSpline
70
0
71
2
72
6
73
3
74
0
42
0.000000001
43
0.0000000001
44
0.0000000001
40
-1
40
-1
40
-1
40
0
40
0
40
0
10
10.23267439386505
20
-3.2161490459847593
30
0
10
10.039206915751199
20
-2.9992324435571938
30
0
10
9.9336794734798843
20
-2.7530012443076868
30
0
0
SPLINE
5
158
100
AcDbEntity
8
0
100
AcDbSpline
70
0
71
2
72
6
73
3
74
0
42
0.000000001
43
0.0000000001
44
0.0000000001
40
-1
40
-1
40
-1
40
0
40
0
40
0
10
9.9336794734798843
20
-2.7530012443076868
30
0
10
9.7929759042328577
20
-2.4481423532636115
30
0
10
9.740212183097201
20
-2.0846587741236022
30
0
0
SPLINE
5
159
100
AcDbEntity
8
0
100
AcDbSpline
70
0
71
2
72
6
73
3
74
0
42
0.000000001
43
0.0000000001
44
0.0000000001
40
-1
40
-1
40
-1
40
0
40
0
40
0
10
9.740212183097201
20
-2.0846587741236022
30
0
10
9.6874482742303787
20
-1.7211751949835932
30
0
10
9.7226242134749263
20
-1.3987296484353964
30
0
0
SPLINE
5
160
100
AcDbEntity
8
0
100
AcDbSpline
70
0
71
2
72
6
73
3
74
0
42
0.000000001
43
0.0000000001
44
0.0000000001
40
-1
40
-1
40
-1
40
0
40
0
40
0
10
9.7226242134749263
20
-1.3987296484353964
30
0
10
9.75779996498831
20
-1.0762841018871991
30
0
10
9.8926408776945784
20
-0.84764105999113071
30
0
0
SPLINE
5
161
100
AcDbEntity
8
0
100
AcDbSpline
70
0
71
2
72
6
73
3
74
0
42
0.000000001
43
0.0000000001
44
0.0000000001
40
-1
40
-1
40
-1
40
0
40
0
40
0
10
9.8926408776945784
20
-0.84764105999113071
30
0
10
10.027481978132014
20
-0.61899651624574481
30
0
10
10.285438115000709
20
-0.58382170338818451
30
0
0
SPLINE
5
162
100
AcDbEntity
8
0
100
AcDbSpline
70
0
71
2
72
6
73
3
74
0
42
0.000000001
43
0.0000000001
44
0.0000000001
40
-1
40
-1
40
-1
40
0
40
0
40
0
10
10.285438115000709
20
-0.58382170338818451
30
0
10
10.519944376631029
20
-0.54864538868130708
30
0
10
10.854114860798411
20
-0.67176098830606101
30
0
0
SPLINE
5
163
100
AcDbEntity
8
0
100
AcDbSpline
70
0
71
2
72
6
73
3
74
0
42
0.000000001
43
0.0000000001
44
0.0000000001
40
-1
40
-1
40
-1
40
0
40
0
40
0
10
10.854114860798411
20
-0.67176098830606101
30
0
10
11.188286095890454
20
-0.7948765879308145
30
0
10
11.592808458546934
20
-1.0352445674460697
30
0
0
SPLINE
5
164
100
AcDbEntity
8
0
100
AcDbSpline
70
0
71
2
72
6
73
3
74
0
42
0.000000001
43
0.0000000001
44
0.0000000001
40
-1
40
-1
40
-1
40
0
40
0
40
0
10
11.592808458546934
20
-1.0352445674460697
30
0
10
11.997330821203414
20
-1.2756140488106424
30
0
10
12.478068282083239
20
-1.6039213132437742
30
0
0
SPLINE
5
165
100
AcDbEntity
8
0
100
AcDbSpline
70
0
71
2
72
6
73
3
74
0
42
0.000000001
43
0.0000000001
44
0.0000000001
40
-1
40
-1
40
-1
40
0
40
0
40
0
10
12.478068282083239
20
-1.6039213132437742
30
0
10
12.958804992038411
20
-1.9322300795262228
30
0
10
13.486442954319646
20
-2.2957136586662319
30
0
0
SPLINE
5
166
100
AcDbEntity
8
0
100
AcDbSpline
70
0
71
2
72
6
73
3
74
0
42
0.000000001
43
0.0000000001
44
0.0000000001
40
-1
40
-1
40
-1
40
0
40
0
40
0
10
13.486442954319646
20
-2.2957136586662319
30
0
10
13.076058122853572
20
-3.0930334463600051
30
0
10
12.589458193164148
20
-3.55032103200146
30
0
0
SPLINE
5
167
100
AcDbEntity
8
0
100
AcDbSpline
70
0
71
2
72
6
73
3
74
0
42
0.000000001
43
0.0000000001
44
0.0000000001
40
-1
40
-1
40
-1
40
0
40
0
40
0
10
12.589458193164148
20
-3.55032103200146
30
0
10
12.102859014399387
20
-4.0076071157935971
30
0
10
11.52831942432976
20
-3.9841557387059061
30
0
0
CIRCLE
5
168
100
AcDbEntity
8
0
100
AcDbCircle
10
16.718202077508337
20
13.737060977271703
30
0
40
0.44151805853565751
210
0
220
0
230
1
0
SPLINE
5
169
100
AcDbEntity
8
0
100
AcDbSpline
70
0
71
2
72
6
73
3
74
0
42
0.000000001
43
0.0000000001
44
0.0000000001
40
-1
40
-1
40
-1
40
0
40
0
40
0
10
21.893478541660457
20
-2.5888461102418043
30
0
10
21.952104731605708
20
-2.8937034994365622
30
0
10
21.817264194361766
20
-3.1282097610668833
30
0
0
SPLINE
5
170
100
AcDbEntity
8
0
100
AcDbSpline
70
0
71
2
72
6
73
3
74
0
42
0.000000001
43
0.0000000001
44
0.0000000001
40
-1
40
-1
40
-1
40
0
40
0
40
0
10
21.817264194361766
20
-3.1282097610668833
30
0
10
21.682423657117827
20
-3.3627160226972039
30
0
10
21.442054175753253
20
-3.5268696549137699
30
0
0
SPLINE
5
171
100
AcDbEntity
8
0
100
AcDbSpline
70
0
71
2
72
6
73
3
74
0
42
0.000000001
43
0.0000000001
44
0.0000000001
40
-1
40
-1
40
-1
40
0
40
0
40
0
10
21.442054175753253
20
-3.5268696549137699
30
0
10
21.201686196237997
20
-3.6910232871303355
30
0
10
20.896828807043239
20
-3.7789640738975292
30
0
0
SPLINE
5
172
100
AcDbEntity
8
0
100
AcDbSpline
70
0
71
2
72
6
73
3
74
0
42
0.000000001
43
0.0000000001
44
0.0000000001
40
-1
40
-1
40
-1
40
0
40
0
40
0
10
20.896828807043239
20
-3.7789640738975292
30
0
10
20.591971417848484
20
-3.8669033588154056
30
0
10
20.298837464423592
20
-3.8786282964345924
30
0
0
SPLINE
5
173
100
AcDbEntity
8
0
100
AcDbSpline
70
0
71
2
72
6
73
3
74
0
42
0.000000001
43
0.0000000001
44
0.0000000001
40
-1
40
-1
40
-1
40
0
40
0
40
0
10
20.298837464423592
20
-3.8786282964345924
30
0
10
19.607046620850451
20
-3.9138046111414697
30
0
10
18.950429839210212
20
-3.8258653262235933
30
0
0
SPLINE
5
174
100
AcDbEntity
8
0
100
AcDbSpline
70
0
71
2
72
6
73
3
74
0
42
0.000000001
43
0.0000000001
44
0.0000000001
40
-1
40
-1
40
-1
40
0
40
0
40
0
10
18.950429839210212
20
-3.8258653262235933
30
0
10
18.293813057569974
20
-3.7379260413057169
30
0
10
17.678235810370865
20
-3.5620459696206468
30
0
0
SPLINE
5
175
100
AcDbEntity
8
0
100
AcDbSpline
70
0
71
2
72
6
73
3
74
0
42
0.000000001
43
0.0000000001
44
0.0000000001
40
-1
40
-1
40
-1
40
0
40
0
40
0
10
17.678235810370865
20
-3.5620459696206468
30
0
10
17.062657812247096
20
-3.3861658979355767
30
0
10
16.482255377905545
20
-3.1399346986860692
30
0
0
SPLINE
5
176
100
AcDbEntity
8
0
100
AcDbSpline
70
0
71
2
72
6
73
3
74
0
42
0.000000001
43
0.0000000001
44
0.0000000001
40
-1
40
-1
40
-1
40
0
40
0
40
0
10
16.482255377905545
20
-3.1399346986860692
30
0
10
15.901853694488654
20
-2.8937034994365614
30
0
10
15.362490043663575
20
-2.612297487329494
30
0
0
SPLINE
5
177
100
AcDbEntity
8
0
100
AcDbSpline
70
0
71
2
72
6
73
3
74
0
42
0.000000001
43
0.0000000001
44
0.0000000001
40
-1
40
-1
40
-1
40
0
40
0
40
0
10
15.362490043663575
20
-2.612297487329494
30
0
10
15.772875626054308
20
-1.9322300795262228
30
0
10
16.071870546439474
20
-1.1114589147447598
30
0
0
SPLINE
5
178
100
AcDbEntity
8
0
100
AcDbSpline
70
0
71
2
72
6
73
3
74
0
42
0.000000001
43
0.0000000001
44
0.0000000001
40
-1
40
-1
40
-1
40
0
40
0
40
0
10
16.071870546439474
20
-1.1114589147447598
30
0
10
16.37086546682464
20
-0.29068925181261351
30
0
10
16.605370977530299
20
0.60043304053328772
30
0
0
SPLINE
5
179
100
AcDbEntity
8
0
100
AcDbSpline
70
0
71
2
72
6
73
3
74
0
42
0.000000001
43
0.0000000001
44
0.0000000001
40
-1
40
-1
40
-1
40
0
40
0
40
0
10
16.605370977530299
20
0.60043304053328772
30
0
10
16.72262410834546
20
0.58870810291410103
30
0
10
16.834014770351025
20
0.58870810291410103
30
0
0
LINE
5
180
100
AcDbEntity
8
0
100
AcDbLine
10
16.834014770351025
20
0.58870810291410103
30
0
11
17.050932123703248
21
0.58870810291410103
31
0
0
SPLINE
5
181
100
AcDbEntity
8
0
100
AcDbSpline
70
0
71
2
72
6
73
3
74
0
42
0.000000001
43
0.0000000001
44
0.0000000001
40
-1
40
-1
40
-1
40
0
40
0
40
0
10
17.050932123703248
20
0.58870810291410103
30
0
10
17.94205441604915
20
0.58870810291410103
30
0
10
18.798001144612833
20
0.88770377422392455
30
0
0
SPLINE
5
182
100
AcDbEntity
8
0
100
AcDbSpline
70
0
71
2
72
6
73
3
74
0
42
0.000000001
43
0.0000000001
44
0.0000000001
40
-1
40
-1
40
-1
40
0
40
0
40
0
10
18.798001144612833
20
0.88770377422392455
30
0
10
19.653946371327198
20
1.1866979436844307
30
0
10
20.386778251190787
20
1.7201998766245745
30
0
0
SPLINE
5
183
100
AcDbEntity
8
0
100
AcDbSpline
70
0
71
2
72
6
73
3
74
0
42
0.000000001
43
0.0000000001
44
0.0000000001
40
-1
40
-1
40
-1
40
0
40
0
40
0
10
20.386778251190787
20
1.7201998766245745
30
0
10
21.119610131054372
20
2.2536988058660845
30
0
10
21.670697217649323
20
2.9923924036146063
30
0
0
SPLINE
5
184
100
AcDbEntity
8
0
100
AcDbSpline
70
0
71
2
72
6
73
3
74
0
42
0.000000001
43
0.0000000001
44
0.0000000001
40
-1
40
-1
40
-1
40
0
40
0
40
0
10
21.670697217649323
20
2.9923924036146063
30
0
10
22.221787307942904
20
3.7310860013631286
30
0
10
22.509056539784222
20
4.6104833560898424
30
0
0
SPLINE
5
185
100
AcDbEntity
8
0
100
AcDbSpline
70
0
71
2
72
6
73
3
74
0
42
0.000000001
43
0.0000000001
44
0.0000000001
40
-1
40
-1
40
-1
40
0
40
0
40
0
10
22.509056539784222
20
4.6104833560898424
30
0
10
22.796325771625543
20
5.4898807108165579
30
0
10
22.767012676652918
20
6.4865304454337736
30
0
0
SPLINE
5
186
100
AcDbEntity
8
0
100
AcDbSpline
70
0
71
2
72
6
73
3
74
0
42
0.000000001
43
0.0000000001
44
0.0000000001
40
-1
40
-1
40
-1
40
0
40
0
40
0
10
22.767012676652918
20
6.4865304454337736
30
0
10
22.737699581680292
20
7.4831809309756494
30
0
10
22.303863373126529
20
8.5267319179189283
30
0
0
SPLINE
5
187
100
AcDbEntity
8
0
100
AcDbSpline
70
0
71
2
72
6
73
3
74
0
42
0.000000001
43
0.0000000001
44
0.0000000001
40
-1
40
-1
40
-1
40
-0.79898617843304831
40
-0.79898617843304831
40
-0.79898617843304831
10
22.303863373126529
20
8.5267319179189283
30
0
10
22.230798149806759
20
8.7011457644574755
30
0
10
22.145177776658723
20
8.8622938753214466
30
0
0
SPLINE
5
188
100
AcDbEntity
8
0
100
AcDbSpline
70
0
71
3
72
20
73
16
74
0
42
0.000000001
43
0.0000000001
44
0.0000000001
40
0
40
0
40
0
40
0
40
0.074417772180203443
40
0.074417772180203443
40
0.14883554436041169
40
0.14883554436041169
40
0.22325331654061564
40
0.22325331654061564
40
0.29767108872083003
40
0.29767108872083003
40
0.37208886090103632
40
0.37208886090103632
40
0.44650663308124594
40
0.44650663308124594
40
0.52020416049832963
40
0.52020416049832963
40
0.52020416049832963
40
0.52020416049832963
10
22.257571086297801
20
8.9565949822426454
30
0
10
22.249873942330531
20
8.9626058819352412
30
0
10
22.241076324882357
20
8.9670558907747449
30
0
10
22.222270526035935
20
8.9723331714397556
30
0
10
22.212442138324612
20
8.9731099895857671
30
0
10
22.19304080727202
20
8.9708525319766146
30
0
10
22.183653351230159
20
8.9678398387466025
30
0
10
22.166561641618564
20
8.9583856743719892
30
0
10
22.159020794108415
20
8.952034590191726
30
0
10
22.146798017068569
20
8.9367993848139307
30
0
10
22.142232943949299
20
8.9280609204836399
30
0
10
22.136709337066428
20
8.9093259924487409
30
0
10
22.135803611995225
20
8.8995086448674723
30
0
10
22.13779658838326
20
8.8801733828574037
30
0
10
22.140639867459655
20
8.8708347805735475
30
0
10
22.145177776663417
20
8.8622938753126181
30
0
0
ARC
5
189
100
AcDbEntity
8
0
100
AcDbCircle
10
16.718202077508227
20
1.8632607179864762
30
0
40
8.9999999999995257
210
0
220
0
230
1
100
AcDbArc
50
-134.51481668814276
51
52.012797910018172
0
SPLINE
5
190
100
AcDbEntity
8
0
100
AcDbSpline
70
0
71
3
72
11
73
7
74
0
42
0.000000001
43
0.0000000001
44
0.0000000001
40
0
40
0
40
0
40
0
40
0.25
40
0.5
40
0.75
40
1
40
1
40
1
40
1
10
10.496305360451252
20
-4.4347427102311876
30
0
10
10.480566046470225
20
-4.4263269073725384
30
0
10
10.442904227474322
20
-4.4212622203920224
30
0
10
10.395155004517751
20
-4.4525144451679486
30
0
10
10.379565640766474
20
-4.5074112718907351
30
0
10
10.39563201940777
20
-4.541848680934466
30
0
10
10.408358890708847
20
-4.5543618136051789
30
0
0
SPLINE
5
191
100
AcDbEntity
8
0
100
AcDbSpline
70
0
71
2
72
6
73
3
74
0
42
0.000000001
43
0.0000000001
44
0.0000000001
40
-0.61468859015330968
40
-0.61468859015330968
40
-0.61468859015330968
40
0
40
0
40
0
10
10.496305360451256
20
-4.4347427102311894
30
0
10
10.750250359981088
20
-4.5705269671282043
30
0
10
11.024131712749231
20
-4.664223146509177
30
0
0
SPLINE
5
192
100
AcDbEntity
8
0
100
AcDbSpline
70
0
71
2
72
6
73
3
74
0
42
0.000000001
43
0.0000000001
44
0.0000000001
40
-1
40
-1
40
-1
40
0
40
0
40
0
10
11.024131712749231
20
-4.664223146509177
30
0
10
11.46969285892218
20
-4.8166518411065553
30
0
10
11.915254005095131
20
-4.8166518411065571
30
0
0
SPLINE
5
193
100
AcDbEntity
8
0
100
AcDbSpline
70
0
71
2
72
6
73
3
74
0
42
0.000000001
43
0.0000000001
44
0.0000000001
40
-1
40
-1
40
-1
40
0
40
0
40
0
10
11.915254005095131
20
-4.8166518411065571
30
0
10
12.900178426630831
20
-4.8166518411065571
30
0
10
13.627146711297838
20
-4.4004037899062309
30
0
0
SPLINE
5
194
100
AcDbEntity
8
0
100
AcDbSpline
70
0
71
2
72
6
73
3
74
0
42
0.000000001
43
0.0000000001
44
0.0000000001
40
-1
40
-1
40
-1
40
0
40
0
40
0
10
13.627146711297838
20
-4.4004037899062309
30
0
10
14.354115371427172
20
-3.9841557387059061
30
0
10
14.916928897490626
20
-3.2689135180450748
30
0
0
SPLINE
5
195
100
AcDbEntity
8
0
100
AcDbSpline
70
0
71
2
72
6
73
3
74
0
42
0.000000001
43
0.0000000001
44
0.0000000001
40
-1
40
-1
40
-1
40
0
40
0
40
0
10
14.916928897490626
20
-3.2689135180450748
30
0
10
15.596996305293896
20
-3.7144746642180255
30
0
10
16.323964214498574
20
-4.1248594956840989
30
0
0
SPLINE
5
196
100
AcDbEntity
8
0
100
AcDbSpline
70
0
71
2
72
6
73
3
74
0
42
0.000000001
43
0.0000000001
44
0.0000000001
40
-1
40
-1
40
-1
40
0
40
0
40
0
10
16.323964214498574
20
-4.1248594956840989
30
0
10
17.050932123703248
20
-4.5352458289994901
30
0
10
17.795488190261366
20
-4.8401032181942476
30
0
0
SPLINE
5
197
100
AcDbEntity
8
0
100
AcDbSpline
70
0
71
2
72
6
73
3
74
0
42
0.000000001
43
0.0000000001
44
0.0000000001
40
-1
40
-1
40
-1
40
0
40
0
40
0
10
17.795488190261366
20
-4.8401032181942476
30
0
10
18.540044256819481
20
-5.144960607389006
30
0
10
19.290463543111848
20
-5.3091142396055719
30
0
0
SPLINE
5
198
100
AcDbEntity
8
0
100
AcDbSpline
70
0
71
2
72
6
73
3
74
0
42
0.000000001
43
0.0000000001
44
0.0000000001
40
-1
40
-1
40
-1
40
0
40
0
40
0
10
19.290463543111848
20
-5.3091142396055719
30
0
10
20.040882829404215
20
-5.4732678718221388
30
0
10
20.779576427152737
20
-5.4146416818768879
30
0
0
SPLINE
5
199
100
AcDbEntity
8
0
100
AcDbSpline
70
0
71
2
72
6
73
3
74
0
42
0.000000001
43
0.0000000001
44
0.0000000001
40
-1
40
-1
40
-1
40
0
40
0
40
0
10
20.779576427152737
20
-5.4146416818768879
30
0
10
21.342389953216191
20
-5.3677404295508238
30
0
10
21.776226161769955
20
-5.1156475124163805
30
0
0
SPLINE
5
200
100
AcDbEntity
8
0
100
AcDbSpline
70
0
71
2
72
6
73
3
74
0
42
0.000000001
43
0.0000000001
44
0.0000000001
40
-1
40
-1
40
-1
40
0
40
0
40
0
10
21.776226161769955
20
-5.1156475124163805
30
0
10
22.2100608684744
20
-4.8635530934326212
30
0
10
22.403529097512909
20
-4.4766181372049214
30
0
0
SPLINE
5
201
100
AcDbEntity
8
0
100
AcDbSpline
70
0
71
2
72
6
73
3
74
0
42
0.000000001
43
0.0000000001
44
0.0000000001
40
-1
40
-1
40
-1
40
0
40
0
40
0
10
22.403529097512909
20
-4.4766181372049214
30
0
10
22.596995824702098
20
-4.0896846828265394
30
0
10
22.497331602165037
20
-3.5972222843275241
30
0
0
SPLINE
5
202
100
AcDbEntity
8
0
100
AcDbSpline
70
0
71
2
72
6
73
3
74
0
42
0.000000001
43
0.0000000001
44
0.0000000001
40
-1
40
-1
40
-1
40
0
40
0
40
0
10
22.497331602165037
20
-3.5972222843275241
30
0
10
22.397665877778657
20
-3.1047598858285097
30
0
10
21.893478541660457
20
-2.5888461102418043
30
0
0
SPLINE
5
203
100
AcDbEntity
8
0
100
AcDbSpline
70
0
71
2
72
6
73
3
74
0
42
0.000000001
43
0.0000000001
44
0.0000000001
40
-1
40
-1
40
-1
40
0
40
0
40
0
10
19.642222935557328
20
9.6289098457321174
30
0
10
19.829827944861584
20
9.652359720970491
30
0
10
19.993980075228833
20
9.5292441213457373
30
0
0
SPLINE
5
204
100
AcDbEntity
8
0
100
AcDbSpline
70
0
71
2
72
6
73
3
74
0
42
0.000000001
43
0.0000000001
44
0.0000000001
40
-1
40
-1
40
-1
40
0
40
0
40
0
10
19.993980075228833
20
9.5292441213457373
30
0
10
20.158135209294716
20
9.4061292726456411
30
0
10
20.304700684157844
20
9.1950728862536977
30
0
0
SPLINE
5
205
100
AcDbEntity
8
0
100
AcDbSpline
70
0
71
2
72
6
73
3
74
0
42
0.000000001
43
0.0000000001
44
0.0000000001
40
-1
40
-1
40
-1
40
0
40
0
40
0
10
20.304700684157844
20
9.1950728862536977
30
0
10
20.45126766087029
20
8.9840180017110676
30
0
10
20.568520040760792
20
8.7201986451081197
30
0
0
SPLINE
5
206
100
AcDbEntity
8
0
100
AcDbSpline
70
0
71
2
72
6
73
3
74
0
42
0.000000001
43
0.0000000001
44
0.0000000001
40
-1
40
-1
40
-1
40
0
40
0
40
0
10
20.568520040760792
20
8.7201986451081197
30
0
10
20.685773922500612
20
8.4563792885051736
30
0
10
20.779576427152737
20
8.1984231516364794
30
0
0
SPLINE
5
207
100
AcDbEntity
8
0
100
AcDbSpline
70
0
71
2
72
6
73
3
74
0
42
0.000000001
43
0.0000000001
44
0.0000000001
40
-1
40
-1
40
-1
40
0
40
0
40
0
10
20.779576427152737
20
8.1984231516364794
30
0
10
21.072707376878991
20
7.3190257969097656
30
0
10
21.143060006292746
20
6.4806679766241801
30
0
0
SPLINE
5
208
100
AcDbEntity
8
0
100
AcDbSpline
70
0
71
2
72
6
73
3
74
0
42
0.000000001
43
0.0000000001
44
0.0000000001
40
-1
40
-1
40
-1
40
0
40
0
40
0
10
21.143060006292746
20
6.4806679766241801
30
0
10
21.213411133857186
20
5.6423094054139362
30
0
10
21.072707376878991
20
4.8860276503119762
30
0
0
SPLINE
5
209
100
AcDbEntity
8
0
100
AcDbSpline
70
0
71
2
72
6
73
3
74
0
42
0.000000001
43
0.0000000001
44
0.0000000001
40
-1
40
-1
40
-1
40
0
40
0
40
0
10
21.072707376878991
20
4.8860276503119762
30
0
10
20.932005121750116
20
4.1297466461346737
30
0
10
20.586108198114232
20
3.4848548021136216
30
0
0
SPLINE
5
210
100
AcDbEntity
8
0
100
AcDbSpline
70
0
71
2
72
6
73
3
74
0
42
0.000000001
43
0.0000000001
44
0.0000000001
40
-1
40
-1
40
-1
40
0
40
0
40
0
10
20.586108198114232
20
3.4848548021136216
30
0
10
20.240211274478341
20
2.8399637090172276
30
0
10
19.700849125502579
20
2.3709526876059033
30
0
0
SPLINE
5
211
100
AcDbEntity
8
0
100
AcDbSpline
70
0
71
2
72
6
73
3
74
0
42
0.000000001
43
0.0000000001
44
0.0000000001
40
-1
40
-1
40
-1
40
0
40
0
40
0
10
19.700849125502579
20
2.3709526876059033
30
0
10
19.161485474677502
20
1.9019416661945794
30
0
10
18.428654345738572
20
1.6205341522381944
30
0
0
SPLINE
5
212
100
AcDbEntity
8
0
100
AcDbSpline
70
0
71
2
72
6
73
3
74
0
42
0.000000001
43
0.0000000001
44
0.0000000001
40
-1
40
-1
40
-1
40
0
40
0
40
0
10
18.428654345738572
20
1.6205341522381944
30
0
10
17.695823216799646
20
1.3391266382818099
30
0
10
16.792975986834556
20
1.3156767630434363
30
0
0
SPLINE
5
213
100
AcDbEntity
8
0
100
AcDbSpline
70
0
71
2
72
6
73
3
74
0
42
0.000000001
43
0.0000000001
44
0.0000000001
40
-1
40
-1
40
-1
40
0
40
0
40
0
10
16.792975986834556
20
1.3156767630434363
30
0
10
17.01575655992103
20
2.2771501829537755
30
0
10
17.203360818300627
20
3.2503500423326184
30
0
0
SPLINE
5
214
100
AcDbEntity
8
0
100
AcDbSpline
70
0
71
2
72
6
73
3
74
0
42
0.000000001
43
0.0000000001
44
0.0000000001
40
-1
40
-1
40
-1
40
0
40
0
40
0
10
17.203360818300627
20
3.2503500423326184
30
0
10
17.390965827604887
20
4.2235491507868019
30
0
10
17.566845148365296
20
5.1263963807518902
30
0
0
SPLINE
5
215
100
AcDbEntity
8
0
100
AcDbSpline
70
0
71
2
72
6
73
3
74
0
42
0.000000001
43
0.0000000001
44
0.0000000001
40
-1
40
-1
40
-1
40
0
40
0
40
0
10
17.566845148365296
20
5.1263963807518902
30
0
10
17.742724469125708
20
6.0292443616416369
30
0
10
17.936191947239561
20
6.8207016805258167
30
0
0
SPLINE
5
216
100
AcDbEntity
8
0
100
AcDbSpline
70
0
71
2
72
6
73
3
74
0
42
0.000000001
43
0.0000000001
44
0.0000000001
40
-1
40
-1
40
-1
40
0
40
0
40
0
10
17.936191947239561
20
6.8207016805258167
30
0
10
18.129659425353406
20
7.6121582484853381
30
0
10
18.370028155793321
20
8.216011308989918
30
0
0
SPLINE
5
217
100
AcDbEntity
8
0
100
AcDbSpline
70
0
71
2
72
6
73
3
74
0
42
0.000000001
43
0.0000000001
44
0.0000000001
40
-1
40
-1
40
-1
40
0
40
0
40
0
10
18.370028155793321
20
8.216011308989918
30
0
10
18.610396135308577
20
8.8198643694944998
30
0
10
18.915254275427994
20
9.1950728862536977
30
0
0
SPLINE
5
218
100
AcDbEntity
8
0
100
AcDbSpline
70
0
71
2
72
6
73
3
74
0
42
0.000000001
43
0.0000000001
44
0.0000000001
40
-1
40
-1
40
-1
40
0
40
0
40
0
10
18.915254275427994
20
9.1950728862536977
30
0
10
19.220111664622753
20
9.5702836557868665
30
0
10
19.642222935557328
20
9.6289098457321174
30
0
0
ENDSEC
0
SECTION
2
OBJECTS
0
DICTIONARY
5
C
100
AcDbDictionary
3
ACAD_GROUP
350
D
3
ACAD_MLINESTYLE
350
17
0
DICTIONARY
5
D
100
AcDbDictionary
0
DICTIONARY
5
1A
330
C
100
AcDbDictionary
0
DICTIONARY
5
17
100
AcDbDictionary
0
ENDSEC
0
EOF
