0
SECTION
2
HEADER
9
$INSUNITS
70
1
9
$ACADVER
1
AC1014
9
$HANDSEED
5
FFFF
0
ENDSEC
0
SECTION
2
TABLES
0
TABLE
2
VPORT
5
8
100
AcDbSymbolTable
0
ENDTAB
0
TABLE
2
LTYPE
5
5
100
AcDbSymbolTable
0
LTYPE
5
14
100
AcDbSymbolTableRecord
100
AcDbLinetypeTableRecord
2
BYBLOCK
70
0
0
LTYPE
5
15
100
AcDbSymbolTableRecord
100
AcDbLinetypeTableRecord
2
BYLAYER
70
0
0
ENDTAB
0
TABLE
2
LAYER
5
2
100
AcDbSymbolTable
70
2
0
LAYER
5
50
100
AcDbSymbolTableRecord
100
AcDbLayerTableRecord
2
0
70
0
6
CONTINUOUS
0
ENDTAB
0
TABLE
2
STYLE
5
3
100
AcDbSymbolTable
70
1
0
STYLE
5
11
100
AcDbSymbolTableRecord
100
AcDbTextStyleTableRecord
2
STANDARD
70
0
0
ENDTAB
0
TABLE
2
VIEW
5
6
100
AcDbSymbolTable
70
0
0
ENDTAB
0
TABLE
2
UCS
5
7
100
AcDbSymbolTable
70
0
0
ENDTAB
0
TABLE
2
APPID
5
9
100
AcDbSymbolTable
70
2
0
APPID
5
12
100
AcDbSymbolTableRecord
100
AcDbRegAppTableRecord
2
ACAD
70
0
0
ENDTAB
0
TABLE
2
DIMSTYLE
5
A
100
AcDbSymbolTable
70
1
0
ENDTAB
0
TABLE
2
BLOCK_RECORD
5
1
100
AcDbSymbolTable
70
1
0
BLOCK_RECORD
5
1F
100
AcDbSymbolTableRecord
100
AcDbBlockTableRecord
2
*MODEL_SPACE
0
BLOCK_RECORD
5
1B
100
AcDbSymbolTableRecord
100
AcDbBlockTableRecord
2
*PAPER_SPACE
0
ENDTAB
0
ENDSEC
0
SECTION
2
BLOCKS
0
BLOCK
5
20
100
AcDbEntity
100
AcDbBlockBegin
2
*MODEL_SPACE
0
ENDBLK
5
21
100
AcDbEntity
100
AcDbBlockEnd
0
BLOCK
5
1C
100
AcDbEntity
100
AcDbBlockBegin
2
*PAPER_SPACE
0
ENDBLK
5
1D
100
AcDbEntity
100
AcDbBlockEnd
0
ENDSEC
0
SECTION
2
ENTITIES
0
LWPOLYLINE
5
100
100
AcDbEntity
8
0
100
AcDbPolyline
90
3
70
1
43
0.0
10
4.6492870780161857
20
6.3233881235813021
42
-0.27536948165321751
10
5.0000001595714876
20
5.9000001882943547
42
-0.076941034656262106
10
3.5746419423463869
20
4.6988801280202903
42
-0.035370953138013028
0
SPLINE
5
101
100
AcDbEntity
8
0
100
AcDbSpline
70
4
71
5
72
15
73
9
74
0
42
0.000000001
43
0.0000000001
44
0.0000000001
40
0
40
0
40
0
40
0
40
0
40
0
40
0.25
40
0.5
40
0.75
40
1
40
1
40
1
40
1
40
1
40
1
41
1
41
1
41
1
41
1
41
1
41
1
41
1
41
1
41
1
10
0.57677614127986332
20
-6.114501200952799
30
0
10
0.4253642686890039
20
-6.1649360003209646
30
0
10
0.18801968653585754
20
-6.111207927870133
30
0
10
0.18801968653585754
20
-6.011207924678704
30
0
10
0.24043667100572594
20
-5.867931070708428
30
0
10
0.38801969291871669
20
-5.8112079182958416
30
0
10
0.48801969611014601
20
-5.8112079182958416
30
0
10
0.58801969930157605
20
-5.9112079214872706
30
0
10
0.57677614127986332
20
-6.114501200952799
30
0
0
SPLINE
5
102
100
AcDbEntity
8
0
100
AcDbSpline
70
4
71
3
72
8
73
4
74
0
42
0.000000001
43
0.0000000001
44
0.0000000001
40
-1
40
-1
40
-1
40
-1
40
0
40
0
40
0
40
0
41
1
41
1
41
1
41
1
10
-0.13339278737904203
20
-3.2558110082902849
30
0
10
-0.22939457138579658
20
-2.8191354756313944
30
0
10
0.32792368689972323
20
-2.8063915257412568
30
0
10
0.3576569314777665
20
-3.2065383597968351
30
0
0
SPLINE
5
103
100
AcDbEntity
8
0
100
AcDbSpline
70
4
71
3
72
8
73
4
74
0
42
0.000000001
43
0.0000000001
44
0.0000000001
40
-1
40
-1
40
-1
40
-1
40
0
40
0
40
0
40
0
41
1
41
1
41
1
41
1
10
0.3576569314777665
20
-3.2065383597968351
30
0
10
0.27185558438100482
20
-3.2345763688046087
30
0
10
0.2412674661457353
20
-3.3186917150773931
30
0
10
0.18604632178741609
20
-3.3781582042334799
30
0
0
SPLINE
5
104
100
AcDbEntity
8
0
100
AcDbSpline
70
4
71
3
72
8
73
4
74
0
42
0.000000001
43
0.0000000001
44
0.0000000001
40
-1
40
-1
40
-1
40
-1
40
0
40
0
40
0
40
0
41
1
41
1
41
1
41
1
10
0.18604632178741609
20
-3.3781582042334799
30
0
10
0.10109852909841206
20
-3.2626156970618512
30
0
10
-0.03908491969309133
20
-3.355212498183878
30
0
10
-0.13339278737904203
20
-3.2558110082902849
30
0
0
SPLINE
5
105
100
AcDbEntity
8
0
100
AcDbSpline
70
4
71
3
72
8
73
4
74
0
42
0.000000001
43
0.0000000001
44
0.0000000001
40
-1
40
-1
40
-1
40
-1
40
0
40
0
40
0
40
0
41
1
41
1
41
1
41
1
10
1.3698353069547113
20
-0.48042452655048501
30
0
10
1.2840339598579495
20
-0.50846253555825904
30
0
10
1.2534458416226801
20
-0.59257788183104354
30
0
10
1.1982246972643611
20
-0.65204437098713031
30
0
0
SPLINE
5
106
100
AcDbEntity
8
0
100
AcDbSpline
70
4
71
3
72
8
73
4
74
0
42
0.000000001
43
0.0000000001
44
0.0000000001
40
-1
40
-1
40
-1
40
-1
40
0
40
0
40
0
40
0
41
1
41
1
41
1
41
1
10
1.1982246972643611
20
-0.65204437098713031
30
0
10
1.1132769045753594
20
-0.53650186381550113
30
0
10
0.9730934557838562
20
-0.6290986649375282
30
0
10
0.87878558809790275
20
-0.52969717504393465
30
0
0
SPLINE
5
107
100
AcDbEntity
8
0
100
AcDbSpline
70
4
71
3
72
8
73
4
74
0
42
0.000000001
43
0.0000000001
44
0.0000000001
40
-1
40
-1
40
-1
40
-1
40
0
40
0
40
0
40
0
41
1
41
1
41
1
41
1
10
0.87878558809790275
20
-0.52969717504393465
30
0
10
0.78278380409114789
20
-0.093021642385043624
30
0
10
1.3401020623766682
20
-0.080277692494905656
30
0
10
1.3698353069547113
20
-0.48042452655048501
30
0
0
SPLINE
5
108
100
AcDbEntity
8
0
100
AcDbSpline
70
4
71
3
72
8
73
4
74
0
42
0.000000001
43
0.0000000001
44
0.0000000001
40
-1
40
-1
40
-1
40
-1
40
0
40
0
40
0
40
0
41
1
41
1
41
1
41
1
10
0.19375432412186597
20
-3.6647448976664121
30
0
10
0.097752540115111766
20
-3.2280693650075238
30
0
10
0.65507079840062865
20
-3.2153254151173867
30
0
10
0.68480404297867203
20
-3.6154722491729627
30
0
0
SPLINE
5
109
100
AcDbEntity
8
0
100
AcDbSpline
70
4
71
3
72
8
73
4
74
0
42
0.000000001
43
0.0000000001
44
0.0000000001
40
-1
40
-1
40
-1
40
-1
40
0
40
0
40
0
40
0
41
1
41
1
41
1
41
1
10
0.68480404297867203
20
-3.6154722491729627
30
0
10
0.59900269588191069
20
-3.6435102581807368
30
0
10
0.56841457764664127
20
-3.7276256044535208
30
0
10
0.51319343328832245
20
-3.7870920936096062
30
0
0
SPLINE
5
110
100
AcDbEntity
8
0
100
AcDbSpline
70
4
71
3
72
8
73
4
74
0
42
0.000000001
43
0.0000000001
44
0.0000000001
40
-1
40
-1
40
-1
40
-1
40
0
40
0
40
0
40
0
41
1
41
1
41
1
41
1
10
0.51319343328832245
20
-3.7870920936096062
30
0
10
0.42824564059931886
20
-3.6715495864379788
30
0
10
0.28806219180781639
20
-3.7641463875600056
30
0
10
0.19375432412186597
20
-3.6647448976664121
30
0
0
SPLINE
5
111
100
AcDbEntity
8
0
100
AcDbSpline
70
4
71
3
72
8
73
4
74
0
42
0.000000001
43
0.0000000001
44
0.0000000001
40
-0.99998664171332063
40
-0.99998664171332063
40
-0.99998664171332063
40
-0.99998664171332063
40
0
40
0
40
0
40
0
41
1
41
1
41
1
41
1
10
0.15415763168023244
20
-1.3389896598069035
30
0
10
-0.087119926126317332
20
-1.2744146904735738
30
0
10
-0.054835303932574624
20
-0.86832993750974108
30
0
10
0.2034386303641863
20
-0.84793461313786955
30
0
0
SPLINE
5
112
100
AcDbEntity
8
0
100
AcDbSpline
70
4
71
3
72
8
73
4
74
0
42
0.000000001
43
0.0000000001
44
0.0000000001
40
-1
40
-1
40
-1
40
-1
40
0
40
0
40
0
40
0
41
1
41
1
41
1
41
1
10
0.2034386303641863
20
-0.84793461313786955
30
0
10
0.29603675073568492
20
-0.89465583315434716
30
0
10
0.29093389378174617
20
-1.0382376685832211
30
0
10
0.39968226617757791
20
-1.0688178713216634
30
0
0
SPLINE
5
113
100
AcDbEntity
8
0
100
AcDbSpline
70
4
71
3
72
8
73
4
74
0
42
0.000000001
43
0.0000000001
44
0.0000000001
40
-1
40
-1
40
-1
40
-1
40
-4.1819303980686436e-06
40
-4.1819303980686436e-06
40
-4.1819303980686436e-06
40
-4.1819303980686436e-06
41
1
41
1
41
1
41
1
10
0.39968226617757791
20
-1.0688178713216634
30
0
10
0.34529775341709246
20
-1.1860630392472087
30
0
10
0.22466372482569597
20
-1.237885853841864
30
0
10
0.15415763168023267
20
-1.3389896598069033
30
0
0
SPLINE
5
114
100
AcDbEntity
8
0
100
AcDbSpline
70
4
71
5
72
14
73
8
74
0
42
0.000000001
43
0.0000000001
44
0.0000000001
40
-1
40
-1
40
-1
40
-1
40
-1
40
-1
40
-0.66666666666666663
40
-0.33333333333333331
40
0
40
0
40
0
40
0
40
0
40
0
41
1
41
1
41
1
41
1
41
1
41
1
41
1
41
1
10
-0.028057778751371693
20
4.9388660175301178
30
0
10
0.0480081297126011
20
4.938604200319606
30
0
10
0.17192340170152157
20
4.914470008277279
30
0
10
0.29048453865804807
20
4.9267663130813339
30
0
10
0.39216487299881064
20
4.9510885196473069
30
0
10
0.48766878213369835
20
4.9863784485129132
30
0
10
0.57149503327164297
20
5.0307184009441919
30
0
10
0.61999999250717941
20
5.0899999384863612
30
0
0
LINE
5
115
100
AcDbEntity
8
0
100
AcDbLine
10
0.6199999925071793
20
5.0899999384863612
30
0
11
0.62279037259437486
21
5.0934102703186532
31
0
0
SPLINE
5
116
100
AcDbEntity
8
0
100
AcDbSpline
70
4
71
5
72
19
73
13
74
0
42
0.000000001
43
0.0000000001
44
0.0000000001
40
-0.99217810215136637
40
-0.99217810215136637
40
-0.99217810215136637
40
-0.99217810215136637
40
-0.99217810215136637
40
-0.99217810215136637
40
-0.875
40
-0.75
40
-0.625
40
-0.5
40
-0.375
40
-0.25
40
-0.125
40
-0.0098835245767403008
40
-0.0098835245767403008
40
-0.0098835245767403008
40
-0.0098835245767403008
40
-0.0098835245767403008
40
-0.0098835245767403008
41
1
41
1
41
1
41
1
41
1
41
1
41
1
41
1
41
1
41
1
41
1
41
1
41
1
10
0.62279037259437464
20
5.0934102703186532
30
0
10
0.67149827848039334
20
4.9668406083263301
30
0
10
0.84074557447325737
20
4.9960389693222584
30
0
10
0.85288444431253563
20
4.931809877654298
30
0
10
0.83132634323678023
20
4.7059725770698853
30
0
10
0.6837430829551453
20
4.62511004375156
30
0
10
0.40000001276571884
20
4.6000001468057707
30
0
10
0.17338049105801787
20
4.5978825228219371
30
0
10
0.0027417752556122832
20
4.624679477555925
30
0
10
-0.19211713693732951
20
4.69706018842946
30
0
10
-0.081722790583116017
20
4.8003950895905119
30
0
10
0.062268295814090664
20
4.8545795556283666
30
0
10
-0.028057778751371693
20
4.9388660175301178
30
0
0
SPLINE
5
117
100
AcDbEntity
8
0
100
AcDbSpline
70
4
71
3
72
8
73
4
74
0
42
0.000000001
43
0.0000000001
44
0.0000000001
40
-1
40
-1
40
-1
40
-1
40
0
40
0
40
0
40
0
41
1
41
1
41
1
41
1
10
-0.17451829999410373
20
-0.63722287716986092
30
0
10
-0.29176527748230063
20
-0.5717999766520806
30
0
10
-0.35802590141418478
20
-0.67459853393357438
30
0
10
-0.44469267616394176
20
-0.71112723253688614
30
0
0
SPLINE
5
118
100
AcDbEntity
8
0
100
AcDbSpline
70
4
71
3
72
8
73
4
74
0
42
0.000000001
43
0.0000000001
44
0.0000000001
40
-0.99997545006667354
40
-0.99997545006667354
40
-0.99997545006667354
40
-0.99997545006667354
40
0
40
0
40
0
40
0
41
1
41
1
41
1
41
1
10
-0.4446926443000575
20
-0.71112720092913817
30
0
10
-0.55173041451307558
20
-0.60322203859277046
30
0
10
-0.58740437020025305
20
-0.33817034391137329
30
0
10
-0.39540287742736963
20
-0.29314414563300034
30
0
0
SPLINE
5
119
100
AcDbEntity
8
0
100
AcDbSpline
70
4
71
3
72
8
73
4
74
0
42
0.000000001
43
0.0000000001
44
0.0000000001
40
-1
40
-1
40
-1
40
-1
40
0
40
0
40
0
40
0
41
1
41
1
41
1
41
1
10
-0.39540287742736963
20
-0.29314414563300034
30
0
10
-0.32915016899230976
20
-0.41463646791896969
30
0
10
-0.15243670234802606
20
-0.4273804178091043
30
0
10
-0.17451829999410373
20
-0.63722287716986092
30
0
0
SPLINE
5
120
100
AcDbEntity
8
0
100
AcDbSpline
70
4
71
3
72
8
73
4
74
0
42
0.000000001
43
0.0000000001
44
0.0000000001
40
-1
40
-1
40
-1
40
-1
40
0
40
0
40
0
40
0
41
1
41
1
41
1
41
1
10
5.5332232397504839
20
1.0222515370544034
30
0
10
5.661462177042405
20
1.8884328832276251
30
0
10
5.5590279101398421
20
2.8749093687794844
30
0
10
5.2851572310601407
20
3.7630158136064225
30
0
0
SPLINE
5
121
100
AcDbEntity
8
0
100
AcDbSpline
70
4
71
3
72
8
73
4
74
0
42
0.000000001
43
0.0000000001
44
0.0000000001
40
-1
40
-1
40
-1
40
-1
40
0
40
0
40
0
40
0
41
1
41
1
41
1
41
1
10
5.2851572310601407
20
3.7630158136064225
30
0
10
5.1907918783528695
20
4.0697694609494208
30
0
10
5.1069391248884566
20
4.4485715306966451
30
0
10
4.9083459742391842
20
4.6323843303524566
30
0
0
SPLINE
5
122
100
AcDbEntity
8
0
100
AcDbSpline
70
4
71
3
72
8
73
4
74
0
42
0.000000001
43
0.0000000001
44
0.0000000001
40
-1
40
-1
40
-1
40
-1
40
0
40
0
40
0
40
0
41
1
41
1
41
1
41
1
10
4.9083459742391842
20
4.6323843303524566
30
0
10
5.4558473935925633
20
3.1498770155566604
30
0
10
5.6228996210214088
20
2.2264939942266246
30
0
10
5.4062903693677828
20
0.95676745725237811
30
0
0
SPLINE
5
123
100
AcDbEntity
8
0
100
AcDbSpline
70
4
71
3
72
8
73
4
74
0
42
0.000000001
43
0.0000000001
44
0.0000000001
40
-1
40
-1
40
-1
40
-1
40
-6.132792303037127e-05
40
-6.132792303037127e-05
40
-6.132792303037127e-05
40
-6.132792303037127e-05
41
1
41
1
41
1
41
1
10
5.4062903693677828
20
0.95676745725237811
30
0
10
5.3085103502965554
20
0.85919081203646519
30
0
10
5.2063327696308521
20
0.51841517111203095
30
0
10
5.1743114268155095
20
0.3041268312000977
30
0
0
SPLINE
5
124
100
AcDbEntity
8
0
100
AcDbSpline
70
4
71
3
72
8
73
4
74
0
42
0.000000001
43
0.0000000001
44
0.0000000001
40
-0.99997006629351004
40
-0.99997006629351004
40
-0.99997006629351004
40
-0.99997006629351004
40
0
40
0
40
0
40
0
41
1
41
1
41
1
41
1
10
5.1743114268155095
20
0.30412683120009787
30
0
10
5.0932301254299945
20
0.73513461751382758
30
0
10
5.1708128183251274
20
1.1396060344331833
30
0
10
4.897588316960527
20
1.5868247070501702
30
0
0
SPLINE
5
125
100
AcDbEntity
8
0
100
AcDbSpline
70
4
71
3
72
8
73
4
74
0
42
0.000000001
43
0.0000000001
44
0.0000000001
40
-1
40
-1
40
-1
40
-1
40
0
40
0
40
0
40
0
41
1
41
1
41
1
41
1
10
4.897588316960527
20
1.5868247070501702
30
0
10
5.1104301749629952
20
2.1380607527925477
30
0
10
4.9300248883209958
20
2.7641095846077239
30
0
10
4.7686570289843386
20
3.4216596900627447
30
0
0
SPLINE
5
126
100
AcDbEntity
8
0
100
AcDbSpline
70
4
71
3
72
8
73
4
74
0
42
0.000000001
43
0.0000000001
44
0.0000000001
40
-1
40
-1
40
-1
40
-1
40
0
40
0
40
0
40
0
41
1
41
1
41
1
41
1
10
4.7686570289843386
20
3.4216596900627447
30
0
10
4.7943502045158768
20
3.9910820206126654
30
0
10
4.804311480091771
20
4.61495008107857
30
0
10
4.7637564823579925
20
5.1853495914681451
30
0
0
SPLINE
5
127
100
AcDbEntity
8
0
100
AcDbSpline
70
4
71
3
72
8
73
4
74
0
42
0.000000001
43
0.0000000001
44
0.0000000001
40
-1
40
-1
40
-1
40
-1
40
0
40
0
40
0
40
0
41
1
41
1
41
1
41
1
10
4.7637564823579925
20
5.1853495914681451
30
0
10
5.8241860556718255
20
3.9136443064056143
30
0
10
6.2927628920244798
20
1.5841573528078732
30
0
10
5.9342410915347994
20
0.42936230494279248
30
0
0
SPLINE
5
128
100
AcDbEntity
8
0
100
AcDbSpline
70
4
71
3
72
8
73
4
74
0
42
0.000000001
43
0.0000000001
44
0.0000000001
40
-1
40
-1
40
-1
40
-1
40
0
40
0
40
0
40
0
41
1
41
1
41
1
41
1
10
5.9342410915347994
20
0.42936230494279248
30
0
10
5.8953472063770231
20
0.60522811429051848
30
0
10
5.7500664417007394
20
0.94358010352264676
30
0
10
5.5332232397504839
20
1.0222515370544034
30
0
0
SPLINE
5
129
100
AcDbEntity
8
0
100
AcDbSpline
70
4
71
5
72
20
73
14
74
0
42
0.000000001
43
0.0000000001
44
0.0000000001
40
-1
40
-1
40
-1
40
-1
40
-1
40
-1
40
-0.88888888888888895
40
-0.77777777777777768
40
-0.66666666666666663
40
-0.55555555555555558
40
-0.44444444444444448
40
-0.33333333333333331
40
-0.22222222222222221
40
-0.1111111111111111
40
0
40
0
40
0
40
0
40
0
40
0
41
1
41
1
41
1
41
1
41
1
41
1
41
1
41
1
41
1
41
1
41
1
41
1
41
1
41
1
10
-0.10000000319142979
20
-6.3000002010600742
30
0
10
-0.13502239095729693
20
-6.4395254635476613
30
0
10
-0.24709972288655616
20
-6.3498635980042506
30
0
10
-0.26391132267594541
20
-6.2489939992679204
30
0
10
-0.30000000957428935
20
-6.0000001914857872
30
0
10
-0.30000000957428935
20
-5.7000001819114949
30
0
10
-0.90000002872286755
20
-5.300000169145779
30
0
10
-0.30000000957428935
20
-5.300000169145779
30
0
10
-0.20000000638285959
20
-4.4000001404229083
30
0
10
-0.10000000319142979
20
-5.400000172337208
30
0
10
0.50000001595714882
20
-5.300000169145779
30
0
10
-0.10000000319142979
20
-5.7000001819114949
30
0
10
-0.10000000319142979
20
-6.0000001914857872
30
0
10
-0.10000000319142979
20
-6.3000002010600742
30
0
0
SPLINE
5
130
100
AcDbEntity
8
0
100
AcDbSpline
70
4
71
3
72
8
73
4
74
0
42
0.000000001
43
0.0000000001
44
0.0000000001
40
-1
40
-1
40
-1
40
-1
40
0
40
0
40
0
40
0
41
1
41
1
41
1
41
1
10
0.10116624417134774
20
-2.8362766926270404
30
0
10
-0.016080733316851968
20
-2.7708537921092606
30
0
10
-0.082341357248736133
20
-2.8736523493907549
30
0
10
-0.16900813199849338
20
-2.9101810479940662
30
0
0
SPLINE
5
131
100
AcDbEntity
8
0
100
AcDbSpline
70
4
71
3
72
8
73
4
74
0
42
0.000000001
43
0.0000000001
44
0.0000000001
40
-0.99997545006667365
40
-0.99997545006667365
40
-0.99997545006667365
40
-0.99997545006667365
40
0
40
0
40
0
40
0
41
1
41
1
41
1
41
1
10
-0.16900810013460904
20
-2.9101810163863191
30
0
10
-0.27604587034762429
20
-2.8022758540499506
30
0
10
-0.31171982603480169
20
-2.5372241593685532
30
0
10
-0.11971833326192109
20
-2.4921979610901799
30
0
0
SPLINE
5
132
100
AcDbEntity
8
0
100
AcDbSpline
70
4
71
3
72
8
73
4
74
0
42
0.000000001
43
0.0000000001
44
0.0000000001
40
-1
40
-1
40
-1
40
-1
40
0
40
0
40
0
40
0
41
1
41
1
41
1
41
1
10
-0.11971833326192109
20
-2.4921979610901799
30
0
10
-0.05346562482686118
20
-2.6136902833761497
30
0
10
0.12324784181742537
20
-2.6264342332662847
30
0
10
0.10116624417134774
20
-2.8362766926270404
30
0
0
SPLINE
5
133
100
AcDbEntity
8
0
100
AcDbSpline
70
4
71
3
72
8
73
4
74
0
42
0.000000001
43
0.0000000001
44
0.0000000001
40
-0.99998664171332075
40
-0.99998664171332075
40
-0.99998664171332075
40
-0.99998664171332075
40
0
40
0
40
0
40
0
41
1
41
1
41
1
41
1
10
1.0332662392814467
20
-2.0246272527230191
30
0
10
0.79198868147489943
20
-1.9600522833896894
30
0
10
0.82427330366864204
20
-1.5539675304258569
30
0
10
1.0825472379654002
20
-1.5335722060539851
30
0
0
SPLINE
5
134
100
AcDbEntity
8
0
100
AcDbSpline
70
4
71
3
72
8
73
4
74
0
42
0.000000001
43
0.0000000001
44
0.0000000001
40
-1
40
-1
40
-1
40
-1
40
0
40
0
40
0
40
0
41
1
41
1
41
1
41
1
10
1.0825472379654002
20
-1.5335722060539851
30
0
10
1.1751453583369014
20
-1.5802934260704629
30
0
10
1.170042501382963
20
-1.7238752614993371
30
0
10
1.2787908737787945
20
-1.7544554642377788
30
0
0
SPLINE
5
135
100
AcDbEntity
8
0
100
AcDbSpline
70
4
71
3
72
8
73
4
74
0
42
0.000000001
43
0.0000000001
44
0.0000000001
40
-1
40
-1
40
-1
40
-1
40
-4.1819303983390758e-06
40
-4.1819303983390758e-06
40
-4.1819303983390758e-06
40
-4.1819303983390758e-06
41
1
41
1
41
1
41
1
10
1.2787908737787945
20
-1.7544554642377788
30
0
10
1.2244063610183091
20
-1.8717006321633252
30
0
10
1.1037723324269098
20
-1.9235234467579791
30
0
10
1.0332662392814467
20
-2.0246272527230191
30
0
0
SPLINE
5
136
100
AcDbEntity
8
0
100
AcDbSpline
70
4
71
3
72
8
73
4
74
0
42
0.000000001
43
0.0000000001
44
0.0000000001
40
-1
40
-1
40
-1
40
-1
40
0
40
0
40
0
40
0
41
1
41
1
41
1
41
1
10
1.4503500327397727
20
-2.5156505357760635
30
0
10
1.3654022400507688
20
-2.4001080286044343
30
0
10
1.2252187912592651
20
-2.4927048297264625
30
0
10
1.1309109235733115
20
-2.3933033398328689
30
0
0
SPLINE
5
137
100
AcDbEntity
8
0
100
AcDbSpline
70
4
71
3
72
8
73
4
74
0
42
0.000000001
43
0.0000000001
44
0.0000000001
40
-1
40
-1
40
-1
40
-1
40
0
40
0
40
0
40
0
41
1
41
1
41
1
41
1
10
1.1309109235733115
20
-2.3933033398328689
30
0
10
1.0349091395665571
20
-1.9566278071739776
30
0
10
1.5922273978520773
20
-1.9438838572838397
30
0
10
1.6219606424301203
20
-2.3440306913394191
30
0
0
SPLINE
5
138
100
AcDbEntity
8
0
100
AcDbSpline
70
4
71
3
72
8
73
4
74
0
42
0.000000001
43
0.0000000001
44
0.0000000001
40
-1
40
-1
40
-1
40
-1
40
0
40
0
40
0
40
0
41
1
41
1
41
1
41
1
10
1.6219606424301203
20
-2.3440306913394191
30
0
10
1.5361592953333589
20
-2.3720687003471932
30
0
10
1.5055711770980893
20
-2.4561840466199776
30
0
10
1.4503500327397727
20
-2.5156505357760635
30
0
0
SPLINE
5
139
100
AcDbEntity
8
0
100
AcDbSpline
70
4
71
3
72
8
73
4
74
0
42
0.000000001
43
0.0000000001
44
0.0000000001
40
-0.99998664171332075
40
-0.99998664171332075
40
-0.99998664171332075
40
-0.99998664171332075
40
0
40
0
40
0
40
0
41
1
41
1
41
1
41
1
10
1.5981191068792229
20
-1.1489947288596889
30
0
10
1.3568415490726762
20
-1.0844197595263594
30
0
10
1.3891261712664187
20
-0.67833500656252732
30
0
10
1.6474001055631771
20
-0.65793968219065579
30
0
0
SPLINE
5
140
100
AcDbEntity
8
0
100
AcDbSpline
70
4
71
3
72
8
73
4
74
0
42
0.000000001
43
0.0000000001
44
0.0000000001
40
-1
40
-1
40
-1
40
-1
40
0
40
0
40
0
40
0
41
1
41
1
41
1
41
1
10
1.6474001055631771
20
-0.65793968219065579
30
0
10
1.7399982259346787
20
-0.70466090220713251
30
0
10
1.7348953689807396
20
-0.84824273763600633
30
0
10
1.8436437413765718
20
-0.87882294037444886
30
0
0
SPLINE
5
141
100
AcDbEntity
8
0
100
AcDbSpline
70
4
71
3
72
8
73
4
74
0
42
0.000000001
43
0.0000000001
44
0.0000000001
40
-1
40
-1
40
-1
40
-1
40
-4.18193039648163e-06
40
-4.18193039648163e-06
40
-4.18193039648163e-06
40
-4.18193039648163e-06
41
1
41
1
41
1
41
1
10
1.8436437413765718
20
-0.87882294037444886
30
0
10
1.789259228616086
20
-0.9960681082999947
30
0
10
1.6686252000246855
20
-1.0478909228946489
30
0
10
1.5981191068792229
20
-1.1489947288596889
30
0
0
SPLINE
5
142
100
AcDbEntity
8
0
100
AcDbSpline
70
4
71
3
72
8
73
4
74
0
42
0.000000001
43
0.0000000001
44
0.0000000001
40
-1
40
-1
40
-1
40
-1
40
0
40
0
40
0
40
0
41
1
41
1
41
1
41
1
10
-0.052189573543501185
20
-0.66269362670701137
30
0
10
-0.14819135755025578
20
-0.22601809404812095
30
0
10
0.40912690073526409
20
-0.21327414415798299
30
0
10
0.43886014531330741
20
-0.61342097821356145
30
0
0
SPLINE
5
143
100
AcDbEntity
8
0
100
AcDbSpline
70
4
71
3
72
8
73
4
74
0
42
0.000000001
43
0.0000000001
44
0.0000000001
40
-1
40
-1
40
-1
40
-1
40
0
40
0
40
0
40
0
41
1
41
1
41
1
41
1
10
0.43886014531330741
20
-0.61342097821356145
30
0
10
0.35305879821654601
20
-0.64145898722133543
30
0
10
0.32247067998127643
20
-0.72557433349412004
30
0
10
0.26724953562295722
20
-0.78504082265020647
30
0
0
SPLINE
5
144
100
AcDbEntity
8
0
100
AcDbSpline
70
4
71
3
72
8
73
4
74
0
42
0.000000001
43
0.0000000001
44
0.0000000001
40
-1
40
-1
40
-1
40
-1
40
0
40
0
40
0
40
0
41
1
41
1
41
1
41
1
10
0.26724953562295722
20
-0.78504082265020647
30
0
10
0.18230174293395593
20
-0.66949831547857785
30
0
10
0.042118294142452481
20
-0.76209511660060503
30
0
10
-0.052189573543501185
20
-0.66269362670701137
30
0
0
SPLINE
5
145
100
AcDbEntity
8
0
100
AcDbSpline
70
4
71
3
72
8
73
4
74
0
42
0.000000001
43
0.0000000001
44
0.0000000001
40
-0.99997520539011675
40
-0.99997520539011675
40
-0.99997520539011675
40
-0.99997520539011675
40
0
40
0
40
0
40
0
41
1
41
1
41
1
41
1
10
1.3032606418437163
20
-1.5661043109841011
30
0
10
1.1962229327439371
20
-1.4581990981482533
30
0
10
1.1605490414937545
20
-1.1931475221567738
30
0
10
1.3525504872872198
20
-1.1481213348955261
30
0
0
SPLINE
5
146
100
AcDbEntity
8
0
100
AcDbSpline
70
4
71
3
72
8
73
4
74
0
42
0.000000001
43
0.0000000001
44
0.0000000001
40
-1
40
-1
40
-1
40
-1
40
0
40
0
40
0
40
0
41
1
41
1
41
1
41
1
10
1.3525504872872198
20
-1.1481213348955261
30
0
10
1.41880319572228
20
-1.2696136571814953
30
0
10
1.5955166623665633
20
-1.2823576070716305
30
0
10
1.5734350647204856
20
-1.4922000664323869
30
0
0
SPLINE
5
147
100
AcDbEntity
8
0
100
AcDbSpline
70
4
71
3
72
8
73
4
74
0
42
0.000000001
43
0.0000000001
44
0.0000000001
40
-1
40
-1
40
-1
40
-1
40
0
40
0
40
0
40
0
41
1
41
1
41
1
41
1
10
1.5734350647204856
20
-1.4922000664323869
30
0
10
1.4561880872322888
20
-1.4267771659146067
30
0
10
1.3899274633004048
20
-1.5295757231961002
30
0
10
1.3032606885506475
20
-1.566104421799412
30
0
0
SPLINE
5
148
100
AcDbEntity
8
0
100
AcDbSpline
70
4
71
3
72
8
73
4
74
0
42
0.000000001
43
0.0000000001
44
0.0000000001
40
-0.99998664171332097
40
-0.99998664171332097
40
-0.99998664171332097
40
-0.99998664171332097
40
0
40
0
40
0
40
0
41
1
41
1
41
1
41
1
10
0.12585028633008533
20
-2.4930713550543424
30
0
10
-0.11542727147646471
20
-2.4284963857210125
30
0
10
-0.083142649282722081
20
-2.0224116327571804
30
0
10
0.17513128501403893
20
-2.0020163083853086
30
0
0
SPLINE
5
149
100
AcDbEntity
8
0
100
AcDbSpline
70
4
71
3
72
8
73
4
74
0
42
0.000000001
43
0.0000000001
44
0.0000000001
40
-1
40
-1
40
-1
40
-1
40
0
40
0
40
0
40
0
41
1
41
1
41
1
41
1
10
0.17513128501403893
20
-2.0020163083853086
30
0
10
0.26772940538554035
20
-2.0487375284017868
30
0
10
0.2626265484316016
20
-2.1923193638306606
30
0
10
0.37137492082743084
20
-2.2228995665691027
30
0
0
SPLINE
5
150
100
AcDbEntity
8
0
100
AcDbSpline
70
4
71
3
72
8
73
4
74
0
42
0.000000001
43
0.0000000001
44
0.0000000001
40
-1
40
-1
40
-1
40
-1
40
-4.1819303993437492e-06
40
-4.1819303993437492e-06
40
-4.1819303993437492e-06
40
-4.1819303993437492e-06
41
1
41
1
41
1
41
1
10
0.37137492082743084
20
-2.2228995665691027
30
0
10
0.31699040806694517
20
-2.3401447344946482
30
0
10
0.1963563794755489
20
-2.3919675490893026
30
0
10
0.12585028633008555
20
-2.4930713550543424
30
0
0
SPLINE
5
151
100
AcDbEntity
8
0
100
AcDbSpline
70
4
71
3
72
8
73
4
74
0
42
0.000000001
43
0.0000000001
44
0.0000000001
40
-1
40
-1
40
-1
40
-1
40
0
40
0
40
0
40
0
41
1
41
1
41
1
41
1
10
2.471190734610814
20
-0.61404538479768889
30
0
10
2.3862429419218092
20
-0.49850287762606021
30
0
10
2.2460594931303057
20
-0.59109967874808733
30
0
10
2.1517516254443549
20
-0.49169818885449368
30
0
0
SPLINE
5
152
100
AcDbEntity
8
0
100
AcDbSpline
70
4
71
3
72
8
73
4
74
0
42
0.000000001
43
0.0000000001
44
0.0000000001
40
-1
40
-1
40
-1
40
-1
40
0
40
0
40
0
40
0
41
1
41
1
41
1
41
1
10
2.1517516254443549
20
-0.49169818885449368
30
0
10
2.0557498414376005
20
-0.055022656195603217
30
0
10
2.613068099723121
20
-0.04227870630546527
30
0
10
2.642801344301164
20
-0.44242554036104409
30
0
0
SPLINE
5
153
100
AcDbEntity
8
0
100
AcDbSpline
70
4
71
3
72
8
73
4
74
0
42
0.000000001
43
0.0000000001
44
0.0000000001
40
-1
40
-1
40
-1
40
-1
40
0
40
0
40
0
40
0
41
1
41
1
41
1
41
1
10
2.642801344301164
20
-0.44242554036104409
30
0
10
2.5569999972044024
20
-0.47046354936881801
30
0
10
2.5264118789691326
20
-0.55457889564160268
30
0
10
2.471190734610814
20
-0.61404538479768889
30
0
0
SPLINE
5
154
100
AcDbEntity
8
0
100
AcDbSpline
70
4
71
3
72
8
73
4
74
0
42
0.000000001
43
0.0000000001
44
0.0000000001
40
-1
40
-1
40
-1
40
-1
40
0
40
0
40
0
40
0
41
1
41
1
41
1
41
1
10
1.6928266895649851
20
0.089560266291200105
30
0
10
1.6070253424682233
20
0.061522257283426175
30
0
10
1.576437224232953
20
-0.022593088989358738
30
0
10
1.5212160798746341
20
-0.082059578145445344
30
0
0
SPLINE
5
155
100
AcDbEntity
8
0
100
AcDbSpline
70
4
71
3
72
8
73
4
74
0
42
0.000000001
43
0.0000000001
44
0.0000000001
40
-1
40
-1
40
-1
40
-1
40
0
40
0
40
0
40
0
41
1
41
1
41
1
41
1
10
1.5212160798746341
20
-0.082059578145445344
30
0
10
1.4362682871856332
20
0.033482929026183696
30
0
10
1.2960848383941292
20
-0.059113872095843456
30
0
10
1.2017769707081758
20
0.040287617797750391
30
0
0
SPLINE
5
156
100
AcDbEntity
8
0
100
AcDbSpline
70
4
71
3
72
8
73
4
74
0
42
0.000000001
43
0.0000000001
44
0.0000000001
40
-1
40
-1
40
-1
40
-1
40
0
40
0
40
0
40
0
41
1
41
1
41
1
41
1
10
1.2017769707081758
20
0.040287617797750391
30
0
10
1.1057751867014212
20
0.47696315045664173
30
0
10
1.6630934449869417
20
0.48970710034677994
30
0
10
1.6928266895649851
20
0.089560266291200105
30
0
0
SPLINE
5
157
100
AcDbEntity
8
0
100
AcDbSpline
70
4
71
3
72
8
73
4
74
0
42
0.000000001
43
0.0000000001
44
0.0000000001
40
-1
40
-1
40
-1
40
-1
40
0
40
0
40
0
40
0
41
1
41
1
41
1
41
1
10
1.2856577452684035
20
3.3511430112268834
30
0
10
0.7521308319434199
20
1.8635493921981876
30
0
10
0.28656109737006574
20
1.0488178578760998
30
0
10
-0.69553570184459279
20
0.21538464305270644
30
0
0
ARC
5
158
100
AcDbEntity
8
0
100
AcDbCircle
10
-2.2346202078762931
20
1.2398562710924934
30
0
40
1.8488707995328757
210
-0
220
0
230
1
100
AcDbArc
50
-33.649205932854628
51
0.082479090516218601
0
SPLINE
5
159
100
AcDbEntity
8
0
100
AcDbSpline
70
4
71
3
72
8
73
4
74
0
42
0.000000001
43
0.0000000001
44
0.0000000001
40
-0.79050362802721463
40
-0.79050362802721463
40
-0.79050362802721463
40
-0.79050362802721463
40
0
40
0
40
0
40
0
41
1
41
1
41
1
41
1
10
-0.38575132400573076
20
1.2425177782865431
30
0
10
-0.050622917305506922
20
1.5605335131234748
30
0
10
0.16401081166668519
20
2.0332826155700592
30
0
10
0.40041100747036251
20
2.5134644516057274
30
0
0
SPLINE
5
160
100
AcDbEntity
8
0
100
AcDbSpline
70
4
71
3
72
8
73
4
74
0
42
0.000000001
43
0.0000000001
44
0.0000000001
40
-1
40
-1
40
-1
40
-1
40
0
40
0
40
0
40
0
41
1
41
1
41
1
41
1
10
0.40041100747036251
20
2.5134644516057274
30
0
10
0.78611074056870334
20
2.9331520088261764
30
0
10
1.1947561797166479
20
3.4046596852686339
30
0
10
1.5303349869116658
20
3.8676793106144922
30
0
0
SPLINE
5
161
100
AcDbEntity
8
0
100
AcDbSpline
70
4
71
3
72
8
73
4
74
0
42
0.000000001
43
0.0000000001
44
0.0000000001
40
-1
40
-1
40
-1
40
-1
40
-0.3070849363843125
40
-0.3070849363843125
40
-0.3070849363843125
40
-0.3070849363843125
41
1
41
1
41
1
41
1
10
1.5303349869116658
20
3.8676793106144922
30
0
10
1.5268009687164692
20
2.7203410154462548
30
0
10
0.97912722661741292
20
1.3666076460396877
30
0
10
0.30477260472839984
20
0.42574445779691372
30
0
0
ARC
5
162
100
AcDbEntity
8
0
100
AcDbCircle
10
0.23315045156754047
20
-0.97304179475646579
30
0
40
1.4006186894211159
210
0
220
-0
230
1
100
AcDbArc
50
87.068839883693542
51
124.30358832312767
0
SPLINE
5
163
100
AcDbEntity
8
0
100
AcDbSpline
70
4
71
3
72
8
73
4
74
0
42
0.000000001
43
0.0000000001
44
0.0000000001
40
-1
40
-1
40
-1
40
-1
40
0
40
0
40
0
40
0
41
1
41
1
41
1
41
1
10
-0.55620712671031836
20
0.18395748215385932
30
0
10
0.098800235655390173
20
0.76506048915255243
30
0
10
0.6544258968695732
20
1.5865887967493824
30
0
10
1.0154926038448635
20
2.4429584828760733
30
0
0
SPLINE
5
164
100
AcDbEntity
8
0
100
AcDbSpline
70
4
71
3
72
8
73
4
74
0
42
0.000000001
43
0.0000000001
44
0.0000000001
40
-1
40
-1
40
-1
40
-1
40
0
40
0
40
0
40
0
41
1
41
1
41
1
41
1
10
1.0154926038448635
20
2.4429584828760733
30
0
10
1.1403819935187307
20
2.7386022893335911
30
0
10
1.3196363346442173
20
3.0826810208704454
30
0
10
1.2856577452684035
20
3.3511430112268834
30
0
0
SPLINE
5
165
100
AcDbEntity
8
0
100
AcDbSpline
70
4
71
5
72
22
73
16
74
0
42
0.000000001
43
0.0000000001
44
0.0000000001
40
-0.99458699343052637
40
-0.99458699343052637
40
-0.99458699343052637
40
-0.99458699343052637
40
-0.99458699343052637
40
-0.99458699343052637
40
-0.90909090909090917
40
-0.81818181818181812
40
-0.7272727272727274
40
-0.63636363636363635
40
-0.54545454545454553
40
-0.45454545454545459
40
-0.3636363636363637
40
-0.27272727272727271
40
-0.1818181818181818
40
-0.090909090909090898
40
-0.021839541237548499
40
-0.021839541237548499
40
-0.021839541237548499
40
-0.021839541237548499
40
-0.021839541237548499
40
-0.021839541237548499
41
1
41
1
41
1
41
1
41
1
41
1
41
1
41
1
41
1
41
1
41
1
41
1
41
1
41
1
41
1
41
1
10
2.205616042903503
20
5.620525962560917
30
0
10
2.343762322008911
20
5.5963701472064331
30
0
10
2.3816805839152422
20
5.5521122552750199
30
0
10
2.2463463254166505
20
5.3974571178950779
30
0
10
2.1251167944645992
20
5.3138709743858659
30
0
10
1.9183198017856362
20
5.3022204395870505
30
0
10
1.7208214117231773
20
5.3256683488549834
30
0
10
1.5774541950563992
20
5.3739040479204405
30
0
10
1.4500000462757319
20
5.450000173932926
30
0
10
1.4166685315048724
20
5.5025325787616612
30
0
10
1.4461459031559856
20
5.5266504282943938
30
0
10
1.5113794220112566
20
5.5126198919699601
30
0
10
1.5810257314264453
20
5.5279350009531338
30
0
10
1.5889480658860964
20
5.5453243326168229
30
0
10
1.5658603304518717
20
5.5729302065697555
30
0
10
1.5489448489884932
20
5.5902685717714951
30
0
0
LINE
5
166
100
AcDbEntity
8
0
100
AcDbLine
10
1.5489448489884934
20
5.5902685717714933
30
0
11
1.5499999812679497
21
5.5899999324437672
31
0
0
SPLINE
5
167
100
AcDbEntity
8
0
100
AcDbSpline
70
4
71
5
72
17
73
11
74
0
42
0.000000001
43
0.0000000001
44
0.0000000001
40
-1
40
-1
40
-1
40
-1
40
-1
40
-1
40
-0.83333333333333315
40
-0.66666666666666663
40
-0.5
40
-0.33333333333333331
40
-0.1666666666666666
40
0
40
0
40
0
40
0
40
0
40
0
41
1
41
1
41
1
41
1
41
1
41
1
41
1
41
1
41
1
41
1
41
1
10
1.5499999812679495
20
5.5899999324437672
30
0
10
1.6211941293899137
20
5.5718737212393741
30
0
10
1.6799999796968741
20
5.5599999328063223
30
0
10
1.7699999786092073
20
5.5399999330480272
30
0
10
1.8769997356074866
20
5.5154962254280466
30
0
10
1.9500000153000898
20
5.499999917398287
30
0
10
2.0128003935186283
20
5.5092000641039753
30
0
10
2.0699999749836486
20
5.5299999331688774
30
0
10
2.1299999742585367
20
5.5599999328063223
30
0
10
2.1699999737751297
20
5.5899999324437672
30
0
10
2.205616042903503
20
5.620525962560917
30
0
0
SPLINE
5
168
100
AcDbEntity
8
0
100
AcDbSpline
70
4
71
3
72
8
73
4
74
0
42
0.000000001
43
0.0000000001
44
0.0000000001
40
-1
40
-1
40
-1
40
-1
40
0
40
0
40
0
40
0
41
1
41
1
41
1
41
1
10
0.19358140850895192
20
0.333839126492876
30
0
10
0.25983411694401187
20
0.21234680420690638
30
0
10
0.43654758358829804
20
0.19960285431677124
30
0
10
0.41446598594222045
20
-0.010239605043985866
30
0
0
SPLINE
5
169
100
AcDbEntity
8
0
100
AcDbSpline
70
4
71
3
72
8
73
4
74
0
42
0.000000001
43
0.0000000001
44
0.0000000001
40
-1
40
-1
40
-1
40
-1
40
0
40
0
40
0
40
0
41
1
41
1
41
1
41
1
10
0.41446598594222045
20
-0.010239605043985866
30
0
10
0.29721900845402099
20
0.055183295473794636
30
0
10
0.23095838452213688
20
-0.047615261807699441
30
0
10
0.14429160977237962
20
-0.084143960411011368
30
0
0
SPLINE
5
170
100
AcDbEntity
8
0
100
AcDbSpline
70
4
71
3
72
8
73
4
74
0
42
0.000000001
43
0.0000000001
44
0.0000000001
40
-0.99997545006667399
40
-0.99997545006667399
40
-0.99997545006667399
40
-0.99997545006667399
40
0
40
0
40
0
40
0
41
1
41
1
41
1
41
1
10
0.1442916416362641
20
-0.084143928803263698
30
0
10
0.037253871423245953
20
0.02376123353310447
30
0
10
0.0015799157360684543
20
0.28881292821450305
30
0
10
0.19358140850895192
20
0.333839126492876
30
0
0
SPLINE
5
171
100
AcDbEntity
8
0
100
AcDbSpline
70
4
71
3
72
8
73
4
74
0
42
0.000000001
43
0.0000000001
44
0.0000000001
40
-1
40
-1
40
-1
40
-1
40
0
40
0
40
0
40
0
41
1
41
1
41
1
41
1
10
0.071425597671263968
20
-3.6392741481292621
30
0
10
-0.045821379816935112
20
-3.5738512476114814
30
0
10
-0.11208200374881892
20
-3.6766498048929743
30
0
10
-0.19874877849857572
20
-3.7131785034962865
30
0
0
SPLINE
5
172
100
AcDbEntity
8
0
100
AcDbSpline
70
4
71
3
72
8
73
4
74
0
42
0.000000001
43
0.0000000001
44
0.0000000001
40
-0.9999754500666721
40
-0.9999754500666721
40
-0.9999754500666721
40
-0.9999754500666721
40
0
40
0
40
0
40
0
41
1
41
1
41
1
41
1
10
-0.1987487466346918
20
-3.7131784718885381
30
0
10
-0.30578651684770625
20
-3.6052733095521714
30
0
10
-0.34146047253488299
20
-3.3402216148707757
30
0
10
-0.14945897976200373
20
-3.2951954165924029
30
0
0
SPLINE
5
173
100
AcDbEntity
8
0
100
AcDbSpline
70
4
71
3
72
8
73
4
74
0
42
0.000000001
43
0.0000000001
44
0.0000000001
40
-1
40
-1
40
-1
40
-1
40
0
40
0
40
0
40
0
41
1
41
1
41
1
41
1
10
-0.14945897976200373
20
-3.2951954165924029
30
0
10
-0.083206271326944123
20
-3.4166877388783714
30
0
10
0.093507195317341529
20
-3.4294316887685068
30
0
10
0.071425597671263968
20
-3.6392741481292621
30
0
0
SPLINE
5
174
100
AcDbEntity
8
0
100
AcDbSpline
70
4
71
3
72
8
73
4
74
0
42
0.000000001
43
0.0000000001
44
0.0000000001
40
-1
40
-1
40
-1
40
-1
40
0
40
0
40
0
40
0
41
1
41
1
41
1
41
1
10
1.7725293059268701
20
-4.8363151576086612
30
0
10
1.7529433065315805
20
-4.728857144841232
30
0
10
1.6545200248544518
20
-4.645190832023145
30
0
10
1.580420155434642
20
-4.6148336551796891
30
0
0
SPLINE
5
175
100
AcDbEntity
8
0
100
AcDbSpline
70
4
71
3
72
8
73
4
74
0
42
0.000000001
43
0.0000000001
44
0.0000000001
40
-1
40
-1
40
-1
40
-1
40
0
40
0
40
0
40
0
41
1
41
1
41
1
41
1
10
1.580420155434642
20
-4.6148336551796891
30
0
10
1.7914444509388783
20
-4.4934351011084281
30
0
10
2.8202381625698991
20
-3.7783918412666324
30
0
10
2.8130387679630373
20
-3.4903621741388027
30
0
0
SPLINE
5
176
100
AcDbEntity
8
0
100
AcDbSpline
70
4
71
3
72
8
73
4
74
0
42
0.000000001
43
0.0000000001
44
0.0000000001
40
-1
40
-1
40
-1
40
-1
40
0
40
0
40
0
40
0
41
1
41
1
41
1
41
1
10
2.8130387679630373
20
-3.4903621741388027
30
0
10
2.3589786740538852
20
-3.8941016503647679
30
0
10
2.0308440498016558
20
-4.2525653097628462
30
0
10
1.5187942895254964
20
-4.588118392441122
30
0
0
SPLINE
5
177
100
AcDbEntity
8
0
100
AcDbSpline
70
4
71
3
72
8
73
4
74
0
42
0.000000001
43
0.0000000001
44
0.0000000001
40
-1
40
-1
40
-1
40
-1
40
0
40
0
40
0
40
0
41
1
41
1
41
1
41
1
10
1.5187942895254964
20
-4.588118392441122
30
0
10
1.4893877553464512
20
-4.5829950738579361
30
0
10
1.42049676311508
20
-4.5906107161299916
30
0
10
1.3603682251294187
20
-4.5955816058909829
30
0
0
SPLINE
5
178
100
AcDbEntity
8
0
100
AcDbSpline
70
4
71
3
72
8
73
4
74
0
42
0.000000001
43
0.0000000001
44
0.0000000001
40
-1
40
-1
40
-1
40
-1
40
0
40
0
40
0
40
0
41
1
41
1
41
1
41
1
10
1.3603682251294187
20
-4.5955816058909829
30
0
10
1.4651712505246526
20
-4.4503889326127872
30
0
10
1.5746105731762454
20
-4.3107215832461723
30
0
10
1.6038017170204533
20
-4.0744850200066773
30
0
0
SPLINE
5
179
100
AcDbEntity
8
0
100
AcDbSpline
70
4
71
3
72
8
73
4
74
0
42
0.000000001
43
0.0000000001
44
0.0000000001
40
-1
40
-1
40
-1
40
-1
40
0
40
0
40
0
40
0
41
1
41
1
41
1
41
1
10
1.6038017170204533
20
-4.0744850200066773
30
0
10
1.8876410596474782
20
-3.8520147590078659
30
0
10
2.1033420126285542
20
-3.5212235836540442
30
0
10
2.4419491126839556
20
-3.3453235432939987
30
0
0
SPLINE
5
180
100
AcDbEntity
8
0
100
AcDbSpline
70
4
71
3
72
8
73
4
74
0
42
0.000000001
43
0.0000000001
44
0.0000000001
40
-1
40
-1
40
-1
40
-1
40
0
40
0
40
0
40
0
41
1
41
1
41
1
41
1
10
2.4419491126839556
20
-3.3453235432939987
30
0
10
3.2897710662357369
20
-2.9052505301068905
30
0
10
3.2837312401817922
20
-3.2765506230106776
30
0
10
2.8353192708465271
20
-3.8496390125248752
30
0
0
SPLINE
5
181
100
AcDbEntity
8
0
100
AcDbSpline
70
4
71
3
72
8
73
4
74
0
42
0.000000001
43
0.0000000001
44
0.0000000001
40
-1
40
-1
40
-1
40
-1
40
0
40
0
40
0
40
0
41
1
41
1
41
1
41
1
10
2.8353192708465271
20
-3.8496390125248752
30
0
10
2.5406354945946394
20
-4.2255328527329796
30
0
10
2.1231994579883602
20
-4.5420752688460553
30
0
10
1.7725293059268701
20
-4.8363151576086612
30
0
0
SPLINE
5
182
100
AcDbEntity
8
0
100
AcDbSpline
70
4
71
3
72
8
73
4
74
0
42
0.000000001
43
0.0000000001
44
0.0000000001
40
-1
40
-1
40
-1
40
-1
40
0
40
0
40
0
40
0
41
1
41
1
41
1
41
1
10
1.5894238824464049
20
-2.7033085332028413
30
0
10
2.3956647271729565
20
-2.1910175786130126
30
0
10
2.4220088198599217
20
-2.5614311680905359
30
0
10
2.0252511376954243
20
-3.1714204615068704
30
0
0
SPLINE
5
183
100
AcDbEntity
8
0
100
AcDbSpline
70
4
71
3
72
8
73
4
74
0
42
0.000000001
43
0.0000000001
44
0.0000000001
40
-1
40
-1
40
-1
40
-1
40
0
40
0
40
0
40
0
41
1
41
1
41
1
41
1
10
2.0252511376954243
20
-3.1714204615068704
30
0
10
1.7644500290172436
20
-3.5715672955624469
30
0
10
1.3761909519451112
20
-3.9232871200355035
30
0
10
1.0524999017335228
20
-4.2469702547502637
30
0
0
SPLINE
5
184
100
AcDbEntity
8
0
100
AcDbSpline
70
4
71
3
72
8
73
4
74
0
42
0.000000001
43
0.0000000001
44
0.0000000001
40
-1
40
-1
40
-1
40
-1
40
0
40
0
40
0
40
0
41
1
41
1
41
1
41
1
10
1.0524999017335228
20
-4.2469702547502637
30
0
10
1.0236228500621736
20
-4.1416281844886287
30
0
10
0.91828209905001235
20
-4.0668584014686013
30
0
10
0.84181839970919048
20
-4.0430749720049013
30
0
0
SPLINE
5
185
100
AcDbEntity
8
0
100
AcDbSpline
70
4
71
3
72
8
73
4
74
0
42
0.000000001
43
0.0000000001
44
0.0000000001
40
-1
40
-1
40
-1
40
-1
40
0
40
0
40
0
40
0
41
1
41
1
41
1
41
1
10
0.84181839970919048
20
-4.0430749720049013
30
0
10
1.0414591029104834
20
-3.9037463968706341
30
0
10
2.0040178174592183
20
-3.1017588124386806
30
0
10
1.9717423791505049
20
-2.8154526537371014
30
0
0
SPLINE
5
186
100
AcDbEntity
8
0
100
AcDbSpline
70
4
71
3
72
8
73
4
74
0
42
0.000000001
43
0.0000000001
44
0.0000000001
40
-1
40
-1
40
-1
40
-1
40
0
40
0
40
0
40
0
41
1
41
1
41
1
41
1
10
1.9717423791505049
20
-2.8154526537371014
30
0
10
1.5545983349101924
20
-3.2572297241004691
30
0
10
1.2589545284526775
20
-3.6429281379493275
30
0
10
0.7780986502585121
20
-4.0218324170223934
30
0
0
SPLINE
5
187
100
AcDbEntity
8
0
100
AcDbSpline
70
4
71
3
72
8
73
4
74
0
42
0.000000001
43
0.0000000001
44
0.0000000001
40
-1
40
-1
40
-1
40
-1
40
0
40
0
40
0
40
0
41
1
41
1
41
1
41
1
10
0.7780986502585121
20
-4.0218324170223934
30
0
10
0.74835749018364406
20
-4.0192915425411968
30
0
10
0.68039239593519119
20
-4.0328824505917318
30
0
10
0.62092590677910386
20
-4.0430749720049013
30
0
0
SPLINE
5
188
100
AcDbEntity
8
0
100
AcDbSpline
70
4
71
3
72
8
73
4
74
0
42
0.000000001
43
0.0000000001
44
0.0000000001
40
-1
40
-1
40
-1
40
-1
40
0
40
0
40
0
40
0
41
1
41
1
41
1
41
1
10
0.62092590677910386
20
-4.0430749720049013
30
0
10
0.712675749740731
20
-3.8893006151628708
30
0
10
0.80952581115735545
20
-3.7406264767758262
30
0
10
0.818016500752896
20
-3.5027446891578271
30
0
0
SPLINE
5
189
100
AcDbEntity
8
0
100
AcDbSpline
70
4
71
3
72
8
73
4
74
0
42
0.000000001
43
0.0000000001
44
0.0000000001
40
-1
40
-1
40
-1
40
-1
40
0
40
0
40
0
40
0
41
1
41
1
41
1
41
1
10
0.818016500752896
20
-3.5027446891578271
30
0
10
1.0813861881511657
20
-3.2563827659400579
30
0
10
1.2674359833019184
20
-2.9080507741086028
30
0
10
1.5894238824464049
20
-2.7033085332028413
30
0
0
SPLINE
5
190
100
AcDbEntity
8
0
100
AcDbSpline
70
4
71
3
72
8
73
4
74
0
42
0.000000001
43
0.0000000001
44
0.0000000001
40
-1
40
-1
40
-1
40
-1
40
0
40
0
40
0
40
0
41
1
41
1
41
1
41
1
10
3.3779880768217128
20
-2.8980922257148922
30
0
10
4.1239518837616451
20
-2.4395583139570935
30
0
10
4.8137932362138933
20
-1.7269942508515583
30
0
10
5.318081564002858
20
-0.94633332019181116
30
0
0
SPLINE
5
191
100
AcDbEntity
8
0
100
AcDbSpline
70
4
71
3
72
8
73
4
74
0
42
0.000000001
43
0.0000000001
44
0.0000000001
40
-1
40
-1
40
-1
40
-1
40
-0.41581250266270048
40
-0.41581250266270048
40
-0.41581250266270048
40
-0.41581250266270048
41
1
41
1
41
1
41
1
10
5.318081564002858
20
-0.94633332019181116
30
0
10
5.4199229981331616
20
-0.78891494541175988
30
0
10
5.5429063052013392
20
-0.61843982644879247
30
0
10
5.6301967159303929
20
-0.44999999900642712
30
0
0
LINE
5
192
100
AcDbEntity
8
0
100
AcDbLine
10
5.6301967159303929
20
-0.44999999900642718
30
0
11
5.1383886025331131
21
-1.0724748600379319
31
0
0
SPLINE
5
193
100
AcDbEntity
8
0
100
AcDbSpline
70
4
71
3
72
8
73
4
74
0
42
0.000000001
43
0.0000000001
44
0.0000000001
40
-0.7322099281057487
40
-0.7322099281057487
40
-0.7322099281057487
40
-0.7322099281057487
40
0
40
0
40
0
40
0
41
1
41
1
41
1
41
1
10
5.1383886025331131
20
-1.0724748600379326
30
0
10
4.6000626226916443
20
-1.8525219296381843
30
0
10
4.0603782173991529
20
-2.3668419088522916
30
0
10
3.2462334850326653
20
-2.8429483608375476
30
0
0
SPLINE
5
194
100
AcDbEntity
8
0
100
AcDbSpline
70
4
71
3
72
8
73
4
74
0
42
0.000000001
43
0.0000000001
44
0.0000000001
40
-1
40
-1
40
-1
40
-1
40
-6.1327923027273162e-05
40
-6.1327923027273162e-05
40
-6.1327923027273162e-05
40
-6.1327923027273162e-05
41
1
41
1
41
1
41
1
10
3.2462334850326653
20
-2.8429483608375476
30
0
10
3.1086336534529249
20
-2.8307655791195354
30
0
10
2.7819058845327889
20
-2.971539370908451
30
0
10
2.5971685701108367
20
-3.0847514889792387
30
0
0
SPLINE
5
195
100
AcDbEntity
8
0
100
AcDbSpline
70
4
71
3
72
8
73
4
74
0
42
0.000000001
43
0.0000000001
44
0.0000000001
40
-0.99997006629351137
40
-0.99997006629351137
40
-0.99997006629351137
40
-0.99997006629351137
40
0
40
0
40
0
40
0
41
1
41
1
41
1
41
1
10
2.5971685701108354
20
-3.0847514889792382
30
0
10
2.8752216338496104
20
-2.7455931438911176
30
0
10
3.2349339089002482
20
-2.5450357193975166
30
0
10
3.4018979637775906
20
-2.0482669868245504
30
0
0
SPLINE
5
196
100
AcDbEntity
8
0
100
AcDbSpline
70
4
71
3
72
8
73
4
74
0
42
0.000000001
43
0.0000000001
44
0.0000000001
40
-1
40
-1
40
-1
40
-1
40
0
40
0
40
0
40
0
41
1
41
1
41
1
41
1
10
3.4018979637775906
20
-2.0482669868245504
30
0
10
3.9609813826120703
20
-1.8569856091946555
30
0
10
4.3246003283697947
20
-1.316370709703732
30
0
10
4.7245876721426647
20
-0.77009069722631218
30
0
0
LINE
5
197
100
AcDbEntity
8
0
100
AcDbLine
10
4.7245876721426647
20
-0.77009069722631251
30
0
11
6.0725025098472356
21
0.3673413552377171
31
0
0
SPLINE
5
198
100
AcDbEntity
8
0
100
AcDbSpline
70
4
71
3
72
8
73
4
74
0
42
0.000000001
43
0.0000000001
44
0.0000000001
40
-1
40
-1
40
-1
40
-1
40
0
40
0
40
0
40
0
41
1
41
1
41
1
41
1
10
6.0725025098472356
20
0.36734135523771699
30
0
10
5.7799507336113578
20
-1.2624312271294709
30
0
10
4.2966555820832477
20
-3.1187472594907737
30
0
10
3.1815778815676063
20
-3.5863915749836872
30
0
0
SPLINE
5
199
100
AcDbEntity
8
0
100
AcDbSpline
70
4
71
3
72
8
73
4
74
0
42
0.000000001
43
0.0000000001
44
0.0000000001
40
-1
40
-1
40
-1
40
-1
40
0
40
0
40
0
40
0
41
1
41
1
41
1
41
1
10
3.1815778815676063
20
-3.5863915749836872
30
0
10
3.2912984000810641
20
-3.443552767171052
30
0
10
3.4571063857908877
20
-3.1147727783075059
30
0
10
3.3779880768217128
20
-2.8980922257148922
30
0
0
SPLINE
5
200
100
AcDbEntity
8
0
100
AcDbSpline
70
4
71
5
72
15
73
9
74
0
42
0.000000001
43
0.0000000001
44
0.0000000001
40
0.83863693790883442
40
0.83863693790883442
40
0.83863693790883442
40
0.83863693790883442
40
0.83863693790883442
40
0.83863693790883442
40
0.84999999999999998
40
0.90000000000000002
40
0.94999999999999996
40
0.98431066050430283
40
0.98431066050430283
40
0.98431066050430283
40
0.98431066050430283
40
0.98431066050430283
40
0.98431066050430283
41
1
41
1
41
1
41
1
41
1
41
1
41
1
41
1
41
1
10
3.6703228340701282
20
6.4688448352455232
30
0
10
3.6562104227812382
20
6.4499239651139399
30
0
10
3.5803303605712324
20
6.3449575007891488
30
0
10
3.4450322395081221
20
6.1267922817597897
30
0
10
3.2617811866829265
20
5.7650899928395081
30
0
10
3.0466988826596264
20
5.1381272772683504
30
0
10
2.6481438450009036
20
4.5903261170205072
30
0
10
2.3909297933758928
20
4.200932594336539
30
0
10
2.2182248665853468
20
3.9831018477394715
30
0
0
SPLINE
5
201
100
AcDbEntity
8
0
100
AcDbSpline
70
4
71
5
72
16
73
10
74
0
42
0.000000001
43
0.0000000001
44
0.0000000001
40
0.00033651170197889998
40
0.00033651170197889998
40
0.00033651170197889998
40
0.00033651170197889998
40
0.00033651170197889998
40
0.00033651170197889998
40
0.013157894736842099
40
0.026315789473684199
40
0.0394736842105263
40
0.052631578947368397
40
0.065386077615267837
40
0.065386077615267837
40
0.065386077615267837
40
0.065386077615267837
40
0.065386077615267837
40
0.065386077615267837
41
1
41
1
41
1
41
1
41
1
41
1
41
1
41
1
41
1
41
1
10
2.2182248665853468
20
3.9831018477394715
30
0
10
2.3500004268844301
20
4.5947260560286098
30
0
10
2.350024456405686
20
5.0184402415547318
30
0
10
2.3519170245579004
20
5.3622207292237718
30
0
10
2.5007877360240327
20
5.3902650753512091
30
0
10
2.6530460946295165
20
5.4320726562618393
30
0
10
2.6872930231260255
20
5.5877763938067559
30
0
10
2.6755088245300032
20
5.7480020279446835
30
0
10
2.6478917883442503
20
5.8398349692933378
30
0
10
2.6301078889869678
20
5.8781798861411438
30
0
0
SPLINE
5
202
100
AcDbEntity
8
0
100
AcDbSpline
70
4
71
5
72
14
73
8
74
0
42
0.000000001
43
0.0000000001
44
0.0000000001
40
-1
40
-1
40
-1
40
-1
40
-1
40
-1
40
-0.66666666666666663
40
-0.33333333333333331
40
0
40
0
40
0
40
0
40
0
40
0
41
1
41
1
41
1
41
1
41
1
41
1
41
1
41
1
10
2.6301078889869669
20
5.8781798861411447
30
0
10
2.7359478624387563
20
5.9640644928213575
30
0
10
2.8792308070414632
20
6.055671621337841
30
0
10
3.0060714465258274
20
6.135572853666865
30
0
10
3.3208241445055457
20
6.3279250577023571
30
0
10
3.4993406000761325
20
6.424449036134976
30
0
10
3.5956455300550005
20
6.4688448352538499
30
0
10
3.6703228340763396
20
6.4688448352538499
30
0
0
SPLINE
5
203
100
AcDbEntity
8
0
100
AcDbSpline
70
4
71
3
72
8
73
4
74
0
42
0.000000001
43
0.0000000001
44
0.0000000001
40
-1
40
-1
40
-1
40
-1
40
-0.21794346402725209
40
-0.21794346402725209
40
-0.21794346402725209
40
-0.21794346402725209
41
1
41
1
41
1
41
1
10
3.239144635655661
20
4.1317680745112799
30
0
10
3.2351559764780426
20
2.8368281030434179
30
0
10
2.5380181173738068
20
1.2789729752427139
30
0
10
1.7479201636775907
20
0.34853299515038227
30
0
0
ARC
5
204
100
AcDbEntity
8
0
100
AcDbCircle
10
1.4118085693214268
20
0.16825377867701366
30
0
40
0.38140739341666463
210
0
220
-0
230
1
100
AcDbArc
50
28.207647023511985
51
130.52997849496208
0
SPLINE
5
205
100
AcDbEntity
8
0
100
AcDbSpline
70
4
71
3
72
8
73
4
74
0
42
0.000000001
43
0.0000000001
44
0.0000000001
40
0.99421887966945188
40
0.99421887966945188
40
0.99421887966945188
40
0.99421887966945188
40
1
40
1
40
1
40
1
41
1
41
1
41
1
41
1
10
1.1639525683693657
20
0.45814859156890086
30
0
10
1.1601725533212919
20
0.45477313420512067
30
0
10
1.1563891984129047
20
0.4514056724585504
30
0
10
1.1526025220336737
20
0.44804624605064758
30
0
0
ARC
5
206
100
AcDbEntity
8
0
100
AcDbCircle
10
1.4118085693214268
20
0.16825377867701366
30
0
40
0.38140739341230695
210
0
220
0
230
1
100
AcDbArc
50
130.52997849496208
51
132.81271764395368
0
SPLINE
5
207
100
AcDbEntity
8
0
100
AcDbSpline
70
4
71
3
72
8
73
4
74
0
42
0.000000001
43
0.0000000001
44
0.0000000001
40
-0.99421887966945188
40
-0.99421887966945188
40
-0.99421887966945188
40
-0.99421887966945188
40
0
40
0
40
0
40
0
41
1
41
1
41
1
41
1
10
1.1639525683693657
20
0.45814859156890086
30
0
10
1.8140276595884732
20
1.0386491254976637
30
0
10
2.3653229156939442
20
1.8556283368491027
30
0
10
2.7243022525888563
20
2.707047246772861
30
0
0
SPLINE
5
208
100
AcDbEntity
8
0
100
AcDbSpline
70
4
71
3
72
8
73
4
74
0
42
0.000000001
43
0.0000000001
44
0.0000000001
40
-1
40
-1
40
-1
40
-1
40
0
40
0
40
0
40
0
41
1
41
1
41
1
41
1
10
2.7243022525888563
20
2.707047246772861
30
0
10
2.8491916422627237
20
3.0026910532303783
30
0
10
3.02844598338821
20
3.3467697847672326
30
0
10
2.9944673940123967
20
3.6152317751236702
30
0
0
SPLINE
5
209
100
AcDbEntity
8
0
100
AcDbSpline
70
4
71
3
72
8
73
4
74
0
42
0.000000001
43
0.0000000001
44
0.0000000001
40
-1
40
-1
40
-1
40
-1
40
-0.036724122607738101
40
-0.036724122607738101
40
-0.036724122607738101
40
-0.036724122607738101
41
1
41
1
41
1
41
1
10
2.9944673940123967
20
3.6152317751236702
30
0
10
2.4805337884668863
20
2.1822687265506731
30
0
10
2.0296576773528789
20
1.3736546862645758
30
0
10
1.1194129652655171
20
0.57125330300335564
30
0
0
ARC
5
210
100
AcDbEntity
8
0
100
AcDbCircle
10
1.128556385860275
20
-0.22129055969533404
30
0
40
0.79259660385440245
210
0
220
0
230
1
100
AcDbArc
50
90.660980665563329
51
145.40565201408947
0
SPLINE
5
211
100
AcDbEntity
8
0
100
AcDbSpline
70
4
71
3
72
8
73
4
74
0
42
0.000000001
43
0.0000000001
44
0.0000000001
40
-0.91037819765029604
40
-0.91037819765029604
40
-0.91037819765029604
40
-0.91037819765029604
40
0
40
0
40
0
40
0
41
1
41
1
41
1
41
1
10
0.47609690100619562
20
0.2287161036570789
30
0
10
0.68629319616842355
20
0.55958148117947804
30
0
10
0.95741716362244478
20
0.81732714856887079
30
0
10
1.0285785600127959
20
1.2891126383134102
30
0
0
SPLINE
5
212
100
AcDbEntity
8
0
100
AcDbSpline
70
4
71
3
72
8
73
4
74
0
42
0.000000001
43
0.0000000001
44
0.0000000001
40
-1
40
-1
40
-1
40
-1
40
0
40
0
40
0
40
0
41
1
41
1
41
1
41
1
10
1.0285785600127959
20
1.2891126383134102
30
0
10
1.5459525828145062
20
1.5745718388545855
30
0
10
1.8101705476226468
20
2.1701153505631559
30
0
10
2.1092206562143558
20
2.7775532155025142
30
0
0
SPLINE
5
213
100
AcDbEntity
8
0
100
AcDbSpline
70
4
71
3
72
8
73
4
74
0
42
0.000000001
43
0.0000000001
44
0.0000000001
40
-1
40
-1
40
-1
40
-1
40
0
40
0
40
0
40
0
41
1
41
1
41
1
41
1
10
2.1092206562143558
20
2.7775532155025142
30
0
10
2.4949203893126972
20
3.1972407727229633
30
0
10
2.9035658284606414
20
3.6687484491654212
30
0
10
3.239144635655661
20
4.1317680745112799
30
0
0
SPLINE
5
214
100
AcDbEntity
8
0
100
AcDbSpline
70
0
71
3
72
8
73
4
74
0
42
0.000000001
43
0.0000000001
44
0.0000000001
40
-1
40
-1
40
-1
40
-1
40
0
40
0
40
0
40
0
10
1.004239939752013
20
5.3677725644573968
30
0
10
1.0799999869479906
20
5.4299999343773973
30
0
10
1.1799999857394712
20
5.4799999337731373
30
0
10
1.2672208109594774
20
5.5309925334578063
30
0
0
SPLINE
5
215
100
AcDbEntity
8
0
100
AcDbSpline
70
4
71
5
72
24
73
18
74
0
42
0.000000001
43
0.0000000001
44
0.0000000001
40
0.16379909912847551
40
0.16379909912847551
40
0.16379909912847551
40
0.16379909912847551
40
0.16379909912847551
40
0.16379909912847551
40
0.17105263157894729
40
0.18421052631578949
40
0.19736842105263161
40
0.2105263157894737
40
0.22368421052631571
40
0.23684210526315791
40
0.25
40
0.26315789473684209
40
0.27631578947368418
40
0.28947368421052633
40
0.30263157894736842
40
0.31578947368421051
40
0.32265775649774298
40
0.32265775649774298
40
0.32265775649774298
40
0.32265775649774298
40
0.32265775649774298
40
0.32265775649774298
41
1
41
1
41
1
41
1
41
1
41
1
41
1
41
1
41
1
41
1
41
1
41
1
41
1
41
1
41
1
41
1
41
1
41
1
10
1.2672208109646066
20
5.5309925334447714
30
0
10
1.2746183895968739
20
5.512193315961472
30
0
10
1.3048476014796231
20
5.4557872214692162
30
0
10
1.3900486318518837
20
5.352917794954247
30
0
10
1.5313197838667412
20
5.2238066942359636
30
0
10
1.7237616230353254
20
4.9672175753445229
30
0
10
1.6532897532711643
20
4.7558019660520392
30
0
10
1.5828178835070033
20
4.4000001404229083
30
0
10
1.5264403876956734
20
4.1500001324443341
30
0
10
1.3432135263088583
20
4.1500001324443341
30
0
10
1.3009304044503589
20
4.4000001404229083
30
0
10
1.2304585346862009
20
4.6571413483822131
30
0
10
1.2304585346862009
20
4.8967457055803614
30
0
10
1.0220323065806862
20
4.9901286045785476
30
0
10
1.0231853469567058
20
5.1620620037575264
30
0
10
1.0196496220840932
20
5.2862253634140508
30
0
10
1.0090286349090882
20
5.3483772592508965
30
0
10
1.0042399397520134
20
5.367772564457395
30
0
0
SPLINE
5
216
100
AcDbEntity
8
0
100
AcDbSpline
70
4
71
3
72
8
73
4
74
0
42
0.000000001
43
0.0000000001
44
0.0000000001
40
-1
40
-1
40
-1
40
-1
40
0
40
0
40
0
40
0
41
1
41
1
41
1
41
1
10
2.0024496430041672
20
-1.0637757552565803
30
0
10
1.9064478589974123
20
-0.62710022259769049
30
0
10
2.4637661172829324
20
-0.61435627270755233
30
0
10
2.4934993618609762
20
-1.0145031067631305
30
0
0
SPLINE
5
217
100
AcDbEntity
8
0
100
AcDbSpline
70
4
71
3
72
8
73
4
74
0
42
0.000000001
43
0.0000000001
44
0.0000000001
40
-1
40
-1
40
-1
40
-1
40
0
40
0
40
0
40
0
41
1
41
1
41
1
41
1
10
2.4934993618609762
20
-1.0145031067631305
30
0
10
2.4076980147642146
20
-1.0425411157709046
30
0
10
2.3771098965289457
20
-1.1266564620436887
30
0
10
2.3218887521706253
20
-1.1861229511997755
30
0
0
SPLINE
5
218
100
AcDbEntity
8
0
100
AcDbSpline
70
4
71
3
72
8
73
4
74
0
42
0.000000001
43
0.0000000001
44
0.0000000001
40
-1
40
-1
40
-1
40
-1
40
0
40
0
40
0
40
0
41
1
41
1
41
1
41
1
10
2.3218887521706253
20
-1.1861229511997755
30
0
10
2.2369409594816214
20
-1.0705804440281468
30
0
10
2.0967575106901211
20
-1.1631772451501738
30
0
10
2.0024496430041672
20
-1.0637757552565803
30
0
0
SPLINE
5
219
100
AcDbEntity
8
0
100
AcDbSpline
70
4
71
3
72
8
73
4
74
0
42
0.000000001
43
0.0000000001
44
0.0000000001
40
-1
40
-1
40
-1
40
-1
40
0
40
0
40
0
40
0
41
1
41
1
41
1
41
1
10
1.6957637911710881
20
-1.5176708159695371
30
0
10
1.5997620071643339
20
-1.0809952833106473
30
0
10
2.1570802654498538
20
-1.0682513334205093
30
0
10
2.1868135100278976
20
-1.4683981674760878
30
0
0
SPLINE
5
220
100
AcDbEntity
8
0
100
AcDbSpline
70
4
71
3
72
8
73
4
74
0
42
0.000000001
43
0.0000000001
44
0.0000000001
40
-1
40
-1
40
-1
40
-1
40
0
40
0
40
0
40
0
41
1
41
1
41
1
41
1
10
2.1868135100278976
20
-1.4683981674760878
30
0
10
2.1010121629311356
20
-1.4964361764838614
30
0
10
2.0704240446958657
20
-1.5805515227566462
30
0
10
2.0152029003375467
20
-1.6400180119127326
30
0
0
SPLINE
5
221
100
AcDbEntity
8
0
100
AcDbSpline
70
4
71
3
72
8
73
4
74
0
42
0.000000001
43
0.0000000001
44
0.0000000001
40
-1
40
-1
40
-1
40
-1
40
0
40
0
40
0
40
0
41
1
41
1
41
1
41
1
10
2.0152029003375467
20
-1.6400180119127326
30
0
10
1.9302551076485424
20
-1.5244755047411038
30
0
10
1.7900716588570418
20
-1.6170723058631311
30
0
10
1.6957637911710881
20
-1.5176708159695371
30
0
0
SPLINE
5
222
100
AcDbEntity
8
0
100
AcDbSpline
70
4
71
3
72
8
73
4
74
0
42
0.000000001
43
0.0000000001
44
0.0000000001
40
-0.99997520539011175
40
-0.99997520539011175
40
-0.99997520539011175
40
-0.99997520539011175
40
0
40
0
40
0
40
0
41
1
41
1
41
1
41
1
10
-0.14070083335527855
20
-1.7560992419313148
30
0
10
-0.24773854245505633
20
-1.6481940290954666
30
0
10
-0.28341243370523866
20
-1.3831424531039886
30
0
10
-0.091410987911773725
20
-1.3381162658427415
30
0
0
SPLINE
5
223
100
AcDbEntity
8
0
100
AcDbSpline
70
4
71
3
72
8
73
4
74
0
42
0.000000001
43
0.0000000001
44
0.0000000001
40
-1
40
-1
40
-1
40
-1
40
0
40
0
40
0
40
0
41
1
41
1
41
1
41
1
10
-0.091410987911773725
20
-1.3381162658427415
30
0
10
-0.025158279476713778
20
-1.4596085881287109
30
0
10
0.15155518716757274
20
-1.4723525380188465
30
0
10
0.1294735895214951
20
-1.6821949973796022
30
0
0
SPLINE
5
224
100
AcDbEntity
8
0
100
AcDbSpline
70
4
71
3
72
8
73
4
74
0
42
0.000000001
43
0.0000000001
44
0.0000000001
40
-1
40
-1
40
-1
40
-1
40
0
40
0
40
0
40
0
41
1
41
1
41
1
41
1
10
0.1294735895214951
20
-1.6821949973796022
30
0
10
0.012226612033295392
20
-1.6167720968618224
30
0
10
-0.054034011898588773
20
-1.719570654143316
30
0
10
-0.14070078664834601
20
-1.7560993527466287
30
0
0
SPLINE
5
225
100
AcDbEntity
8
0
100
AcDbSpline
70
4
71
3
72
8
73
4
74
0
42
0.000000001
43
0.0000000001
44
0.0000000001
40
-1
40
-1
40
-1
40
-1
40
0
40
0
40
0
40
0
41
1
41
1
41
1
41
1
10
-0.39773272269239252
20
-2.4759957080805224
30
0
10
-0.48268051538139684
20
-2.3604532009088928
30
0
10
-0.62286396417290035
20
-2.4530500020309205
30
0
10
-0.7171718318588538
20
-2.3536485121373265
30
0
0
SPLINE
5
226
100
AcDbEntity
8
0
100
AcDbSpline
70
4
71
3
72
8
73
4
74
0
42
0.000000001
43
0.0000000001
44
0.0000000001
40
-1
40
-1
40
-1
40
-1
40
0
40
0
40
0
40
0
41
1
41
1
41
1
41
1
10
-0.7171718318588538
20
-2.3536485121373265
30
0
10
-0.81317361586560821
20
-1.9169729794784345
30
0
10
-0.25585535758008571
20
-1.9042290295882964
30
0
10
-0.22612211300204224
20
-2.3043758636438763
30
0
0
SPLINE
5
227
100
AcDbEntity
8
0
100
AcDbSpline
70
4
71
3
72
8
73
4
74
0
42
0.000000001
43
0.0000000001
44
0.0000000001
40
-1
40
-1
40
-1
40
-1
40
0
40
0
40
0
40
0
41
1
41
1
41
1
41
1
10
-0.22612211300204224
20
-2.3043758636438763
30
0
10
-0.31192346009880406
20
-2.3324138726516508
30
0
10
-0.34251157833407347
20
-2.4165292189244361
30
0
10
-0.39773272269239252
20
-2.4759957080805224
30
0
0
SPLINE
5
228
100
AcDbEntity
8
0
100
AcDbSpline
70
4
71
3
72
8
73
4
74
0
42
0.000000001
43
0.0000000001
44
0.0000000001
40
-1
40
-1
40
-1
40
-1
40
0
40
0
40
0
40
0
41
1
41
1
41
1
41
1
10
0.54293407978840869
20
-2.9840946381073872
30
0
10
0.45798628709940431
20
-2.868552130935758
30
0
10
0.31780283830790113
20
-2.9611489320577844
30
0
10
0.22349497062195031
20
-2.8617474421641917
30
0
0
SPLINE
5
229
100
AcDbEntity
8
0
100
AcDbSpline
70
4
71
3
72
8
73
4
74
0
42
0.000000001
43
0.0000000001
44
0.0000000001
40
-1
40
-1
40
-1
40
-1
40
0
40
0
40
0
40
0
41
1
41
1
41
1
41
1
10
0.22349497062195031
20
-2.8617474421641917
30
0
10
0.12749318661519571
20
-2.4250719095053008
30
0
10
0.68481144490071577
20
-2.4123279596151628
30
0
10
0.71454468947875904
20
-2.8124747936707415
30
0
0
SPLINE
5
230
100
AcDbEntity
8
0
100
AcDbSpline
70
4
71
3
72
8
73
4
74
0
42
0.000000001
43
0.0000000001
44
0.0000000001
40
-1
40
-1
40
-1
40
-1
40
0
40
0
40
0
40
0
41
1
41
1
41
1
41
1
10
0.71454468947875904
20
-2.8124747936707415
30
0
10
0.62874334238199736
20
-2.8405128026785156
30
0
10
0.59815522414672795
20
-2.9246281489513004
30
0
10
0.54293407978840869
20
-2.9840946381073872
30
0
0
SPLINE
5
231
100
AcDbEntity
8
0
100
AcDbSpline
70
4
71
3
72
8
73
4
74
0
42
0.000000001
43
0.0000000001
44
0.0000000001
40
-1
40
-1
40
-1
40
-1
40
0
40
0
40
0
40
0
41
1
41
1
41
1
41
1
10
1.0794482442575735
20
0.065758367334901091
30
0
10
0.96220126676937345
20
0.13118126785268142
30
0
10
0.89594064283748964
20
0.028382710571187318
30
0
10
0.80927386808773227
20
-0.0081459880321244488
30
0
0
SPLINE
5
232
100
AcDbEntity
8
0
100
AcDbSpline
70
4
71
3
72
8
73
4
74
0
42
0.000000001
43
0.0000000001
44
0.0000000001
40
-0.9999754500666731
40
-0.9999754500666731
40
-0.9999754500666731
40
-0.9999754500666731
40
0
40
0
40
0
40
0
41
1
41
1
41
1
41
1
10
0.80927389995161647
20
-0.0081459564243764465
30
0
10
0.70223612973859861
20
0.099759205911991722
30
0
10
0.66656217405142149
20
0.36481090059338972
30
0
10
0.85856366682430474
20
0.40983709887176256
30
0
0
SPLINE
5
233
100
AcDbEntity
8
0
100
AcDbSpline
70
4
71
3
72
8
73
4
74
0
42
0.000000001
43
0.0000000001
44
0.0000000001
40
-1
40
-1
40
-1
40
-1
40
0
40
0
40
0
40
0
41
1
41
1
41
1
41
1
10
0.85856366682430474
20
0.40983709887176256
30
0
10
0.92481637525936444
20
0.28834477658579305
30
0
10
1.101529841903651
20
0.27560082669565789
30
0
10
1.0794482442575735
20
0.065758367334901091
30
0
0
SPLINE
5
234
100
AcDbEntity
8
0
100
AcDbSpline
70
4
71
3
72
8
73
4
74
0
42
0.000000001
43
0.0000000001
44
0.0000000001
40
-0.99997520539011686
40
-0.99997520539011686
40
-0.99997520539011686
40
-0.99997520539011686
40
0
40
0
40
0
40
0
41
1
41
1
41
1
41
1
10
0.73840777424593951
20
-2.4417368348474318
30
0
10
0.63137006514616056
20
-2.3338316220115845
30
0
10
0.59569617389597695
20
-2.0687800460201045
30
0
10
0.78769761968944296
20
-2.023753858758857
30
0
0
SPLINE
5
235
100
AcDbEntity
8
0
100
AcDbSpline
70
4
71
3
72
8
73
4
74
0
42
0.000000001
43
0.0000000001
44
0.0000000001
40
-1
40
-1
40
-1
40
-1
40
0
40
0
40
0
40
0
41
1
41
1
41
1
41
1
10
0.78769761968944296
20
-2.023753858758857
30
0
10
0.85395032812450311
20
-2.1452461810448265
30
0
10
1.0306637947687867
20
-2.1579901309349614
30
0
10
1.0085821971227089
20
-2.367832590295718
30
0
0
SPLINE
5
236
100
AcDbEntity
8
0
100
AcDbSpline
70
4
71
3
72
8
73
4
74
0
42
0.000000001
43
0.0000000001
44
0.0000000001
40
-1
40
-1
40
-1
40
-1
40
0
40
0
40
0
40
0
41
1
41
1
41
1
41
1
10
1.0085821971227089
20
-2.367832590295718
30
0
10
0.89133521963450946
20
-2.3024096897779378
30
0
10
0.82507459570262798
20
-2.405208247059432
30
0
10
0.73840782095287083
20
-2.4417369456627429
30
0
0
SPLINE
5
237
100
AcDbEntity
8
0
100
AcDbSpline
70
4
71
3
72
8
73
4
74
0
42
0.000000001
43
0.0000000001
44
0.0000000001
40
-1
40
-1
40
-1
40
-1
40
0
40
0
40
0
40
0
41
1
41
1
41
1
41
1
10
-0.26412109919144178
20
-1.1644062779605078
30
0
10
-0.34992244628820351
20
-1.1924442869682823
30
0
10
-0.38051056452347304
20
-1.2765596332410669
30
0
10
-0.43573170888179208
20
-1.3360261223971537
30
0
0
SPLINE
5
238
100
AcDbEntity
8
0
100
AcDbSpline
70
4
71
3
72
8
73
4
74
0
42
0.000000001
43
0.0000000001
44
0.0000000001
40
-1
40
-1
40
-1
40
-1
40
0
40
0
40
0
40
0
41
1
41
1
41
1
41
1
10
-0.43573170888179208
20
-1.3360261223971537
30
0
10
-0.52067950157079601
20
-1.2204836152255243
30
0
10
-0.66086295036229958
20
-1.3130804163475516
30
0
10
-0.75517081804825348
20
-1.2136789264539578
30
0
0
SPLINE
5
239
100
AcDbEntity
8
0
100
AcDbSpline
70
4
71
3
72
8
73
4
74
0
42
0.000000001
43
0.0000000001
44
0.0000000001
40
-1
40
-1
40
-1
40
-1
40
0
40
0
40
0
40
0
41
1
41
1
41
1
41
1
10
-0.75517081804825348
20
-1.2136789264539578
30
0
10
-0.85117260205500511
20
-0.77700339379506644
30
0
10
-0.29385434376948516
20
-0.76425944390492828
30
0
10
-0.26412109919144178
20
-1.1644062779605078
30
0
0
SPLINE
5
240
100
AcDbEntity
8
0
100
AcDbSpline
70
4
71
5
72
15
73
9
74
0
42
0.000000001
43
0.0000000001
44
0.0000000001
40
0
40
0
40
0
40
0
40
0
40
0
40
0.25
40
0.5
40
0.75
40
1
40
1
40
1
40
1
40
1
40
1
41
1
41
1
41
1
41
1
41
1
41
1
41
1
41
1
41
1
10
-0.61124357717029087
20
-6.1032934677598814
30
0
10
-0.76265544976115074
20
-6.1537282671280504
30
0
10
-1.0000000319142976
20
-6.1000001946772162
30
0
10
-1.0000000319142976
20
-6.0000001914857872
30
0
10
-0.94758304744442956
20
-5.8567233375155112
30
0
10
-0.80000002553143812
20
-5.8000001851029284
30
0
10
-0.70000002234000813
20
-5.8000001851029284
30
0
10
-0.6000000191485787
20
-5.9000001882943574
30
0
10
-0.61124357717029087
20
-6.1032934677598814
30
0
0
SPLINE
5
241
100
AcDbEntity
8
0
100
AcDbSpline
70
4
71
3
72
8
73
4
74
0
42
0.000000001
43
0.0000000001
44
0.0000000001
40
-1
40
-1
40
-1
40
-1
40
0
40
0
40
0
40
0
41
1
41
1
41
1
41
1
10
0.74285203482890616
20
-1.6583930984233037
30
0
10
0.65705068773214448
20
-1.6864311074310776
30
0
10
0.62646256949687529
20
-1.7705464537038627
30
0
10
0.5712414251385558
20
-1.8300129428599483
30
0
0
SPLINE
5
242
100
AcDbEntity
8
0
100
AcDbSpline
70
4
71
3
72
8
73
4
74
0
42
0.000000001
43
0.0000000001
44
0.0000000001
40
-1
40
-1
40
-1
40
-1
40
0
40
0
40
0
40
0
41
1
41
1
41
1
41
1
10
0.5712414251385558
20
-1.8300129428599483
30
0
10
0.48629363244955193
20
-1.71447043568832
30
0
10
0.34611018365804852
20
-1.8070672368103471
30
0
10
0.25180231597209762
20
-1.7076657469167533
30
0
0
SPLINE
5
243
100
AcDbEntity
8
0
100
AcDbSpline
70
4
71
3
72
8
73
4
74
0
42
0.000000001
43
0.0000000001
44
0.0000000001
40
-1
40
-1
40
-1
40
-1
40
0
40
0
40
0
40
0
41
1
41
1
41
1
41
1
10
0.25180231597209762
20
-1.7076657469167533
30
0
10
0.15580053196534305
20
-1.2709902142578622
30
0
10
0.71311879025086289
20
-1.2582462643677237
30
0
10
0.74285203482890616
20
-1.6583930984233037
30
0
0
SPLINE
5
244
100
AcDbEntity
8
0
100
AcDbSpline
70
4
71
3
72
8
73
4
74
0
42
0.000000001
43
0.0000000001
44
0.0000000001
40
-1
40
-1
40
-1
40
-1
40
0
40
0
40
0
40
0
41
1
41
1
41
1
41
1
10
1.8085383215604836
20
-0.12214870778048262
30
0
10
1.8747910299955439
20
-0.24364103006645196
30
0
10
2.0515044966398306
20
-0.2563849799565871
30
0
10
2.0294228989937522
20
-0.46622743931734323
30
0
0
SPLINE
5
245
100
AcDbEntity
8
0
100
AcDbSpline
70
4
71
3
72
8
73
4
74
0
42
0.000000001
43
0.0000000001
44
0.0000000001
40
-1
40
-1
40
-1
40
-1
40
0
40
0
40
0
40
0
41
1
41
1
41
1
41
1
10
2.0294228989937522
20
-0.46622743931734323
30
0
10
1.9121759215055529
20
-0.40080453879956301
30
0
10
1.8459152975736688
20
-0.50360309608105669
30
0
10
1.7592485228239112
20
-0.54013179468436845
30
0
0
SPLINE
5
246
100
AcDbEntity
8
0
100
AcDbSpline
70
4
71
3
72
8
73
4
74
0
42
0.000000001
43
0.0000000001
44
0.0000000001
40
-0.9999754500666711
40
-0.9999754500666711
40
-0.9999754500666711
40
-0.9999754500666711
40
0
40
0
40
0
40
0
41
1
41
1
41
1
41
1
10
1.759248554687795
20
-0.54013176307661992
30
0
10
1.6522107844747802
20
-0.43222660074025149
30
0
10
1.6165368287876036
20
-0.16717490605885538
30
0
10
1.8085383215604836
20
-0.12214870778048262
30
0
0
SPLINE
5
247
100
AcDbEntity
8
0
100
AcDbSpline
70
4
71
3
72
8
73
4
74
0
42
0.000000001
43
0.0000000001
44
0.0000000001
40
-1
40
-1
40
-1
40
-1
40
0
40
0
40
0
40
0
41
1
41
1
41
1
41
1
10
1.1038424036286183
20
-1.0504093193921733
30
0
10
1.0180410565318594
20
-1.0784473283999469
30
0
10
0.98745293829658998
20
-1.1625626746727316
30
0
10
0.93223179393827071
20
-1.2220291638288181
30
0
0
SPLINE
5
248
100
AcDbEntity
8
0
100
AcDbSpline
70
4
71
3
72
8
73
4
74
0
42
0.000000001
43
0.0000000001
44
0.0000000001
40
-1
40
-1
40
-1
40
-1
40
0
40
0
40
0
40
0
41
1
41
1
41
1
41
1
10
0.93223179393827071
20
-1.2220291638288181
30
0
10
0.84728400124926639
20
-1.1064866566571894
30
0
10
0.70710055245776327
20
-1.1990834577792164
30
0
10
0.61279268477180937
20
-1.0996819678856227
30
0
0
SPLINE
5
249
100
AcDbEntity
8
0
100
AcDbSpline
70
4
71
3
72
8
73
4
74
0
42
0.000000001
43
0.0000000001
44
0.0000000001
40
-1
40
-1
40
-1
40
-1
40
0
40
0
40
0
40
0
41
1
41
1
41
1
41
1
10
0.61279268477180937
20
-1.0996819678856227
30
0
10
0.51679090076505796
20
-0.66300643522673219
30
0
10
1.0741091590505778
20
-0.65026248533659414
30
0
10
1.1038424036286183
20
-1.0504093193921733
30
0
0
SPLINE
5
250
100
AcDbEntity
8
0
100
AcDbSpline
70
4
71
3
72
8
73
4
74
0
42
0.000000001
43
0.0000000001
44
0.0000000001
40
-1
40
-1
40
-1
40
-1
40
0
40
0
40
0
40
0
41
1
41
1
41
1
41
1
10
-0.62339679456408004
20
-1.433113731316356
30
0
10
-0.55714408612902
20
-1.5546060536023261
30
0
10
-0.38043061948473356
20
-1.5673500034924608
30
0
10
-0.40251221713081092
20
-1.7771924628532181
30
0
0
SPLINE
5
251
100
AcDbEntity
8
0
100
AcDbSpline
70
4
71
3
72
8
73
4
74
0
42
0.000000001
43
0.0000000001
44
0.0000000001
40
-1
40
-1
40
-1
40
-1
40
0
40
0
40
0
40
0
41
1
41
1
41
1
41
1
10
-0.40251221713081092
20
-1.7771924628532181
30
0
10
-0.51975919461901066
20
-1.7117695623354372
30
0
10
-0.58601981855089491
20
-1.8145681196169312
30
0
10
-0.67268659330065228
20
-1.8510968182202427
30
0
0
SPLINE
5
252
100
AcDbEntity
8
0
100
AcDbSpline
70
4
71
3
72
8
73
4
74
0
42
0.000000001
43
0.0000000001
44
0.0000000001
40
-0.9999752053901142
40
-0.9999752053901142
40
-0.9999752053901142
40
-0.9999752053901142
40
0
40
0
40
0
40
0
41
1
41
1
41
1
41
1
10
-0.67268664000758394
20
-1.8510967074049314
30
0
10
-0.77972434910736232
20
-1.7431914945690825
30
0
10
-0.81539824035754527
20
-1.4781399185776036
30
0
10
-0.62339679456408004
20
-1.433113731316356
30
0
0
LWPOLYLINE
5
253
100
AcDbEntity
8
0
100
AcDbPolyline
90
3
70
1
43
0.0
10
4.1659574735503373
20
6.8046809217933699
42
-0.3413457381715102
10
4.7372987741864501
20
6.5271722900558267
42
0.02284491992931071
10
3.2391446356556677
20
4.6988801280203116
42
-0.12148263276835487
0
SPLINE
5
254
100
AcDbEntity
8
0
100
AcDbSpline
70
4
71
3
72
8
73
4
74
0
42
0.000000001
43
0.0000000001
44
0.0000000001
40
-0.99997520539011431
40
-0.99997520539011431
40
-0.99997520539011431
40
-0.99997520539011431
40
0
40
0
40
0
40
0
41
1
41
1
41
1
41
1
10
-0.52589593670641699
20
-3.3042445033048482
30
0
10
-0.6329336458061926
20
-3.1963392904690004
30
0
10
-0.66860753705637532
20
-2.9312877144775218
30
0
10
-0.47660609126291298
20
-2.8862615272162735
30
0
0
SPLINE
5
255
100
AcDbEntity
8
0
100
AcDbSpline
70
4
71
3
72
8
73
4
74
0
42
0.000000001
43
0.0000000001
44
0.0000000001
40
-1
40
-1
40
-1
40
-1
40
0
40
0
40
0
40
0
41
1
41
1
41
1
41
1
10
-0.47660609126291298
20
-2.8862615272162735
30
0
10
-0.41035338282785316
20
-3.0077538495022424
30
0
10
-0.23363991618356689
20
-3.0204977993923783
30
0
10
-0.25572151382964459
20
-3.2303402587531345
30
0
0
SPLINE
5
256
100
AcDbEntity
8
0
100
AcDbSpline
70
4
71
3
72
8
73
4
74
0
42
0.000000001
43
0.0000000001
44
0.0000000001
40
-1
40
-1
40
-1
40
-1
40
0
40
0
40
0
40
0
41
1
41
1
41
1
41
1
10
-0.25572151382964459
20
-3.2303402587531345
30
0
10
-0.37296849131784415
20
-3.1649173582353538
30
0
10
-0.43922911524972796
20
-3.267715915516848
30
0
10
-0.52589588999948533
20
-3.3042446141201594
30
0
0
SPLINE
5
257
100
AcDbEntity
8
0
100
AcDbSpline
70
4
71
3
72
8
73
4
74
0
42
0.000000001
43
0.0000000001
44
0.0000000001
40
-1
40
-1
40
-1
40
-1
40
0
40
0
40
0
40
0
41
1
41
1
41
1
41
1
10
4.882581861034744
20
1.3116521324205681
30
0
10
4.7331873725572207
20
-0.33741624057889569
30
0
10
3.4173252094745616
20
-2.3159461206453567
30
0
10
2.3472486039190552
20
-2.8789963335419317
30
0
0
SPLINE
5
258
100
AcDbEntity
8
0
100
AcDbSpline
70
4
71
3
72
8
73
4
74
0
42
0.000000001
43
0.0000000001
44
0.0000000001
40
-1
40
-1
40
-1
40
-1
40
0
40
0
40
0
40
0
41
1
41
1
41
1
41
1
10
2.3472486039190552
20
-2.8789963335419317
30
0
10
2.4441023803459401
20
-2.7271382972315421
30
0
10
2.5806243524813635
20
-2.3851582973389815
30
0
10
2.4829221580641097
20
-2.1761978946497766
30
0
0
SPLINE
5
259
100
AcDbEntity
8
0
100
AcDbSpline
70
4
71
3
72
8
73
4
74
0
42
0.000000001
43
0.0000000001
44
0.0000000001
40
-1
40
-1
40
-1
40
-1
40
0
40
0
40
0
40
0
41
1
41
1
41
1
41
1
10
2.4829221580641097
20
-2.1761978946497766
30
0
10
3.1860834838517613
20
-1.6543938132046707
30
0
10
3.8111957315138816
20
-0.8844176360372008
30
0
10
4.2455260067210663
20
-0.062775732139177198
30
0
0
SPLINE
5
260
100
AcDbEntity
8
0
100
AcDbSpline
70
4
71
3
72
8
73
4
74
0
42
0.000000001
43
0.0000000001
44
0.0000000001
40
-1
40
-1
40
-1
40
-1
40
0
40
0
40
0
40
0
41
1
41
1
41
1
41
1
10
4.2455260067210663
20
-0.062775732139177198
30
0
10
4.3957072101026382
20
0.22085823285913972
30
0
10
4.6042678717525467
20
0.54800459570075788
30
0
10
4.5938165853367554
20
0.8184064363275636
30
0
0
SPLINE
5
261
100
AcDbEntity
8
0
100
AcDbSpline
70
4
71
3
72
8
73
4
74
0
42
0.000000001
43
0.0000000001
44
0.0000000001
40
-1
40
-1
40
-1
40
-1
40
0
40
0
40
0
40
0
41
1
41
1
41
1
41
1
10
4.5938165853367554
20
0.8184064363275636
30
0
10
3.9326675762200232
20
-0.61702650545724003
30
0
10
3.3978609430322799
20
-1.3880806642994925
30
0
10
2.3468628277732559
20
-2.1327470381344713
30
0
0
SPLINE
5
262
100
AcDbEntity
8
0
100
AcDbSpline
70
4
71
3
72
8
73
4
74
0
42
0.000000001
43
0.0000000001
44
0.0000000001
40
-1
40
-1
40
-1
40
-1
40
-6.1327923020988598e-05
40
-6.1327923020988598e-05
40
-6.1327923020988598e-05
40
-6.1327923020988598e-05
41
1
41
1
41
1
41
1
10
2.3468628277732559
20
-2.1327470381344713
30
0
10
2.2087248057058364
20
-2.1326032311022631
30
0
10
1.895509578971015
20
-2.3013175374891719
30
0
10
1.7213423320426546
20
-2.4301997671226796
30
0
0
SPLINE
5
263
100
AcDbEntity
8
0
100
AcDbSpline
70
4
71
3
72
8
73
4
74
0
42
0.000000001
43
0.0000000001
44
0.0000000001
40
-0.99997006629351382
40
-0.99997006629351382
40
-0.99997006629351382
40
-0.99997006629351382
40
0
40
0
40
0
40
0
41
1
41
1
41
1
41
1
10
1.7213423320426546
20
-2.43019976712268
30
0
10
1.9687777224521652
20
-2.0680981006389083
30
0
10
2.30964145240084
20
-1.8369528671879578
30
0
10
2.4326739107803315
20
-1.3275226134060172
30
0
0
SPLINE
5
264
100
AcDbEntity
8
0
100
AcDbSpline
70
4
71
3
72
8
73
4
74
0
42
0.000000001
43
0.0000000001
44
0.0000000001
40
-1
40
-1
40
-1
40
-1
40
0
40
0
40
0
40
0
41
1
41
1
41
1
41
1
10
2.4326739107803315
20
-1.3275226134060172
30
0
10
2.9729585778731149
20
-1.0882417885410158
30
0
10
3.2880761506570901
20
-0.51799261266412167
30
0
10
3.6389299815917573
20
0.061069833475563891
30
0
0
SPLINE
5
265
100
AcDbEntity
8
0
100
AcDbSpline
70
4
71
3
72
8
73
4
74
0
42
0.000000001
43
0.0000000001
44
0.0000000001
40
-1
40
-1
40
-1
40
-1
40
0
40
0
40
0
40
0
41
1
41
1
41
1
41
1
10
3.6389299815917573
20
0.061069833475563891
30
0
10
4.0597401915312243
20
0.44554440611789475
30
0
10
4.5079252131613501
20
0.8796420567300467
30
0
10
4.882581861034744
20
1.3116521324205681
30
0
0
SPLINE
5
266
100
AcDbEntity
8
0
100
AcDbSpline
70
4
71
3
72
8
73
4
74
0
42
0.000000001
43
0.0000000001
44
0.0000000001
40
-1
40
-1
40
-1
40
-1
40
0
40
0
40
0
40
0
41
1
41
1
41
1
41
1
10
4.1808914514843698
20
4.4404816252013264
30
0
10
4.050561586861094
20
2.8654896033154071
30
0
10
3.8117237940263009
20
1.9580210586906648
30
0
10
3.0787995205663443
20
0.89880103623463126
30
0
0
SPLINE
5
267
100
AcDbEntity
8
0
100
AcDbSpline
70
4
71
3
72
8
73
4
74
0
42
0.000000001
43
0.0000000001
44
0.0000000001
40
-1
40
-1
40
-1
40
-1
40
-6.1327923030405436e-05
40
-6.1327923030405436e-05
40
-6.1327923030405436e-05
40
-6.1327923030405436e-05
41
1
41
1
41
1
41
1
10
3.0787995205663443
20
0.89880103623463126
30
0
10
2.9489430556778631
20
0.85169018453538747
30
0
10
2.7123207096489117
20
0.58602467906297606
30
0
10
2.5927373515791161
20
0.40534629216885698
30
0
0
SPLINE
5
268
100
AcDbEntity
8
0
100
AcDbSpline
70
4
71
3
72
8
73
4
74
0
42
0.000000001
43
0.0000000001
44
0.0000000001
40
-0.99997006629350971
40
-0.99997006629350971
40
-0.99997006629350971
40
-0.99997006629350971
40
0
40
0
40
0
40
0
41
1
41
1
41
1
41
1
10
2.5927373515791148
20
0.40534629216885693
30
0
10
2.7014044981989698
20
0.83023844382964052
30
0
10
2.9426553040513546
20
1.1640261758049002
30
0
10
2.8840325888947858
20
1.6848136051375506
30
0
0
SPLINE
5
269
100
AcDbEntity
8
0
100
AcDbSpline
70
4
71
3
72
8
73
4
74
0
42
0.000000001
43
0.0000000001
44
0.0000000001
40
-1
40
-1
40
-1
40
-1
40
0
40
0
40
0
40
0
41
1
41
1
41
1
41
1
10
2.8840325888947858
20
1.6848136051375506
30
0
10
3.3098952416702336
20
2.0944522698344943
30
0
10
3.4109721946305367
20
2.7380877698232684
30
0
10
3.5426159297110984
20
3.4022275549776051
30
0
0
SPLINE
5
270
100
AcDbEntity
8
0
100
AcDbSpline
70
4
71
3
72
8
73
4
74
0
42
0.000000001
43
0.0000000001
44
0.0000000001
40
-1
40
-1
40
-1
40
-1
40
0
40
0
40
0
40
0
41
1
41
1
41
1
41
1
10
3.5426159297110984
20
3.4022275549776051
30
0
10
3.8065501303023788
20
3.9074410420858241
30
0
10
4.0792361471952674
20
4.4686477064009171
30
0
10
4.2835420865244762
20
5.0027445070360388
30
0
0
SPLINE
5
271
100
AcDbEntity
8
0
100
AcDbSpline
70
4
71
3
72
8
73
4
74
0
42
0.000000001
43
0.0000000001
44
0.0000000001
40
-1
40
-1
40
-1
40
-1
40
0
40
0
40
0
40
0
41
1
41
1
41
1
41
1
10
4.2835420865244762
20
5.0027445070360388
30
0
10
4.7071717894031773
20
3.4020312013958671
30
0
10
4.1473628979374757
20
1.0927699074786237
30
0
10
3.3343943225357715
20
0.19768802328622864
30
0
0
SPLINE
5
272
100
AcDbEntity
8
0
100
AcDbSpline
70
4
71
3
72
8
73
4
74
0
42
0.000000001
43
0.0000000001
44
0.0000000001
40
-1
40
-1
40
-1
40
-1
40
0
40
0
40
0
40
0
41
1
41
1
41
1
41
1
10
3.3343943225357715
20
0.19768802328622864
30
0
10
3.3734685941953244
20
0.37351384190930059
30
0
10
3.384793235408357
20
0.74156318874156735
30
0
10
3.221514537402721
20
0.90450561864724166
30
0
0
SPLINE
5
273
100
AcDbEntity
8
0
100
AcDbSpline
70
4
71
3
72
8
73
4
74
0
42
0.000000001
43
0.0000000001
44
0.0000000001
40
-1
40
-1
40
-1
40
-1
40
0
40
0
40
0
40
0
41
1
41
1
41
1
41
1
10
3.221514537402721
20
0.90450561864724166
30
0
10
3.7038025397436356
20
1.6353364009041409
30
0
10
4.0278685435624562
20
2.5726783133093902
30
0
10
4.1549874164249792
20
3.4933188503078889
30
0
0
SPLINE
5
274
100
AcDbEntity
8
0
100
AcDbSpline
70
4
71
3
72
8
73
4
74
0
42
0.000000001
43
0.0000000001
44
0.0000000001
40
-1
40
-1
40
-1
40
-1
40
0
40
0
40
0
40
0
41
1
41
1
41
1
41
1
10
4.1549874164249792
20
3.4933188503078889
30
0
10
4.1991030556626336
20
3.81121259092644
30
0
10
4.2831953244937155
20
4.189961561395255
30
0
10
4.1808914514843698
20
4.4404816252013264
30
0
0
SPLINE
5
275
100
AcDbEntity
8
0
100
AcDbSpline
70
4
71
5
72
54
73
48
74
0
42
0.000000001
43
0.0000000001
44
0.0000000001
40
0.43517398217850561
40
0.43517398217850561
40
0.43517398217850561
40
0.43517398217850561
40
0.43517398217850561
40
0.43517398217850561
40
0.44736842105263153
40
0.46052631578947367
40
0.47368421052631582
40
0.48684210526315791
40
0.5
40
0.51315789473684215
40
0.52631578947368418
40
0.53947368421052644
40
0.55263157894736836
40
0.56578947368421062
40
0.57894736842105265
40
0.59210526315789469
40
0.60526315789473695
40
0.61842105263157887
40
0.63157894736842113
40
0.64473684210526316
40
0.65789473684210531
40
0.67105263157894735
40
0.68421052631578938
40
0.69736842105263153
40
0.71052631578947367
40
0.72368421052631582
40
0.73684210526315785
40
0.75
40
0.76315789473684215
40
0.77631578947368418
40
0.78947368421052644
40
0.80263157894736825
40
0.8157894736842104
40
0.82894736842105254
40
0.84210526315789458
40
0.85526315789473684
40
0.86842105263157887
40
0.88157894736842091
40
0.89473684210526283
40
0.9078947368421052
40
0.92105263157894723
40
0.93421052631578916
40
0.94736842105263164
40
0.96052631578947356
40
0.9736842105263156
40
0.98684210526315785
40
1
40
1
40
1
40
1
40
1
40
1
41
1
41
1
41
1
41
1
41
1
41
1
41
1
41
1
41
1
41
1
41
1
41
1
41
1
41
1
41
1
41
1
41
1
41
1
41
1
41
1
41
1
41
1
41
1
41
1
41
1
41
1
41
1
41
1
41
1
41
1
41
1
41
1
41
1
41
1
41
1
41
1
41
1
41
1
41
1
41
1
41
1
41
1
41
1
41
1
41
1
41
1
41
1
41
1
10
-0.45725999827354519
20
4.7000000936467474
30
0
10
-0.47106571155287985
20
4.6576233707330079
30
0
10
-0.48146508052109988
20
4.5712150981511135
30
0
10
-0.43118640889774523
20
4.4542222341907047
30
0
10
-0.19414155602186248
20
4.301463702579496
30
0
10
0.19999975070490386
20
4.3999982058367122
30
0
10
0.53982143269557792
20
4.3999942586723533
30
0
10
0.70895043569816096
20
4.150001118298503
30
0
10
0.77940925096608449
20
3.9000500986220095
30
0
10
0.58218619556560225
20
3.6001930694869473
30
0
10
0.34207677700254402
20
3.6002257266938988
30
0
10
0.032627923309877717
20
3.3752051518985042
30
0
10
-0.38158511322519922
20
3.2760848566666367
30
0
10
-0.50896746086205147
20
2.9910956969977911
30
0
10
-0.40272740894780273
20
2.7141799679789451
30
0
10
-0.34490015959598119
20
2.3404318245591762
30
0
10
-0.25903660309246274
20
1.9665418588746375
30
0
10
-0.40609519999240234
20
1.5949717131597525
30
0
10
-0.50000001595714882
20
1.3000000414885871
30
0
10
-0.65670636767955581
20
1.0332182892964172
30
0
10
-0.83701859476517682
20
0.79912284229253905
30
0
10
-1.0196695597783088
20
0.27013743076520796
30
0
10
-1.1228875480890448
20
-0.26197663884464129
30
0
10
-1.1232175098845225
20
-0.75506132876502785
30
0
10
-1.193715021133462
20
-1.093417801360226
30
0
10
-1.041822092271901
20
-1.5030391852586236
30
0
10
-1.1092002193712662
20
-2.1927319384289374
30
0
10
-0.99999709819105531
20
-2.4999954635620596
30
0
10
-0.99999717078071138
20
-3.0000012559474647
30
0
10
-0.89778981484107512
20
-3.4189327690499161
30
0
10
-1.0105460757165585
20
-3.6867290374511574
30
0
10
-0.99999913965139353
20
-3.9999993788222552
30
0
10
-1.1373961480268928
20
-4.1236537022199249
30
0
10
-1.2924343261142524
20
-4.2364087471921339
30
0
10
-1.4333781089189881
20
-4.3491637809041892
30
0
10
-1.4999999049493999
20
-4.5000000252958658
30
0
10
-1.4474724761741211
20
-4.687428553171598
30
0
10
-1.4999999404504007
20
-4.9999999261737198
30
0
10
-1.6447937506321739
20
-5.0115991876666337
30
0
10
-1.5743218820894609
20
-5.265297914437598
30
0
10
-1.49999997759962
20
-5.4999999175533505
30
0
10
-1.5038500122912899
20
-5.6599403851493699
30
0
10
-1.5743218820016707
20
-5.8713559942699991
30
0
10
-1.4192837684462518
20
-6.2378097171570435
30
0
10
-1.1796794112481062
20
-6.6042634399306799
30
0
10
-0.84141443638013225
20
-6.8720565450344919
30
0
10
-0.49999999249075311
20
-6.9999998948705473
30
0
10
-0.23675923651767086
20
-7.1050074808054635
30
0
0
SPLINE
5
276
100
AcDbEntity
8
0
100
AcDbSpline
70
4
71
5
72
39
73
33
74
0
42
0.000000001
43
0.0000000001
44
0.0000000001
40
0
40
0
40
0
40
0
40
0
40
0
40
0.035714285714285698
40
0.071428571428571397
40
0.1071428571428571
40
0.14285714285714279
40
0.1785714285714286
40
0.2142857142857143
40
0.25
40
0.2857142857142857
40
0.3214285714285714
40
0.3571428571428571
40
0.39285714285714279
40
0.4285714285714286
40
0.4642857142857143
40
0.5
40
0.5357142857142857
40
0.5714285714285714
40
0.60714285714285721
40
0.64285714285714279
40
0.67857142857142849
40
0.7142857142857143
40
0.75
40
0.7857142857142857
40
0.82142857142857129
40
0.8571428571428571
40
0.89285714285714268
40
0.92857142857142838
40
0.96428571428571419
40
1
40
1
40
1
40
1
40
1
40
1
41
1
41
1
41
1
41
1
41
1
41
1
41
1
41
1
41
1
41
1
41
1
41
1
41
1
41
1
41
1
41
1
41
1
41
1
41
1
41
1
41
1
41
1
41
1
41
1
41
1
41
1
41
1
41
1
41
1
41
1
41
1
41
1
41
1
10
-0.23675923651767086
20
-7.1050074808054635
30
0
10
0.077036765919334921
20
-7.0427249853297589
30
0
10
0.26771565764504129
20
-7.0219990188378381
30
0
10
0.50000001595714882
20
-6.900000220208657
30
0
10
0.70000002234000813
20
-6.8000002170172245
30
0
10
0.93923697198339884
20
-6.6323508487896534
30
0
10
1.1796581832897253
20
-6.2675738385317787
30
0
10
1.4000000446800169
20
-5.8000001851029284
30
0
10
1.4000000446800169
20
-5.6000001787200659
30
0
10
1.4449505543863597
20
-5.4053736324677155
30
0
10
1.6231938662169116
20
-5.2478562871290908
30
0
10
1.7558400517652297
20
-5.1608072278630068
30
0
10
1.9000000606371661
20
-5.1000001627629175
30
0
10
2.1000000670200256
20
-5.0000001595714876
30
0
10
2.3444575001358885
20
-4.8623533103792909
30
0
10
2.6885085439018375
20
-4.6592388387584291
30
0
10
2.9538009149984719
20
-4.522447459911727
30
0
10
3.4470789175062775
20
-4.1742512228473938
30
0
10
3.8000001212743322
20
-3.9000001244657625
30
0
10
4.2844079637800307
20
-3.5441818414928856
30
0
10
4.8688802188523068
20
-3.1420980915495478
30
0
10
5.1963504894247121
20
-2.8519345606626025
30
0
10
5.5000001755286378
20
-2.4000000765943148
30
0
10
5.8000001851029284
20
-1.9000000606371661
30
0
10
6.0000001914857872
20
-1.3000000414885871
30
0
10
6.1000001946772162
20
-0.80000002553143812
30
0
10
6.2000001978686452
20
-0.10000000319142979
30
0
10
6.3000002010600742
20
0.6000000191485787
30
0
10
6.3000002010600742
20
1.3000000414885871
30
0
10
6.1000001946772162
20
2.700000086168604
30
0
10
6.0000001914857872
20
3.4000001085086127
30
0
10
5.6000001787200659
20
4.3000001372314802
30
0
10
5.300000169145779
20
4.8000001531886296
30
0
0
SPLINE
5
277
100
AcDbEntity
8
0
100
AcDbSpline
70
4
71
5
72
19
73
13
74
0
42
0.000000001
43
0.0000000001
44
0.0000000001
40
0
40
0
40
0
40
0
40
0
40
0
40
0.050000000000000003
40
0.10000000000000001
40
0.14999999999999999
40
0.20000000000000001
40
0.25
40
0.29999999999999999
40
0.34999999999999998
40
0.39505150008166412
40
0.39505150008166412
40
0.39505150008166412
40
0.39505150008166412
40
0.39505150008166412
40
0.39505150008166412
41
1
41
1
41
1
41
1
41
1
41
1
41
1
41
1
41
1
41
1
41
1
41
1
41
1
10
5.300000169145779
20
4.8000001531886296
30
0
10
5.126975792914358
20
5.0883741135743312
30
0
10
5.0000001595714876
20
5.300000169145779
30
0
10
4.8000001531886296
20
5.400000172337208
30
0
10
4.8648903268492987
20
5.5251832236827632
30
0
10
5.1000001627629175
20
5.8000001851029284
30
0
10
5.300000169145779
20
6.0000001914857872
30
0
10
5.450000173932926
20
6.1866721283379089
30
0
10
5.450000173932926
20
6.4949494240603665
30
0
10
5.3358649072380544
20
6.7283975284014019
30
0
10
5.2692508746180859
20
6.8208799105016329
30
0
10
5.2400166590005348
20
6.8890170190261175
30
0
10
5.2292756086681811
20
6.9243735538869338
30
0
0
SPLINE
5
278
100
AcDbEntity
8
0
100
AcDbSpline
70
4
71
5
72
16
73
10
74
0
42
0.000000001
43
0.0000000001
44
0.0000000001
40
-0.99801904938697283
40
-0.99801904938697283
40
-0.99801904938697283
40
-0.99801904938697283
40
-0.99801904938697283
40
-0.99801904938697283
40
-0.80000000000000004
40
-0.60000000000000009
40
-0.40000000000000002
40
-0.20000000000000001
40
0
40
0
40
0
40
0
40
0
40
0
41
1
41
1
41
1
41
1
41
1
41
1
41
1
41
1
41
1
41
1
10
5.2292756086613297
20
6.9243735538951716
30
0
10
5.8058393983467127
20
7.4039620728641378
30
0
10
6.0939104649970668
20
7.602961867326532
30
0
10
5.4663593315215353
20
7.8999997616022712
30
0
10
-1.3025752773677095
20
7.899802157055329
30
0
10
-2.6000000829771741
20
7.8000002489315223
30
0
10
-2.8000000893600343
20
6.5000002074429366
30
0
10
-2.5000000797857451
20
5.8000001851029284
30
0
10
-1.2000000382971574
20
5.300000169145779
30
0
10
-0.45725999829664399
20
4.7000000935758459
30
0
0
ENDSEC
0
SECTION
2
OBJECTS
0
DICTIONARY
5
C
100
AcDbDictionary
3
ACAD_GROUP
350
D
3
ACAD_MLINESTYLE
350
17
0
DICTIONARY
5
D
100
AcDbDictionary
0
DICTIONARY
5
1A
330
C
100
AcDbDictionary
0
DICTIONARY
5
17
100
AcDbDictionary
0
ENDSEC
0
EOF
