0
SECTION
2
HEADER
9
$INSUNITS
70
1
9
$ACADVER
1
AC1014
9
$HANDSEED
5
FFFF
0
ENDSEC
0
SECTION
2
TABLES
0
TABLE
2
VPORT
5
8
100
AcDbSymbolTable
0
ENDTAB
0
TABLE
2
LTYPE
5
5
100
AcDbSymbolTable
0
LTYPE
5
14
100
AcDbSymbolTableRecord
100
AcDbLinetypeTableRecord
2
BYBLOCK
70
0
0
LTYPE
5
15
100
AcDbSymbolTableRecord
100
AcDbLinetypeTableRecord
2
BYLAYER
70
0
0
ENDTAB
0
TABLE
2
LAYER
5
2
100
AcDbSymbolTable
70
2
0
LAYER
5
50
100
AcDbSymbolTableRecord
100
AcDbLayerTableRecord
2
0
70
0
6
CONTINUOUS
0
ENDTAB
0
TABLE
2
STYLE
5
3
100
AcDbSymbolTable
70
1
0
STYLE
5
11
100
AcDbSymbolTableRecord
100
AcDbTextStyleTableRecord
2
STANDARD
70
0
0
ENDTAB
0
TABLE
2
VIEW
5
6
100
AcDbSymbolTable
70
0
0
ENDTAB
0
TABLE
2
UCS
5
7
100
AcDbSymbolTable
70
0
0
ENDTAB
0
TABLE
2
APPID
5
9
100
AcDbSymbolTable
70
2
0
APPID
5
12
100
AcDbSymbolTableRecord
100
AcDbRegAppTableRecord
2
ACAD
70
0
0
ENDTAB
0
TABLE
2
DIMSTYLE
5
A
100
AcDbSymbolTable
70
1
0
ENDTAB
0
TABLE
2
BLOCK_RECORD
5
1
100
AcDbSymbolTable
70
1
0
BLOCK_RECORD
5
1F
100
AcDbSymbolTableRecord
100
AcDbBlockTableRecord
2
*MODEL_SPACE
0
BLOCK_RECORD
5
1B
100
AcDbSymbolTableRecord
100
AcDbBlockTableRecord
2
*PAPER_SPACE
0
ENDTAB
0
ENDSEC
0
SECTION
2
BLOCKS
0
BLOCK
5
20
100
AcDbEntity
100
AcDbBlockBegin
2
*MODEL_SPACE
0
ENDBLK
5
21
100
AcDbEntity
100
AcDbBlockEnd
0
BLOCK
5
1C
100
AcDbEntity
100
AcDbBlockBegin
2
*PAPER_SPACE
0
ENDBLK
5
1D
100
AcDbEntity
100
AcDbBlockEnd
0
ENDSEC
0
SECTION
2
ENTITIES
0
ELLIPSE
5
100
100
AcDbEntity
8
0
100
AcDbEllipse
10
6.9729124802045073
20
3.9842974221542078
30
0
11
0.014198170563664163
21
0.0012653547897792882
31
0.0
40
0.78176456205898182
41
4.6012812331960102
42
6.2105130080929314
0
SPLINE
5
101
100
AcDbEntity
8
0
100
AcDbSpline
70
0
71
3
72
11
73
7
74
0
42
0.000000001
43
0.0000000001
44
0.0000000001
40
-1.2089900118703152
40
-1.2089900118703152
40
-1.2089900118703152
40
-1.2089900118703152
40
-1.2087530120882335
40
-1.2087530120882335
40
-1.2087530120882335
40
-0.2087530120882336
40
-0.2087530120882336
40
-0.2087530120882336
40
-0.2087530120882336
10
6.9723213070008159
20
3.9731259999999975
30
0
10
6.9722902046672095
20
3.9731259999999975
30
0
10
6.972259102333604
20
3.9731259999999975
30
0
10
6.9722279999999985
20
3.9731259999999975
30
0
10
6.9640229999999983
20
3.9731259999999975
30
0
10
6.8712699999999991
20
3.9505000000000008
30
0
10
6.7661100000000003
20
3.9228530000000008
30
0
0
LINE
5
102
100
AcDbEntity
8
0
100
AcDbLine
10
6.7661099999999994
20
3.9228530000000008
30
0
11
6.7661089999999993
21
3.9225519999999987
31
0
0
SPLINE
5
103
100
AcDbEntity
8
0
100
AcDbSpline
70
0
71
3
72
8
73
4
74
0
42
0.000000001
43
0.0000000001
44
0.0000000001
40
-1
40
-1
40
-1
40
-1
40
0
40
0
40
0
40
0
10
6.7661089999999993
20
3.9225519999999987
30
0
10
6.6609480000000003
20
3.8949039999999986
30
0
10
6.5709050000000007
20
3.8722490000000005
30
0
10
6.5660280000000002
20
3.8722189999999994
30
0
0
SPLINE
5
104
100
AcDbEntity
8
0
100
AcDbSpline
70
0
71
3
72
8
73
4
74
0
42
0.000000001
43
0.0000000001
44
0.0000000001
40
-1
40
-1
40
-1
40
-1
40
0
40
0
40
0
40
0
10
6.5660280000000002
20
3.8722189999999994
30
0
10
6.5611450000000007
20
3.8721900000000011
30
0
10
6.5222710000000008
20
4.0014530000000006
30
0
10
6.4796440000000004
20
4.1594800000000003
30
0
0
LINE
5
105
100
AcDbEntity
8
0
100
AcDbLine
10
6.4796440000000004
20
4.1594799999999994
30
0
11
6.2595390000000002
21
4.9752900000000002
31
0
0
SPLINE
5
106
100
AcDbEntity
8
0
100
AcDbSpline
70
0
71
3
72
8
73
4
74
0
42
0.000000001
43
0.0000000001
44
0.0000000001
40
-1
40
-1
40
-1
40
-1
40
0
40
0
40
0
40
0
10
6.2595390000000002
20
4.9752900000000002
30
0
10
6.1206079999999989
20
5.4902280000000028
30
0
10
6.1173750000000009
20
5.5039330000000035
30
0
10
6.1338029999999995
20
5.5108450000000007
30
0
0
SPLINE
5
107
100
AcDbEntity
8
0
100
AcDbSpline
70
0
71
3
72
8
73
4
74
0
42
0.000000001
43
0.0000000001
44
0.0000000001
40
-1
40
-1
40
-1
40
-1
40
0
40
0
40
0
40
0
10
6.1338029999999995
20
5.5108450000000007
30
0
10
6.167006999999999
20
5.5247339999999996
30
0
10
6.5847649999999973
20
5.633001000000001
30
0
10
6.6152939999999987
20
5.635364
30
0
0
LINE
5
108
100
AcDbEntity
8
0
100
AcDbLine
10
6.6152939999999987
20
5.635364
30
0
11
6.6464549999999987
21
5.6383180000000017
31
0
0
LINE
5
109
100
AcDbEntity
8
0
100
AcDbLine
10
6.6464549999999987
20
5.6383180000000017
30
0
11
6.7158720000000001
21
5.3043760000000004
31
0
0
SPLINE
5
110
100
AcDbEntity
8
0
100
AcDbSpline
70
0
71
3
72
8
73
4
74
0
42
0.000000001
43
0.0000000001
44
0.0000000001
40
-1
40
-1
40
-1
40
-1
40
0
40
0
40
0
40
0
10
6.7158720000000001
20
5.3043760000000004
30
0
10
6.7540539999999982
20
5.120709999999999
30
0
10
6.7865719999999996
20
4.9688859999999995
30
0
10
6.7881619999999989
20
4.9677039999999995
30
0
0
SPLINE
5
111
100
AcDbEntity
8
0
100
AcDbSpline
70
0
71
3
72
8
73
4
74
0
42
0.000000001
43
0.0000000001
44
0.0000000001
40
-1
40
-1
40
-1
40
-1
40
0
40
0
40
0
40
0
10
6.7881619999999989
20
4.9677039999999995
30
0
10
6.7897409999999994
20
4.9661920000000004
30
0
10
6.8324590000000001
20
4.9989550000000005
30
0
10
6.8830859999999987
20
5.0404850000000003
30
0
0
SPLINE
5
112
100
AcDbEntity
8
0
100
AcDbSpline
70
0
71
3
72
8
73
4
74
0
42
0.000000001
43
0.0000000001
44
0.0000000001
40
-1
40
-1
40
-1
40
-1
40
0
40
0
40
0
40
0
10
6.8830859999999987
20
5.0404850000000003
30
0
10
6.9337149999999985
20
5.0820040000000004
30
0
10
6.9819619999999976
20
5.1209940000000005
30
0
10
6.9903060000000004
20
5.1271370000000012
30
0
0
SPLINE
5
113
100
AcDbEntity
8
0
100
AcDbSpline
70
0
71
3
72
8
73
4
74
0
42
0.000000001
43
0.0000000001
44
0.0000000001
40
-1
40
-1
40
-1
40
-1
40
0
40
0
40
0
40
0
10
6.9903060000000004
20
5.1271370000000012
30
0
10
7.0050120000000007
20
5.1379310000000018
30
0
10
7.0039779999999991
20
5.1467509999999992
30
0
10
6.9562829999999982
20
5.4169500000000035
30
0
0
SPLINE
5
114
100
AcDbEntity
8
0
100
AcDbSpline
70
0
71
3
72
8
73
4
74
0
42
0.000000001
43
0.0000000001
44
0.0000000001
40
-1
40
-1
40
-1
40
-1
40
0
40
0
40
0
40
0
10
6.9562829999999982
20
5.4169500000000035
30
0
10
6.9292260000000008
20
5.570228000000002
30
0
10
6.9082329999999992
20
5.6971460000000009
30
0
10
6.9096640000000011
20
5.6983270000000008
30
0
0
SPLINE
5
115
100
AcDbEntity
8
0
100
AcDbSpline
70
0
71
3
72
8
73
4
74
0
42
0.000000001
43
0.0000000001
44
0.0000000001
40
-1
40
-1
40
-1
40
-1
40
0
40
0
40
0
40
0
10
6.9096640000000011
20
5.6983270000000008
30
0
10
6.9189669999999985
20
5.7080800000000016
30
0
10
7.4335379999999978
20
5.7898940000000039
30
0
10
7.4403929999999985
20
5.7826870000000046
30
0
0
SPLINE
5
116
100
AcDbEntity
8
0
100
AcDbSpline
70
0
71
3
72
8
73
4
74
0
42
0.000000001
43
0.0000000001
44
0.0000000001
40
-1
40
-1
40
-1
40
-1
40
0
40
0
40
0
40
0
10
7.4403929999999985
20
5.7826870000000046
30
0
10
7.4445679999999976
20
5.7783090000000028
30
0
10
7.6353799999999978
20
4.1469030000000018
30
0
10
7.6354600000000028
20
4.114884
30
0
0
SPLINE
5
117
100
AcDbEntity
8
0
100
AcDbSpline
70
0
71
3
72
8
73
4
74
0
42
0.000000001
43
0.0000000001
44
0.0000000001
40
-1
40
-1
40
-1
40
-1
40
0
40
0
40
0
40
0
10
7.6354600000000028
20
4.114884
30
0
10
7.6355139999999979
20
4.093202999999999
30
0
10
7.634828999999999
20
4.0929669999999989
30
0
10
7.5294539999999959
20
4.0784340000000014
30
0
0
SPLINE
5
118
100
AcDbEntity
8
0
100
AcDbSpline
70
0
71
3
72
8
73
4
74
0
42
0.000000001
43
0.0000000001
44
0.0000000001
40
-1
40
-1
40
-1
40
-1
40
0
40
0
40
0
40
0
10
7.5294539999999959
20
4.0784340000000014
30
0
10
7.4711210000000019
20
4.0703409999999982
30
0
10
7.3748699999999987
20
4.0549220000000004
30
0
10
7.3155639999999993
20
4.0440519999999989
30
0
0
SPLINE
5
119
100
AcDbEntity
8
0
100
AcDbSpline
70
0
71
3
72
8
73
4
74
0
42
0.000000001
43
0.0000000001
44
0.0000000001
40
-1
40
-1
40
-1
40
-1
40
0
40
0
40
0
40
0
10
7.3155639999999993
20
4.0440519999999989
30
0
10
7.256259
20
4.0330640000000004
30
0
10
7.2062949999999999
20
4.0259749999999999
30
0
10
7.2044929999999994
20
4.0277479999999981
30
0
0
SPLINE
5
120
100
AcDbEntity
8
0
100
AcDbSpline
70
0
71
3
72
8
73
4
74
0
42
0.000000001
43
0.0000000001
44
0.0000000001
40
-1
40
-1
40
-1
40
-1
40
0
40
0
40
0
40
0
10
7.2044929999999994
20
4.0277479999999981
30
0
10
7.2013549999999995
20
4.031037999999997
30
0
10
7.0831990000000005
20
4.6909770000000002
30
0
10
7.0831990000000005
20
4.7052139999999989
30
0
0
SPLINE
5
121
100
AcDbEntity
8
0
100
AcDbSpline
70
0
71
3
72
8
73
4
74
0
42
0.000000001
43
0.0000000001
44
0.0000000001
40
-1
40
-1
40
-1
40
-1
40
0
40
0
40
0
40
0
10
7.0831990000000005
20
4.7052139999999989
30
0
10
7.0831990000000005
20
4.7117710000000006
30
0
10
6.8872269999999993
20
4.5489240000000004
30
0
10
6.8796410000000003
20
4.5361039999999999
30
0
0
SPLINE
5
122
100
AcDbEntity
8
0
100
AcDbSpline
70
0
71
3
72
8
73
4
74
0
42
0.000000001
43
0.0000000001
44
0.0000000001
40
-1
40
-1
40
-1
40
-1
40
0
40
0
40
0
40
0
10
6.8796410000000003
20
4.5361039999999999
30
0
10
6.8777539999999995
20
4.532902
30
0
10
6.9011689999999994
20
4.4101909999999993
30
0
10
6.931677999999998
20
4.2634119999999989
30
0
0
SPLINE
5
123
100
AcDbEntity
8
0
100
AcDbSpline
70
0
71
3
72
11
73
7
74
0
42
0.000000001
43
0.0000000001
44
0.0000000001
40
-1.0001765007480987
40
-1.0001765007480987
40
-1.0001765007480987
40
-1.0001765007480987
40
-0.00017650074809871796
40
-0.00017650074809871796
40
-0.00017650074809871796
40
0
40
0
40
0
40
0
10
6.9316780000000122
20
4.2634119999999385
30
0
10
6.9621869999999992
20
4.1166330000000002
30
0
10
6.9871449999999991
20
3.9913220000000003
30
0
10
6.9871449999999991
20
3.9848229999999991
30
0
10
6.9871449999999991
20
3.9847998371721642
30
0
10
6.9871449999999991
20
3.9847766743443298
30
0
10
6.9871449999999991
20
3.9847535115164958
30
0
0
SPLINE
5
124
100
AcDbEntity
8
0
100
AcDbSpline
70
0
71
3
72
8
73
4
74
0
42
0.000000001
43
0.0000000001
44
0.0000000001
40
-1
40
-1
40
-1
40
-1
40
0
40
0
40
0
40
0
10
3.1753859999999996
20
-4.1976300000000002
30
0
10
3.1645879999999997
20
-4.1768950000000018
30
0
10
3.1524320000000006
20
-4.1601760000000017
30
0
10
3.1483500000000002
20
-4.1613580000000008
30
0
0
SPLINE
5
125
100
AcDbEntity
8
0
100
AcDbSpline
70
0
71
3
72
8
73
4
74
0
42
0.000000001
43
0.0000000001
44
0.0000000001
40
-1
40
-1
40
-1
40
-1
40
0
40
0
40
0
40
0
10
3.1483500000000002
20
-4.1613580000000008
30
0
10
3.1442779999999999
20
-4.1621550000000003
30
0
10
3.083313
20
-4.1920120000000001
30
0
10
3.0128729999999999
20
-4.2276940000000014
30
0
0
SPLINE
5
126
100
AcDbEntity
8
0
100
AcDbSpline
70
0
71
3
72
8
73
4
74
0
42
0.000000001
43
0.0000000001
44
0.0000000001
40
-1
40
-1
40
-1
40
-1
40
0
40
0
40
0
40
0
10
3.0128729999999999
20
-4.2276940000000014
30
0
10
2.9424329999999999
20
-4.2633460000000003
30
0
10
2.859583999999999
20
-4.299500000000001
30
0
10
2.8287680000000002
20
-4.3078890000000012
30
0
0
SPLINE
5
127
100
AcDbEntity
8
0
100
AcDbSpline
70
0
71
3
72
8
73
4
74
0
42
0.000000001
43
0.0000000001
44
0.0000000001
40
-1
40
-1
40
-1
40
-1
40
0
40
0
40
0
40
0
10
2.8287680000000002
20
-4.3078890000000012
30
0
10
2.7609079999999997
20
-4.3264969999999998
30
0
10
2.670860999999999
20
-4.3276200000000014
30
0
10
2.600638
20
-4.310842000000001
30
0
0
SPLINE
5
128
100
AcDbEntity
8
0
100
AcDbSpline
70
0
71
3
72
8
73
4
74
0
42
0.000000001
43
0.0000000001
44
0.0000000001
40
-1
40
-1
40
-1
40
-1
40
0
40
0
40
0
40
0
10
2.600638
20
-4.310842000000001
30
0
10
2.5450370000000002
20
-4.2975860000000017
30
0
10
2.4404880000000002
20
-4.2570010000000016
30
0
10
2.440634999999999
20
-4.2487890000000004
30
0
0
SPLINE
5
129
100
AcDbEntity
8
0
100
AcDbSpline
70
0
71
3
72
8
73
4
74
0
42
0.000000001
43
0.0000000001
44
0.0000000001
40
-1
40
-1
40
-1
40
-1
40
0
40
0
40
0
40
0
10
2.440634999999999
20
-4.2487890000000004
30
0
10
2.440677
20
-4.2460719999999998
30
0
10
2.457827
20
-4.2235640000000014
30
0
10
2.4787349999999999
20
-4.1988120000000002
30
0
0
LINE
5
130
100
AcDbEntity
8
0
100
AcDbLine
10
2.4787349999999999
20
-4.1988120000000002
30
0
11
2.5167500000000005
21
-4.1537960000000025
31
0
0
LINE
5
131
100
AcDbEntity
8
0
100
AcDbLine
10
2.5167500000000005
20
-4.1537960000000025
30
0
11
2.5726999999999998
21
-4.1719910000000011
31
0
0
SPLINE
5
132
100
AcDbEntity
8
0
100
AcDbSpline
70
0
71
3
72
8
73
4
74
0
42
0.000000001
43
0.0000000001
44
0.0000000001
40
-1
40
-1
40
-1
40
-1
40
0
40
0
40
0
40
0
10
2.5726999999999998
20
-4.1719910000000011
30
0
10
2.7136459999999998
20
-4.2177930000000012
30
0
10
2.7751799999999998
20
-4.206964000000001
30
0
10
2.9808520000000001
20
-4.1001850000000015
30
0
0
SPLINE
5
133
100
AcDbEntity
8
0
100
AcDbSpline
70
0
71
3
72
8
73
4
74
0
42
0.000000001
43
0.0000000001
44
0.0000000001
40
-1
40
-1
40
-1
40
-1
40
0
40
0
40
0
40
0
10
2.9808520000000001
20
-4.1001850000000015
30
0
10
3.0644999999999993
20
-4.0567530000000014
30
0
10
3.1581410000000005
20
-4.0137460000000011
30
0
10
3.1889460000000005
20
-4.004589000000002
30
0
0
SPLINE
5
134
100
AcDbEntity
8
0
100
AcDbSpline
70
0
71
3
72
8
73
4
74
0
42
0.000000001
43
0.0000000001
44
0.0000000001
40
-1
40
-1
40
-1
40
-1
40
0
40
0
40
0
40
0
10
3.1889460000000005
20
-4.004589000000002
30
0
10
3.265915000000001
20
-3.9816090000000006
30
0
10
3.3822239999999999
20
-3.9821399999999993
30
0
10
3.4862600000000001
20
-4.0057700000000001
30
0
0
SPLINE
5
135
100
AcDbEntity
8
0
100
AcDbSpline
70
0
71
3
72
8
73
4
74
0
42
0.000000001
43
0.0000000001
44
0.0000000001
40
-1
40
-1
40
-1
40
-1
40
0
40
0
40
0
40
0
10
3.4862600000000001
20
-4.0057700000000001
30
0
10
3.6905139999999994
20
-4.0522630000000017
30
0
10
3.690976
20
-4.052322000000002
30
0
10
3.7312489999999996
20
-4.0446420000000014
30
0
0
SPLINE
5
136
100
AcDbEntity
8
0
100
AcDbSpline
70
0
71
3
72
8
73
4
74
0
42
0.000000001
43
0.0000000001
44
0.0000000001
40
-1
40
-1
40
-1
40
-1
40
0
40
0
40
0
40
0
10
3.7312489999999996
20
-4.0446420000000014
30
0
10
3.7528389999999998
20
-4.0405660000000001
30
0
10
3.8197619999999985
20
-4.0171720000000004
30
0
10
3.8799660000000005
20
-3.9926560000000006
30
0
0
SPLINE
5
137
100
AcDbEntity
8
0
100
AcDbSpline
70
0
71
3
72
8
73
4
74
0
42
0.000000001
43
0.0000000001
44
0.0000000001
40
-1
40
-1
40
-1
40
-1
40
0
40
0
40
0
40
0
10
3.8799660000000005
20
-3.9926560000000006
30
0
10
4.0032620000000012
20
-3.9425600000000007
30
0
10
4.0816889999999999
20
-3.9300360000000016
30
0
10
4.1800939999999995
20
-3.9449230000000002
30
0
0
SPLINE
5
138
100
AcDbEntity
8
0
100
AcDbSpline
70
0
71
3
72
8
73
4
74
0
42
0.000000001
43
0.0000000001
44
0.0000000001
40
-1
40
-1
40
-1
40
-1
40
0
40
0
40
0
40
0
10
4.1800939999999995
20
-3.9449230000000002
30
0
10
4.242019
20
-3.954292000000001
30
0
10
4.2775559999999997
20
-3.9774970000000005
30
0
10
4.3109689999999992
20
-4.0304290000000007
30
0
0
SPLINE
5
139
100
AcDbEntity
8
0
100
AcDbSpline
70
0
71
3
72
8
73
4
74
0
42
0.000000001
43
0.0000000001
44
0.0000000001
40
-1
40
-1
40
-1
40
-1
40
0
40
0
40
0
40
0
10
4.3109689999999992
20
-4.0304290000000007
30
0
10
4.347664
20
-4.0885060000000015
30
0
10
4.3646760000000002
20
-4.2133029999999998
30
0
10
4.3462329999999989
20
-4.2888599999999997
30
0
0
SPLINE
5
140
100
AcDbEntity
8
0
100
AcDbSpline
70
0
71
3
72
8
73
4
74
0
42
0.000000001
43
0.0000000001
44
0.0000000001
40
-1
40
-1
40
-1
40
-1
40
0
40
0
40
0
40
0
10
4.3462329999999989
20
-4.2888599999999997
30
0
10
4.342166999999999
20
-4.3055430000000019
30
0
10
4.3326569999999984
20
-4.3493830000000004
30
0
10
4.325113
20
-4.3863060000000011
30
0
0
SPLINE
5
141
100
AcDbEntity
8
0
100
AcDbSpline
70
0
71
3
72
8
73
4
74
0
42
0.000000001
43
0.0000000001
44
0.0000000001
40
-1
40
-1
40
-1
40
-1
40
0
40
0
40
0
40
0
10
4.325113
20
-4.3863060000000011
30
0
10
4.317564
20
-4.423216
30
0
10
4.3051169999999992
20
-4.4742160000000002
30
0
10
4.2974459999999999
20
-4.4995590000000014
30
0
0
SPLINE
5
142
100
AcDbEntity
8
0
100
AcDbSpline
70
0
71
3
72
8
73
4
74
0
42
0.000000001
43
0.0000000001
44
0.0000000001
40
-1
40
-1
40
-1
40
-1
40
0
40
0
40
0
40
0
10
4.2974459999999999
20
-4.4995590000000014
30
0
10
4.2897750000000006
20
-4.5249260000000016
30
0
10
4.275366
20
-4.5740480000000012
30
0
10
4.2654369999999995
20
-4.608607000000001
30
0
0
SPLINE
5
143
100
AcDbEntity
8
0
100
AcDbSpline
70
0
71
3
72
8
73
4
74
0
42
0.000000001
43
0.0000000001
44
0.0000000001
40
-1
40
-1
40
-1
40
-1
40
0
40
0
40
0
40
0
10
4.2654369999999995
20
-4.608607000000001
30
0
10
4.255503
20
-4.6432130000000011
30
0
10
4.2373459999999996
20
-4.7036060000000015
30
0
10
4.2250789999999991
20
-4.7428320000000017
30
0
0
SPLINE
5
144
100
AcDbEntity
8
0
100
AcDbSpline
70
0
71
3
72
8
73
4
74
0
42
0.000000001
43
0.0000000001
44
0.0000000001
40
-1
40
-1
40
-1
40
-1
40
0
40
0
40
0
40
0
10
4.2250789999999991
20
-4.7428320000000017
30
0
10
4.2020900000000001
20
-4.8163399999999994
30
0
10
4.1609990000000003
20
-4.9584459999999995
30
0
10
4.1413949999999984
20
-5.0322430000000011
30
0
0
SPLINE
5
145
100
AcDbEntity
8
0
100
AcDbSpline
70
0
71
3
72
8
73
4
74
0
42
0.000000001
43
0.0000000001
44
0.0000000001
40
-1
40
-1
40
-1
40
-1
40
0
40
0
40
0
40
0
10
4.1413949999999984
20
-5.0322430000000011
30
0
10
4.1352719999999996
20
-5.0553120000000007
30
0
10
4.1169989999999999
20
-5.1232609999999994
30
0
10
4.1008029999999991
20
-5.1832459999999996
30
0
0
SPLINE
5
146
100
AcDbEntity
8
0
100
AcDbSpline
70
0
71
3
72
8
73
4
74
0
42
0.000000001
43
0.0000000001
44
0.0000000001
40
-1
40
-1
40
-1
40
-1
40
-0.0090161107012729225
40
-0.0090161107012729225
40
-0.0090161107012729225
40
-0.0090161107012729225
10
4.1008029999999991
20
-5.1832459999999996
30
0
10
4.0398792924536924
20
-5.4088355545277436
30
0
10
4.0281424945697877
20
-5.5122621330868622
30
0
10
4.0534111269649529
20
-5.6040096223875686
30
0
0
LINE
5
147
100
AcDbEntity
8
0
100
AcDbLine
10
4.0534111269649538
20
-5.6040096223875686
30
0
11
4.0667540000000004
21
-5.6511129999999987
31
0
0
LINE
5
148
100
AcDbEntity
8
0
100
AcDbLine
10
4.0667540000000004
20
-5.6511129999999987
30
0
11
4.0210419861217712
21
-5.6996579530950315
31
0
0
SPLINE
5
149
100
AcDbEntity
8
0
100
AcDbSpline
70
0
71
3
72
8
73
4
74
0
42
0.000000001
43
0.0000000001
44
0.0000000001
40
-0.95218802761321941
40
-0.95218802761321941
40
-0.95218802761321941
40
-0.95218802761321941
40
0
40
0
40
0
40
0
10
4.0210419861217712
20
-5.6996579530950324
30
0
10
3.9990423267143882
20
-5.7227843070848987
30
0
10
3.9794030462539838
20
-5.741156000000001
30
0
10
3.976576000000001
20
-5.741156000000001
30
0
0
SPLINE
5
150
100
AcDbEntity
8
0
100
AcDbSpline
70
0
71
3
72
8
73
4
74
0
42
0.000000001
43
0.0000000001
44
0.0000000001
40
-1
40
-1
40
-1
40
-1
40
0
40
0
40
0
40
0
10
3.976576000000001
20
-5.741156000000001
30
0
10
3.9700029999999997
20
-5.741156000000001
30
0
10
3.9517029999999997
20
-5.6942140000000006
30
0
10
3.9342939999999995
20
-5.6326749999999999
30
0
0
SPLINE
5
151
100
AcDbEntity
8
0
100
AcDbSpline
70
0
71
3
72
8
73
4
74
0
42
0.000000001
43
0.0000000001
44
0.0000000001
40
-1
40
-1
40
-1
40
-1
40
0
40
0
40
0
40
0
10
3.9342939999999995
20
-5.6326749999999999
30
0
10
3.9192329999999997
20
-5.5794959999999998
30
0
10
3.9168839999999991
20
-5.4368340000000002
30
0
10
3.9299999999999997
20
-5.3727430000000016
30
0
0
LINE
5
152
100
AcDbEntity
8
0
100
AcDbLine
10
3.9299999999999993
20
-5.3727430000000016
30
0
11
3.9386089999999991
21
-5.330681000000002
31
0
0
LINE
5
153
100
AcDbEntity
8
0
100
AcDbLine
10
3.9386089999999991
20
-5.330681000000002
30
0
11
3.8798330000000005
21
-5.2611909999999993
31
0
0
SPLINE
5
154
100
AcDbEntity
8
0
100
AcDbSpline
70
0
71
3
72
8
73
4
74
0
42
0.000000001
43
0.0000000001
44
0.0000000001
40
-1
40
-1
40
-1
40
-1
40
0
40
0
40
0
40
0
10
3.8798330000000005
20
-5.2611909999999993
30
0
10
3.6136149999999998
20
-4.9464480000000011
30
0
10
3.3864829999999997
20
-4.6035199999999996
30
0
10
3.1753859999999996
20
-4.1976300000000002
30
0
0
SPLINE
5
155
100
AcDbEntity
8
0
100
AcDbSpline
70
0
71
3
72
8
73
4
74
0
42
0.000000001
43
0.0000000001
44
0.0000000001
40
-1
40
-1
40
-1
40
-1
40
0
40
0
40
0
40
0
10
8.2965129999999991
20
4.2702109999999998
30
0
10
8.2937929999999991
20
4.3352530000000007
30
0
10
8.2845580000000005
20
4.6640440000000005
30
0
10
8.2759920000000005
20
5.0008580000000009
30
0
0
SPLINE
5
156
100
AcDbEntity
8
0
100
AcDbSpline
70
0
71
3
72
8
73
4
74
0
42
0.000000001
43
0.0000000001
44
0.0000000001
40
-1
40
-1
40
-1
40
-1
40
0
40
0
40
0
40
0
10
8.2759920000000005
20
5.0008580000000009
30
0
10
8.2674249999999976
20
5.3376710000000012
30
0
10
8.2581320000000034
20
5.6675720000000025
30
0
10
8.2554279999999967
20
5.7339730000000007
30
0
0
LINE
5
157
100
AcDbEntity
8
0
100
AcDbLine
10
8.2554279999999967
20
5.7339730000000007
30
0
11
8.2504449999999991
21
5.8547060000000055
31
0
0
LINE
5
158
100
AcDbEntity
8
0
100
AcDbLine
10
8.2504449999999991
20
5.8547060000000055
30
0
11
8.5973690000000005
21
5.849980000000004
31
0
0
SPLINE
5
159
100
AcDbEntity
8
0
100
AcDbSpline
70
0
71
3
72
8
73
4
74
0
42
0.000000001
43
0.0000000001
44
0.0000000001
40
-1
40
-1
40
-1
40
-1
40
0
40
0
40
0
40
0
10
8.5973690000000005
20
5.849980000000004
30
0
10
8.7881780000000003
20
5.8472030000000057
30
0
10
9.0181350000000009
20
5.8392280000000047
30
0
10
9.1083869999999987
20
5.8321390000000024
30
0
0
SPLINE
5
160
100
AcDbEntity
8
0
100
AcDbSpline
70
0
71
3
72
8
73
4
74
0
42
0.000000001
43
0.0000000001
44
0.0000000001
40
-1
40
-1
40
-1
40
-1
40
0
40
0
40
0
40
0
10
9.1083869999999987
20
5.8321390000000024
30
0
10
9.2652330000000003
20
5.8198510000000017
30
0
10
9.5104900000000008
20
5.7949810000000044
30
0
10
9.5131939999999968
20
5.7914360000000018
30
0
0
SPLINE
5
161
100
AcDbEntity
8
0
100
AcDbSpline
70
0
71
3
72
8
73
4
74
0
42
0.000000001
43
0.0000000001
44
0.0000000001
40
-1
40
-1
40
-1
40
-1
40
0
40
0
40
0
40
0
10
9.5131939999999968
20
5.7914360000000018
30
0
10
9.5139150000000008
20
5.7904550000000006
30
0
10
9.5025389999999987
20
5.6839600000000008
30
0
10
9.4879229999999968
20
5.5547680000000028
30
0
0
SPLINE
5
162
100
AcDbEntity
8
0
100
AcDbSpline
70
0
71
3
72
8
73
4
74
0
42
0.000000001
43
0.0000000001
44
0.0000000001
40
-1
40
-1
40
-1
40
-1
40
0
40
0
40
0
40
0
10
9.4879229999999968
20
5.5547680000000028
30
0
10
9.4733079999999976
20
5.4255870000000019
30
0
10
9.4611739999999962
20
5.3171359999999996
30
0
10
9.4609660000000009
20
5.3135920000000016
30
0
0
SPLINE
5
163
100
AcDbEntity
8
0
100
AcDbSpline
70
0
71
3
72
8
73
4
74
0
42
0.000000001
43
0.0000000001
44
0.0000000001
40
-1
40
-1
40
-1
40
-1
40
0
40
0
40
0
40
0
10
9.4609660000000009
20
5.3135920000000016
30
0
10
9.4601989999999976
20
5.3008900000000017
30
0
10
9.4456229999999977
20
5.3082750000000027
30
0
10
9.379764999999999
20
5.3547670000000016
30
0
0
ELLIPSE
5
164
100
AcDbEntity
8
0
100
AcDbEllipse
10
9.3352408112683865
20
5.3701863407331691
30
0
11
0.078786203344586747
21
-0.047621211520998422
31
0.0
40
0.12341216705661488
41
1.0465629781832424
42
2.6519486322226653
0
SPLINE
5
165
100
AcDbEntity
8
0
100
AcDbSpline
70
0
71
3
72
8
73
4
74
0
42
0.000000001
43
0.0000000001
44
0.0000000001
40
-1
40
-1
40
-1
40
-1
40
0
40
0
40
0
40
0
10
9.2684759999999997
20
5.4167850000000008
30
0
10
9.227390999999999
20
5.4304310000000005
30
0
10
9.1246279999999995
20
5.4404150000000033
30
0
10
8.875531999999998
20
5.455007000000001
30
0
0
LINE
5
166
100
AcDbEntity
8
0
100
AcDbLine
10
8.875531999999998
20
5.455007000000001
30
0
11
8.7827579999999976
21
5.4603240000000035
31
0
0
LINE
5
167
100
AcDbEntity
8
0
100
AcDbLine
10
8.7827579999999976
20
5.4603240000000035
30
0
11
8.7778279999999942
21
5.327492000000003
31
0
0
SPLINE
5
168
100
AcDbEntity
8
0
100
AcDbSpline
70
0
71
3
72
8
73
4
74
0
42
0.000000001
43
0.0000000001
44
0.0000000001
40
-1
40
-1
40
-1
40
-1
40
0
40
0
40
0
40
0
10
8.7778279999999942
20
5.327492000000003
30
0
10
8.7750660000000007
20
5.2544330000000015
30
0
10
8.774010999999998
20
5.1931190000000012
30
0
10
8.7754419999999982
20
5.1919370000000038
30
0
0
SPLINE
5
169
100
AcDbEntity
8
0
100
AcDbSpline
70
0
71
3
72
8
73
4
74
0
42
0.000000001
43
0.0000000001
44
0.0000000001
40
-1
40
-1
40
-1
40
-1
40
0
40
0
40
0
40
0
10
8.7754419999999982
20
5.1919370000000038
30
0
10
8.7768729999999984
20
5.1901650000000004
30
0
10
8.8640729999999959
20
5.1883930000000049
30
0
10
8.96922
20
5.1872110000000022
30
0
0
LINE
5
170
100
AcDbEntity
8
0
100
AcDbLine
10
8.9692199999999982
20
5.1872110000000031
30
0
11
9.1603980000000007
21
5.1854390000000015
31
0
0
LINE
5
171
100
AcDbEntity
8
0
100
AcDbLine
10
9.1603980000000007
20
5.1854390000000015
30
0
11
9.2315169999999966
21
5.217163000000002
31
0
0
SPLINE
5
172
100
AcDbEntity
8
0
100
AcDbSpline
70
0
71
3
72
8
73
4
74
0
42
0.000000001
43
0.0000000001
44
0.0000000001
40
-1
40
-1
40
-1
40
-1
40
0
40
0
40
0
40
0
10
9.2315169999999966
20
5.217163000000002
30
0
10
9.2706320000000009
20
5.2346490000000019
30
0
10
9.3039499999999986
20
5.2476460000000031
30
0
10
9.3055409999999998
20
5.2458730000000005
30
0
0
SPLINE
5
173
100
AcDbEntity
8
0
100
AcDbSpline
70
0
71
3
72
8
73
4
74
0
42
0.000000001
43
0.0000000001
44
0.0000000001
40
-1
40
-1
40
-1
40
-1
40
0
40
0
40
0
40
0
10
9.3055409999999998
20
5.2458730000000005
30
0
10
9.3086579999999977
20
5.2426069999999996
30
0
10
9.2619860000000003
20
4.7201419999999956
30
0
10
9.2556929999999991
20
4.6879460000000002
30
0
0
LINE
5
174
100
AcDbEntity
8
0
100
AcDbLine
10
9.2556929999999991
20
4.6879459999999993
30
0
11
9.2519289999999987
21
4.6685690000000006
31
0
0
LINE
5
175
100
AcDbEntity
8
0
100
AcDbLine
10
9.2519289999999987
20
4.6685690000000006
30
0
11
9.2221790000000006
21
4.692909000000002
31
0
0
SPLINE
5
176
100
AcDbEntity
8
0
100
AcDbSpline
70
0
71
3
72
8
73
4
74
0
42
0.000000001
43
0.0000000001
44
0.0000000001
40
-1
40
-1
40
-1
40
-1
40
0
40
0
40
0
40
0
10
9.2221790000000006
20
4.692909000000002
30
0
10
9.1322829999999993
20
4.7664690000000007
30
0
10
9.0743389999999966
20
4.7841330000000006
30
0
10
8.8971830000000001
20
4.7919899999999993
30
0
0
LINE
5
177
100
AcDbEntity
8
0
100
AcDbLine
10
8.8971829999999983
20
4.7919899999999993
30
0
11
8.7666479999999982
21
4.7978979999999991
31
0
0
LINE
5
178
100
AcDbEntity
8
0
100
AcDbLine
10
8.7666479999999982
20
4.7978979999999991
30
0
11
8.7613990000000008
21
4.7704869999999993
31
0
0
SPLINE
5
179
100
AcDbEntity
8
0
100
AcDbSpline
70
0
71
3
72
8
73
4
74
0
42
0.000000001
43
0.0000000001
44
0.0000000001
40
-1
40
-1
40
-1
40
-1
40
0
40
0
40
0
40
0
10
8.7613990000000008
20
4.7704869999999993
30
0
10
8.7585369999999987
20
4.7554049999999997
30
0
10
8.7561509999999991
20
4.6968080000000008
30
0
10
8.7561509999999991
20
4.6403310000000006
30
0
0
LINE
5
180
100
AcDbEntity
8
0
100
AcDbLine
10
8.7561509999999991
20
4.6403310000000006
30
0
11
8.7561509999999991
21
4.5375990000000002
31
0
0
LINE
5
181
100
AcDbEntity
8
0
100
AcDbLine
10
8.7561509999999991
20
4.5375990000000002
30
0
11
8.8542070000000006
21
4.5316909999999968
31
0
0
SPLINE
5
182
100
AcDbEntity
8
0
100
AcDbSpline
70
0
71
3
72
8
73
4
74
0
42
0.000000001
43
0.0000000001
44
0.0000000001
40
-1
40
-1
40
-1
40
-1
40
0
40
0
40
0
40
0
10
8.8542070000000006
20
4.5316909999999968
30
0
10
8.9081380000000028
20
4.5285599999999988
30
0
10
9.0002610000000001
20
4.5222389999999999
30
0
10
9.0589239999999975
20
4.5175129999999983
30
0
0
SPLINE
5
183
100
AcDbEntity
8
0
100
AcDbSpline
70
0
71
3
72
8
73
4
74
0
42
0.000000001
43
0.0000000001
44
0.0000000001
40
-1
40
-1
40
-1
40
-1
40
0
40
0
40
0
40
0
10
9.0589239999999975
20
4.5175129999999983
30
0
10
9.1821819999999992
20
4.5076479999999988
30
0
10
9.1901629999999965
20
4.5088879999999989
30
0
10
9.2947009999999999
20
4.5540220000000016
30
0
0
SPLINE
5
184
100
AcDbEntity
8
0
100
AcDbSpline
70
0
71
3
72
8
73
4
74
0
42
0.000000001
43
0.0000000001
44
0.0000000001
40
-1
40
-1
40
-1
40
-1
40
0
40
0
40
0
40
0
10
9.2947009999999999
20
4.5540220000000016
30
0
10
9.337754999999996
20
4.5726310000000003
30
0
10
9.3746939999999981
20
4.5861590000000003
30
0
10
9.3768149999999988
20
4.5837959999999995
30
0
0
SPLINE
5
185
100
AcDbEntity
8
0
100
AcDbSpline
70
0
71
3
72
8
73
4
74
0
42
0.000000001
43
0.0000000001
44
0.0000000001
40
-1
40
-1
40
-1
40
-1
40
0
40
0
40
0
40
0
10
9.3768149999999988
20
4.5837959999999995
30
0
10
9.3789189999999962
20
4.5815870000000007
30
0
10
9.3688310000000001
20
4.4725390000000003
30
0
10
9.3543909999999979
20
4.3414679999999999
30
0
0
LINE
5
186
100
AcDbEntity
8
0
100
AcDbLine
10
9.3543909999999979
20
4.3414679999999999
30
0
11
9.3543979999999998
21
4.3413150000000016
31
0
0
SPLINE
5
187
100
AcDbEntity
8
0
100
AcDbSpline
70
0
71
3
72
8
73
4
74
0
42
0.000000001
43
0.0000000001
44
0.0000000001
40
-1
40
-1
40
-1
40
-1
40
0
40
0
40
0
40
0
10
9.3543979999999998
20
4.3413150000000016
30
0
10
9.3244929999999968
20
4.0698920000000003
30
0
10
9.3370359999999959
20
4.0955309999999994
30
0
10
9.2404369999999965
20
4.1078780000000004
30
0
0
ELLIPSE
5
188
100
AcDbEntity
8
0
100
AcDbEllipse
10
8.6631676626933416
20
4.0937936048050529
30
0
11
0.70815750316093717
21
-0.019069676094808009
31
0.0
40
0.071986446684791872
41
0.61971340249087203
42
1.6864225596254583
0
LINE
5
189
100
AcDbEntity
8
0
100
AcDbLine
10
8.5828319999999927
20
4.1466310000000002
30
0
11
8.3014429999999955
21
4.1519479999999991
31
0
0
LINE
5
190
100
AcDbEntity
8
0
100
AcDbLine
10
8.3014429999999955
20
4.1519479999999991
30
0
11
8.2965129999999991
21
4.2702109999999998
31
0
0
LINE
5
191
100
AcDbEntity
8
0
100
AcDbLine
10
4.8164019999999983
20
-8.5756180000000004
30
0
11
4.7548619999999993
21
-8.5432449999999989
31
0
0
LINE
5
192
100
AcDbEntity
8
0
100
AcDbLine
10
4.7548619999999993
20
-8.5432449999999989
30
0
11
4.8414970000000004
21
-8.3564239999999987
31
0
0
SPLINE
5
193
100
AcDbEntity
8
0
100
AcDbSpline
70
0
71
3
72
8
73
4
74
0
42
0.000000001
43
0.0000000001
44
0.0000000001
40
-1
40
-1
40
-1
40
-1
40
0
40
0
40
0
40
0
10
4.8414970000000004
20
-8.3564239999999987
30
0
10
5.0456229999999991
20
-7.9162580000000027
30
0
10
5.4670519999999998
20
-7.0282410000000004
30
0
10
5.472872999999999
20
-7.0264679999999995
30
0
0
SPLINE
5
194
100
AcDbEntity
8
0
100
AcDbSpline
70
0
71
3
72
8
73
4
74
0
42
0.000000001
43
0.0000000001
44
0.0000000001
40
-1
40
-1
40
-1
40
-1
40
0
40
0
40
0
40
0
10
5.472872999999999
20
-7.0264679999999995
30
0
10
5.476360999999998
20
-7.0252280000000011
30
0
10
5.5312359999999989
20
-7.0500990000000012
30
0
10
5.5948159999999998
20
-7.0817630000000014
30
0
0
SPLINE
5
195
100
AcDbEntity
8
0
100
AcDbSpline
70
0
71
3
72
8
73
4
74
0
42
0.000000001
43
0.0000000001
44
0.0000000001
40
-1
40
-1
40
-1
40
-1
40
0
40
0
40
0
40
0
10
5.5948159999999998
20
-7.0817630000000014
30
0
10
5.658395999999998
20
-7.1134040000000018
30
0
10
5.7518419999999999
20
-7.1575450000000016
30
0
10
5.8024680000000002
20
-7.1799349999999995
30
0
0
SPLINE
5
196
100
AcDbEntity
8
0
100
AcDbSpline
70
0
71
3
72
8
73
4
74
0
42
0.000000001
43
0.0000000001
44
0.0000000001
40
-1
40
-1
40
-1
40
-1
40
0
40
0
40
0
40
0
10
5.8024680000000002
20
-7.1799349999999995
30
0
10
5.8530969999999991
20
-7.2023250000000001
30
0
10
5.895834999999999
20
-7.221642000000001
30
0
10
5.8974260000000003
20
-7.2228240000000028
30
0
0
SPLINE
5
197
100
AcDbEntity
8
0
100
AcDbSpline
70
0
71
3
72
8
73
4
74
0
42
0.000000001
43
0.0000000001
44
0.0000000001
40
-1.0136135340125163
40
-1.0136135340125163
40
-1.0136135340125163
40
-1.0136135340125163
40
-0.084976304204276112
40
-0.084976304204276112
40
-0.084976304204276112
40
-0.084976304204276112
10
5.8974260000000003
20
-7.2228240000000028
30
0
10
5.8989090336560031
20
-7.2239485796852989
30
0
10
5.7809757825044716
20
-7.5293662911605788
30
0
10
5.6288822036995043
20
-7.918536005808674
30
0
0
SPLINE
5
198
100
AcDbEntity
8
0
100
AcDbSpline
70
0
71
3
72
14
73
10
74
0
42
0.000000001
43
0.0000000001
44
0.0000000001
40
-1.0097762097982701
40
-1.0097762097982701
40
-1.0097762097982701
40
-1.0097762097982701
40
-1.0024773756281575
40
-1.0024773756281575
40
-1.0024773756281575
40
-1
40
-1
40
-1
40
0
40
0
40
0
40
0
10
5.6288822036983479
20
-7.9185360058086003
30
0
10
5.6200151357988997
20
-7.9411920670188909
30
0
10
5.6111480678994488
20
-7.9638481282291798
30
0
10
5.6022809999999996
20
-7.9865041894394686
30
0
10
5.5992713333333315
20
-7.9941941262929781
30
0
10
5.596261666666666
20
-8.0018840631464911
30
0
10
5.5932519999999979
20
-8.0095740000000006
30
0
10
5.424358999999999
20
-8.4411090000000009
30
0
10
5.2843459999999993
20
-8.7941449999999985
30
0
10
5.282172000000001
20
-8.7941449999999985
30
0
0
SPLINE
5
199
100
AcDbEntity
8
0
100
AcDbSpline
70
0
71
3
72
8
73
4
74
0
42
0.000000001
43
0.0000000001
44
0.0000000001
40
-1
40
-1
40
-1
40
-1
40
0
40
0
40
0
40
0
10
5.282172000000001
20
-8.7941449999999985
30
0
10
5.2690279999999996
20
-8.7940150000000035
30
0
10
4.9224899999999998
20
-8.6314450000000029
30
0
10
4.8164019999999983
20
-8.5756180000000022
30
0
0
ELLIPSE
5
200
100
AcDbEntity
8
0
100
AcDbEllipse
10
7.5323355189927348
20
-1.4247405981048884
30
0
11
-0.14779602729103489
21
-0.14895447559835145
31
0.0
40
0.15550128898727639
41
5.1443202599645792
42
6.0005876059151015
0
SPLINE
5
201
100
AcDbEntity
8
0
100
AcDbSpline
70
0
71
3
72
8
73
4
74
0
42
0.000000001
43
0.0000000001
44
0.0000000001
40
-1
40
-1
40
-1
40
-1
40
0
40
0
40
0
40
0
10
7.4494289999999967
20
-1.4662249999999994
30
0
10
7.4593369999999979
20
-1.4547050000000004
30
0
10
7.4674369999999977
20
-1.4428900000000007
30
0
10
7.4674369999999977
20
-1.4399359999999992
30
0
0
SPLINE
5
202
100
AcDbEntity
8
0
100
AcDbSpline
70
0
71
3
72
8
73
4
74
0
42
0.000000001
43
0.0000000001
44
0.0000000001
40
-1
40
-1
40
-1
40
-1
40
0
40
0
40
0
40
0
10
7.4674369999999977
20
-1.4399359999999992
30
0
10
7.4674369999999977
20
-1.4327170000000007
30
0
10
7.6300799999999995
20
-1.2616459999999994
30
0
10
7.6370299999999975
20
-1.2615580000000013
30
0
0
SPLINE
5
203
100
AcDbEntity
8
0
100
AcDbSpline
70
0
71
3
72
8
73
4
74
0
42
0.000000001
43
0.0000000001
44
0.0000000001
40
-1
40
-1
40
-1
40
-1
40
0
40
0
40
0
40
0
10
7.6370299999999975
20
-1.2615580000000013
30
0
10
7.640051999999999
20
-1.2614989999999988
30
0
10
7.652657999999998
20
-1.2517509999999985
30
0
10
7.6650419999999988
20
-1.2398769999999999
30
0
0
SPLINE
5
204
100
AcDbEntity
8
0
100
AcDbSpline
70
0
71
3
72
8
73
4
74
0
42
0.000000001
43
0.0000000001
44
0.0000000001
40
-1
40
-1
40
-1
40
-1
40
0
40
0
40
0
40
0
10
7.6650419999999988
20
-1.2398769999999999
30
0
10
7.7170680000000003
20
-1.1899520000000003
30
0
10
7.7914759999999976
20
-1.1356620000000002
30
0
10
7.8079470000000004
20
-1.1356620000000002
30
0
0
SPLINE
5
205
100
AcDbEntity
8
0
100
AcDbSpline
70
0
71
3
72
8
73
4
74
0
42
0.000000001
43
0.0000000001
44
0.0000000001
40
-1
40
-1
40
-1
40
-1
40
0
40
0
40
0
40
0
10
7.8079470000000004
20
-1.1356620000000002
30
0
10
7.8205899999999957
20
-1.1356620000000002
30
0
10
7.8550250000000004
20
-1.1698550000000008
30
0
10
7.9283279999999978
20
-1.2552069999999993
30
0
0
SPLINE
5
206
100
AcDbEntity
8
0
100
AcDbSpline
70
0
71
3
72
8
73
4
74
0
42
0.000000001
43
0.0000000001
44
0.0000000001
40
-1
40
-1
40
-1
40
-1
40
0
40
0
40
0
40
0
10
7.9283279999999978
20
-1.2552069999999993
30
0
10
7.9847979999999978
20
-1.3209459999999993
30
0
10
8.0460070000000012
20
-1.3898700000000004
30
0
10
8.064349
20
-1.4083010000000005
30
0
0
SPLINE
5
207
100
AcDbEntity
8
0
100
AcDbSpline
70
0
71
3
72
8
73
4
74
0
42
0.000000001
43
0.0000000001
44
0.0000000001
40
-1
40
-1
40
-1
40
-1
40
0
40
0
40
0
40
0
10
8.064349
20
-1.4083010000000005
30
0
10
8.1339229999999976
20
-1.4783000000000013
30
0
10
8.2598839999999942
20
-1.6286410000000009
30
0
10
8.2598839999999942
20
-1.6417559999999991
30
0
0
SPLINE
5
208
100
AcDbEntity
8
0
100
AcDbSpline
70
0
71
3
72
8
73
4
74
0
42
0.000000001
43
0.0000000001
44
0.0000000001
40
-1
40
-1
40
-1
40
-1
40
0
40
0
40
0
40
0
10
8.2598839999999942
20
-1.6417559999999991
30
0
10
8.2598839999999942
20
-1.6492000000000009
30
0
10
8.2512539999999976
20
-1.6613099999999985
30
0
10
8.2407099999999982
20
-1.6685170000000005
30
0
0
SPLINE
5
209
100
AcDbEntity
8
0
100
AcDbSpline
70
0
71
3
72
8
73
4
74
0
42
0.000000001
43
0.0000000001
44
0.0000000001
40
-1
40
-1
40
-1
40
-1
40
0
40
0
40
0
40
0
10
8.2407099999999982
20
-1.6685170000000005
30
0
10
8.2206539999999979
20
-1.6822880000000009
30
0
10
8.1327350000000003
20
-1.7907679999999997
30
0
10
8.114408000000001
20
-1.8243819999999997
30
0
0
SPLINE
5
210
100
AcDbEntity
8
0
100
AcDbSpline
70
0
71
3
72
8
73
4
74
0
42
0.000000001
43
0.0000000001
44
0.0000000001
40
-1
40
-1
40
-1
40
-1
40
0
40
0
40
0
40
0
10
8.114408000000001
20
-1.8243819999999997
30
0
10
8.1085720000000006
20
-1.8351339999999998
30
0
10
8.0998090000000005
20
-1.8481900000000009
30
0
10
8.094932
20
-1.8540970000000006
30
0
0
SPLINE
5
211
100
AcDbEntity
8
0
100
AcDbSpline
70
0
71
3
72
8
73
4
74
0
42
0.000000001
43
0.0000000001
44
0.0000000001
40
-1
40
-1
40
-1
40
-1
40
0
40
0
40
0
40
0
10
8.094932
20
-1.8540970000000006
30
0
10
8.0817299999999985
20
-1.8693089999999999
30
0
10
8.0469539999999942
20
-1.9639959999999985
30
0
10
8.0356299999999976
20
-2.015568
30
0
0
SPLINE
5
212
100
AcDbEntity
8
0
100
AcDbSpline
70
0
71
3
72
8
73
4
74
0
42
0.000000001
43
0.0000000001
44
0.0000000001
40
-1
40
-1
40
-1
40
-1
40
0
40
0
40
0
40
0
10
8.0356299999999976
20
-2.015568
30
0
10
8.025468
20
-2.0617659999999995
30
0
10
8.0223129999999987
20
-2.243777000000001
30
0
10
8.031388999999999
20
-2.2591960000000002
30
0
0
SPLINE
5
213
100
AcDbEntity
8
0
100
AcDbSpline
70
0
71
3
72
8
73
4
74
0
42
0.000000001
43
0.0000000001
44
0.0000000001
40
-1
40
-1
40
-1
40
-1
40
0
40
0
40
0
40
0
10
8.031388999999999
20
-2.2591960000000002
30
0
10
8.0341559999999959
20
-2.2638039999999995
30
0
10
8.0381429999999998
20
-2.2819400000000001
30
0
10
8.0402100000000036
20
-2.2993670000000006
30
0
0
SPLINE
5
214
100
AcDbEntity
8
0
100
AcDbSpline
70
0
71
3
72
8
73
4
74
0
42
0.000000001
43
0.0000000001
44
0.0000000001
40
-1
40
-1
40
-1
40
-1
40
0
40
0
40
0
40
0
10
8.0402100000000036
20
-2.2993670000000006
30
0
10
8.0422989999999981
20
-2.3167950000000004
30
0
10
8.0565540000000002
20
-2.3566410000000024
30
0
10
8.0718899999999998
20
-2.3878920000000008
30
0
0
SPLINE
5
215
100
AcDbEntity
8
0
100
AcDbSpline
70
0
71
3
72
8
73
4
74
0
42
0.000000001
43
0.0000000001
44
0.0000000001
40
-1
40
-1
40
-1
40
-1
40
0
40
0
40
0
40
0
10
8.0718899999999998
20
-2.3878920000000008
30
0
10
8.0872270000000022
20
-2.419119000000002
30
0
10
8.0997749999999993
20
-2.4503110000000006
30
0
10
8.0997749999999993
20
-2.4571050000000003
30
0
0
SPLINE
5
216
100
AcDbEntity
8
0
100
AcDbSpline
70
0
71
3
72
8
73
4
74
0
42
0.000000001
43
0.0000000001
44
0.0000000001
40
-1
40
-1
40
-1
40
-1
40
0
40
0
40
0
40
0
10
8.0997749999999993
20
-2.4571050000000003
30
0
10
8.0997749999999993
20
-2.4641350000000006
30
0
10
8.1034749999999942
20
-2.4694520000000013
30
0
10
8.108034
20
-2.4694520000000013
30
0
0
SPLINE
5
217
100
AcDbEntity
8
0
100
AcDbSpline
70
0
71
3
72
8
73
4
74
0
42
0.000000001
43
0.0000000001
44
0.0000000001
40
-1
40
-1
40
-1
40
-1
40
0
40
0
40
0
40
0
10
8.108034
20
-2.4694520000000013
30
0
10
8.1125829999999972
20
-2.4694520000000013
30
0
10
8.118885999999998
20
-2.4760679999999997
30
0
10
8.1221200000000007
20
-2.4841620000000004
30
0
0
SPLINE
5
218
100
AcDbEntity
8
0
100
AcDbSpline
70
0
71
3
72
8
73
4
74
0
42
0.000000001
43
0.0000000001
44
0.0000000001
40
-1
40
-1
40
-1
40
-1
40
0
40
0
40
0
40
0
10
8.1221200000000007
20
-2.4841620000000004
30
0
10
8.1335270000000008
20
-2.5129490000000008
30
0
10
8.1813249999999975
20
-2.5869240000000007
30
0
10
8.1885139999999961
20
-2.5869240000000007
30
0
0
SPLINE
5
219
100
AcDbEntity
8
0
100
AcDbSpline
70
0
71
3
72
8
73
4
74
0
42
0.000000001
43
0.0000000001
44
0.0000000001
40
-1
40
-1
40
-1
40
-1
40
0
40
0
40
0
40
0
10
8.1885139999999961
20
-2.5869240000000007
30
0
10
8.1925430000000006
20
-2.5869240000000007
30
0
10
8.195828999999998
20
-2.5915899999999996
30
0
10
8.195828999999998
20
-2.5974980000000012
30
0
0
SPLINE
5
220
100
AcDbEntity
8
0
100
AcDbSpline
70
0
71
3
72
8
73
4
74
0
42
0.000000001
43
0.0000000001
44
0.0000000001
40
-1
40
-1
40
-1
40
-1
40
0
40
0
40
0
40
0
10
8.195828999999998
20
-2.5974980000000012
30
0
10
8.195828999999998
20
-2.6032870000000017
30
0
10
8.2030340000000006
20
-2.6126210000000003
30
0
10
8.2118389999999959
20
-2.618529000000001
30
0
0
SPLINE
5
221
100
AcDbEntity
8
0
100
AcDbSpline
70
0
71
3
72
8
73
4
74
0
42
0.000000001
43
0.0000000001
44
0.0000000001
40
-1
40
-1
40
-1
40
-1
40
0
40
0
40
0
40
0
10
8.2118389999999959
20
-2.618529000000001
30
0
10
8.2206440000000001
20
-2.6243770000000004
30
0
10
8.2278490000000009
20
-2.6327069999999999
30
0
10
8.2278490000000009
20
-2.636252000000002
30
0
0
SPLINE
5
222
100
AcDbEntity
8
0
100
AcDbSpline
70
0
71
3
72
8
73
4
74
0
42
0.000000001
43
0.0000000001
44
0.0000000001
40
-1
40
-1
40
-1
40
-1
40
0
40
0
40
0
40
0
10
8.2278490000000009
20
-2.636252000000002
30
0
10
8.2278490000000009
20
-2.6489410000000015
30
0
10
8.396980000000001
20
-2.8218489999999998
30
0
10
8.4093909999999976
20
-2.8218489999999998
30
0
0
SPLINE
5
223
100
AcDbEntity
8
0
100
AcDbSpline
70
0
71
3
72
8
73
4
74
0
42
0.000000001
43
0.0000000001
44
0.0000000001
40
-1
40
-1
40
-1
40
-1
40
0
40
0
40
0
40
0
10
8.4093909999999976
20
-2.8218489999999998
30
0
10
8.4111659999999979
20
-2.8218489999999998
30
0
10
8.4205760000000005
20
-2.8296470000000014
30
0
10
8.4302989999999998
20
-2.8391580000000007
30
0
0
SPLINE
5
224
100
AcDbEntity
8
0
100
AcDbSpline
70
0
71
3
72
8
73
4
74
0
42
0.000000001
43
0.0000000001
44
0.0000000001
40
-1
40
-1
40
-1
40
-1
40
0
40
0
40
0
40
0
10
8.4302989999999998
20
-2.8391580000000007
30
0
10
8.453777999999998
20
-2.8621330000000009
30
0
10
8.5287210000000009
20
-2.9141190000000008
30
0
10
8.5384019999999978
20
-2.9141190000000008
30
0
0
SPLINE
5
225
100
AcDbEntity
8
0
100
AcDbSpline
70
0
71
3
72
8
73
4
74
0
42
0.000000001
43
0.0000000001
44
0.0000000001
40
-1
40
-1
40
-1
40
-1
40
0
40
0
40
0
40
0
10
8.5384019999999978
20
-2.9141190000000008
30
0
10
8.542626999999996
20
-2.9141190000000008
30
0
10
8.5505629999999986
20
-2.9197320000000007
30
0
10
8.5560390000000002
20
-2.9267020000000015
30
0
0
SPLINE
5
226
100
AcDbEntity
8
0
100
AcDbSpline
70
0
71
3
72
8
73
4
74
0
42
0.000000001
43
0.0000000001
44
0.0000000001
40
-1
40
-1
40
-1
40
-1
40
0
40
0
40
0
40
0
10
8.5560390000000002
20
-2.9267020000000015
30
0
10
8.5615249999999961
20
-2.9333780000000007
30
0
10
8.5713489999999961
20
-2.9392860000000014
30
0
10
8.5778800000000004
20
-2.9392860000000014
30
0
0
SPLINE
5
227
100
AcDbEntity
8
0
100
AcDbSpline
70
0
71
3
72
8
73
4
74
0
42
0.000000001
43
0.0000000001
44
0.0000000001
40
-1
40
-1
40
-1
40
-1
40
0
40
0
40
0
40
0
10
8.5778800000000004
20
-2.9392860000000014
30
0
10
8.5844109999999958
20
-2.9392860000000014
30
0
10
8.6004579999999962
20
-2.9487379999999996
30
0
10
8.6135359999999981
20
-2.9602569999999999
30
0
0
SPLINE
5
228
100
AcDbEntity
8
0
100
AcDbSpline
70
0
71
3
72
8
73
4
74
0
42
0.000000001
43
0.0000000001
44
0.0000000001
40
-1
40
-1
40
-1
40
-1
40
0
40
0
40
0
40
0
10
8.6135359999999981
20
-2.9602569999999999
30
0
10
8.626618999999998
20
-2.9717770000000017
30
0
10
8.6469489999999976
20
-2.9836509999999996
30
0
10
8.6587179999999968
20
-2.9866050000000008
30
0
0
SPLINE
5
229
100
AcDbEntity
8
0
100
AcDbSpline
70
0
71
3
72
8
73
4
74
0
42
0.000000001
43
0.0000000001
44
0.0000000001
40
-1
40
-1
40
-1
40
-1
40
0
40
0
40
0
40
0
10
8.6587179999999968
20
-2.9866050000000008
30
0
10
8.6704859999999986
20
-2.9895590000000007
30
0
10
8.7035270000000011
20
-3.0032640000000006
30
0
10
8.7321430000000007
20
-3.0170290000000008
30
0
0
SPLINE
5
230
100
AcDbEntity
8
0
100
AcDbSpline
70
0
71
3
72
8
73
4
74
0
42
0.000000001
43
0.0000000001
44
0.0000000001
40
-1
40
-1
40
-1
40
-1
40
0
40
0
40
0
40
0
10
8.7321430000000007
20
-3.0170290000000008
30
0
10
8.808053000000001
20
-3.0535380000000001
30
0
10
8.8117819999999991
20
-3.0551920000000008
30
0
10
8.863156
20
-3.0733869999999999
30
0
0
SPLINE
5
231
100
AcDbEntity
8
0
100
AcDbSpline
70
0
71
3
72
8
73
4
74
0
42
0.000000001
43
0.0000000001
44
0.0000000001
40
-1
40
-1
40
-1
40
-1
40
0
40
0
40
0
40
0
10
8.863156
20
-3.0733869999999999
30
0
10
8.8889880000000012
20
-3.0823070000000006
30
0
10
8.9130289999999999
20
-3.0882149999999999
30
0
10
8.9166340000000037
20
-3.0858520000000005
30
0
0
SPLINE
5
232
100
AcDbEntity
8
0
100
AcDbSpline
70
0
71
3
72
8
73
4
74
0
42
0.000000001
43
0.0000000001
44
0.0000000001
40
-1
40
-1
40
-1
40
-1
40
0
40
0
40
0
40
0
10
8.9166340000000037
20
-3.0858520000000005
30
0
10
8.9202179999999984
20
-3.084080000000001
30
0
10
8.9251369999999959
20
-3.0852610000000005
30
0
10
8.9275229999999954
20
-3.0893960000000003
30
0
0
SPLINE
5
233
100
AcDbEntity
8
0
100
AcDbSpline
70
0
71
3
72
8
73
4
74
0
42
0.000000001
43
0.0000000001
44
0.0000000001
40
-1
40
-1
40
-1
40
-1
40
0
40
0
40
0
40
0
10
8.9275229999999954
20
-3.0893960000000003
30
0
10
8.9313399999999987
20
-3.0958360000000016
30
0
10
8.9920170000000006
20
-3.1114319999999998
30
0
10
9.0050629999999963
20
-3.1090690000000003
30
0
0
SPLINE
5
234
100
AcDbEntity
8
0
100
AcDbSpline
70
0
71
3
72
8
73
4
74
0
42
0.000000001
43
0.0000000001
44
0.0000000001
40
-1
40
-1
40
-1
40
-1
40
0
40
0
40
0
40
0
10
9.0050629999999963
20
-3.1090690000000003
30
0
10
9.0076870000000007
20
-3.1085960000000008
30
0
10
9.0270149999999987
20
-3.1136770000000009
30
0
10
9.0480189999999965
20
-3.1202930000000002
30
0
0
SPLINE
5
235
100
AcDbEntity
8
0
100
AcDbSpline
70
0
71
3
72
8
73
4
74
0
42
0.000000001
43
0.0000000001
44
0.0000000001
40
-1
40
-1
40
-1
40
-1
40
0
40
0
40
0
40
0
10
9.0480189999999965
20
-3.1202930000000002
30
0
10
9.0690220000000004
20
-3.1269090000000013
30
0
10
9.0891190000000002
20
-3.1304540000000003
30
0
10
9.0927239999999969
20
-3.1280910000000008
30
0
0
SPLINE
5
236
100
AcDbEntity
8
0
100
AcDbSpline
70
0
71
3
72
8
73
4
74
0
42
0.000000001
43
0.0000000001
44
0.0000000001
40
-1
40
-1
40
-1
40
-1
40
0
40
0
40
0
40
0
10
9.0927239999999969
20
-3.1280910000000008
30
0
10
9.0963129999999985
20
-3.1253730000000006
30
0
10
9.101407
20
-3.1275000000000022
30
0
10
9.1040579999999984
20
-3.1316350000000002
30
0
0
SPLINE
5
237
100
AcDbEntity
8
0
100
AcDbSpline
70
0
71
3
72
8
73
4
74
0
42
0.000000001
43
0.0000000001
44
0.0000000001
40
-1
40
-1
40
-1
40
-1
40
0
40
0
40
0
40
0
10
9.1040579999999984
20
-3.1316350000000002
30
0
10
9.1067089999999968
20
-3.1363620000000001
30
0
10
9.1141569999999987
20
-3.137543
30
0
10
9.1206239999999994
20
-3.135180000000001
30
0
0
SPLINE
5
238
100
AcDbEntity
8
0
100
AcDbSpline
70
0
71
3
72
8
73
4
74
0
42
0.000000001
43
0.0000000001
44
0.0000000001
40
-1
40
-1
40
-1
40
-1
40
0
40
0
40
0
40
0
10
9.1206239999999994
20
-3.135180000000001
30
0
10
9.1270759999999989
20
-3.1322259999999997
30
0
10
9.1323769999999964
20
-3.1339990000000002
30
0
10
9.1323769999999964
20
-3.137543
30
0
0
SPLINE
5
239
100
AcDbEntity
8
0
100
AcDbSpline
70
0
71
3
72
8
73
4
74
0
42
0.000000001
43
0.0000000001
44
0.0000000001
40
-1
40
-1
40
-1
40
-1
40
0
40
0
40
0
40
0
10
9.1323769999999964
20
-3.137543
30
0
10
9.1323769999999964
20
-3.1448680000000002
30
0
10
9.1394839999999995
20
-3.1460500000000011
30
0
10
9.2064189999999986
20
-3.1495940000000013
30
0
0
SPLINE
5
240
100
AcDbEntity
8
0
100
AcDbSpline
70
0
71
3
72
8
73
4
74
0
42
0.000000001
43
0.0000000001
44
0.0000000001
40
-1
40
-1
40
-1
40
-1
40
0
40
0
40
0
40
0
10
9.2064189999999986
20
-3.1495940000000013
30
0
10
9.2273369999999986
20
-3.1506580000000017
30
0
10
9.2444439999999979
20
-3.1552660000000006
30
0
10
9.2444439999999979
20
-3.1588100000000003
30
0
0
SPLINE
5
241
100
AcDbEntity
8
0
100
AcDbSpline
70
0
71
3
72
8
73
4
74
0
42
0.000000001
43
0.0000000001
44
0.0000000001
40
-1
40
-1
40
-1
40
-1
40
0
40
0
40
0
40
0
10
9.2444439999999979
20
-3.1588100000000003
30
0
10
9.2444439999999979
20
-3.162355000000002
30
0
10
9.2532449999999997
20
-3.1635360000000006
30
0
10
9.2640010000000004
20
-3.1605819999999993
30
0
0
SPLINE
5
242
100
AcDbEntity
8
0
100
AcDbSpline
70
0
71
3
72
8
73
4
74
0
42
0.000000001
43
0.0000000001
44
0.0000000001
40
-1
40
-1
40
-1
40
-1
40
0
40
0
40
0
40
0
10
9.2640010000000004
20
-3.1605819999999993
30
0
10
9.2747620000000008
20
-3.1582190000000008
30
0
10
9.2876439999999967
20
-3.1582190000000008
30
0
10
9.2926800000000007
20
-3.1617640000000011
30
0
0
SPLINE
5
243
100
AcDbEntity
8
0
100
AcDbSpline
70
0
71
3
72
8
73
4
74
0
42
0.000000001
43
0.0000000001
44
0.0000000001
40
-1
40
-1
40
-1
40
-1
40
0
40
0
40
0
40
0
10
9.2926800000000007
20
-3.1617640000000011
30
0
10
9.3084289999999985
20
-3.1718660000000014
30
0
10
9.3694669999999967
20
-3.1741170000000016
30
0
10
9.6126569999999987
20
-3.1736379999999986
30
0
0
SPLINE
5
244
100
AcDbEntity
8
0
100
AcDbSpline
70
0
71
3
72
8
73
4
74
0
42
0.000000001
43
0.0000000001
44
0.0000000001
40
-1
40
-1
40
-1
40
-1
40
0
40
0
40
0
40
0
10
9.6126569999999987
20
-3.1736379999999986
30
0
10
9.8807509999999983
20
-3.1730470000000026
30
0
10
9.9171919999999982
20
-3.1717479999999996
30
0
10
9.9315209999999983
20
-3.1624730000000003
30
0
0
SPLINE
5
245
100
AcDbEntity
8
0
100
AcDbSpline
70
0
71
3
72
8
73
4
74
0
42
0.000000001
43
0.0000000001
44
0.0000000001
40
-1
40
-1
40
-1
40
-1
40
0
40
0
40
0
40
0
10
9.9315209999999983
20
-3.1624730000000003
30
0
10
9.9371510000000001
20
-3.1595190000000013
30
0
10
9.9503350000000008
20
-3.1583380000000001
30
0
10
9.9608209999999993
20
-3.1612910000000016
30
0
0
SPLINE
5
246
100
AcDbEntity
8
0
100
AcDbSpline
70
0
71
3
72
8
73
4
74
0
42
0.000000001
43
0.0000000001
44
0.0000000001
40
-1
40
-1
40
-1
40
-1
40
0
40
0
40
0
40
0
10
9.9608209999999993
20
-3.1612910000000016
30
0
10
9.9713069999999995
20
-3.1642450000000002
30
0
10
9.9817870000000006
20
-3.1630640000000017
30
0
10
9.9840669999999943
20
-3.1595190000000013
30
0
0
SPLINE
5
247
100
AcDbEntity
8
0
100
AcDbSpline
70
0
71
3
72
8
73
4
74
0
42
0.000000001
43
0.0000000001
44
0.0000000001
40
-1
40
-1
40
-1
40
-1
40
0
40
0
40
0
40
0
10
9.9840669999999943
20
-3.1595190000000013
30
0
10
9.9863680000000006
20
-3.1557970000000006
30
0
10
10.003691999999999
20
-3.1522530000000017
30
0
10
10.02258
20
-3.1510709999999995
30
0
0
ELLIPSE
5
248
100
AcDbEntity
8
0
100
AcDbEllipse
10
9.8992441718877444
20
-3.115897754625331
30
0
11
0.22804784348004303
21
-0.013084262097549518
31
0.0
40
0.14679402034280087
41
5.292215574287253
42
6.0012492514331033
0
SPLINE
5
249
100
AcDbEntity
8
0
100
AcDbSpline
70
0
71
3
72
8
73
4
74
0
42
0.000000001
43
0.0000000001
44
0.0000000001
40
-1
40
-1
40
-1
40
-1
40
0
40
0
40
0
40
0
10
10.117753999999998
20
-3.1377790000000001
30
0
10
10.124805
20
-3.1348260000000003
30
0
10
10.133789999999998
20
-3.1324629999999996
30
0
10
10.137765999999996
20
-3.1336440000000017
30
0
0
SPLINE
5
250
100
AcDbEntity
8
0
100
AcDbSpline
70
0
71
3
72
8
73
4
74
0
42
0.000000001
43
0.0000000001
44
0.0000000001
40
-1
40
-1
40
-1
40
-1
40
0
40
0
40
0
40
0
10
10.137765999999996
20
-3.1336440000000017
30
0
10
10.141720999999999
20
-3.134672000000001
30
0
10
10.146789
20
-3.134672000000001
30
0
10
10.148961999999996
20
-3.1334900000000006
30
0
0
SPLINE
5
251
100
AcDbEntity
8
0
100
AcDbSpline
70
0
71
3
72
8
73
4
74
0
42
0.000000001
43
0.0000000001
44
0.0000000001
40
-1
40
-1
40
-1
40
-1
40
0
40
0
40
0
40
0
10
10.148961999999996
20
-3.1334900000000006
30
0
10
10.151167999999997
20
-3.1323089999999998
30
0
10
10.165570999999998
20
-3.1299460000000003
30
0
10
10.180981999999997
20
-3.1275830000000009
30
0
0
SPLINE
5
252
100
AcDbEntity
8
0
100
AcDbSpline
70
0
71
3
72
8
73
4
74
0
42
0.000000001
43
0.0000000001
44
0.0000000001
40
-1
40
-1
40
-1
40
-1
40
0
40
0
40
0
40
0
10
10.180981999999997
20
-3.1275830000000009
30
0
10
10.232718999999998
20
-3.1200800000000002
30
0
10
10.249019999999996
20
-3.1171270000000009
30
0
10
10.249019999999996
20
-3.1159450000000004
30
0
0
SPLINE
5
253
100
AcDbEntity
8
0
100
AcDbSpline
70
0
71
3
72
8
73
4
74
0
42
0.000000001
43
0.0000000001
44
0.0000000001
40
-1
40
-1
40
-1
40
-1
40
0
40
0
40
0
40
0
10
10.249019999999996
20
-3.1159450000000004
30
0
10
10.249019999999996
20
-3.114586000000001
30
0
10
10.258929999999999
20
-3.1128730000000004
30
0
10
10.315868
20
-3.1044250000000013
30
0
0
SPLINE
5
254
100
AcDbEntity
8
0
100
AcDbSpline
70
0
71
3
72
8
73
4
74
0
42
0.000000001
43
0.0000000001
44
0.0000000001
40
-1
40
-1
40
-1
40
-1
40
0
40
0
40
0
40
0
10
10.315868
20
-3.1044250000000013
30
0
10
10.335027
20
-3.1015900000000003
30
0
10
10.354858999999998
20
-3.0967450000000003
30
0
10
10.359895
20
-3.0932010000000005
30
0
0
SPLINE
5
255
100
AcDbEntity
8
0
100
AcDbSpline
70
0
71
3
72
8
73
4
74
0
42
0.000000001
43
0.0000000001
44
0.0000000001
40
-1
40
-1
40
-1
40
-1
40
0
40
0
40
0
40
0
10
10.359895
20
-3.0932010000000005
30
0
10
10.370048000000001
20
-3.0865250000000009
30
0
10
10.383025999999996
20
-3.0826850000000006
30
0
10
10.413114999999996
20
-3.0791410000000008
30
0
0
SPLINE
5
256
100
AcDbEntity
8
0
100
AcDbSpline
70
0
71
3
72
8
73
4
74
0
42
0.000000001
43
0.0000000001
44
0.0000000001
40
-1
40
-1
40
-1
40
-1
40
0
40
0
40
0
40
0
10
10.413114999999996
20
-3.0791410000000008
30
0
10
10.457145999999998
20
-3.0733280000000009
30
0
10
10.717724999999996
20
-2.9870070000000002
30
0
10
10.745253999999999
20
-2.9691070000000002
30
0
0
SPLINE
5
257
100
AcDbEntity
8
0
100
AcDbSpline
70
0
71
3
72
8
73
4
74
0
42
0.000000001
43
0.0000000001
44
0.0000000001
40
-1
40
-1
40
-1
40
-1
40
0
40
0
40
0
40
0
10
10.745253999999999
20
-2.9691070000000002
30
0
10
10.754085999999999
20
-2.9633170000000018
30
0
10
10.772121
20
-2.9564060000000008
30
0
10
10.785325999999996
20
-2.9528610000000017
30
0
0
SPLINE
5
258
100
AcDbEntity
8
0
100
AcDbSpline
70
0
71
3
72
8
73
4
74
0
42
0.000000001
43
0.0000000001
44
0.0000000001
40
-1
40
-1
40
-1
40
-1
40
0
40
0
40
0
40
0
10
10.785325999999996
20
-2.9528610000000017
30
0
10
10.807032999999999
20
-2.9476620000000007
30
0
10
10.862519000000002
20
-2.9235010000000003
30
0
10
10.893387999999996
20
-2.9058370000000009
30
0
0
SPLINE
5
259
100
AcDbEntity
8
0
100
AcDbSpline
70
0
71
3
72
8
73
4
74
0
42
0.000000001
43
0.0000000001
44
0.0000000001
40
-1
40
-1
40
-1
40
-1
40
0
40
0
40
0
40
0
10
10.893387999999996
20
-2.9058370000000009
30
0
10
10.910141000000003
20
-2.8962670000000004
30
0
10
10.981362999999998
20
-2.8598760000000003
30
0
10
11.005452
20
-2.8486520000000004
30
0
0
SPLINE
5
260
100
AcDbEntity
8
0
100
AcDbSpline
70
0
71
3
72
8
73
4
74
0
42
0.000000001
43
0.0000000001
44
0.0000000001
40
-1
40
-1
40
-1
40
-1
40
0
40
0
40
0
40
0
10
11.005452
20
-2.8486520000000004
30
0
10
11.027646000000004
20
-2.838255000000002
30
0
10
11.055318
20
-2.8208270000000022
30
0
10
11.061484
20
-2.8133250000000003
30
0
0
SPLINE
5
261
100
AcDbEntity
8
0
100
AcDbSpline
70
0
71
3
72
8
73
4
74
0
42
0.000000001
43
0.0000000001
44
0.0000000001
40
-1
40
-1
40
-1
40
-1
40
0
40
0
40
0
40
0
10
11.061484
20
-2.8133250000000003
30
0
10
11.063685000000001
20
-2.8106070000000001
30
0
10
11.094300999999998
20
-2.7882180000000014
30
0
10
11.129523000000001
20
-2.7635239999999994
30
0
0
SPLINE
5
262
100
AcDbEntity
8
0
100
AcDbSpline
70
0
71
3
72
8
73
4
74
0
42
0.000000001
43
0.0000000001
44
0.0000000001
40
-1
40
-1
40
-1
40
-1
40
0
40
0
40
0
40
0
10
11.129523000000001
20
-2.7635239999999994
30
0
10
11.200172999999999
20
-2.7139539999999998
30
0
10
11.363045999999999
20
-2.5483470000000006
30
0
10
11.405763
20
-2.4826430000000013
30
0
0
SPLINE
5
263
100
AcDbEntity
8
0
100
AcDbSpline
70
0
71
3
72
8
73
4
74
0
42
0.000000001
43
0.0000000001
44
0.0000000001
40
-1
40
-1
40
-1
40
-1
40
0
40
0
40
0
40
0
10
11.405763
20
-2.4826430000000013
30
0
10
11.420761000000001
20
-2.4596040000000006
30
0
10
11.439485000000003
20
-2.4333739999999997
30
0
10
11.447372999999999
20
-2.4244539999999999
30
0
0
SPLINE
5
264
100
AcDbEntity
8
0
100
AcDbSpline
70
0
71
3
72
8
73
4
74
0
42
0.000000001
43
0.0000000001
44
0.0000000001
40
-1
40
-1
40
-1
40
-1
40
0
40
0
40
0
40
0
10
11.447372999999999
20
-2.4244539999999999
30
0
10
11.455261
20
-2.415474000000001
30
0
10
11.461712999999996
20
-2.4037780000000017
30
0
10
11.461712999999996
20
-2.3984610000000011
30
0
0
SPLINE
5
265
100
AcDbEntity
8
0
100
AcDbSpline
70
0
71
3
72
8
73
4
74
0
42
0.000000001
43
0.0000000001
44
0.0000000001
40
-1
40
-1
40
-1
40
-1
40
0
40
0
40
0
40
0
10
11.461712999999996
20
-2.3984610000000011
30
0
10
11.461712999999996
20
-2.3931440000000013
30
0
10
11.468301999999996
20
-2.382569000000001
30
0
10
11.476349000000001
20
-2.3748900000000002
30
0
0
SPLINE
5
266
100
AcDbEntity
8
0
100
AcDbSpline
70
0
71
3
72
8
73
4
74
0
42
0.000000001
43
0.0000000001
44
0.0000000001
40
-1
40
-1
40
-1
40
-1
40
0
40
0
40
0
40
0
10
11.476349000000001
20
-2.3748900000000002
30
0
10
11.489169999999996
20
-2.3627790000000006
30
0
10
11.516500000000001
20
-2.3610069999999999
30
0
10
11.696474000000002
20
-2.3610069999999999
30
0
0
LINE
5
267
100
AcDbEntity
8
0
100
AcDbLine
10
11.696474000000002
20
-2.3610069999999999
30
0
11
11.901961999999994
21
-2.3610069999999999
31
0
0
LINE
5
268
100
AcDbEntity
8
0
100
AcDbLine
10
11.901961999999994
20
-2.3610069999999999
30
0
11
11.901961999999994
21
-2.394562000000001
31
0
0
SPLINE
5
269
100
AcDbEntity
8
0
100
AcDbSpline
70
0
71
3
72
8
73
4
74
0
42
0.000000001
43
0.0000000001
44
0.0000000001
40
-1
40
-1
40
-1
40
-1
40
0
40
0
40
0
40
0
10
11.901961999999994
20
-2.394562000000001
30
0
10
11.901961999999994
20
-2.4130520000000013
30
0
10
11.898755
20
-2.4281170000000007
30
0
10
11.894831999999996
20
-2.4281170000000007
30
0
0
SPLINE
5
270
100
AcDbEntity
8
0
100
AcDbSpline
70
0
71
3
72
8
73
4
74
0
42
0.000000001
43
0.0000000001
44
0.0000000001
40
-1
40
-1
40
-1
40
-1
40
0
40
0
40
0
40
0
10
11.894831999999996
20
-2.4281170000000007
30
0
10
11.890908999999999
20
-2.4281170000000007
30
0
10
11.885861999999996
20
-2.4403450000000007
30
0
10
11.883582999999996
20
-2.455350000000001
30
0
0
SPLINE
5
271
100
AcDbEntity
8
0
100
AcDbSpline
70
0
71
3
72
8
73
4
74
0
42
0.000000001
43
0.0000000001
44
0.0000000001
40
-1
40
-1
40
-1
40
-1
40
0
40
0
40
0
40
0
10
11.883582999999996
20
-2.455350000000001
30
0
10
11.872381000000001
20
-2.529484000000001
30
0
10
11.869581999999999
20
-2.5404719999999998
30
0
10
11.858682999999996
20
-2.5530560000000007
30
0
0
SPLINE
5
272
100
AcDbEntity
8
0
100
AcDbSpline
70
0
71
3
72
8
73
4
74
0
42
0.000000001
43
0.0000000001
44
0.0000000001
40
-1
40
-1
40
-1
40
-1
40
0
40
0
40
0
40
0
10
11.858682999999996
20
-2.5530560000000007
30
0
10
11.852225999999998
20
-2.5605580000000008
30
0
10
11.845138
20
-2.5760360000000002
30
0
10
11.842965
20
-2.5875560000000006
30
0
0
SPLINE
5
273
100
AcDbEntity
8
0
100
AcDbSpline
70
0
71
3
72
8
73
4
74
0
42
0.000000001
43
0.0000000001
44
0.0000000001
40
-1
40
-1
40
-1
40
-1
40
0
40
0
40
0
40
0
10
11.842965
20
-2.5875560000000006
30
0
10
11.840780000000001
20
-2.5990580000000021
30
0
10
11.827909000000002
20
-2.6292450000000009
30
0
10
11.814369999999997
20
-2.654589000000001
30
0
0
SPLINE
5
274
100
AcDbEntity
8
0
100
AcDbSpline
70
0
71
3
72
8
73
4
74
0
42
0.000000001
43
0.0000000001
44
0.0000000001
40
-1
40
-1
40
-1
40
-1
40
0
40
0
40
0
40
0
10
11.814369999999997
20
-2.654589000000001
30
0
10
11.800835999999999
20
-2.6799670000000004
30
0
10
11.787598999999998
20
-2.7073190000000005
30
0
10
11.784894999999999
20
-2.7154130000000007
30
0
0
SPLINE
5
275
100
AcDbEntity
8
0
100
AcDbSpline
70
0
71
3
72
8
73
4
74
0
42
0.000000001
43
0.0000000001
44
0.0000000001
40
-1
40
-1
40
-1
40
-1
40
0
40
0
40
0
40
0
10
11.784894999999999
20
-2.7154130000000007
30
0
10
11.782222999999998
20
-2.7235060000000013
30
0
10
11.776832000000002
20
-2.7301230000000003
30
0
10
11.772961999999996
20
-2.7301230000000003
30
0
0
SPLINE
5
276
100
AcDbEntity
8
0
100
AcDbSpline
70
0
71
3
72
8
73
4
74
0
42
0.000000001
43
0.0000000001
44
0.0000000001
40
-1
40
-1
40
-1
40
-1
40
0
40
0
40
0
40
0
10
11.772961999999996
20
-2.7301230000000003
30
0
10
11.769038999999998
20
-2.7301230000000003
30
0
10
11.766760000000003
20
-2.7328399999999999
30
0
10
11.76782
20
-2.7363849999999998
30
0
0
SPLINE
5
277
100
AcDbEntity
8
0
100
AcDbSpline
70
0
71
3
72
8
73
4
74
0
42
0.000000001
43
0.0000000001
44
0.0000000001
40
-1
40
-1
40
-1
40
-1
40
0
40
0
40
0
40
0
10
11.76782
20
-2.7363849999999998
30
0
10
11.771355
20
-2.7477800000000006
30
0
10
11.653945
20
-2.9049980000000013
30
0
10
11.580509999999999
20
-2.9872020000000012
30
0
0
SPLINE
5
278
100
AcDbEntity
8
0
100
AcDbSpline
70
0
71
3
72
8
73
4
74
0
42
0.000000001
43
0.0000000001
44
0.0000000001
40
-1
40
-1
40
-1
40
-1
40
0
40
0
40
0
40
0
10
11.580509999999999
20
-2.9872020000000012
30
0
10
11.520146
20
-3.0547720000000007
30
0
10
11.405736999999997
20
-3.1698340000000016
30
0
10
11.394816
20
-3.1739690000000018
30
0
0
SPLINE
5
279
100
AcDbEntity
8
0
100
AcDbSpline
70
0
71
3
72
8
73
4
74
0
42
0.000000001
43
0.0000000001
44
0.0000000001
40
-1
40
-1
40
-1
40
-1
40
0
40
0
40
0
40
0
10
11.394816
20
-3.1739690000000018
30
0
10
11.389774999999997
20
-3.1758590000000009
30
0
10
11.382045999999999
20
-3.1821210000000013
30
0
10
11.377646
20
-3.1874380000000002
30
0
0
SPLINE
5
280
100
AcDbEntity
8
0
100
AcDbSpline
70
0
71
3
72
8
73
4
74
0
42
0.000000001
43
0.0000000001
44
0.0000000001
40
-1
40
-1
40
-1
40
-1
40
0
40
0
40
0
40
0
10
11.377646
20
-3.1874380000000002
30
0
10
11.361117999999998
20
-3.208062
30
0
10
11.272002999999998
20
-3.2801630000000017
30
0
10
11.243339000000001
20
-3.2961730000000005
30
0
0
SPLINE
5
281
100
AcDbEntity
8
0
100
AcDbSpline
70
0
71
3
72
8
73
4
74
0
42
0.000000001
43
0.0000000001
44
0.0000000001
40
-1
40
-1
40
-1
40
-1
40
0
40
0
40
0
40
0
10
11.243339000000001
20
-3.2961730000000005
30
0
10
11.226952999999998
20
-3.3053290000000004
30
0
10
11.213551999999998
20
-3.3157270000000003
30
0
10
11.213551999999998
20
-3.3192710000000005
30
0
0
SPLINE
5
282
100
AcDbEntity
8
0
100
AcDbSpline
70
0
71
3
72
8
73
4
74
0
42
0.000000001
43
0.0000000001
44
0.0000000001
40
-1
40
-1
40
-1
40
-1
40
0
40
0
40
0
40
0
10
11.213551999999998
20
-3.3192710000000005
30
0
10
11.213551999999998
20
-3.3228160000000004
30
0
10
11.208589999999999
20
-3.3257699999999999
30
0
10
11.202525
20
-3.3257699999999999
30
0
0
SPLINE
5
283
100
AcDbEntity
8
0
100
AcDbSpline
70
0
71
3
72
8
73
4
74
0
42
0.000000001
43
0.0000000001
44
0.0000000001
40
-1
40
-1
40
-1
40
-1
40
0
40
0
40
0
40
0
10
11.202525
20
-3.3257699999999999
30
0
10
11.196460999999999
20
-3.3257699999999999
30
0
10
11.187050999999999
20
-3.3314410000000008
30
0
10
11.181607000000003
20
-3.3382940000000003
30
0
0
SPLINE
5
284
100
AcDbEntity
8
0
100
AcDbSpline
70
0
71
3
72
8
73
4
74
0
42
0.000000001
43
0.0000000001
44
0.0000000001
40
-1
40
-1
40
-1
40
-1
40
0
40
0
40
0
40
0
10
11.181607000000003
20
-3.3382940000000003
30
0
10
11.176168000000001
20
-3.3449690000000007
30
0
10
11.168539000000001
20
-3.3485140000000002
30
0
10
11.164562999999999
20
-3.3461510000000017
30
0
0
SPLINE
5
285
100
AcDbEntity
8
0
100
AcDbSpline
70
0
71
3
72
8
73
4
74
0
42
0.000000001
43
0.0000000001
44
0.0000000001
40
-1
40
-1
40
-1
40
-1
40
0
40
0
40
0
40
0
10
11.164562999999999
20
-3.3461510000000017
30
0
10
11.160630000000003
20
-3.3436100000000004
30
0
10
11.155375999999999
20
-3.3470960000000014
30
0
10
11.152884999999998
20
-3.3538890000000006
30
0
0
SPLINE
5
286
100
AcDbEntity
8
0
100
AcDbSpline
70
0
71
3
72
8
73
4
74
0
42
0.000000001
43
0.0000000001
44
0.0000000001
40
-1
40
-1
40
-1
40
-1
40
0
40
0
40
0
40
0
10
11.152884999999998
20
-3.3538890000000006
30
0
10
11.150397999999996
20
-3.3606830000000008
30
0
10
11.139308
20
-3.3685990000000006
30
0
10
11.128245
20
-3.3715530000000009
30
0
0
SPLINE
5
287
100
AcDbEntity
8
0
100
AcDbSpline
70
0
71
3
72
8
73
4
74
0
42
0.000000001
43
0.0000000001
44
0.0000000001
40
-1
40
-1
40
-1
40
-1
40
0
40
0
40
0
40
0
10
11.128245
20
-3.3715530000000009
30
0
10
11.117181
20
-3.3745070000000013
30
0
10
11.103948999999997
20
-3.3806510000000003
30
0
10
11.098807000000001
20
-3.3853770000000014
30
0
0
ELLIPSE
5
288
100
AcDbEntity
8
0
100
AcDbEllipse
10
10.957764484313586
20
-3.4513024935824745
30
0
11
0.14351528507541869
21
0.069757301315301945
31
0.0
40
0.067465323274212383
41
4.4522137175285685
42
6.0616679168114427
0
SPLINE
5
289
100
AcDbEntity
8
0
100
AcDbSpline
70
0
71
3
72
8
73
4
74
0
42
0.000000001
43
0.0000000001
44
0.0000000001
40
-1
40
-1
40
-1
40
-1
40
0
40
0
40
0
40
0
10
10.925393
20
-3.4786039999999994
30
0
10
10.905582000000001
20
-3.4877610000000017
30
0
10
10.882664999999998
20
-3.4993979999999993
30
0
10
10.874459
20
-3.5035340000000001
30
0
0
SPLINE
5
290
100
AcDbEntity
8
0
100
AcDbSpline
70
0
71
3
72
8
73
4
74
0
42
0.000000001
43
0.0000000001
44
0.0000000001
40
-1
40
-1
40
-1
40
-1
40
0
40
0
40
0
40
0
10
10.874459
20
-3.5035340000000001
30
0
10
10.866257999999998
20
-3.5080240000000016
30
0
10
10.853645999999996
20
-3.5135180000000013
30
0
10
10.846442
20
-3.5146989999999998
30
0
0
SPLINE
5
291
100
AcDbEntity
8
0
100
AcDbSpline
70
0
71
3
72
8
73
4
74
0
42
0.000000001
43
0.0000000001
44
0.0000000001
40
-1
40
-1
40
-1
40
-1
40
0
40
0
40
0
40
0
10
10.846442
20
-3.5146989999999998
30
0
10
10.830371000000001
20
-3.5183620000000007
30
0
10
10.746822999999994
20
-3.5548110000000008
30
0
10
10.741288000000003
20
-3.5607190000000006
30
0
0
SPLINE
5
292
100
AcDbEntity
8
0
100
AcDbSpline
70
0
71
3
72
8
73
4
74
0
42
0.000000001
43
0.0000000001
44
0.0000000001
40
-1
40
-1
40
-1
40
-1
40
0
40
0
40
0
40
0
10
10.741288000000003
20
-3.5607190000000006
30
0
10
10.739087999999999
20
-3.5624910000000014
30
0
10
10.733681000000001
20
-3.5655630000000018
30
0
10
10.729280999999999
20
-3.5660360000000018
30
0
0
SPLINE
5
293
100
AcDbEntity
8
0
100
AcDbSpline
70
0
71
3
72
8
73
4
74
0
42
0.000000001
43
0.0000000001
44
0.0000000001
40
-1
40
-1
40
-1
40
-1
40
0
40
0
40
0
40
0
10
10.729280999999999
20
-3.5660360000000018
30
0
10
10.717456
20
-3.5679320000000008
30
0
10
10.507819999999999
20
-3.636324000000001
30
0
10
10.489143999999998
20
-3.644358
30
0
0
ELLIPSE
5
294
100
AcDbEntity
8
0
100
AcDbEllipse
10
10.351433830916497
20
-3.6684285945576094
30
0
11
0.14725340423574892
21
0.030742454928944275
31
0.0
40
0.082190733909503849
41
4.3169017271907819
42
5.9036431574518584
0
SPLINE
5
295
100
AcDbEntity
8
0
100
AcDbSpline
70
0
71
3
72
8
73
4
74
0
42
0.000000001
43
0.0000000001
44
0.0000000001
40
-1
40
-1
40
-1
40
-1
40
0
40
0
40
0
40
0
10
10.297034999999996
20
-3.6914410000000002
30
0
10
10.292635000000001
20
-3.6920320000000011
30
0
10
10.287200999999998
20
-3.6932139999999998
30
0
10
10.285027000000001
20
-3.6943950000000005
30
0
0
SPLINE
5
296
100
AcDbEntity
8
0
100
AcDbSpline
70
0
71
3
72
8
73
4
74
0
42
0.000000001
43
0.0000000001
44
0.0000000001
40
-1
40
-1
40
-1
40
-1
40
0
40
0
40
0
40
0
10
10.285027000000001
20
-3.6943950000000005
30
0
10
10.282826999999996
20
-3.6955770000000006
30
0
10
10.268636000000004
20
-3.6979400000000009
30
0
10
10.253500999999996
20
-3.6997120000000017
30
0
0
SPLINE
5
297
100
AcDbEntity
8
0
100
AcDbSpline
70
0
71
3
72
8
73
4
74
0
42
0.000000001
43
0.0000000001
44
0.0000000001
40
-1
40
-1
40
-1
40
-1
40
0
40
0
40
0
40
0
10
10.253500999999996
20
-3.6997120000000017
30
0
10
10.238360999999999
20
-3.7017200000000003
30
0
10
10.212166999999999
20
-3.7073329999999998
30
0
10
10.195282999999996
20
-3.7120590000000009
30
0
0
SPLINE
5
298
100
AcDbEntity
8
0
100
AcDbSpline
70
0
71
3
72
8
73
4
74
0
42
0.000000001
43
0.0000000001
44
0.0000000001
40
-1
40
-1
40
-1
40
-1
40
0
40
0
40
0
40
0
10
10.195282999999996
20
-3.7120590000000009
30
0
10
10.178399000000001
20
-3.7167850000000002
30
0
10
10.161296999999999
20
-3.717966000000001
30
0
10
10.157320999999998
20
-3.7156030000000015
30
0
0
SPLINE
5
299
100
AcDbEntity
8
0
100
AcDbSpline
70
0
71
3
72
8
73
4
74
0
42
0.000000001
43
0.0000000001
44
0.0000000001
40
-1
40
-1
40
-1
40
-1
40
0
40
0
40
0
40
0
10
10.157320999999998
20
-3.7156030000000015
30
0
10
10.153323999999998
20
-3.7131219999999998
30
0
10
10.14789
20
-3.7150120000000002
30
0
10
10.145238999999998
20
-3.7191480000000006
30
0
0
SPLINE
5
300
100
AcDbEntity
8
0
100
AcDbSpline
70
0
71
3
72
8
73
4
74
0
42
0.000000001
43
0.0000000001
44
0.0000000001
40
-1
40
-1
40
-1
40
-1
40
0
40
0
40
0
40
0
10
10.145238999999998
20
-3.7191480000000006
30
0
10
10.142588999999999
20
-3.7236370000000005
30
0
10
10.130635
20
-3.7269869999999989
30
0
10
10.118670000000002
20
-3.7265910000000009
30
0
0
SPLINE
5
301
100
AcDbEntity
8
0
100
AcDbSpline
70
0
71
3
72
8
73
4
74
0
42
0.000000001
43
0.0000000001
44
0.0000000001
40
-1
40
-1
40
-1
40
-1
40
0
40
0
40
0
40
0
10
10.118670000000002
20
-3.7265910000000009
30
0
10
10.085110999999996
20
-3.7254690000000004
30
0
10
10.006856000000001
20
-3.734035
30
0
10
9.997880999999996
20
-3.7399420000000014
30
0
0
SPLINE
5
302
100
AcDbEntity
8
0
100
AcDbSpline
70
0
71
3
72
8
73
4
74
0
42
0.000000001
43
0.0000000001
44
0.0000000001
40
-1
40
-1
40
-1
40
-1
40
0
40
0
40
0
40
0
10
9.997880999999996
20
-3.7399420000000014
30
0
10
9.9934649999999987
20
-3.7423049999999995
30
0
10
9.9797189999999976
20
-3.7450939999999995
30
0
10
9.9673409999999993
20
-3.7452590000000003
30
0
0
SPLINE
5
303
100
AcDbEntity
8
0
100
AcDbSpline
70
0
71
3
72
8
73
4
74
0
42
0.000000001
43
0.0000000001
44
0.0000000001
40
-1
40
-1
40
-1
40
-1
40
0
40
0
40
0
40
0
10
9.9673409999999993
20
-3.7452590000000003
30
0
10
9.9549629999999993
20
-3.7452590000000003
30
0
10
9.9268239999999999
20
-3.7470310000000007
30
0
10
9.9048080000000009
20
-3.7488039999999994
30
0
0
LINE
5
304
100
AcDbEntity
8
0
100
AcDbLine
10
9.9048079999999992
20
-3.7488039999999994
30
0
11
9.904880999999996
21
-3.7491050000000001
31
0
0
SPLINE
5
305
100
AcDbEntity
8
0
100
AcDbSpline
70
0
71
3
72
8
73
4
74
0
42
0.000000001
43
0.0000000001
44
0.0000000001
40
-1
40
-1
40
-1
40
-1
40
0
40
0
40
0
40
0
10
9.904880999999996
20
-3.7491049999999997
30
0
10
9.8415799999999969
20
-3.7538310000000008
30
0
10
9.3431440000000006
20
-3.7615110000000005
30
0
10
9.339167999999999
20
-3.7573750000000015
30
0
0
SPLINE
5
306
100
AcDbEntity
8
0
100
AcDbSpline
70
0
71
3
72
8
73
4
74
0
42
0.000000001
43
0.0000000001
44
0.0000000001
40
-1
40
-1
40
-1
40
-1
40
0
40
0
40
0
40
0
10
9.339167999999999
20
-3.7573750000000015
30
0
10
9.3371959999999969
20
-3.7556030000000007
30
0
10
9.2979780000000005
20
-3.7532399999999999
30
0
10
9.2520220000000002
20
-3.7520590000000014
30
0
0
SPLINE
5
307
100
AcDbEntity
8
0
100
AcDbSpline
70
0
71
3
72
8
73
4
74
0
42
0.000000001
43
0.0000000001
44
0.0000000001
40
-1
40
-1
40
-1
40
-1
40
0
40
0
40
0
40
0
10
9.2520220000000002
20
-3.7520590000000014
30
0
10
9.2060629999999986
20
-3.7511730000000001
30
0
10
9.1648560000000003
20
-3.7488100000000015
30
0
10
9.1604559999999999
20
-3.7458560000000003
30
0
0
SPLINE
5
308
100
AcDbEntity
8
0
100
AcDbSpline
70
0
71
3
72
8
73
4
74
0
42
0.000000001
43
0.0000000001
44
0.0000000001
40
-1
40
-1
40
-1
40
-1
40
0
40
0
40
0
40
0
10
9.1604559999999999
20
-3.7458560000000003
30
0
10
9.1560559999999995
20
-3.7433750000000008
30
0
10
9.1398399999999995
20
-3.7403030000000008
30
0
10
9.1244340000000008
20
-3.7398299999999995
30
0
0
SPLINE
5
309
100
AcDbEntity
8
0
100
AcDbSpline
70
0
71
3
72
8
73
4
74
0
42
0.000000001
43
0.0000000001
44
0.0000000001
40
-1
40
-1
40
-1
40
-1
40
0
40
0
40
0
40
0
10
9.1244340000000008
20
-3.7398299999999995
30
0
10
9.1090259999999965
20
-3.7391210000000004
30
0
10
9.0730049999999967
20
-3.7354579999999999
30
0
10
9.0443889999999989
20
-3.7319140000000002
30
0
0
SPLINE
5
310
100
AcDbEntity
8
0
100
AcDbSpline
70
0
71
3
72
8
73
4
74
0
42
0.000000001
43
0.0000000001
44
0.0000000001
40
-1
40
-1
40
-1
40
-1
40
0
40
0
40
0
40
0
10
9.0443889999999989
20
-3.7319140000000002
30
0
10
9.0157739999999968
20
-3.7277790000000008
30
0
10
8.9825719999999976
20
-3.725534000000001
30
0
10
8.9706070000000011
20
-3.7260060000000004
30
0
0
SPLINE
5
311
100
AcDbEntity
8
0
100
AcDbSpline
70
0
71
3
72
8
73
4
74
0
42
0.000000001
43
0.0000000001
44
0.0000000001
40
-1
40
-1
40
-1
40
-1
40
0
40
0
40
0
40
0
10
8.9706070000000011
20
-3.7260060000000004
30
0
10
8.9586419999999958
20
-3.7265380000000006
30
0
10
8.946688
20
-3.722934
30
0
10
8.9440379999999973
20
-3.7187990000000002
30
0
0
SPLINE
5
312
100
AcDbEntity
8
0
100
AcDbSpline
70
0
71
3
72
8
73
4
74
0
42
0.000000001
43
0.0000000001
44
0.0000000001
40
-1
40
-1
40
-1
40
-1
40
0
40
0
40
0
40
0
10
8.9440379999999973
20
-3.7187990000000002
30
0
10
8.9413920000000005
20
-3.7147820000000005
30
0
10
8.9362179999999984
20
-3.712892000000001
30
0
10
8.9326129999999999
20
-3.7152550000000004
30
0
0
SPLINE
5
313
100
AcDbEntity
8
0
100
AcDbSpline
70
0
71
3
72
8
73
4
74
0
42
0.000000001
43
0.0000000001
44
0.0000000001
40
-1
40
-1
40
-1
40
-1
40
0
40
0
40
0
40
0
10
8.9326129999999999
20
-3.7152550000000004
30
0
10
8.9289769999999944
20
-3.7174399999999994
30
0
10
8.9067120000000006
20
-3.7152550000000004
30
0
10
8.8831369999999943
20
-3.7105290000000002
30
0
0
SPLINE
5
314
100
AcDbEntity
8
0
100
AcDbSpline
70
0
71
3
72
8
73
4
74
0
42
0.000000001
43
0.0000000001
44
0.0000000001
40
-1
40
-1
40
-1
40
-1
40
0
40
0
40
0
40
0
10
8.8831369999999943
20
-3.7105290000000002
30
0
10
8.8595620000000004
20
-3.7056250000000004
30
0
10
8.8273409999999988
20
-3.7004269999999999
30
0
10
8.8115330000000007
20
-3.6986540000000003
30
0
0
SPLINE
5
315
100
AcDbEntity
8
0
100
AcDbSpline
70
0
71
3
72
8
73
4
74
0
42
0.000000001
43
0.0000000001
44
0.0000000001
40
-1
40
-1
40
-1
40
-1
40
0
40
0
40
0
40
0
10
8.8115330000000007
20
-3.6986540000000003
30
0
10
8.795727000000003
20
-3.6970000000000005
30
0
10
8.7671529999999986
20
-3.6911520000000007
30
0
10
8.7480370000000001
20
-3.6858350000000009
30
0
0
SPLINE
5
316
100
AcDbEntity
8
0
100
AcDbSpline
70
0
71
3
72
8
73
4
74
0
42
0.000000001
43
0.0000000001
44
0.0000000001
40
-1
40
-1
40
-1
40
-1
40
0
40
0
40
0
40
0
10
8.7480370000000001
20
-3.6858350000000009
30
0
10
8.7289200000000005
20
-3.6804000000000006
30
0
10
8.7040309999999987
20
-3.6743149999999996
30
0
10
8.6927289999999999
20
-3.673134000000001
30
0
0
SPLINE
5
317
100
AcDbEntity
8
0
100
AcDbSpline
70
0
71
3
72
8
73
4
74
0
42
0.000000001
43
0.0000000001
44
0.0000000001
40
-1
40
-1
40
-1
40
-1
40
0
40
0
40
0
40
0
10
8.6927289999999999
20
-3.673134000000001
30
0
10
8.6814210000000003
20
-3.6713610000000014
30
0
10
8.6721759999999968
20
-3.6694769999999997
30
0
10
8.6721759999999968
20
-3.6689980000000006
30
0
0
SPLINE
5
318
100
AcDbEntity
8
0
100
AcDbSpline
70
0
71
3
72
8
73
4
74
0
42
0.000000001
43
0.0000000001
44
0.0000000001
40
-1
40
-1
40
-1
40
-1
40
0
40
0
40
0
40
0
10
8.6721759999999968
20
-3.6689980000000006
30
0
10
8.6721759999999968
20
-3.667167000000001
30
0
10
8.6455510000000011
20
-3.662500000000001
30
0
10
8.6070160000000016
20
-3.6577740000000007
30
0
0
SPLINE
5
319
100
AcDbEntity
8
0
100
AcDbSpline
70
0
71
3
72
8
73
4
74
0
42
0.000000001
43
0.0000000001
44
0.0000000001
40
-1
40
-1
40
-1
40
-1
40
0
40
0
40
0
40
0
10
8.6070160000000016
20
-3.6577740000000007
30
0
10
8.5887849999999979
20
-3.6555290000000009
30
0
10
8.5671780000000002
20
-3.6496810000000002
30
0
10
8.5589870000000001
20
-3.6449549999999999
30
0
0
SPLINE
5
320
100
AcDbEntity
8
0
100
AcDbSpline
70
0
71
3
72
8
73
4
74
0
42
0.000000001
43
0.0000000001
44
0.0000000001
40
-1
40
-1
40
-1
40
-1
40
0
40
0
40
0
40
0
10
8.5589870000000001
20
-3.6449549999999999
30
0
10
8.5508000000000006
20
-3.6401700000000008
30
0
10
8.5152859999999961
20
-3.6286500000000017
30
0
10
8.4800649999999962
20
-3.6192570000000006
30
0
0
SPLINE
5
321
100
AcDbEntity
8
0
100
AcDbSpline
70
0
71
3
72
8
73
4
74
0
42
0.000000001
43
0.0000000001
44
0.0000000001
40
-1
40
-1
40
-1
40
-1
40
0
40
0
40
0
40
0
10
8.4800649999999962
20
-3.6192570000000006
30
0
10
8.3015879999999989
20
-3.5719080000000005
30
0
10
8.2285810000000001
20
-3.5492820000000007
30
0
10
8.1948279999999976
20
-3.5308500000000018
30
0
0
SPLINE
5
322
100
AcDbEntity
8
0
100
AcDbSpline
70
0
71
3
72
8
73
4
74
0
42
0.000000001
43
0.0000000001
44
0.0000000001
40
-1
40
-1
40
-1
40
-1
40
0
40
0
40
0
40
0
10
8.1948279999999976
20
-3.5308500000000018
30
0
10
8.1744229999999973
20
-3.5196850000000004
30
0
10
8.1558639999999976
20
-3.5125960000000021
30
0
10
8.1535840000000004
20
-3.5149590000000002
30
0
0
SPLINE
5
323
100
AcDbEntity
8
0
100
AcDbSpline
70
0
71
3
72
8
73
4
74
0
42
0.000000001
43
0.0000000001
44
0.0000000001
40
-1
40
-1
40
-1
40
-1
40
0
40
0
40
0
40
0
10
8.1535840000000004
20
-3.5149590000000002
30
0
10
8.1513000000000009
20
-3.5173220000000005
30
0
10
8.1427800000000001
20
-3.5155500000000011
30
0
10
8.1346480000000003
20
-3.5114140000000007
30
0
0
SPLINE
5
324
100
AcDbEntity
8
0
100
AcDbSpline
70
0
71
3
72
8
73
4
74
0
42
0.000000001
43
0.0000000001
44
0.0000000001
40
-1
40
-1
40
-1
40
-1
40
0
40
0
40
0
40
0
10
8.1346480000000003
20
-3.5114140000000007
30
0
10
8.1265160000000023
20
-3.5071610000000013
30
0
10
8.1090539999999987
20
-3.4979450000000014
30
0
10
8.0958490000000012
20
-3.4909740000000014
30
0
0
SPLINE
5
325
100
AcDbEntity
8
0
100
AcDbSpline
70
0
71
3
72
8
73
4
74
0
42
0.000000001
43
0.0000000001
44
0.0000000001
40
-1
40
-1
40
-1
40
-1
40
0
40
0
40
0
40
0
10
8.0958490000000012
20
-3.4909740000000014
30
0
10
8.0826399999999943
20
-3.4840030000000013
30
0
10
8.057427999999998
20
-3.4735469999999999
30
0
10
8.0398169999999958
20
-3.4682299999999997
30
0
0
SPLINE
5
326
100
AcDbEntity
8
0
100
AcDbSpline
70
0
71
3
72
8
73
4
74
0
42
0.000000001
43
0.0000000001
44
0.0000000001
40
-1
40
-1
40
-1
40
-1
40
0
40
0
40
0
40
0
10
8.0398169999999958
20
-3.4682299999999997
30
0
10
7.9798830000000009
20
-3.4494089999999997
30
0
10
7.8764929999999973
20
-3.3997380000000006
30
0
10
7.8397029999999974
20
-3.3720910000000002
30
0
0
SPLINE
5
327
100
AcDbEntity
8
0
100
AcDbSpline
70
0
71
3
72
8
73
4
74
0
42
0.000000001
43
0.0000000001
44
0.0000000001
40
-1
40
-1
40
-1
40
-1
40
0
40
0
40
0
40
0
10
7.8397029999999974
20
-3.3720910000000002
30
0
10
7.8264939999999985
20
-3.362225
30
0
10
7.8018329999999985
20
-3.346629000000001
30
0
10
7.7848949999999979
20
-3.3375309999999994
30
0
0
SPLINE
5
328
100
AcDbEntity
8
0
100
AcDbSpline
70
0
71
3
72
8
73
4
74
0
42
0.000000001
43
0.0000000001
44
0.0000000001
40
-1
40
-1
40
-1
40
-1
40
0
40
0
40
0
40
0
10
7.7848949999999979
20
-3.3375309999999994
30
0
10
7.7679579999999975
20
-3.3283750000000021
30
0
10
7.7460960000000005
20
-3.3133700000000004
30
0
10
7.7363090000000003
20
-3.3041540000000005
30
0
0
SPLINE
5
329
100
AcDbEntity
8
0
100
AcDbSpline
70
0
71
3
72
8
73
4
74
0
42
0.000000001
43
0.0000000001
44
0.0000000001
40
-1
40
-1
40
-1
40
-1
40
0
40
0
40
0
40
0
10
7.7363090000000003
20
-3.3041540000000005
30
0
10
7.7265239999999986
20
-3.2948790000000003
30
0
10
7.6935579999999977
20
-3.2693580000000004
30
0
10
7.6630440000000011
20
-3.2474410000000016
30
0
0
SPLINE
5
330
100
AcDbEntity
8
0
100
AcDbSpline
70
0
71
3
72
8
73
4
74
0
42
0.000000001
43
0.0000000001
44
0.0000000001
40
-1
40
-1
40
-1
40
-1
40
0
40
0
40
0
40
0
10
7.6630440000000011
20
-3.2474410000000016
30
0
10
7.5798369999999977
20
-3.1875980000000013
30
0
10
7.3554259999999978
20
-2.9453820000000004
30
0
10
7.3554259999999978
20
-2.9154310000000008
30
0
0
SPLINE
5
331
100
AcDbEntity
8
0
100
AcDbSpline
70
0
71
3
72
8
73
4
74
0
42
0.000000001
43
0.0000000001
44
0.0000000001
40
-1
40
-1
40
-1
40
-1
40
0
40
0
40
0
40
0
10
7.3554259999999978
20
-2.9154310000000008
30
0
10
7.3554259999999978
20
-2.911709000000001
30
0
10
7.3464190000000009
20
-2.8997760000000006
30
0
10
7.3354140000000001
20
-2.8889060000000013
30
0
0
SPLINE
5
332
100
AcDbEntity
8
0
100
AcDbSpline
70
0
71
3
72
8
73
4
74
0
42
0.000000001
43
0.0000000001
44
0.0000000001
40
-1
40
-1
40
-1
40
-1
40
0
40
0
40
0
40
0
10
7.3354140000000001
20
-2.8889060000000013
30
0
10
7.3244079999999983
20
-2.8781539999999999
30
0
10
7.3154019999999988
20
-2.8646260000000003
30
0
10
7.3154019999999988
20
-2.8587180000000005
30
0
0
SPLINE
5
333
100
AcDbEntity
8
0
100
AcDbSpline
70
0
71
3
72
8
73
4
74
0
42
0.000000001
43
0.0000000001
44
0.0000000001
40
-1
40
-1
40
-1
40
-1
40
0
40
0
40
0
40
0
10
7.3154019999999988
20
-2.8587180000000005
30
0
10
7.3154019999999988
20
-2.8528699999999998
30
0
10
7.3107629999999997
20
-2.8431810000000008
30
0
10
7.305091
20
-2.8370970000000009
30
0
0
SPLINE
5
334
100
AcDbEntity
8
0
100
AcDbSpline
70
0
71
3
72
8
73
4
74
0
42
0.000000001
43
0.0000000001
44
0.0000000001
40
-1
40
-1
40
-1
40
-1
40
0
40
0
40
0
40
0
10
7.305091
20
-2.8370970000000009
30
0
10
7.2994239999999984
20
-2.8310120000000003
30
0
10
7.2883490000000002
20
-2.8109260000000007
30
0
10
7.2804880000000001
20
-2.7924950000000006
30
0
0
LINE
5
335
100
AcDbEntity
8
0
100
AcDbLine
10
7.2804880000000001
20
-2.7924950000000006
30
0
11
7.255481999999998
21
-2.733773999999999
31
0
0
SPLINE
5
336
100
AcDbEntity
8
0
100
AcDbSpline
70
0
71
3
72
8
73
4
74
0
42
0.000000001
43
0.0000000001
44
0.0000000001
40
-1
40
-1
40
-1
40
-1
40
0
40
0
40
0
40
0
10
7.255481999999998
20
-2.733773999999999
30
0
10
7.2495869999999973
20
-2.7199500000000008
30
0
10
7.240213999999999
20
-2.6915940000000007
30
0
10
7.2346529999999998
20
-2.6708580000000017
30
0
0
SPLINE
5
337
100
AcDbEntity
8
0
100
AcDbSpline
70
0
71
3
72
8
73
4
74
0
42
0.000000001
43
0.0000000001
44
0.0000000001
40
-1
40
-1
40
-1
40
-1
40
0
40
0
40
0
40
0
10
7.2346529999999998
20
-2.6708580000000017
30
0
10
7.2290919999999987
20
-2.6501230000000007
30
0
10
7.2208329999999989
20
-2.6255470000000005
30
0
10
7.2163270000000006
20
-2.6163310000000006
30
0
0
SPLINE
5
338
100
AcDbEntity
8
0
100
AcDbSpline
70
0
71
3
72
8
73
4
74
0
42
0.000000001
43
0.0000000001
44
0.0000000001
40
-1
40
-1
40
-1
40
-1
40
0
40
0
40
0
40
0
10
7.2163270000000006
20
-2.6163310000000006
30
0
10
7.2061959999999985
20
-2.595625000000001
30
0
10
7.2032809999999987
20
-2.5819790000000005
30
0
10
7.2015310000000001
20
-2.5471240000000002
30
0
0
SPLINE
5
339
100
AcDbEntity
8
0
100
AcDbSpline
70
0
71
3
72
8
73
4
74
0
42
0.000000001
43
0.0000000001
44
0.0000000001
40
-1
40
-1
40
-1
40
-1
40
0
40
0
40
0
40
0
10
7.2015310000000001
20
-2.5471240000000002
30
0
10
7.200778999999998
20
-2.5321780000000018
30
0
10
7.1968449999999997
20
-2.5198900000000006
30
0
10
7.1928159999999997
20
-2.5198900000000006
30
0
0
SPLINE
5
340
100
AcDbEntity
8
0
100
AcDbSpline
70
0
71
3
72
8
73
4
74
0
42
0.000000001
43
0.0000000001
44
0.0000000001
40
-1
40
-1
40
-1
40
-1
40
0
40
0
40
0
40
0
10
7.1928159999999997
20
-2.5198900000000006
30
0
10
7.1887340000000002
20
-2.5198900000000006
30
0
10
7.1873559999999994
20
-2.5123290000000007
30
0
10
7.1896350000000009
20
-2.5031129999999999
30
0
0
SPLINE
5
341
100
AcDbEntity
8
0
100
AcDbSpline
70
0
71
3
72
8
73
4
74
0
42
0.000000001
43
0.0000000001
44
0.0000000001
40
-1
40
-1
40
-1
40
-1
40
0
40
0
40
0
40
0
10
7.1896350000000009
20
-2.5031129999999999
30
0
10
7.1919149999999989
20
-2.4938970000000014
30
0
10
7.1910669999999994
20
-2.4847410000000023
30
0
10
7.1876739999999995
20
-2.4823780000000002
30
0
0
SPLINE
5
342
100
AcDbEntity
8
0
100
AcDbSpline
70
0
71
3
72
8
73
4
74
0
42
0.000000001
43
0.0000000001
44
0.0000000001
40
-1
40
-1
40
-1
40
-1
40
0
40
0
40
0
40
0
10
7.1876739999999995
20
-2.4823780000000002
30
0
10
7.1777129999999998
20
-2.4759150000000001
30
0
10
7.1784759999999999
20
-2.1423860000000006
30
0
10
7.1884690000000004
20
-2.1423860000000006
30
0
0
SPLINE
5
343
100
AcDbEntity
8
0
100
AcDbSpline
70
0
71
3
72
8
73
4
74
0
42
0.000000001
43
0.0000000001
44
0.0000000001
40
-1
40
-1
40
-1
40
-1
40
0
40
0
40
0
40
0
10
7.1884690000000004
20
-2.1423860000000006
30
0
10
7.1931339999999988
20
-2.1423860000000006
30
0
10
7.1948310000000015
20
-2.1364190000000001
30
0
10
7.1921270000000002
20
-2.1290939999999994
30
0
0
SPLINE
5
344
100
AcDbEntity
8
0
100
AcDbSpline
70
0
71
3
72
8
73
4
74
0
42
0.000000001
43
0.0000000001
44
0.0000000001
40
-1
40
-1
40
-1
40
-1
40
0
40
0
40
0
40
0
10
7.1921270000000002
20
-2.1290939999999994
30
0
10
7.1894759999999991
20
-2.1217690000000009
30
0
10
7.1898479999999996
20
-2.1113120000000007
30
0
10
7.1930809999999994
20
-2.1059949999999996
30
0
0
ELLIPSE
5
345
100
AcDbEntity
8
0
100
AcDbEllipse
10
7.1107054945352406
20
-0.31360657123102503
30
0
11
-0.078924651002264534
21
1.795239239462568
31
0.0
40
0.03630597501501804
41
3.1963822786778779
42
3.4507467455994743
0
SPLINE
5
346
100
AcDbEntity
8
0
100
AcDbSpline
70
0
71
3
72
8
73
4
74
0
42
0.000000001
43
0.0000000001
44
0.0000000001
40
-1
40
-1
40
-1
40
-1
40
0
40
0
40
0
40
0
10
7.2057189999999984
20
-2.0228640000000002
30
0
10
7.2062759999999999
20
-2.0147710000000001
30
0
10
7.2099599999999979
20
-2.0081539999999998
30
0
10
7.2138830000000009
20
-2.0081539999999998
30
0
0
SPLINE
5
347
100
AcDbEntity
8
0
100
AcDbSpline
70
0
71
3
72
8
73
4
74
0
42
0.000000001
43
0.0000000001
44
0.0000000001
40
-1
40
-1
40
-1
40
-1
40
0
40
0
40
0
40
0
10
7.2138830000000009
20
-2.0081539999999998
30
0
10
7.2178059999999959
20
-2.0081539999999998
30
0
10
7.2187070000000011
20
-2.0018330000000004
30
0
10
7.2158979999999957
20
-1.9941539999999989
30
0
0
SPLINE
5
348
100
AcDbEntity
8
0
100
AcDbSpline
70
0
71
3
72
8
73
4
74
0
42
0.000000001
43
0.0000000001
44
0.0000000001
40
-1
40
-1
40
-1
40
-1
40
0
40
0
40
0
40
0
10
7.2158979999999957
20
-1.9941539999999989
30
0
10
7.2130559999999981
20
-1.9864149999999985
30
0
10
7.2146249999999981
20
-1.9774940000000008
30
0
10
7.2193969999999998
20
-1.9745410000000003
30
0
0
SPLINE
5
349
100
AcDbEntity
8
0
100
AcDbSpline
70
0
71
3
72
8
73
4
74
0
42
0.000000001
43
0.0000000001
44
0.0000000001
40
-1
40
-1
40
-1
40
-1
40
0
40
0
40
0
40
0
10
7.2193969999999998
20
-1.9745410000000003
30
0
10
7.2241569999999982
20
-1.9714689999999997
30
0
10
7.2288589999999999
20
-1.9561089999999999
30
0
10
7.2298659999999986
20
-1.9403360000000003
30
0
0
SPLINE
5
350
100
AcDbEntity
8
0
100
AcDbSpline
70
0
71
3
72
8
73
4
74
0
42
0.000000001
43
0.0000000001
44
0.0000000001
40
-1
40
-1
40
-1
40
-1
40
0
40
0
40
0
40
0
10
7.2298659999999986
20
-1.9403360000000003
30
0
10
7.2308740000000018
20
-1.9245629999999985
30
0
10
7.2344359999999988
20
-1.9072530000000001
30
0
10
7.2378819999999973
20
-1.9013459999999993
30
0
0
SPLINE
5
351
100
AcDbEntity
8
0
100
AcDbSpline
70
0
71
3
72
8
73
4
74
0
42
0.000000001
43
0.0000000001
44
0.0000000001
40
-1
40
-1
40
-1
40
-1
40
0
40
0
40
0
40
0
10
7.2378819999999973
20
-1.9013459999999993
30
0
10
7.2467509999999988
20
-1.8865530000000006
30
0
10
7.2751179999999955
20
-1.7984239999999994
30
0
10
7.2710359999999969
20
-1.7984239999999994
30
0
0
SPLINE
5
352
100
AcDbEntity
8
0
100
AcDbSpline
70
0
71
3
72
8
73
4
74
0
42
0.000000001
43
0.0000000001
44
0.0000000001
40
-1
40
-1
40
-1
40
-1
40
0
40
0
40
0
40
0
10
7.2710359999999969
20
-1.7984239999999994
30
0
10
7.2691429999999988
20
-1.7984239999999994
30
0
10
7.2747409999999997
20
-1.7850140000000001
30
0
10
7.2834719999999988
20
-1.7687690000000007
30
0
0
SPLINE
5
353
100
AcDbEntity
8
0
100
AcDbSpline
70
0
71
3
72
8
73
4
74
0
42
0.000000001
43
0.0000000001
44
0.0000000001
40
-1
40
-1
40
-1
40
-1
40
0
40
0
40
0
40
0
10
7.2834719999999988
20
-1.7687690000000007
30
0
10
7.2922029999999989
20
-1.752464
30
0
10
7.2993439999999987
20
-1.7334999999999998
30
0
10
7.2993439999999987
20
-1.7265890000000002
30
0
0
SPLINE
5
354
100
AcDbEntity
8
0
100
AcDbSpline
70
0
71
3
72
8
73
4
74
0
42
0.000000001
43
0.0000000001
44
0.0000000001
40
-1
40
-1
40
-1
40
-1
40
0
40
0
40
0
40
0
10
7.2993439999999987
20
-1.7265890000000002
30
0
10
7.2993439999999987
20
-1.7080920000000011
30
0
10
7.3462830000000015
20
-1.613837
30
0
10
7.3554919999999981
20
-1.613837
30
0
0
SPLINE
5
355
100
AcDbEntity
8
0
100
AcDbSpline
70
0
71
3
72
8
73
4
74
0
42
0.000000001
43
0.0000000001
44
0.0000000001
40
-1
40
-1
40
-1
40
-1
40
0
40
0
40
0
40
0
10
7.3554919999999981
20
-1.613837
30
0
10
7.3598279999999976
20
-1.613837
30
0
10
7.3633799999999985
20
-1.6062749999999999
30
0
10
7.3633799999999985
20
-1.5970599999999988
30
0
0
SPLINE
5
356
100
AcDbEntity
8
0
100
AcDbSpline
70
0
71
3
72
8
73
4
74
0
42
0.000000001
43
0.0000000001
44
0.0000000001
40
-1
40
-1
40
-1
40
-1
40
0
40
0
40
0
40
0
10
7.3633799999999985
20
-1.5970599999999988
30
0
10
7.3633799999999985
20
-1.5878440000000005
30
0
10
7.3667619999999969
20
-1.5802819999999993
30
0
10
7.3708439999999991
20
-1.5802819999999993
30
0
0
SPLINE
5
357
100
AcDbEntity
8
0
100
AcDbSpline
70
0
71
3
72
8
73
4
74
0
42
0.000000001
43
0.0000000001
44
0.0000000001
40
-1
40
-1
40
-1
40
-1
40
0
40
0
40
0
40
0
10
7.3708439999999991
20
-1.5802819999999993
30
0
10
7.3749469999999979
20
-1.5802819999999993
30
0
10
7.3808689999999988
20
-1.5717750000000004
30
0
10
7.3839429999999968
20
-1.5613779999999995
30
0
0
SPLINE
5
358
100
AcDbEntity
8
0
100
AcDbSpline
70
0
71
3
72
8
73
4
74
0
42
0.000000001
43
0.0000000001
44
0.0000000001
40
-1
40
-1
40
-1
40
-1
40
0
40
0
40
0
40
0
10
12.716969999999996
20
-8.2774819999999991
30
0
10
12.575066
20
-8.3633180000000014
30
0
10
12.373098999999998
20
-8.4775710000000029
30
0
10
12.370183999999998
20
-8.4740260000000021
30
0
0
SPLINE
5
359
100
AcDbEntity
8
0
100
AcDbSpline
70
0
71
3
72
8
73
4
74
0
42
0.000000001
43
0.0000000001
44
0.0000000001
40
-1
40
-1
40
-1
40
-1
40
0
40
0
40
0
40
0
10
12.370183999999998
20
-8.4740260000000021
30
0
10
12.369180999999999
20
-8.4727440000000023
30
0
10
12.241353999999996
20
-8.2131070000000008
30
0
10
12.086123999999996
20
-7.8970589999999996
30
0
0
SPLINE
5
360
100
AcDbEntity
8
0
100
AcDbSpline
70
0
71
3
72
8
73
4
74
0
42
0.000000001
43
0.0000000001
44
0.0000000001
40
-1
40
-1
40
-1
40
-1
40
0
40
0
40
0
40
0
10
12.086123999999996
20
-7.8970589999999996
30
0
10
11.930893999999999
20
-7.5810110000000028
30
0
10
11.802623000000001
20
-7.3208540000000015
30
0
10
11.801033
20
-7.3190809999999988
30
0
0
SPLINE
5
361
100
AcDbEntity
8
0
100
AcDbSpline
70
0
71
3
72
8
73
4
74
0
42
0.000000001
43
0.0000000001
44
0.0000000001
40
-1
40
-1
40
-1
40
-1
40
0
40
0
40
0
40
0
10
11.801033
20
-7.3190809999999988
30
0
10
11.799461999999998
20
-7.317191000000002
30
0
10
11.749522999999998
20
-7.3398760000000003
30
0
10
11.690055999999998
20
-7.3693549999999988
30
0
0
SPLINE
5
362
100
AcDbEntity
8
0
100
AcDbSpline
70
0
71
3
72
8
73
4
74
0
42
0.000000001
43
0.0000000001
44
0.0000000001
40
-1
40
-1
40
-1
40
-1
40
0
40
0
40
0
40
0
10
11.690055999999998
20
-7.3693549999999988
30
0
10
11.607982999999999
20
-7.410080999999999
30
0
10
11.582892999999999
20
-7.4261500000000016
30
0
10
11.585914000000002
20
-7.4361340000000027
30
0
0
SPLINE
5
363
100
AcDbEntity
8
0
100
AcDbSpline
70
0
71
3
72
8
73
4
74
0
42
0.000000001
43
0.0000000001
44
0.0000000001
40
-1
40
-1
40
-1
40
-1
40
0
40
0
40
0
40
0
10
11.585914000000002
20
-7.4361340000000027
30
0
10
11.588103
20
-7.4433650000000018
30
0
10
11.707116000000005
20
-7.7091399999999997
30
0
10
11.850383999999996
20
-8.026741000000003
30
0
0
SPLINE
5
364
100
AcDbEntity
8
0
100
AcDbSpline
70
0
71
3
72
8
73
4
74
0
42
0.000000001
43
0.0000000001
44
0.0000000001
40
-1
40
-1
40
-1
40
-1
40
0
40
0
40
0
40
0
10
11.850383999999996
20
-8.026741000000003
30
0
10
11.993651999999999
20
-8.3443430000000021
30
0
10
12.107964999999997
20
-8.6073710000000005
30
0
10
12.104466
20
-8.6109159999999978
30
0
0
SPLINE
5
365
100
AcDbEntity
8
0
100
AcDbSpline
70
0
71
3
72
8
73
4
74
0
42
0.000000001
43
0.0000000001
44
0.0000000001
40
-1
40
-1
40
-1
40
-1
40
0
40
0
40
0
40
0
10
12.104466
20
-8.6109159999999978
30
0
10
12.094518000000001
20
-8.6213430000000013
30
0
10
11.897157999999996
20
-8.714239000000001
30
0
10
11.73907
20
-8.7829140000000034
30
0
0
SPLINE
5
366
100
AcDbEntity
8
0
100
AcDbSpline
70
0
71
3
72
8
73
4
74
0
42
0.000000001
43
0.0000000001
44
0.0000000001
40
-1
40
-1
40
-1
40
-1
40
0
40
0
40
0
40
0
10
11.73907
20
-8.7829140000000034
30
0
10
11.660494
20
-8.8170300000000008
30
0
10
11.591680999999999
20
-8.8449730000000013
30
0
10
11.586151999999998
20
-8.8449730000000013
30
0
0
SPLINE
5
367
100
AcDbEntity
8
0
100
AcDbSpline
70
0
71
3
72
8
73
4
74
0
42
0.000000001
43
0.0000000001
44
0.0000000001
40
-1
40
-1
40
-1
40
-1
40
0
40
0
40
0
40
0
10
11.586151999999998
20
-8.8449730000000013
30
0
10
11.577245
20
-8.8449730000000013
30
0
10
10.996409999999996
20
-7.307444000000002
30
0
10
10.994236999999996
20
-7.2782010000000019
30
0
0
SPLINE
5
368
100
AcDbEntity
8
0
100
AcDbSpline
70
0
71
3
72
8
73
4
74
0
42
0.000000001
43
0.0000000001
44
0.0000000001
40
-1
40
-1
40
-1
40
-1
40
0
40
0
40
0
40
0
10
10.994236999999996
20
-7.2782010000000019
30
0
10
10.993755999999996
20
-7.2716319999999985
30
0
10
11.038836999999994
20
-7.2475290000000019
30
0
10
11.105492999999994
20
-7.2185819999999996
30
0
0
SPLINE
5
369
100
AcDbEntity
8
0
100
AcDbSpline
70
0
71
3
72
8
73
4
74
0
42
0.000000001
43
0.0000000001
44
0.0000000001
40
-1
40
-1
40
-1
40
-1
40
0
40
0
40
0
40
0
10
11.105492999999994
20
-7.2185819999999996
30
0
10
11.562704999999998
20
-7.020271000000001
30
0
10
11.996736
20
-6.7716110000000009
30
0
10
12.410119
20
-6.4711520000000009
30
0
0
SPLINE
5
370
100
AcDbEntity
8
0
100
AcDbSpline
70
0
71
3
72
8
73
4
74
0
42
0.000000001
43
0.0000000001
44
0.0000000001
40
-1
40
-1
40
-1
40
-1
40
0
40
0
40
0
40
0
10
12.410119
20
-6.4711520000000009
30
0
10
12.480495999999999
20
-6.4200229999999987
30
0
10
12.551640000000001
20
-6.374003000000001
30
0
10
12.568222
20
-6.3686860000000003
30
0
0
SPLINE
5
371
100
AcDbEntity
8
0
100
AcDbSpline
70
0
71
3
72
8
73
4
74
0
42
0.000000001
43
0.0000000001
44
0.0000000001
40
-1
40
-1
40
-1
40
-1
40
0
40
0
40
0
40
0
10
12.568222
20
-6.3686860000000003
30
0
10
12.615081999999999
20
-6.3540350000000014
30
0
10
12.680964999999993
20
-6.3725260000000015
30
0
10
12.718996000000002
20
-6.411043000000002
30
0
0
SPLINE
5
372
100
AcDbEntity
8
0
100
AcDbSpline
70
0
71
3
72
8
73
4
74
0
42
0.000000001
43
0.0000000001
44
0.0000000001
40
-1
40
-1
40
-1
40
-1
40
0
40
0
40
0
40
0
10
12.718996000000002
20
-6.411043000000002
30
0
10
12.735587000000001
20
-6.427856000000002
30
0
10
12.945910000000005
20
-6.7129430000000028
30
0
10
13.186379000000002
20
-7.0445690000000019
30
0
0
SPLINE
5
373
100
AcDbEntity
8
0
100
AcDbSpline
70
0
71
3
72
8
73
4
74
0
42
0.000000001
43
0.0000000001
44
0.0000000001
40
-1
40
-1
40
-1
40
-1
40
0
40
0
40
0
40
0
10
13.186379000000002
20
-7.0445690000000019
30
0
10
13.586480999999999
20
-7.5963470000000015
30
0
10
13.622380999999999
20
-7.6484449999999988
30
0
10
13.609254999999999
20
-7.6586060000000016
30
0
0
SPLINE
5
374
100
AcDbEntity
8
0
100
AcDbSpline
70
0
71
3
72
8
73
4
74
0
42
0.000000001
43
0.0000000001
44
0.0000000001
40
-1
40
-1
40
-1
40
-1
40
0
40
0
40
0
40
0
10
13.609254999999999
20
-7.6586060000000016
30
0
10
13.282006000000001
20
-7.9113260000000016
30
0
10
13.135629000000002
20
-8.0141759999999991
30
0
10
13.126626999999994
20
-7.9976939999999992
30
0
0
SPLINE
5
375
100
AcDbEntity
8
0
100
AcDbSpline
70
0
71
3
72
8
73
4
74
0
42
0.000000001
43
0.0000000001
44
0.0000000001
40
-1
40
-1
40
-1
40
-1
40
0
40
0
40
0
40
0
10
13.126626999999994
20
-7.9976939999999992
30
0
10
13.122860000000005
20
-7.9907939999999993
30
0
10
12.972150999999998
20
-7.7492159999999997
30
0
10
12.791719999999998
20
-7.460850999999999
30
0
0
SPLINE
5
376
100
AcDbEntity
8
0
100
AcDbSpline
70
0
71
3
72
8
73
4
74
0
42
0.000000001
43
0.0000000001
44
0.0000000001
40
-1
40
-1
40
-1
40
-1
40
0
40
0
40
0
40
0
10
12.791719999999998
20
-7.460850999999999
30
0
10
12.522446999999998
20
-7.0304969999999996
30
0
10
12.460212
20
-6.935817000000001
30
0
10
12.444403999999999
20
-6.9340450000000002
30
0
0
SPLINE
5
377
100
AcDbEntity
8
0
100
AcDbSpline
70
0
71
3
72
8
73
4
74
0
42
0.000000001
43
0.0000000001
44
0.0000000001
40
-1
40
-1
40
-1
40
-1
40
0
40
0
40
0
40
0
10
12.444403999999999
20
-6.9340450000000002
30
0
10
12.431653000000003
20
-6.9323910000000026
30
0
10
12.394218999999998
20
-6.9516489999999997
30
0
10
12.333643
20
-6.9910530000000008
30
0
0
SPLINE
5
378
100
AcDbEntity
8
0
100
AcDbSpline
70
0
71
3
72
8
73
4
74
0
42
0.000000001
43
0.0000000001
44
0.0000000001
40
-1
40
-1
40
-1
40
-1
40
0
40
0
40
0
40
0
10
12.333643
20
-6.9910530000000008
30
0
10
12.283316000000003
20
-7.0238100000000001
30
0
10
12.242140999999998
20
-7.0529340000000005
30
0
10
12.242140999999998
20
-7.0564790000000004
30
0
0
SPLINE
5
379
100
AcDbEntity
8
0
100
AcDbSpline
70
0
71
3
72
8
73
4
74
0
42
0.000000001
43
0.0000000001
44
0.0000000001
40
-1
40
-1
40
-1
40
-1
40
0
40
0
40
0
40
0
10
12.242140999999998
20
-7.0564790000000004
30
0
10
12.242140999999998
20
-7.0597220000000016
30
0
10
12.385322999999998
20
-7.3100550000000011
30
0
10
12.560321999999996
20
-7.6127810000000036
30
0
0
SPLINE
5
380
100
AcDbEntity
8
0
100
AcDbSpline
70
0
71
3
72
8
73
4
74
0
42
0.000000001
43
0.0000000001
44
0.0000000001
40
-1
40
-1
40
-1
40
-1
40
0
40
0
40
0
40
0
10
12.560321999999996
20
-7.6127810000000036
30
0
10
12.735322999999999
20
-7.9155080000000009
30
0
10
12.878503999999998
20
-8.1665790000000023
30
0
10
12.878503999999998
20
-8.170714000000002
30
0
0
SPLINE
5
381
100
AcDbEntity
8
0
100
AcDbSpline
70
0
71
3
72
8
73
4
74
0
42
0.000000001
43
0.0000000001
44
0.0000000001
40
-1
40
-1
40
-1
40
-1
40
0
40
0
40
0
40
0
10
12.878503999999998
20
-8.170714000000002
30
0
10
12.878503999999998
20
-8.1798300000000008
30
0
10
12.879560999999999
20
-8.179139000000001
30
0
10
12.716969999999996
20
-8.2774819999999991
30
0
0
ELLIPSE
5
382
100
AcDbEntity
8
0
100
AcDbEllipse
10
9.8583927779261113
20
-7.7144697663405211
30
0
11
-0.05119781420165545
21
-0.093483434275319327
31
0.0
40
0.5031222833904031
41
4.0457057816474205
42
5.5471567798511972
0
SPLINE
5
383
100
AcDbEntity
8
0
100
AcDbSpline
70
0
71
3
72
8
73
4
74
0
42
0.000000001
43
0.0000000001
44
0.0000000001
40
-1
40
-1
40
-1
40
-1
40
0
40
0
40
0
40
0
10
9.8530899999999999
20
-7.6364180000000008
30
0
10
9.8755829999999989
20
-7.6176550000000036
30
0
10
9.9139139999999983
20
-7.6051900000000003
30
0
10
10.056894
20
-7.5699810000000003
30
0
0
SPLINE
5
384
100
AcDbEntity
8
0
100
AcDbSpline
70
0
71
3
72
8
73
4
74
0
42
0.000000001
43
0.0000000001
44
0.0000000001
40
-1
40
-1
40
-1
40
-1
40
0
40
0
40
0
40
0
10
10.056894
20
-7.5699810000000003
30
0
10
10.153748999999998
20
-7.5461149999999995
30
0
10
10.24048
20
-7.5248469999999994
30
0
10
10.249629999999998
20
-7.5224840000000004
30
0
0
SPLINE
5
385
100
AcDbEntity
8
0
100
AcDbSpline
70
0
71
3
72
8
73
4
74
0
42
0.000000001
43
0.0000000001
44
0.0000000001
40
-1
40
-1
40
-1
40
-1
40
0
40
0
40
0
40
0
10
10.249629999999998
20
-7.5224840000000004
30
0
10
10.265014999999996
20
-7.5186560000000018
30
0
10
10.269977000000001
20
-7.5319310000000002
30
0
10
10.315667999999999
20
-7.6991199999999989
30
0
0
SPLINE
5
386
100
AcDbEntity
8
0
100
AcDbSpline
70
0
71
3
72
8
73
4
74
0
42
0.000000001
43
0.0000000001
44
0.0000000001
40
-1
40
-1
40
-1
40
-1
40
0
40
0
40
0
40
0
10
10.315667999999999
20
-7.6991199999999989
30
0
10
10.342841999999996
20
-7.7985440000000033
30
0
10
10.365069999999998
20
-7.8838440000000016
30
0
10
10.365069999999998
20
-7.8885699999999987
30
0
0
SPLINE
5
387
100
AcDbEntity
8
0
100
AcDbSpline
70
0
71
3
72
8
73
4
74
0
42
0.000000001
43
0.0000000001
44
0.0000000001
40
-1
40
-1
40
-1
40
-1
40
0
40
0
40
0
40
0
10
10.365069999999998
20
-7.8885699999999987
30
0
10
10.365069999999998
20
-7.8937090000000012
30
0
10
10.358586000000001
20
-7.8972540000000011
30
0
10
10.350661000000001
20
-7.8972540000000011
30
0
0
ELLIPSE
5
388
100
AcDbEntity
8
0
100
AcDbEllipse
10
10.348193257722471
20
-7.9293302863616439
30
0
11
0.018562298966286861
21
0.027125633284010159
31
0.0
40
0.92231537851632717
41
0.55902876796787537
42
2.2131267632487157
0
SPLINE
5
389
100
AcDbEntity
8
0
100
AcDbSpline
70
0
71
3
72
8
73
4
74
0
42
0.000000001
43
0.0000000001
44
0.0000000001
40
-1
40
-1
40
-1
40
-1
40
0
40
0
40
0
40
0
10
10.317041
20
-7.9318720000000003
30
0
10
10.317041
20
-7.9536829999999989
30
0
10
10.514745
20
-8.749265000000003
30
0
10
10.525304999999999
20
-8.7699410000000011
30
0
0
SPLINE
5
390
100
AcDbEntity
8
0
100
AcDbSpline
70
0
71
3
72
8
73
4
74
0
42
0.000000001
43
0.0000000001
44
0.0000000001
40
-1
40
-1
40
-1
40
-1
40
0
40
0
40
0
40
0
10
10.525304999999999
20
-8.7699410000000011
30
0
10
10.532987
20
-8.7849229999999974
30
0
10
10.540323000000001
20
-8.7873690000000018
30
0
10
10.571488999999998
20
-8.7850060000000028
30
0
0
LINE
5
391
100
AcDbEntity
8
0
100
AcDbLine
10
10.571488999999998
20
-8.7850060000000028
30
0
11
10.608539999999998
21
-8.7820520000000002
31
0
0
LINE
5
392
100
AcDbEntity
8
0
100
AcDbLine
10
10.608539999999998
20
-8.7820520000000002
30
0
11
10.658758000000001
21
-8.9660539999999997
31
0
0
SPLINE
5
393
100
AcDbEntity
8
0
100
AcDbSpline
70
0
71
3
72
8
73
4
74
0
42
0.000000001
43
0.0000000001
44
0.0000000001
40
-1
40
-1
40
-1
40
-1
40
0
40
0
40
0
40
0
10
10.658758000000001
20
-8.9660540000000015
30
0
10
10.686382999999998
20
-9.0672630000000041
30
0
10
10.708128000000002
20
-9.1505410000000023
30
0
10
10.707120999999999
20
-9.1517230000000023
30
0
0
SPLINE
5
394
100
AcDbEntity
8
0
100
AcDbSpline
70
0
71
3
72
8
73
4
74
0
42
0.000000001
43
0.0000000001
44
0.0000000001
40
-1
40
-1
40
-1
40
-1
40
0
40
0
40
0
40
0
10
10.707120999999999
20
-9.1517230000000023
30
0
10
10.702927000000003
20
-9.1554739999999999
30
0
10
10.472513999999999
20
-9.2153530000000003
30
0
10
10.355769999999996
20
-9.2430599999999998
30
0
0
LINE
5
395
100
AcDbEntity
8
0
100
AcDbLine
10
10.355769999999996
20
-9.2430599999999998
30
0
11
10.355769
21
-9.2432780000000019
31
0
0
SPLINE
5
396
100
AcDbEntity
8
0
100
AcDbSpline
70
0
71
3
72
8
73
4
74
0
42
0.000000001
43
0.0000000001
44
0.0000000001
40
-1
40
-1
40
-1
40
-1
40
0
40
0
40
0
40
0
10
10.355769
20
-9.2432780000000019
30
0
10
10.204660999999996
20
-9.2791370000000022
30
0
10
10.173753
20
-9.2801410000000022
30
0
10
10.118275999999996
20
-9.2511940000000017
30
0
0
SPLINE
5
397
100
AcDbEntity
8
0
100
AcDbSpline
70
0
71
3
72
8
73
4
74
0
42
0.000000001
43
0.0000000001
44
0.0000000001
40
-1
40
-1
40
-1
40
-1
40
0
40
0
40
0
40
0
10
10.118275999999996
20
-9.2511940000000017
30
0
10
10.038204
20
-9.2093749999999996
30
0
10
10.050510999999998
20
-9.2550520000000009
30
0
10
9.912431999999999
20
-8.4871820000000024
30
0
0
SPLINE
5
398
100
AcDbEntity
8
0
100
AcDbSpline
70
0
71
3
72
8
73
4
74
0
42
0.000000001
43
0.0000000001
44
0.0000000001
40
-1
40
-1
40
-1
40
-1
40
0
40
0
40
0
40
0
10
9.912431999999999
20
-8.4871820000000024
30
0
10
9.8445459999999994
20
-8.1096660000000025
30
0
10
9.7889520000000001
20
-7.7853649999999988
30
0
10
9.7888719999999996
20
-7.7664609999999996
30
0
0
SPLINE
5
399
100
AcDbEntity
8
0
100
AcDbSpline
70
0
71
3
72
8
73
4
74
0
42
0.000000001
43
0.0000000001
44
0.0000000001
40
-1
40
-1
40
-1
40
-1
40
0
40
0
40
0
40
0
10
7.582120999999999
20
5.7990629999999994
30
0
10
7.5921699999999985
20
5.8095780000000037
30
0
10
8.1048500000000008
20
5.8497500000000038
30
0
10
8.1135009999999976
20
5.8406519999999995
30
0
0
SPLINE
5
400
100
AcDbEntity
8
0
100
AcDbSpline
70
0
71
3
72
8
73
4
74
0
42
0.000000001
43
0.0000000001
44
0.0000000001
40
-1
40
-1
40
-1
40
-1
40
0
40
0
40
0
40
0
10
8.1135009999999976
20
5.8406519999999995
30
0
10
8.1185479999999988
20
5.8353589999999995
30
0
10
8.1913689999999981
20
4.1498739999999987
30
0
10
8.1867570000000001
20
4.1457389999999998
30
0
0
SPLINE
5
401
100
AcDbEntity
8
0
100
AcDbSpline
70
0
71
3
72
8
73
4
74
0
42
0.000000001
43
0.0000000001
44
0.0000000001
40
-1
40
-1
40
-1
40
-1
40
0
40
0
40
0
40
0
10
8.1867570000000001
20
4.1457389999999998
30
0
10
8.1851450000000003
20
4.1442619999999994
30
0
10
8.1009789999999988
20
4.1367009999999995
30
0
10
7.9997219999999976
20
4.1290209999999989
30
0
0
LINE
5
402
100
AcDbEntity
8
0
100
AcDbLine
10
7.9997219999999976
20
4.1290209999999989
30
0
11
7.9997210000000036
21
4.1291390000000003
31
0
0
SPLINE
5
403
100
AcDbEntity
8
0
100
AcDbSpline
70
0
71
3
72
8
73
4
74
0
42
0.000000001
43
0.0000000001
44
0.0000000001
40
-1
40
-1
40
-1
40
-1
40
0
40
0
40
0
40
0
10
7.9997210000000036
20
4.1291390000000003
30
0
10
7.8984630000000005
20
4.1214000000000004
30
0
10
7.8003039999999988
20
4.113128999999998
30
0
10
7.7815959999999977
20
4.1101759999999992
30
0
0
SPLINE
5
404
100
AcDbEntity
8
0
100
AcDbSpline
70
0
71
3
72
8
73
4
74
0
42
0.000000001
43
0.0000000001
44
0.0000000001
40
-1
40
-1
40
-1
40
-1
40
0
40
0
40
0
40
0
10
7.7815959999999977
20
4.1101759999999992
30
0
10
7.7628880000000011
20
4.1072220000000019
30
0
10
7.7475779999999999
20
4.1084029999999991
30
0
10
7.7476579999999977
20
4.1125389999999982
30
0
0
SPLINE
5
405
100
AcDbEntity
8
0
100
AcDbSpline
70
0
71
3
72
8
73
4
74
0
42
0.000000001
43
0.0000000001
44
0.0000000001
40
-1
40
-1
40
-1
40
-1
40
0
40
0
40
0
40
0
10
7.7476579999999977
20
4.1125389999999982
30
0
10
7.7477020000000003
20
4.1166030000000005
30
0
10
7.7096089999999977
20
4.4968310000000002
30
0
10
7.6630000000000011
20
4.9574730000000002
30
0
0
SPLINE
5
406
100
AcDbEntity
8
0
100
AcDbSpline
70
0
71
3
72
8
73
4
74
0
42
0.000000001
43
0.0000000001
44
0.0000000001
40
-1
40
-1
40
-1
40
-1
40
0
40
0
40
0
40
0
10
7.6630000000000011
20
4.9574730000000002
30
0
10
7.6163939999999988
20
5.418126
30
0
10
7.5800009999999984
20
5.7967000000000022
30
0
10
7.582120999999999
20
5.7990629999999994
30
0
0
SPLINE
5
407
100
AcDbEntity
8
0
100
AcDbSpline
70
0
71
3
72
8
73
4
74
0
42
0.000000001
43
0.0000000001
44
0.0000000001
40
-1
40
-1
40
-1
40
-1
40
0
40
0
40
0
40
0
10
10.289027000000001
20
-4.6937759999999997
30
0
10
10.311038999999996
20
-4.6890500000000008
30
0
10
10.390283999999999
20
-4.6789479999999992
30
0
10
10.465126999999999
20
-4.6714449999999994
30
0
0
SPLINE
5
408
100
AcDbEntity
8
0
100
AcDbSpline
70
0
71
3
72
8
73
4
74
0
42
0.000000001
43
0.0000000001
44
0.0000000001
40
-1
40
-1
40
-1
40
-1
40
0
40
0
40
0
40
0
10
10.465126999999999
20
-4.6714449999999994
30
0
10
10.609462000000001
20
-4.6569130000000012
30
0
10
10.658111
20
-4.6439810000000019
30
0
10
10.751725999999996
20
-4.5951850000000007
30
0
0
SPLINE
5
409
100
AcDbEntity
8
0
100
AcDbSpline
70
0
71
3
72
8
73
4
74
0
42
0.000000001
43
0.0000000001
44
0.0000000001
40
-1
40
-1
40
-1
40
-1
40
0
40
0
40
0
40
0
10
10.751725999999996
20
-4.5951850000000007
30
0
10
10.840341
20
-4.5490050000000011
30
0
10
10.900124999999997
20
-4.5023949999999999
30
0
10
10.993428000000002
20
-4.406740000000001
30
0
0
ELLIPSE
5
410
100
AcDbEntity
8
0
100
AcDbEllipse
10
10.938776840772588
20
-4.6028246315052428
30
0
11
-0.27568126566364137
21
-0.34221261581997209
31
0.0
40
0.20230824349899065
41
3.6609536042542645
42
4.2728701579941077
0
SPLINE
5
411
100
AcDbEntity
8
0
100
AcDbSpline
70
0
71
3
72
8
73
4
74
0
42
0.000000001
43
0.0000000001
44
0.0000000001
40
-1
40
-1
40
-1
40
-1
40
0
40
0
40
0
40
0
10
11.143743999999998
20
-4.2780560000000012
30
0
10
11.177987999999994
20
-4.2568470000000005
30
0
10
11.207748999999998
20
-4.2395970000000007
30
0
10
11.209868999999996
20
-4.2395970000000007
30
0
0
SPLINE
5
412
100
AcDbEntity
8
0
100
AcDbSpline
70
0
71
3
72
8
73
4
74
0
42
0.000000001
43
0.0000000001
44
0.0000000001
40
-1
40
-1
40
-1
40
-1
40
0
40
0
40
0
40
0
10
11.209868999999996
20
-4.2395970000000007
30
0
10
11.211995
20
-4.2395970000000007
30
0
10
11.229001
20
-4.2322720000000018
30
0
10
11.247661000000004
20
-4.2233520000000011
30
0
0
ELLIPSE
5
413
100
AcDbEntity
8
0
100
AcDbEllipse
10
11.444738036357533
20
-4.180742270202523
30
0
11
0.21486287066801008
21
0.055979048256396609
31
0.0
40
0.090544747158857436
41
1.3173138010464427
42
2.7076220524268519
0
ELLIPSE
5
414
100
AcDbEntity
8
0
100
AcDbEllipse
10
11.590693875300419
20
-4.0993969285574119
30
0
11
0.20922791942454727
21
0.06183023020639844
31
0.0
40
0.099867620754123587
41
4.2011568996250386
42
5.7367960736047321
0
SPLINE
5
415
100
AcDbEntity
8
0
100
AcDbSpline
70
0
71
3
72
8
73
4
74
0
42
0.000000001
43
0.0000000001
44
0.0000000001
40
-1
40
-1
40
-1
40
-1
40
0
40
0
40
0
40
0
10
11.772667999999998
20
-4.0574260000000004
30
0
10
12.094177
20
-3.9024590000000008
30
0
10
12.172460000000003
20
-3.853231000000001
30
0
10
12.302175999999998
20
-3.7244530000000005
30
0
0
SPLINE
5
416
100
AcDbEntity
8
0
100
AcDbSpline
70
0
71
3
72
8
73
4
74
0
42
0.000000001
43
0.0000000001
44
0.0000000001
40
-1
40
-1
40
-1
40
-1
40
0
40
0
40
0
40
0
10
12.302175999999998
20
-3.7244530000000005
30
0
10
12.410497999999999
20
-3.6169170000000004
30
0
10
12.573352999999999
20
-3.5320500000000008
30
0
10
12.834479
20
-3.4470750000000017
30
0
0
SPLINE
5
417
100
AcDbEntity
8
0
100
AcDbSpline
70
0
71
3
72
8
73
4
74
0
42
0.000000001
43
0.0000000001
44
0.0000000001
40
-1
40
-1
40
-1
40
-1
40
0
40
0
40
0
40
0
10
12.834479
20
-3.4470750000000017
30
0
10
13.173342000000003
20
-3.336799000000001
30
0
10
13.259395000000003
20
-3.2944060000000008
30
0
10
13.404420000000004
20
-3.1663070000000002
30
0
0
ELLIPSE
5
418
100
AcDbEntity
8
0
100
AcDbEllipse
10
13.531258989935242
20
-2.8690909548748356
30
0
11
0.21007939119961058
21
0.33494821567536687
31
0.0
40
0.21629559028208437
41
3.7728464874304128
42
5.012379258703298
0
SPLINE
5
419
100
AcDbEntity
8
0
100
AcDbSpline
70
0
71
3
72
8
73
4
74
0
42
0.000000001
43
0.0000000001
44
0.0000000001
40
-1
40
-1
40
-1
40
-1
40
0
40
0
40
0
40
0
10
13.662552
20
-2.8135200000000014
30
0
10
13.713537999999996
20
-2.7187620000000003
30
0
10
13.831923
20
-2.602065000000001
30
0
10
13.927959
20
-2.5519089999999998
30
0
0
SPLINE
5
420
100
AcDbEntity
8
0
100
AcDbSpline
70
0
71
3
72
8
73
4
74
0
42
0.000000001
43
0.0000000001
44
0.0000000001
40
-1
40
-1
40
-1
40
-1
40
0
40
0
40
0
40
0
10
13.927959
20
-2.5519089999999998
30
0
10
14.005167999999998
20
-2.5115840000000005
30
0
10
14.026435999999993
20
-2.5036740000000002
30
0
10
14.299313999999999
20
-2.413927000000001
30
0
0
SPLINE
5
421
100
AcDbEntity
8
0
100
AcDbSpline
70
0
71
3
72
8
73
4
74
0
42
0.000000001
43
0.0000000001
44
0.0000000001
40
-1
40
-1
40
-1
40
-1
40
0
40
0
40
0
40
0
10
14.299313999999999
20
-2.413927000000001
30
0
10
14.562129000000002
20
-2.3274930000000014
30
0
10
14.741286000000001
20
-2.1696669999999996
30
0
10
14.963304000000001
20
-1.8290260000000003
30
0
0
LINE
5
422
100
AcDbEntity
8
0
100
AcDbLine
10
14.963304000000003
20
-1.8290260000000003
30
0
11
15.026952
21
-1.7313679999999996
31
0
0
LINE
5
423
100
AcDbEntity
8
0
100
AcDbLine
10
15.026952
20
-1.7313679999999996
30
0
11
15.093376999999993
21
-1.7313679999999996
31
0
0
SPLINE
5
424
100
AcDbEntity
8
0
100
AcDbSpline
70
0
71
3
72
8
73
4
74
0
42
0.000000001
43
0.0000000001
44
0.0000000001
40
-1
40
-1
40
-1
40
-1
40
0
40
0
40
0
40
0
10
15.093376999999993
20
-1.7313679999999994
30
0
10
15.129909999999999
20
-1.7313679999999994
30
0
10
15.159803999999998
20
-1.7331399999999997
30
0
10
15.159803999999998
20
-1.7360939999999996
30
0
0
ELLIPSE
5
425
100
AcDbEntity
8
0
100
AcDbEllipse
10
14.863662005454104
20
-2.1680422538346416
30
0
11
-0.29575384941307564
21
-0.43303590621032395
31
0.0
40
0.035002846869760566
41
2.1248521151489546
42
3.0906890776743832
0
SPLINE
5
426
100
AcDbEntity
8
0
100
AcDbSpline
70
0
71
3
72
8
73
4
74
0
42
0.000000001
43
0.0000000001
44
0.0000000001
40
-1
40
-1
40
-1
40
-1
40
0
40
0
40
0
40
0
10
15.032159999999998
20
-1.9490080000000007
30
0
10
14.963553999999998
20
-2.0542809999999996
30
0
10
14.925125
20
-2.1025220000000009
30
0
10
14.827614000000002
20
-2.205773999999999
30
0
0
ELLIPSE
5
427
100
AcDbEntity
8
0
100
AcDbEllipse
10
14.765959858438402
20
-2.2545581996980317
30
0
11
-0.13150296675081444
21
-0.13239616356388073
31
0.0
40
0.055250684796838138
41
0.39696730495809618
42
2.0023880463134107
0
SPLINE
5
428
100
AcDbEntity
8
0
100
AcDbSpline
70
0
71
3
72
8
73
4
74
0
42
0.000000001
43
0.0000000001
44
0.0000000001
40
-1
40
-1
40
-1
40
-1
40
0
40
0
40
0
40
0
10
14.647510999999998
20
-2.3794680000000006
30
0
10
14.586915999999999
20
-2.426463
30
0
10
14.447105000000001
20
-2.5030660000000009
30
0
10
14.421939999999996
20
-2.5030660000000009
30
0
0
SPLINE
5
429
100
AcDbEntity
8
0
100
AcDbSpline
70
0
71
3
72
8
73
4
74
0
42
0.000000001
43
0.0000000001
44
0.0000000001
40
-1
40
-1
40
-1
40
-1
40
0
40
0
40
0
40
0
10
14.421939999999996
20
-2.5030660000000009
30
0
10
14.41445
20
-2.5030660000000009
30
0
10
14.406295999999996
20
-2.5066690000000023
30
0
10
14.403751999999995
20
-2.5108050000000013
30
0
0
SPLINE
5
430
100
AcDbEntity
8
0
100
AcDbSpline
70
0
71
3
72
8
73
4
74
0
42
0.000000001
43
0.0000000001
44
0.0000000001
40
-1
40
-1
40
-1
40
-1
40
0
40
0
40
0
40
0
10
14.403751999999995
20
-2.5108050000000013
30
0
10
14.401239000000004
20
-2.5150579999999998
30
0
10
14.388420999999996
20
-2.521084000000001
30
0
10
14.375263
20
-2.5240380000000009
30
0
0
SPLINE
5
431
100
AcDbEntity
8
0
100
AcDbSpline
70
0
71
3
72
8
73
4
74
0
42
0.000000001
43
0.0000000001
44
0.0000000001
40
-1
40
-1
40
-1
40
-1
40
0
40
0
40
0
40
0
10
14.375263
20
-2.5240380000000009
30
0
10
14.362104999999996
20
-2.5270500000000014
30
0
10
14.351343999999999
20
-2.5331940000000017
30
0
10
14.351343999999999
20
-2.5367390000000003
30
0
0
SPLINE
5
432
100
AcDbEntity
8
0
100
AcDbSpline
70
0
71
3
72
8
73
4
74
0
42
0.000000001
43
0.0000000001
44
0.0000000001
40
-1
40
-1
40
-1
40
-1
40
0
40
0
40
0
40
0
10
14.351343999999999
20
-2.5367390000000003
30
0
10
14.351343999999999
20
-2.5570730000000013
30
0
10
14.307712999999998
20
-2.8054260000000002
30
0
10
14.286662
20
-2.9049040000000002
30
0
0
ELLIPSE
5
433
100
AcDbEntity
8
0
100
AcDbEllipse
10
8.5015660849718202
20
-1.8219183765520417
30
0
11
5.8981692042335379
21
-0.027022586292390662
31
0.0
40
0.93929173787946563
41
5.6101589223624302
42
6.091317196689312
0
ELLIPSE
5
434
100
AcDbEntity
8
0
100
AcDbEllipse
10
12.70780765415474
20
-5.5441095008099364
30
0
11
0.62570530355254483
21
0.6246829694305851
31
0.0
40
0.13184875873169238
41
4.1331798227132461
42
5.2475465989770953
0
ELLIPSE
5
435
100
AcDbEntity
8
0
100
AcDbEllipse
10
7.2145360683982389
20
0.96150260048794312
30
0
11
4.4042337190541119
21
-7.4928987862042078
31
0.0
40
0.82737523031125693
41
5.8809331507843936
42
6.4220061102159693
0
LINE
5
436
100
AcDbEntity
8
0
100
AcDbLine
10
8.8402019999999961
20
-7.3599030000000001
30
0
11
8.8402000000000047
21
-7.3600679999999983
31
0
0
ELLIPSE
5
437
100
AcDbEntity
8
0
100
AcDbEllipse
10
8.3733114304836391
20
-7.2883917377351155
30
0
11
0.76888897350378993
21
-0.016162977979897929
31
0.0
40
0.10138283113029958
41
4.1090274497774422
42
5.3670816489786652
0
ELLIPSE
5
438
100
AcDbEntity
8
0
100
AcDbEllipse
10
8.051366375409355
20
-2.9630858913376006
30
0
11
5.0472245148416333
21
-1.2558835265490249
31
0.0
40
0.83657454270912879
41
4.2203709250874475
42
4.8951792466432504
0
LINE
5
439
100
AcDbEntity
8
0
100
AcDbLine
10
4.7410149999999955
20
-6.0913260000000005
30
0
11
4.6365480000000003
21
-6.0093530000000008
31
0
0
LINE
5
440
100
AcDbEntity
8
0
100
AcDbLine
10
4.6365480000000003
20
-6.0093530000000008
30
0
11
4.5050999999999988
21
-6.0058080000000009
31
0
0
SPLINE
5
441
100
AcDbEntity
8
0
100
AcDbSpline
70
0
71
3
72
8
73
4
74
0
42
0.000000001
43
0.0000000001
44
0.0000000001
40
-1
40
-1
40
-1
40
-1
40
0
40
0
40
0
40
0
10
4.5050999999999988
20
-6.0058080000000018
30
0
10
4.3715640000000002
20
-6.0025590000000006
30
0
10
4.2965789999999995
20
-5.9892080000000005
30
0
10
4.2231249999999996
20
-5.9555940000000014
30
0
0
LINE
5
442
100
AcDbEntity
8
0
100
AcDbLine
10
4.2231249999999996
20
-5.9555940000000014
30
0
11
4.192664999999999
21
-5.9416520000000013
31
0
0
LINE
5
443
100
AcDbEntity
8
0
100
AcDbLine
10
4.192664999999999
20
-5.9416520000000013
30
0
11
4.2163239999999984
21
-5.9105200000000018
31
0
0
SPLINE
5
444
100
AcDbEntity
8
0
100
AcDbSpline
70
0
71
3
72
8
73
4
74
0
42
0.000000001
43
0.0000000001
44
0.0000000001
40
-1
40
-1
40
-1
40
-1
40
0
40
0
40
0
40
0
10
4.2163239999999984
20
-5.9105200000000009
30
0
10
4.2293380000000003
20
-5.8933880000000007
30
0
10
4.248964
20
-5.8705850000000011
30
0
10
4.2599319999999983
20
-5.8598919999999994
30
0
0
LINE
5
445
100
AcDbEntity
8
0
100
AcDbLine
10
4.2599319999999992
20
-5.8598919999999994
30
0
11
4.2798800000000004
21
-5.8403969999999994
31
0
0
LINE
5
446
100
AcDbEntity
8
0
100
AcDbLine
10
4.2798800000000004
20
-5.8403969999999994
30
0
11
4.334770999999999
21
-5.8589469999999997
31
0
0
SPLINE
5
447
100
AcDbEntity
8
0
100
AcDbSpline
70
0
71
3
72
8
73
4
74
0
42
0.000000001
43
0.0000000001
44
0.0000000001
40
-1
40
-1
40
-1
40
-1
40
0
40
0
40
0
40
0
10
4.334770999999999
20
-5.8589470000000006
30
0
10
4.3751819999999988
20
-5.8725930000000011
30
0
10
4.4160560000000002
20
-5.8782640000000006
30
0
10
4.489719
20
-5.8812179999999996
30
0
0
SPLINE
5
448
100
AcDbEntity
8
0
100
AcDbSpline
70
0
71
3
72
8
73
4
74
0
42
0.000000001
43
0.0000000001
44
0.0000000001
40
-1
40
-1
40
-1
40
-1
40
0
40
0
40
0
40
0
10
4.489719
20
-5.8812179999999996
30
0
10
4.5950030000000002
20
-5.8851350000000009
30
0
10
4.5969320000000007
20
-5.8848389999999995
30
0
10
4.873937999999999
20
-5.822438
30
0
0
SPLINE
5
449
100
AcDbEntity
8
0
100
AcDbSpline
70
0
71
3
72
8
73
4
74
0
42
0.000000001
43
0.0000000001
44
0.0000000001
40
-1
40
-1
40
-1
40
-1
40
0
40
0
40
0
40
0
10
4.873937999999999
20
-5.822438
30
0
10
5.0232900000000003
20
-5.7888240000000009
30
0
10
5.0574519999999987
20
-5.7830939999999993
30
0
10
5.1500959999999996
20
-5.7789580000000003
30
0
0
SPLINE
5
450
100
AcDbEntity
8
0
100
AcDbSpline
70
0
71
3
72
8
73
4
74
0
42
0.000000001
43
0.0000000001
44
0.0000000001
40
-1
40
-1
40
-1
40
-1
40
0
40
0
40
0
40
0
10
5.1500959999999996
20
-5.7789580000000003
30
0
10
5.1985229999999989
20
-5.7766540000000006
30
0
10
5.274165
20
-5.7706879999999998
30
0
10
5.3181909999999997
20
-5.7665519999999999
30
0
0
SPLINE
5
451
100
AcDbEntity
8
0
100
AcDbSpline
70
0
71
3
72
8
73
4
74
0
42
0.000000001
43
0.0000000001
44
0.0000000001
40
-1
40
-1
40
-1
40
-1
40
0
40
0
40
0
40
0
10
5.3181909999999997
20
-5.7665519999999999
30
0
10
5.4392159999999992
20
-5.7544420000000009
30
0
10
5.6574519999999975
20
-5.7561549999999997
30
0
10
5.7372839999999998
20
-5.7700969999999989
30
0
0
SPLINE
5
452
100
AcDbEntity
8
0
100
AcDbSpline
70
0
71
3
72
8
73
4
74
0
42
0.000000001
43
0.0000000001
44
0.0000000001
40
-1
40
-1
40
-1
40
-1
40
0
40
0
40
0
40
0
10
5.7372839999999998
20
-5.7700969999999989
30
0
10
5.8095499999999998
20
-5.7826799999999992
30
0
10
5.922593
20
-5.7989260000000016
30
0
10
5.9705630000000003
20
-5.8036520000000005
30
0
0
SPLINE
5
453
100
AcDbEntity
8
0
100
AcDbSpline
70
0
71
3
72
8
73
4
74
0
42
0.000000001
43
0.0000000001
44
0.0000000001
40
-1
40
-1
40
-1
40
-1
40
0
40
0
40
0
40
0
10
5.9705630000000003
20
-5.8036520000000005
30
0
10
5.9859719999999994
20
-5.8051289999999991
30
0
10
6.0273939999999984
20
-5.8109180000000009
30
0
10
6.0626160000000002
20
-5.8168260000000007
30
0
0
SPLINE
5
454
100
AcDbEntity
8
0
100
AcDbSpline
70
0
71
3
72
8
73
4
74
0
42
0.000000001
43
0.0000000001
44
0.0000000001
40
-1
40
-1
40
-1
40
-1
40
0
40
0
40
0
40
0
10
6.0626160000000002
20
-5.8168260000000007
30
0
10
6.1472929999999995
20
-5.830673
30
0
10
6.4077319999999993
20
-5.830673
30
0
10
6.4748509999999992
20
-5.8169079999999997
30
0
0
SPLINE
5
455
100
AcDbEntity
8
0
100
AcDbSpline
70
0
71
3
72
8
73
4
74
0
42
0.000000001
43
0.0000000001
44
0.0000000001
40
-1
40
-1
40
-1
40
-1
40
0
40
0
40
0
40
0
10
6.4748509999999992
20
-5.8169079999999997
30
0
10
6.5034690000000008
20
-5.811001000000001
30
0
10
6.5364379999999995
20
-5.8045030000000004
30
0
10
6.5481220000000011
20
-5.8033210000000004
30
0
0
ELLIPSE
5
456
100
AcDbEntity
8
0
100
AcDbEllipse
10
6.8600747043112795
20
-5.6395079638370484
30
0
11
0.35383849166387971
21
0.15817891173642887
31
0.0
40
0.13643155233610771
41
3.5756345994412086
42
4.8990953681659679
0
SPLINE
5
457
100
AcDbEntity
8
0
100
AcDbSpline
70
0
71
3
72
8
73
4
74
0
42
0.000000001
43
0.0000000001
44
0.0000000001
40
-1
40
-1
40
-1
40
-1
40
0
40
0
40
0
40
0
10
6.9469609999999991
20
-5.6575820000000006
30
0
10
7.117407
20
-5.5760990000000019
30
0
10
7.2205570000000012
20
-5.5412800000000004
30
0
10
7.3833699999999984
20
-5.5102650000000004
30
0
0
SPLINE
5
458
100
AcDbEntity
8
0
100
AcDbSpline
70
0
71
3
72
8
73
4
74
0
42
0.000000001
43
0.0000000001
44
0.0000000001
40
-1
40
-1
40
-1
40
-1
40
0
40
0
40
0
40
0
10
7.3833699999999984
20
-5.5102650000000004
30
0
10
7.447277999999999
20
-5.4981009999999992
30
0
10
7.4940759999999971
20
-5.4955550000000004
30
0
10
7.6155020000000011
20
-5.4979180000000012
30
0
0
SPLINE
5
459
100
AcDbEntity
8
0
100
AcDbSpline
70
0
71
3
72
8
73
4
74
0
42
0.000000001
43
0.0000000001
44
0.0000000001
40
-1
40
-1
40
-1
40
-1
40
0
40
0
40
0
40
0
10
7.6155020000000011
20
-5.4979180000000012
30
0
10
7.9531199999999975
20
-5.5043570000000015
30
0
10
7.9784809999999968
20
-5.5033530000000015
30
0
10
8.0686579999999992
20
-5.4802550000000005
30
0
0
SPLINE
5
460
100
AcDbEntity
8
0
100
AcDbSpline
70
0
71
3
72
8
73
4
74
0
42
0.000000001
43
0.0000000001
44
0.0000000001
40
-1
40
-1
40
-1
40
-1
40
0
40
0
40
0
40
0
10
8.0686579999999992
20
-5.4802550000000005
30
0
10
8.1554139999999986
20
-5.4580069999999994
30
0
10
8.2290939999999964
20
-5.4247240000000012
30
0
10
8.3502109999999981
20
-5.3530769999999999
30
0
0
ELLIPSE
5
461
100
AcDbEntity
8
0
100
AcDbEllipse
10
8.7593767227439798
20
-5.1729436335182681
30
0
11
0.49113725498566518
21
0.23996327505516221
31
0.0
40
0.05641171679865626
41
1.6068689939716501
42
2.5273558867099131
0
SPLINE
5
462
100
AcDbEntity
8
0
100
AcDbSpline
70
0
71
3
72
8
73
4
74
0
42
0.000000001
43
0.0000000001
44
0.0000000001
40
-1
40
-1
40
-1
40
-1
40
0
40
0
40
0
40
0
10
8.7281359999999957
20
-5.1539100000000007
30
0
10
8.7440149999999974
20
-5.1461120000000014
30
0
10
8.8063590000000005
20
-5.1232489999999995
30
0
10
8.8602120000000006
20
-5.1054680000000019
30
0
0
SPLINE
5
463
100
AcDbEntity
8
0
100
AcDbSpline
70
0
71
3
72
8
73
4
74
0
42
0.000000001
43
0.0000000001
44
0.0000000001
40
-1
40
-1
40
-1
40
-1
40
0
40
0
40
0
40
0
10
8.8602120000000006
20
-5.1054680000000019
30
0
10
8.8918890000000008
20
-5.0950110000000031
30
0
10
8.9831780000000006
20
-5.0726809999999993
30
0
10
9.0223219999999991
20
-5.0658280000000016
30
0
0
SPLINE
5
464
100
AcDbEntity
8
0
100
AcDbSpline
70
0
71
3
72
8
73
4
74
0
42
0.000000001
43
0.0000000001
44
0.0000000001
40
-1
40
-1
40
-1
40
-1
40
0
40
0
40
0
40
0
10
9.0223219999999991
20
-5.0658280000000016
30
0
10
9.0366199999999992
20
-5.0632880000000009
30
0
10
9.0681279999999962
20
-5.0576750000000006
30
0
10
9.0923440000000006
20
-5.0535399999999999
30
0
0
SPLINE
5
465
100
AcDbEntity
8
0
100
AcDbSpline
70
0
71
3
72
8
73
4
74
0
42
0.000000001
43
0.0000000001
44
0.0000000001
40
-1
40
-1
40
-1
40
-1
40
0
40
0
40
0
40
0
10
9.0923440000000006
20
-5.0535399999999999
30
0
10
9.1165579999999995
20
-5.0492870000000005
30
0
10
9.1795909999999967
20
-5.0396570000000001
30
0
10
9.2324230000000007
20
-5.0321549999999995
30
0
0
SPLINE
5
466
100
AcDbEntity
8
0
100
AcDbSpline
70
0
71
3
72
8
73
4
74
0
42
0.000000001
43
0.0000000001
44
0.0000000001
40
-1
40
-1
40
-1
40
-1
40
0
40
0
40
0
40
0
10
9.2324230000000007
20
-5.0321549999999995
30
0
10
9.6371110000000009
20
-4.9746210000000017
30
0
10
9.7149119999999982
20
-4.9522670000000018
30
0
10
9.9713659999999997
20
-4.8198200000000018
30
0
0
ELLIPSE
5
467
100
AcDbEntity
8
0
100
AcDbEllipse
10
9.3779909373780832
20
-5.5850151943163002
30
0
11
1.0782249107636344
21
0.86896554956822658
31
0.0
40
0.22017137913664386
41
0.41257899330784015
42
0.82253261587111837
0
ELLIPSE
5
468
100
AcDbEntity
8
0
100
AcDbEllipse
10
2.4165322876575543
20
-3.2555809345799496
30
0
11
0.012072998671231325
21
-0.098658709915059123
31
0.0
40
0.020873009416823535
41
1.4121537749246817
42
3.0158129582541386
0
SPLINE
5
469
100
AcDbEntity
8
0
100
AcDbSpline
70
0
71
3
72
8
73
4
74
0
42
0.000000001
43
0.0000000001
44
0.0000000001
40
-1
40
-1
40
-1
40
-1
40
0
40
0
40
0
40
0
10
2.4204729999999994
20
-3.2709180000000013
30
0
10
2.4419960000000001
20
-3.4517250000000002
30
0
10
2.4346959999999997
20
-3.5807930000000008
30
0
10
2.3928269999999996
20
-3.7597860000000014
30
0
0
SPLINE
5
470
100
AcDbEntity
8
0
100
AcDbSpline
70
0
71
3
72
8
73
4
74
0
42
0.000000001
43
0.0000000001
44
0.0000000001
40
-1
40
-1
40
-1
40
-1
40
-0.011907108815350566
40
-0.011907108815350566
40
-0.011907108815350566
40
-0.011907108815350566
10
2.3928269999999996
20
-3.7597860000000014
30
0
10
2.3839638067660727
20
-3.7976872671200606
30
0
10
2.3766900748024486
20
-3.8415167951942157
30
0
10
2.3765181131832827
20
-3.8579431542572382
30
0
0
SPLINE
5
471
100
AcDbEntity
8
0
100
AcDbSpline
70
0
71
3
72
11
73
7
74
0
42
0.000000001
43
0.0000000001
44
0.0000000001
40
-1.0012341882481166
40
-1.0012341882481166
40
-1.0012341882481166
40
-1.0012341882481166
40
-0.9997563000327534
40
-0.9997563000327534
40
-0.9997563000327534
40
0
40
0
40
0
40
0
10
2.376518113183284
20
-3.8579431542572418
30
0
10
2.3765180749250758
20
-3.8581371028381612
30
0
10
2.376518032741358
20
-3.8583310514183866
30
0
10
2.3765179984086586
20
-3.8585250000000002
30
0
10
2.3765136416239407
20
-3.8831368781787443
30
0
10
2.3675767438412461
20
-3.8972504032544997
30
0
10
2.3172969999999999
20
-3.9522360000000014
30
0
0
LINE
5
472
100
AcDbEntity
8
0
100
AcDbLine
10
2.3172970000000004
20
-3.9522360000000014
30
0
11
2.2580749999999998
21
-4.0169710000000025
31
0
0
LINE
5
473
100
AcDbEntity
8
0
100
AcDbLine
10
2.2580749999999998
20
-4.0169710000000025
30
0
11
2.2522120000000001
21
-3.9677610000000008
31
0
0
SPLINE
5
474
100
AcDbEntity
8
0
100
AcDbSpline
70
0
71
3
72
8
73
4
74
0
42
0.000000001
43
0.0000000001
44
0.0000000001
40
-1
40
-1
40
-1
40
-1
40
0
40
0
40
0
40
0
10
2.2522120000000001
20
-3.9677610000000008
30
0
10
2.2447369999999998
20
-3.905094000000001
30
0
10
2.2523230000000001
20
-3.819547
30
0
10
2.2726160000000002
20
-3.7374969999999998
30
0
0
SPLINE
5
475
100
AcDbEntity
8
0
100
AcDbSpline
70
0
71
3
72
8
73
4
74
0
42
0.000000001
43
0.0000000001
44
0.0000000001
40
-1
40
-1
40
-1
40
-1
40
0
40
0
40
0
40
0
10
2.2726160000000002
20
-3.7374969999999998
30
0
10
2.3213560000000002
20
-3.5404439999999995
30
0
10
2.3232429999999997
20
-3.415239000000001
30
0
10
2.2813469999999998
20
-3.1573450000000003
30
0
0
SPLINE
5
476
100
AcDbEntity
8
0
100
AcDbSpline
70
0
71
3
72
8
73
4
74
0
42
0.000000001
43
0.0000000001
44
0.0000000001
40
-1
40
-1
40
-1
40
-1
40
0
40
0
40
0
40
0
10
2.2813469999999998
20
-3.1573450000000003
30
0
10
2.273642999999999
20
-3.1099130000000006
30
0
10
2.214078999999999
20
-2.8553270000000017
30
0
10
2.1860459999999997
20
-2.7500310000000008
30
0
0
SPLINE
5
477
100
AcDbEntity
8
0
100
AcDbSpline
70
0
71
3
72
8
73
4
74
0
42
0.000000001
43
0.0000000001
44
0.0000000001
40
-1
40
-1
40
-1
40
-1
40
0
40
0
40
0
40
0
10
2.1860459999999997
20
-2.7500310000000008
30
0
10
2.1773790000000002
20
-2.7174800000000006
30
0
10
2.1642579999999998
20
-2.6571050000000009
30
0
10
2.1568839999999998
20
-2.6158109999999999
30
0
0
SPLINE
5
478
100
AcDbEntity
8
0
100
AcDbSpline
70
0
71
3
72
8
73
4
74
0
42
0.000000001
43
0.0000000001
44
0.0000000001
40
-1
40
-1
40
-1
40
-1
40
0
40
0
40
0
40
0
10
2.1568839999999998
20
-2.6158109999999999
30
0
10
2.1495100000000003
20
-2.5745410000000004
30
0
10
2.1383190000000001
20
-2.514361000000001
30
0
10
2.1320159999999997
20
-2.4820470000000006
30
0
0
SPLINE
5
479
100
AcDbEntity
8
0
100
AcDbSpline
70
0
71
3
72
8
73
4
74
0
42
0.000000001
43
0.0000000001
44
0.0000000001
40
-1
40
-1
40
-1
40
-1
40
0
40
0
40
0
40
0
10
2.1320159999999997
20
-2.4820470000000006
30
0
10
2.1257130000000002
20
-2.4497500000000003
30
0
10
2.114252
20
-2.3704770000000006
30
0
10
2.1065489999999993
20
-2.305883000000001
30
0
0
SPLINE
5
480
100
AcDbEntity
8
0
100
AcDbSpline
70
0
71
3
72
8
73
4
74
0
42
0.000000001
43
0.0000000001
44
0.0000000001
40
-1
40
-1
40
-1
40
-1
40
0
40
0
40
0
40
0
10
2.1065489999999993
20
-2.305883000000001
30
0
10
2.087491
20
-2.1459419999999998
30
0
10
2.0880899999999998
20
-1.7662929999999994
30
0
10
2.1076620000000004
20
-1.6096129999999991
30
0
0
ELLIPSE
5
481
100
AcDbEntity
8
0
100
AcDbEllipse
10
4.6308609219702159
20
-4.8301347115142326
30
0
11
1.7218871004834586
21
-4.6435193412585907
31
0.0
40
0.40769228882373176
41
3.5967143699478274
42
3.8066997456810232
0
LINE
5
482
100
AcDbEntity
8
0
100
AcDbLine
10
2.2520840000000026
20
-0.96786999999998746
30
0
11
2.2801749999999994
21
-0.88817700000000144
31
0
0
SPLINE
5
483
100
AcDbEntity
8
0
100
AcDbSpline
70
0
71
3
72
8
73
4
74
0
42
0.000000001
43
0.0000000001
44
0.0000000001
40
-1
40
-1
40
-1
40
-1
40
0
40
0
40
0
40
0
10
2.2801749999999994
20
-0.8881770000000011
30
0
10
2.3009650000000006
20
-0.82911900000000016
30
0
10
2.3028840000000002
20
-0.82435100000000106
30
0
10
2.3400880000000002
20
-0.73908799999999863
30
0
0
SPLINE
5
484
100
AcDbEntity
8
0
100
AcDbSpline
70
0
71
3
72
8
73
4
74
0
42
0.000000001
43
0.0000000001
44
0.0000000001
40
-1
40
-1
40
-1
40
-1
40
0
40
0
40
0
40
0
10
2.3400880000000002
20
-0.73908799999999863
30
0
10
2.3557369999999995
20
-0.70325300000000024
30
0
10
2.3685390000000002
20
-0.67235600000000051
30
0
10
2.3685390000000002
20
-0.66999299999999962
30
0
0
ELLIPSE
5
485
100
AcDbEntity
8
0
100
AcDbEllipse
10
2.4184396516011621
20
-0.58922360542655783
30
0
11
-0.049872144258732147
21
-0.080837682705503039
31
0.0
40
0.02099987274793845
41
4.6630656108051634
42
6.2530417071556101
0
SPLINE
5
486
100
AcDbEntity
8
0
100
AcDbSpline
70
0
71
3
72
8
73
4
74
0
42
0.000000001
43
0.0000000001
44
0.0000000001
40
-1
40
-1
40
-1
40
-1
40
0
40
0
40
0
40
0
10
2.4192029999999995
20
-0.58419199999999982
30
0
10
2.4757169999999995
20
-0.49283099999999896
30
0
10
2.4885609999999998
20
-0.46263799999999855
30
0
10
2.5122629999999995
20
-0.36534000000000072
30
0
0
SPLINE
5
487
100
AcDbEntity
8
0
100
AcDbSpline
70
0
71
3
72
8
73
4
74
0
42
0.000000001
43
0.0000000001
44
0.0000000001
40
-1
40
-1
40
-1
40
-1
40
0
40
0
40
0
40
0
10
2.5122629999999995
20
-0.36534000000000072
30
0
10
2.5354619999999999
20
-0.27006299999999916
30
0
10
2.5352070000000002
20
-0.092069000000001303
30
0
10
2.5117340000000006
20
-0.0031539999999985464
30
0
0
SPLINE
5
488
100
AcDbEntity
8
0
100
AcDbSpline
70
0
71
3
72
8
73
4
74
0
42
0.000000001
43
0.0000000001
44
0.0000000001
40
-1
40
-1
40
-1
40
-1
40
0
40
0
40
0
40
0
10
2.5117340000000006
20
-0.0031539999999985464
30
0
10
2.4493519999999998
20
0.23310699999999901
30
0
10
2.4469240000000001
20
0.24534099999999887
30
0
10
2.4428420000000002
20
0.34080099999999952
30
0
0
SPLINE
5
489
100
AcDbEntity
8
0
100
AcDbSpline
70
0
71
3
72
8
73
4
74
0
42
0.000000001
43
0.0000000001
44
0.0000000001
40
-1
40
-1
40
-1
40
-1
40
0
40
0
40
0
40
0
10
2.4428420000000002
20
0.34080099999999952
30
0
10
2.4395180000000001
20
0.41892899999999883
30
0
10
2.4421110000000001
20
0.45555599999999902
30
0
10
2.4564929999999996
20
0.5332699999999988
30
0
0
SPLINE
5
490
100
AcDbEntity
8
0
100
AcDbSpline
70
0
71
3
72
8
73
4
74
0
42
0.000000001
43
0.0000000001
44
0.0000000001
40
-1
40
-1
40
-1
40
-1
40
0
40
0
40
0
40
0
10
2.4564929999999996
20
0.5332699999999988
30
0
10
2.4662579999999994
20
0.58609499999999959
30
0
10
2.4765580000000003
20
0.63536399999999815
30
0
10
2.479420999999999
20
0.64280700000000079
30
0
0
SPLINE
5
491
100
AcDbEntity
8
0
100
AcDbSpline
70
0
71
3
72
8
73
4
74
0
42
0.000000001
43
0.0000000001
44
0.0000000001
40
-1
40
-1
40
-1
40
-1
40
0
40
0
40
0
40
0
10
2.479420999999999
20
0.64280700000000079
30
0
10
2.48346
20
0.65338199999999991
30
0
10
2.4949799999999991
20
0.64463899999999996
30
0
10
2.5321250000000002
20
0.60275400000000079
30
0
0
LINE
5
492
100
AcDbEntity
8
0
100
AcDbLine
10
2.5321249999999997
20
0.60275400000000079
30
0
11
2.5796610000000006
21
0.54911399999999966
31
0
0
LINE
5
493
100
AcDbEntity
8
0
100
AcDbLine
10
2.5796610000000006
20
0.54911399999999966
30
0
11
2.5701510000000001
21
0.48016100000000089
31
0
0
SPLINE
5
494
100
AcDbEntity
8
0
100
AcDbSpline
70
0
71
3
72
8
73
4
74
0
42
0.000000001
43
0.0000000001
44
0.0000000001
40
-1
40
-1
40
-1
40
-1
40
0
40
0
40
0
40
0
10
2.5701510000000001
20
0.48016100000000106
30
0
10
2.5524680000000002
20
0.35198999999999969
30
0
10
2.5607730000000002
20
0.27327200000000001
30
0
10
2.6091999999999995
20
0.11007600000000116
30
0
0
SPLINE
5
495
100
AcDbEntity
8
0
100
AcDbSpline
70
0
71
3
72
8
73
4
74
0
42
0.000000001
43
0.0000000001
44
0.0000000001
40
-1
40
-1
40
-1
40
-1
40
0
40
0
40
0
40
0
10
2.6091999999999995
20
0.11007600000000116
30
0
10
2.6228869999999995
20
0.063938000000000036
30
0
10
2.6376939999999998
20
0.013393000000000429
30
0
10
2.6420939999999997
20
-0.0023209999999984627
30
0
0
SPLINE
5
496
100
AcDbEntity
8
0
100
AcDbSpline
70
0
71
3
72
8
73
4
74
0
42
0.000000001
43
0.0000000001
44
0.0000000001
40
-1
40
-1
40
-1
40
-1
40
0
40
0
40
0
40
0
10
2.6420939999999997
20
-0.0023209999999984627
30
0
10
2.646808
20
-0.019158000000001334
30
0
10
2.6486139999999998
20
-0.098230000000001358
30
0
10
2.6464939999999997
20
-0.19526799999999955
30
0
0
SPLINE
5
497
100
AcDbEntity
8
0
100
AcDbSpline
70
0
71
3
72
8
73
4
74
0
42
0.000000001
43
0.0000000001
44
0.0000000001
40
-1
40
-1
40
-1
40
-1
40
0
40
0
40
0
40
0
10
2.6464939999999997
20
-0.19526799999999955
30
0
10
2.643621
20
-0.32684700000000122
30
0
10
2.6395919999999995
20
-0.37242399999999892
30
0
10
2.626328
20
-0.4234650000000007
30
0
0
ELLIPSE
5
498
100
AcDbEntity
8
0
100
AcDbEllipse
10
2.125726803191994
20
-0.41569725453963535
30
0
11
-0.36361172221723898
21
-0.5016183266006502
31
0.0
40
0.74687050183448189
41
1.6356465642043838
42
2.0533865601162171
0
SPLINE
5
499
100
AcDbEntity
8
0
100
AcDbSpline
70
0
71
3
72
8
73
4
74
0
42
0.000000001
43
0.0000000001
44
0.0000000001
40
-1
40
-1
40
-1
40
-1
40
0
40
0
40
0
40
0
10
2.5231469999999998
20
-0.65419000000000005
30
0
10
2.4903849999999998
20
-0.70433399999999968
30
0
10
2.4711269999999996
20
-0.74361900000000103
30
0
10
2.424884
20
-0.85463399999999967
30
0
0
SPLINE
5
500
100
AcDbEntity
8
0
100
AcDbSpline
70
0
71
3
72
8
73
4
74
0
42
0.000000001
43
0.0000000001
44
0.0000000001
40
-1
40
-1
40
-1
40
-1
40
0
40
0
40
0
40
0
10
2.424884
20
-0.85463399999999967
30
0
10
2.3847629999999995
20
-0.95095000000000152
30
0
10
2.2908089999999999
20
-1.2559279999999993
30
0
10
2.2698269999999994
20
-1.3579629999999994
30
0
0
SPLINE
5
501
100
AcDbEntity
8
0
100
AcDbSpline
70
0
71
3
72
8
73
4
74
0
42
0.000000001
43
0.0000000001
44
0.0000000001
40
-1
40
-1
40
-1
40
-1
40
0
40
0
40
0
40
0
10
2.2698269999999994
20
-1.3579629999999994
30
0
10
2.2506199999999996
20
-1.4513440000000011
30
0
10
2.2404210000000004
20
-1.5206810000000002
30
0
10
2.224813999999999
20
-1.6638740000000003
30
0
0
SPLINE
5
502
100
AcDbEntity
8
0
100
AcDbSpline
70
0
71
3
72
8
73
4
74
0
42
0.000000001
43
0.0000000001
44
0.0000000001
40
-1
40
-1
40
-1
40
-1
40
0
40
0
40
0
40
0
10
2.224813999999999
20
-1.6638740000000003
30
0
10
2.2125789999999999
20
-1.7759989999999988
30
0
10
2.2121180000000003
20
-2.1472829999999998
30
0
10
2.2240720000000005
20
-2.2513690000000004
30
0
0
SPLINE
5
503
100
AcDbEntity
8
0
100
AcDbSpline
70
0
71
3
72
8
73
4
74
0
42
0.000000001
43
0.0000000001
44
0.0000000001
40
-1
40
-1
40
-1
40
-1
40
0
40
0
40
0
40
0
10
2.2240720000000005
20
-2.2513690000000004
30
0
10
2.2291080000000001
20
-2.2952029999999999
30
0
10
2.2349659999999996
20
-2.3499070000000009
30
0
10
2.2370860000000006
20
-2.3730050000000005
30
0
0
ELLIPSE
5
504
100
AcDbEntity
8
0
100
AcDbEllipse
10
2.2411653166176806
20
-2.3891330143125176
30
0
11
-0.004854419780777058
21
0.04188640286539079
31
0.0
40
0.056571756744528759
41
1.1689959386626847
42
2.8102945972226383
0
ELLIPSE
5
505
100
AcDbEntity
8
0
100
AcDbEllipse
10
2.2521557639255594
20
-2.4723572340993307
30
0
11
0.0080023554869327138
21
-0.045505721061110296
31
0.0
40
0.034629786627191704
41
1.224242405919302
42
2.8394056086058184
0
SPLINE
5
506
100
AcDbEntity
8
0
100
AcDbSpline
70
0
71
3
72
8
73
4
74
0
42
0.000000001
43
0.0000000001
44
0.0000000001
40
-1
40
-1
40
-1
40
-1
40
0
40
0
40
0
40
0
10
2.2563560000000003
20
-2.4875530000000006
30
0
10
2.2669600000000001
20
-2.5523880000000001
30
0
10
2.2814469999999996
20
-2.617985
30
0
10
2.3320409999999998
20
-2.8302080000000016
30
0
0
SPLINE
5
507
100
AcDbEntity
8
0
100
AcDbSpline
70
0
71
3
72
8
73
4
74
0
42
0.000000001
43
0.0000000001
44
0.0000000001
40
-1
40
-1
40
-1
40
-1
40
0
40
0
40
0
40
0
10
2.3320409999999998
20
-2.8302080000000016
30
0
10
2.390606
20
-3.0759100000000004
30
0
10
2.3917660000000001
20
-3.080989999999999
30
0
10
2.3968029999999998
20
-3.1154310000000009
30
0
0
ELLIPSE
5
508
100
AcDbEntity
8
0
100
AcDbEllipse
10
2.4006009413758878
20
-3.1295864830355682
30
0
11
-0.0053006073809784759
21
0.030720234054661982
31
0.0
40
0.048490777668086675
41
1.0835661855660204
42
2.7158062819887099
0
ELLIPSE
5
509
100
AcDbEntity
8
0
100
AcDbEllipse
10
4.8117563512400441
20
4.9615088924808077
30
0
11
-0.030270848209965208
21
-0.045195767311468765
31
0.0
40
0.18571196668229178
41
3.6442178007278736
42
5.2523857959690057
0
SPLINE
5
510
100
AcDbEntity
8
0
100
AcDbSpline
70
0
71
3
72
8
73
4
74
0
42
0.000000001
43
0.0000000001
44
0.0000000001
40
-1
40
-1
40
-1
40
-1
40
0
40
0
40
0
40
0
10
4.8342400000000012
20
5.0038229999999979
30
0
10
4.8973319999999987
20
5.052708
30
0
10
5.3652850000000001
20
5.2516099999999994
30
0
10
5.6776549999999997
20
5.3623169999999991
30
0
0
SPLINE
5
511
100
AcDbEntity
8
0
100
AcDbSpline
70
0
71
3
72
8
73
4
74
0
42
0.000000001
43
0.0000000001
44
0.0000000001
40
-1
40
-1
40
-1
40
-1
40
0
40
0
40
0
40
0
10
5.6776549999999997
20
5.3623169999999991
30
0
10
5.8581009999999987
20
5.4262960000000033
30
0
10
5.8948249999999991
20
5.4300180000000013
30
0
10
5.9592619999999989
20
5.3913230000000016
30
0
0
SPLINE
5
512
100
AcDbEntity
8
0
100
AcDbSpline
70
0
71
3
72
8
73
4
74
0
42
0.000000001
43
0.0000000001
44
0.0000000001
40
-1
40
-1
40
-1
40
-1
40
0
40
0
40
0
40
0
10
5.9592619999999989
20
5.3913230000000016
30
0
10
5.981653999999998
20
5.3778540000000001
30
0
10
6.0054829999999999
20
5.3580640000000006
30
0
10
6.0122049999999998
20
5.3473120000000014
30
0
0
SPLINE
5
513
100
AcDbEntity
8
0
100
AcDbSpline
70
0
71
3
72
8
73
4
74
0
42
0.000000001
43
0.0000000001
44
0.0000000001
40
-1
40
-1
40
-1
40
-1
40
0
40
0
40
0
40
0
10
6.0122049999999998
20
5.3473120000000014
30
0
10
6.0189269999999997
20
5.3365600000000004
30
0
10
6.037604
20
5.2825120000000041
30
0
10
6.0537089999999996
20
5.2271580000000002
30
0
0
SPLINE
5
514
100
AcDbEntity
8
0
100
AcDbSpline
70
0
71
3
72
8
73
4
74
0
42
0.000000001
43
0.0000000001
44
0.0000000001
40
-1
40
-1
40
-1
40
-1
40
0
40
0
40
0
40
0
10
6.0537089999999996
20
5.2271580000000002
30
0
10
6.0698139999999992
20
5.1718279999999996
30
0
10
6.0848529999999981
20
5.1201720000000019
30
0
10
6.0871859999999991
20
5.1124339999999995
30
0
0
SPLINE
5
515
100
AcDbEntity
8
0
100
AcDbSpline
70
0
71
3
72
8
73
4
74
0
42
0.000000001
43
0.0000000001
44
0.0000000001
40
-1
40
-1
40
-1
40
-1
40
0
40
0
40
0
40
0
10
6.0871859999999991
20
5.1124339999999995
30
0
10
6.0902940000000001
20
5.1019590000000008
30
0
10
6.0658859999999999
20
5.0782289999999994
30
0
10
5.9929529999999982
20
5.0206890000000008
30
0
0
SPLINE
5
516
100
AcDbEntity
8
0
100
AcDbSpline
70
0
71
3
72
8
73
4
74
0
42
0.000000001
43
0.0000000001
44
0.0000000001
40
-1
40
-1
40
-1
40
-1
40
0
40
0
40
0
40
0
10
5.9929529999999982
20
5.0206890000000008
30
0
10
5.9388170000000002
20
4.978000999999999
30
0
10
5.841766999999999
20
4.8984919999999983
30
0
10
5.777283999999999
20
4.8439650000000007
30
0
0
SPLINE
5
517
100
AcDbEntity
8
0
100
AcDbSpline
70
0
71
3
72
8
73
4
74
0
42
0.000000001
43
0.0000000001
44
0.0000000001
40
-1
40
-1
40
-1
40
-1
40
0
40
0
40
0
40
0
10
5.777283999999999
20
4.8439650000000007
30
0
10
5.712801999999999
20
4.7894680000000003
30
0
10
5.6584430000000001
20
4.7448659999999983
30
0
10
5.6564819999999987
20
4.7448659999999983
30
0
0
SPLINE
5
518
100
AcDbEntity
8
0
100
AcDbSpline
70
0
71
3
72
8
73
4
74
0
42
0.000000001
43
0.0000000001
44
0.0000000001
40
-1
40
-1
40
-1
40
-1
40
0
40
0
40
0
40
0
10
5.6564819999999987
20
4.7448659999999983
30
0
10
5.654519999999998
20
4.7448659999999983
30
0
10
5.6483979999999994
20
4.7606390000000003
30
0
10
5.6428629999999984
20
4.7800149999999988
30
0
0
SPLINE
5
519
100
AcDbEntity
8
0
100
AcDbSpline
70
0
71
3
72
8
73
4
74
0
42
0.000000001
43
0.0000000001
44
0.0000000001
40
-1
40
-1
40
-1
40
-1
40
0
40
0
40
0
40
0
10
5.6428629999999984
20
4.7800149999999988
30
0
10
5.637334000000001
20
4.7993629999999996
30
0
10
5.6243569999999989
20
4.8351979999999992
30
0
10
5.6140189999999999
20
4.8597140000000003
30
0
0
SPLINE
5
520
100
AcDbEntity
8
0
100
AcDbSpline
70
0
71
3
72
8
73
4
74
0
42
0.000000001
43
0.0000000001
44
0.0000000001
40
-1
40
-1
40
-1
40
-1
40
0
40
0
40
0
40
0
10
5.6140189999999999
20
4.8597140000000003
30
0
10
5.5992819999999996
20
4.8946280000000009
30
0
10
5.5913139999999988
20
4.9042569999999985
30
0
10
5.5770540000000004
20
4.9042569999999985
30
0
0
SPLINE
5
521
100
AcDbEntity
8
0
100
AcDbSpline
70
0
71
3
72
8
73
4
74
0
42
0.000000001
43
0.0000000001
44
0.0000000001
40
-1
40
-1
40
-1
40
-1
40
0
40
0
40
0
40
0
10
5.5770540000000004
20
4.9042569999999985
30
0
10
5.5670549999999981
20
4.9042569999999985
30
0
10
5.5164269999999975
20
4.8869480000000003
30
0
10
5.4645489999999981
20
4.865799
30
0
0
SPLINE
5
522
100
AcDbEntity
8
0
100
AcDbSpline
70
0
71
3
72
8
73
4
74
0
42
0.000000001
43
0.0000000001
44
0.0000000001
40
-1
40
-1
40
-1
40
-1
40
0
40
0
40
0
40
0
10
5.4645489999999981
20
4.865799
30
0
10
5.373828999999998
20
4.8288239999999991
30
0
10
5.3702249999999987
20
4.8264019999999999
30
0
10
5.3702249999999987
20
4.8027120000000014
30
0
0
SPLINE
5
523
100
AcDbEntity
8
0
100
AcDbSpline
70
0
71
3
72
8
73
4
74
0
42
0.000000001
43
0.0000000001
44
0.0000000001
40
-1
40
-1
40
-1
40
-1
40
0
40
0
40
0
40
0
10
5.3702249999999987
20
4.8027120000000014
30
0
10
5.3702249999999987
20
4.7891599999999972
30
0
10
5.4354670000000009
20
4.6092220000000008
30
0
10
5.5152080000000003
20
4.4028539999999996
30
0
0
SPLINE
5
524
100
AcDbEntity
8
0
100
AcDbSpline
70
0
71
3
72
8
73
4
74
0
42
0.000000001
43
0.0000000001
44
0.0000000001
40
-1
40
-1
40
-1
40
-1
40
0
40
0
40
0
40
0
10
5.5152080000000003
20
4.4028539999999996
30
0
10
5.6712659999999993
20
3.9989479999999999
30
0
10
5.6780569999999981
20
3.9827019999999997
30
0
10
5.693356999999998
20
3.9765590000000008
30
0
0
SPLINE
5
525
100
AcDbEntity
8
0
100
AcDbSpline
70
0
71
3
72
8
73
4
74
0
42
0.000000001
43
0.0000000001
44
0.0000000001
40
-1
40
-1
40
-1
40
-1
40
0
40
0
40
0
40
0
10
5.693356999999998
20
3.9765590000000008
30
0
10
5.7064149999999989
20
3.9713069999999999
30
0
10
5.8707150000000006
20
4.0378849999999975
30
0
10
5.8830139999999993
20
4.0534220000000012
30
0
0
SPLINE
5
526
100
AcDbEntity
8
0
100
AcDbSpline
70
0
71
3
72
8
73
4
74
0
42
0.000000001
43
0.0000000001
44
0.0000000001
40
-1
40
-1
40
-1
40
-1
40
0
40
0
40
0
40
0
10
5.8830139999999993
20
4.0534220000000012
30
0
10
5.8902759999999992
20
4.0625899999999984
30
0
10
5.8882510000000003
20
4.078417
30
0
10
5.8739429999999997
20
4.1241409999999981
30
0
0
ELLIPSE
5
527
100
AcDbEntity
8
0
100
AcDbEllipse
10
5.8980631201916118
20
4.0976115345100688
30
0
11
0.03434618842471808
21
-0.092731004663263117
31
0.0
40
0.14393256824283168
41
3.2016634535720683
42
4.3694078787306863
0
SPLINE
5
528
100
AcDbEntity
8
0
100
AcDbSpline
70
0
71
3
72
11
73
7
74
0
42
0.000000001
43
0.0000000001
44
0.0000000001
40
-1.0001184836600563
40
-1.0001184836600563
40
-1.0001184836600563
40
-1.0001184836600563
40
-1
40
-1
40
-1
40
0
40
0
40
0
40
0
10
5.8629775987030879
20
4.1898784959738098
30
0
10
5.8629890658020587
20
4.1898889973158724
30
0
10
5.8630005329010295
20
4.189899498657935
30
0
10
5.8630120000000012
20
4.1899099999999994
30
0
10
5.9945250000000003
20
4.310347000000001
30
0
10
6.2400480000000007
20
4.5183699999999964
30
0
10
6.2506820000000003
20
4.5183699999999964
30
0
0
SPLINE
5
529
100
AcDbEntity
8
0
100
AcDbSpline
70
0
71
3
72
8
73
4
74
0
42
0.000000001
43
0.0000000001
44
0.0000000001
40
-1
40
-1
40
-1
40
-1
40
0
40
0
40
0
40
0
10
6.2506820000000003
20
4.5183699999999964
30
0
10
6.2545149999999996
20
4.5183699999999964
30
0
10
6.2595029999999996
20
4.5118129999999965
30
0
10
6.2617830000000012
20
4.5037190000000002
30
0
0
SPLINE
5
530
100
AcDbEntity
8
0
100
AcDbSpline
70
0
71
3
72
8
73
4
74
0
42
0.000000001
43
0.0000000001
44
0.0000000001
40
-1
40
-1
40
-1
40
-1
40
0
40
0
40
0
40
0
10
6.2617830000000012
20
4.5037190000000002
30
0
10
6.2640539999999998
20
4.4956379999999987
30
0
10
6.2985160000000002
20
4.3750289999999996
30
0
10
6.3383650000000005
20
4.2356990000000003
30
0
0
ELLIPSE
5
531
100
AcDbEntity
8
0
100
AcDbEllipse
10
6.0552596130067924
20
5.0307464709765055
30
0
11
0.35386331176660357
21
-1.0944099589772953
31
0.0
40
0.031685949033409593
41
0.097646493046012681
42
0.74744715855033916
0
SPLINE
5
532
100
AcDbEntity
8
0
100
AcDbSpline
70
0
71
3
72
8
73
4
74
0
42
0.000000001
43
0.0000000001
44
0.0000000001
40
-1
40
-1
40
-1
40
-1
40
0
40
0
40
0
40
0
10
6.4108179999999999
20
3.9426429999999995
30
0
10
6.4108179999999999
20
3.9001799999999998
30
0
10
6.3886640000000003
20
3.8425039999999986
30
0
10
6.3630380000000004
20
3.8181649999999991
30
0
0
SPLINE
5
533
100
AcDbEntity
8
0
100
AcDbSpline
70
0
71
3
72
8
73
4
74
0
42
0.000000001
43
0.0000000001
44
0.0000000001
40
-1
40
-1
40
-1
40
-1
40
0
40
0
40
0
40
0
10
6.3630380000000004
20
3.8181649999999991
30
0
10
6.3545929999999995
20
3.8101600000000002
30
0
10
6.2691349999999995
20
3.7743720000000005
30
0
10
6.173131999999999
20
3.7386909999999984
30
0
0
ELLIPSE
5
534
100
AcDbEntity
8
0
100
AcDbEllipse
10
6.1218407939740764
20
3.6436352530803804
30
0
11
0.77329307697079153
21
0.29508926557711657
31
0.0
40
0.085624209138487326
41
1.4717921162013996
42
2.1971575421659875
0
LINE
5
535
100
AcDbEntity
8
0
100
AcDbLine
10
5.6480656199398336
20
3.5242969398026327
30
0
11
5.6230820065560687
21
3.5128806901863991
31
0
0
SPLINE
5
536
100
AcDbEntity
8
0
100
AcDbSpline
70
0
71
3
72
8
73
4
74
0
42
0.000000001
43
0.0000000001
44
0.0000000001
40
-0.94244643090704683
40
-0.94244643090704683
40
-0.94244643090704683
40
-0.94244643090704683
40
0
40
0
40
0
40
0
10
5.6230820065560687
20
3.5128806901863991
30
0
10
5.570327539432566
20
3.4890799176561123
30
0
10
5.5183479552660293
20
3.4686980009162327
30
0
10
5.5046739999999996
20
3.466470999999999
30
0
0
ELLIPSE
5
537
100
AcDbEntity
8
0
100
AcDbEllipse
10
5.4449325901345205
20
3.5582541255730806
30
0
11
0.098580197720380611
21
-0.069635254885516029
31
0.0
40
0.62385714737506537
41
4.3478350603475286
42
5.7152986500689194
0
SPLINE
5
538
100
AcDbEntity
8
0
100
AcDbSpline
70
0
71
3
72
8
73
4
74
0
42
0.000000001
43
0.0000000001
44
0.0000000001
40
-1
40
-1
40
-1
40
-1
40
0
40
0
40
0
40
0
10
5.3691979999999999
20
3.5256230000000004
30
0
10
5.3576249999999996
20
3.5387259999999978
30
0
10
5.2175349999999989
20
3.8344520000000006
30
0
10
5.057884999999998
20
4.1827969999999999
30
0
0
SPLINE
5
539
100
AcDbEntity
8
0
100
AcDbSpline
70
0
71
3
72
8
73
4
74
0
42
0.000000001
43
0.0000000001
44
0.0000000001
40
-1
40
-1
40
-1
40
-1
40
0
40
0
40
0
40
0
10
5.057884999999998
20
4.1827969999999999
30
0
10
4.7326379999999997
20
4.892465999999998
30
0
10
4.7447609999999996
20
4.8581899999999987
30
0
10
4.7889939999999998
20
4.9430939999999994
30
0
0
SPLINE
5
540
100
AcDbEntity
8
0
100
AcDbSpline
70
0
71
3
72
8
73
4
74
0
42
0.000000001
43
0.0000000001
44
0.0000000001
40
-1
40
-1
40
-1
40
-1
40
0
40
0
40
0
40
0
10
9.6569559999999992
20
-0.89758199999999988
30
0
10
9.6504989999999999
20
-0.89521799999999974
30
0
10
9.6433799999999987
20
-0.89640000000000031
30
0
10
9.6411529999999974
20
-0.89994499999999955
30
0
0
SPLINE
5
541
100
AcDbEntity
8
0
100
AcDbSpline
70
0
71
3
72
8
73
4
74
0
42
0.000000001
43
0.0000000001
44
0.0000000001
40
-1
40
-1
40
-1
40
-1
40
0
40
0
40
0
40
0
10
9.6411529999999974
20
-0.89994499999999955
30
0
10
9.6389269999999989
20
-0.90384400000000042
30
0
10
9.6225989999999992
20
-0.90738799999999997
30
0
10
9.6048769999999966
20
-0.90856999999999943
30
0
0
SPLINE
5
542
100
AcDbEntity
8
0
100
AcDbSpline
70
0
71
3
72
8
73
4
74
0
42
0.000000001
43
0.0000000001
44
0.0000000001
40
-1
40
-1
40
-1
40
-1
40
0
40
0
40
0
40
0
10
9.6048769999999966
20
-0.90856999999999943
30
0
10
9.5322259999999979
20
-0.91252799999999989
30
0
10
9.5246290000000009
20
-0.91359100000000004
30
0
10
9.5246290000000009
20
-0.92050300000000029
30
0
0
SPLINE
5
543
100
AcDbEntity
8
0
100
AcDbSpline
70
0
71
3
72
8
73
4
74
0
42
0.000000001
43
0.0000000001
44
0.0000000001
40
-1
40
-1
40
-1
40
-1
40
0
40
0
40
0
40
0
10
9.5246290000000009
20
-0.92050300000000029
30
0
10
9.5246290000000009
20
-0.92463799999999963
30
0
10
9.5186119999999974
20
-0.92522900000000041
30
0
10
9.51126
20
-0.9222750000000014
30
0
0
SPLINE
5
544
100
AcDbEntity
8
0
100
AcDbSpline
70
0
71
3
72
8
73
4
74
0
42
0.000000001
43
0.0000000001
44
0.0000000001
40
-1
40
-1
40
-1
40
-1
40
0
40
0
40
0
40
0
10
9.51126
20
-0.9222750000000014
30
0
10
9.5039069999999999
20
-0.91932099999999828
30
0
10
9.4955359999999995
20
-0.92109399999999986
30
0
10
9.4926209999999962
20
-0.92582000000000031
30
0
0
SPLINE
5
545
100
AcDbEntity
8
0
100
AcDbSpline
70
0
71
3
72
8
73
4
74
0
42
0.000000001
43
0.0000000001
44
0.0000000001
40
-1
40
-1
40
-1
40
-1
40
0
40
0
40
0
40
0
10
9.4926209999999962
20
-0.92582000000000031
30
0
10
9.4894879999999997
20
-0.93113600000000118
30
0
10
9.4806660000000029
20
-0.93172700000000075
30
0
10
9.4708640000000006
20
-0.9281830000000012
30
0
0
SPLINE
5
546
100
AcDbEntity
8
0
100
AcDbSpline
70
0
71
3
72
8
73
4
74
0
42
0.000000001
43
0.0000000001
44
0.0000000001
40
-1
40
-1
40
-1
40
-1
40
0
40
0
40
0
40
0
10
9.4708640000000006
20
-0.9281830000000012
30
0
10
9.456313999999999
20
-0.92239899999999941
30
0
10
9.0523589999999956
20
-0.47181799999999924
30
0
10
9.0523589999999956
20
-0.46136199999999933
30
0
0
SPLINE
5
547
100
AcDbEntity
8
0
100
AcDbSpline
70
0
71
3
72
8
73
4
74
0
42
0.000000001
43
0.0000000001
44
0.0000000001
40
-1
40
-1
40
-1
40
-1
40
0
40
0
40
0
40
0
10
9.0523589999999956
20
-0.46136199999999933
30
0
10
9.0523589999999956
20
-0.45911699999999994
30
0
10
9.0730709999999988
20
-0.45125999999999994
30
0
10
9.0983839999999976
20
-0.44387500000000002
30
0
0
SPLINE
5
548
100
AcDbEntity
8
0
100
AcDbSpline
70
0
71
3
72
8
73
4
74
0
42
0.000000001
43
0.0000000001
44
0.0000000001
40
-1
40
-1
40
-1
40
-1
40
0
40
0
40
0
40
0
10
9.0983839999999976
20
-0.44387500000000002
30
0
10
9.1236989999999984
20
-0.43649100000000091
30
0
10
9.1722230000000007
20
-0.42089499999999985
30
0
10
9.2062200000000001
20
-0.40913900000000042
30
0
0
SPLINE
5
549
100
AcDbEntity
8
0
100
AcDbSpline
70
0
71
3
72
8
73
4
74
0
42
0.000000001
43
0.0000000001
44
0.0000000001
40
-1
40
-1
40
-1
40
-1
40
0
40
0
40
0
40
0
10
9.2062200000000001
20
-0.40913900000000042
30
0
10
9.2667509999999993
20
-0.38822600000000035
30
0
10
9.3024299999999993
20
-0.37983800000000012
30
0
10
9.3385210000000001
20
-0.3774750000000005
30
0
0
SPLINE
5
550
100
AcDbEntity
8
0
100
AcDbSpline
70
0
71
3
72
8
73
4
74
0
42
0.000000001
43
0.0000000001
44
0.0000000001
40
-1
40
-1
40
-1
40
-1
40
0
40
0
40
0
40
0
10
9.3385210000000001
20
-0.3774750000000005
30
0
10
9.3484239999999961
20
-0.37694299999999947
30
0
10
9.3565289999999983
20
-0.37310300000000129
30
0
10
9.3565289999999983
20
-0.36955799999999978
30
0
0
SPLINE
5
551
100
AcDbEntity
8
0
100
AcDbSpline
70
0
71
3
72
8
73
4
74
0
42
0.000000001
43
0.0000000001
44
0.0000000001
40
-1
40
-1
40
-1
40
-1
40
0
40
0
40
0
40
0
10
9.3565289999999983
20
-0.36955799999999978
30
0
10
9.3565289999999983
20
-0.36601400000000006
30
0
10
9.3637339999999973
20
-0.36542300000000011
30
0
10
9.372538999999998
20
-0.36837700000000068
30
0
0
SPLINE
5
552
100
AcDbEntity
8
0
100
AcDbSpline
70
0
71
3
72
8
73
4
74
0
42
0.000000001
43
0.0000000001
44
0.0000000001
40
-1
40
-1
40
-1
40
-1
40
0
40
0
40
0
40
0
10
9.372538999999998
20
-0.36837700000000068
30
0
10
9.3823460000000001
20
-0.37144899999999931
30
0
10
9.3885489999999958
20
-0.36967700000000148
30
0
10
9.3885489999999958
20
-0.36365099999999917
30
0
0
SPLINE
5
553
100
AcDbEntity
8
0
100
AcDbSpline
70
0
71
3
72
8
73
4
74
0
42
0.000000001
43
0.0000000001
44
0.0000000001
40
-1
40
-1
40
-1
40
-1
40
0
40
0
40
0
40
0
10
9.3885489999999958
20
-0.36365099999999917
30
0
10
9.3885489999999958
20
-0.35845800000000139
30
0
10
9.3933669999999996
20
-0.35597099999999932
30
0
10
9.3992569999999986
20
-0.35833400000000004
30
0
0
SPLINE
5
554
100
AcDbEntity
8
0
100
AcDbSpline
70
0
71
3
72
8
73
4
74
0
42
0.000000001
43
0.0000000001
44
0.0000000001
40
-1
40
-1
40
-1
40
-1
40
0
40
0
40
0
40
0
10
9.3992569999999986
20
-0.35833400000000004
30
0
10
9.4051489999999998
20
-0.36069700000000077
30
0
10
9.4309929999999991
20
-0.35750700000000007
30
0
10
9.4566929999999996
20
-0.35124500000000103
30
0
0
SPLINE
5
555
100
AcDbEntity
8
0
100
AcDbSpline
70
0
71
3
72
8
73
4
74
0
42
0.000000001
43
0.0000000001
44
0.0000000001
40
-1
40
-1
40
-1
40
-1
40
0
40
0
40
0
40
0
10
9.4566929999999996
20
-0.35124500000000103
30
0
10
9.4823900000000005
20
-0.34533699999999884
30
0
10
9.5064149999999952
20
-0.34179299999999907
30
0
10
9.5100200000000008
20
-0.3441559999999998
30
0
0
SPLINE
5
556
100
AcDbEntity
8
0
100
AcDbSpline
70
0
71
3
72
8
73
4
74
0
42
0.000000001
43
0.0000000001
44
0.0000000001
40
-1
40
-1
40
-1
40
-1
40
0
40
0
40
0
40
0
10
9.5100200000000008
20
-0.3441559999999998
30
0
10
9.5136520000000004
20
-0.34651900000000063
30
0
10
9.5211210000000008
20
-0.34533699999999884
30
0
10
9.5266239999999982
20
-0.34179299999999907
30
0
0
SPLINE
5
557
100
AcDbEntity
8
0
100
AcDbSpline
70
0
71
3
72
8
73
4
74
0
42
0.000000001
43
0.0000000001
44
0.0000000001
40
-1
40
-1
40
-1
40
-1
40
0
40
0
40
0
40
0
10
9.5266239999999982
20
-0.34179299999999907
30
0
10
9.5321259999999999
20
-0.3381889999999998
30
0
10
9.5438310000000008
20
-0.3345319999999995
30
0
10
9.5526370000000007
20
-0.33405400000000024
30
0
0
SPLINE
5
558
100
AcDbEntity
8
0
100
AcDbSpline
70
0
71
3
72
8
73
4
74
0
42
0.000000001
43
0.0000000001
44
0.0000000001
40
-1
40
-1
40
-1
40
-1
40
0
40
0
40
0
40
0
10
9.5526370000000007
20
-0.33405400000000024
30
0
10
9.561441999999996
20
-0.33346299999999823
30
0
10
9.5920590000000008
20
-0.33015499999999964
30
0
10
9.6206750000000003
20
-0.3266099999999994
30
0
0
SPLINE
5
559
100
AcDbEntity
8
0
100
AcDbSpline
70
0
71
3
72
8
73
4
74
0
42
0.000000001
43
0.0000000001
44
0.0000000001
40
-1
40
-1
40
-1
40
-1
40
0
40
0
40
0
40
0
10
9.6206750000000003
20
-0.3266099999999994
30
0
10
9.7232379999999967
20
-0.31420499999999962
30
0
10
9.7473989999999961
20
-0.3130470000000018
30
0
10
9.9448600000000003
20
-0.31302299999999994
30
0
0
SPLINE
5
560
100
AcDbEntity
8
0
100
AcDbSpline
70
0
71
3
72
8
73
4
74
0
42
0.000000001
43
0.0000000001
44
0.0000000001
40
-1
40
-1
40
-1
40
-1
40
0
40
0
40
0
40
0
10
9.9448600000000003
20
-0.31302299999999994
30
0
10
10.213882
20
-0.31302299999999994
30
0
10
10.204738999999996
20
-0.31296400000000002
30
0
10
10.213962999999998
20
-0.31893100000000008
30
0
0
SPLINE
5
561
100
AcDbEntity
8
0
100
AcDbSpline
70
0
71
3
72
8
73
4
74
0
42
0.000000001
43
0.0000000001
44
0.0000000001
40
-1
40
-1
40
-1
40
-1
40
0
40
0
40
0
40
0
10
10.213962999999998
20
-0.31893100000000008
30
0
10
10.223032999999996
20
-0.32477899999999943
30
0
10
10.308884000000001
20
-0.33363999999999944
30
0
10
10.343086999999999
20
-0.33245900000000039
30
0
0
SPLINE
5
562
100
AcDbEntity
8
0
100
AcDbSpline
70
0
71
3
72
8
73
4
74
0
42
0.000000001
43
0.0000000001
44
0.0000000001
40
-1
40
-1
40
-1
40
-1
40
0
40
0
40
0
40
0
10
10.343086999999999
20
-0.33245900000000039
30
0
10
10.355195
20
-0.33198600000000072
30
0
10
10.365102999999998
20
-0.33547199999999994
30
0
10
10.365102999999998
20
-0.34019799999999917
30
0
0
SPLINE
5
563
100
AcDbEntity
8
0
100
AcDbSpline
70
0
71
3
72
8
73
4
74
0
42
0.000000001
43
0.0000000001
44
0.0000000001
40
-1
40
-1
40
-1
40
-1
40
0
40
0
40
0
40
0
10
10.365102999999998
20
-0.34019799999999917
30
0
10
10.365102999999998
20
-0.34492399999999968
30
0
10
10.372185999999994
20
-0.34669599999999973
30
0
10
10.381038999999998
20
-0.34374200000000132
30
0
0
SPLINE
5
564
100
AcDbEntity
8
0
100
AcDbSpline
70
0
71
3
72
8
73
4
74
0
42
0.000000001
43
0.0000000001
44
0.0000000001
40
-1
40
-1
40
-1
40
-1
40
0
40
0
40
0
40
0
10
10.381038999999998
20
-0.34374200000000132
30
0
10
10.389806999999999
20
-0.34066999999999947
30
0
10
10.401161999999996
20
-0.34066999999999947
30
0
10
10.406250999999999
20
-0.34421500000000094
30
0
0
SPLINE
5
565
100
AcDbEntity
8
0
100
AcDbSpline
70
0
71
3
72
8
73
4
74
0
42
0.000000001
43
0.0000000001
44
0.0000000001
40
-1
40
-1
40
-1
40
-1
40
0
40
0
40
0
40
0
10
10.406250999999999
20
-0.34421500000000094
30
0
10
10.411355999999998
20
-0.34758199999999956
30
0
10
10.428495
20
-0.35207199999999989
30
0
10
10.444346000000001
20
-0.35384400000000082
30
0
0
SPLINE
5
566
100
AcDbEntity
8
0
100
AcDbSpline
70
0
71
3
72
8
73
4
74
0
42
0.000000001
43
0.0000000001
44
0.0000000001
40
-1
40
-1
40
-1
40
-1
40
0
40
0
40
0
40
0
10
10.444346000000001
20
-0.35384400000000082
30
0
10
10.477436999999997
20
-0.35798000000000002
30
0
10
10.503391000000001
20
-0.36235100000000081
30
0
10
10.509185999999998
20
-0.36471399999999926
30
0
0
SPLINE
5
567
100
AcDbEntity
8
0
100
AcDbSpline
70
0
71
3
72
8
73
4
74
0
42
0.000000001
43
0.0000000001
44
0.0000000001
40
-1
40
-1
40
-1
40
-1
40
0
40
0
40
0
40
0
10
10.509185999999998
20
-0.36471399999999926
30
0
10
10.511380000000001
20
-0.36530500000000132
30
0
10
10.516788
20
-0.36707699999999999
30
0
10
10.521188
20
-0.36825900000000072
30
0
0
SPLINE
5
568
100
AcDbEntity
8
0
100
AcDbSpline
70
0
71
3
72
8
73
4
74
0
42
0.000000001
43
0.0000000001
44
0.0000000001
40
-1
40
-1
40
-1
40
-1
40
0
40
0
40
0
40
0
10
10.521188
20
-0.36825900000000072
30
0
10
10.525588000000001
20
-0.36884899999999987
30
0
10
10.531021000000001
20
-0.37062200000000162
30
0
10
10.533194999999999
20
-0.37180300000000049
30
0
0
SPLINE
5
569
100
AcDbEntity
8
0
100
AcDbSpline
70
0
71
3
72
8
73
4
74
0
42
0.000000001
43
0.0000000001
44
0.0000000001
40
-1
40
-1
40
-1
40
-1
40
0
40
0
40
0
40
0
10
10.533194999999999
20
-0.37180300000000049
30
0
10
10.535394999999998
20
-0.37239400000000011
30
0
10
10.548006000000001
20
-0.37534799999999963
30
0
10
10.561211999999996
20
-0.37711999999999962
30
0
0
SPLINE
5
570
100
AcDbEntity
8
0
100
AcDbSpline
70
0
71
3
72
8
73
4
74
0
42
0.000000001
43
0.0000000001
44
0.0000000001
40
-1
40
-1
40
-1
40
-1
40
0
40
0
40
0
40
0
10
10.561211999999996
20
-0.37711999999999962
30
0
10
10.589963999999998
20
-0.38155099999999986
30
0
10
10.617243999999998
20
-0.38722200000000023
30
0
10
10.617243999999998
20
-0.38899400000000012
30
0
0
SPLINE
5
571
100
AcDbEntity
8
0
100
AcDbSpline
70
0
71
3
72
8
73
4
74
0
42
0.000000001
43
0.0000000001
44
0.0000000001
40
-1
40
-1
40
-1
40
-1
40
0
40
0
40
0
40
0
10
10.617243999999998
20
-0.38899400000000012
30
0
10
10.617243999999998
20
-0.38958499999999885
30
0
10
10.629182
20
-0.39194799999999969
30
0
10
10.643765999999998
20
-0.39372000000000079
30
0
0
SPLINE
5
572
100
AcDbEntity
8
0
100
AcDbSpline
70
0
71
3
72
8
73
4
74
0
42
0.000000001
43
0.0000000001
44
0.0000000001
40
-1
40
-1
40
-1
40
-1
40
0
40
0
40
0
40
0
10
10.643765999999998
20
-0.39372000000000079
30
0
10
10.658354999999998
20
-0.39572900000000011
30
0
10
10.677570999999999
20
-0.40169500000000075
30
0
10
10.686477999999996
20
-0.40642200000000167
30
0
0
SPLINE
5
573
100
AcDbEntity
8
0
100
AcDbSpline
70
0
71
3
72
8
73
4
74
0
42
0.000000001
43
0.0000000001
44
0.0000000001
40
-1
40
-1
40
-1
40
-1
40
0
40
0
40
0
40
0
10
10.686477999999996
20
-0.40642200000000167
30
0
10
10.695377999999998
20
-0.4111949999999997
30
0
10
10.704438
20
-0.41351099999999963
30
0
10
10.706611999999998
20
-0.41114799999999896
30
0
0
SPLINE
5
574
100
AcDbEntity
8
0
100
AcDbSpline
70
0
71
3
72
8
73
4
74
0
42
0.000000001
43
0.0000000001
44
0.0000000001
40
-1
40
-1
40
-1
40
-1
40
0
40
0
40
0
40
0
10
10.706611999999998
20
-0.41114799999999896
30
0
10
10.708780999999997
20
-0.40890300000000052
30
0
10
10.736387000000001
20
-0.41652299999999964
30
0
10
10.767962000000001
20
-0.42810200000000131
30
0
0
SPLINE
5
575
100
AcDbEntity
8
0
100
AcDbSpline
70
0
71
3
72
8
73
4
74
0
42
0.000000001
43
0.0000000001
44
0.0000000001
40
-1
40
-1
40
-1
40
-1
40
0
40
0
40
0
40
0
10
10.767962000000001
20
-0.42810200000000131
30
0
10
10.799533
20
-0.43973999999999946
30
0
10
10.831827999999998
20
-0.45096399999999925
30
0
10
10.839721999999998
20
-0.45214599999999994
30
0
0
SPLINE
5
576
100
AcDbEntity
8
0
100
AcDbSpline
70
0
71
3
72
8
73
4
74
0
42
0.000000001
43
0.0000000001
44
0.0000000001
40
-1
40
-1
40
-1
40
-1
40
0
40
0
40
0
40
0
10
10.839721999999998
20
-0.45214599999999994
30
0
10
10.858624999999996
20
-0.45604500000000042
30
0
10
10.89236
20
-0.46721000000000013
30
0
10
10.965446999999996
20
-0.49391200000000068
30
0
0
SPLINE
5
577
100
AcDbEntity
8
0
100
AcDbSpline
70
0
71
3
72
8
73
4
74
0
42
0.000000001
43
0.0000000001
44
0.0000000001
40
-1
40
-1
40
-1
40
-1
40
0
40
0
40
0
40
0
10
10.965446999999996
20
-0.49391200000000068
30
0
10
10.998466000000001
20
-0.50596400000000075
30
0
10
11.038086999999999
20
-0.51966900000000038
30
0
10
11.053496999999997
20
-0.52439500000000072
30
0
0
SPLINE
5
578
100
AcDbEntity
8
0
100
AcDbSpline
70
0
71
3
72
8
73
4
74
0
42
0.000000001
43
0.0000000001
44
0.0000000001
40
-1
40
-1
40
-1
40
-1
40
0
40
0
40
0
40
0
10
11.053496999999997
20
-0.52439500000000072
30
0
10
11.068903000000001
20
-0.52912100000000006
30
0
10
11.084927999999998
20
-0.53644700000000078
30
0
10
11.089115999999999
20
-0.54058199999999934
30
0
0
SPLINE
5
579
100
AcDbEntity
8
0
100
AcDbSpline
70
0
71
3
72
8
73
4
74
0
42
0.000000001
43
0.0000000001
44
0.0000000001
40
-1
40
-1
40
-1
40
-1
40
0
40
0
40
0
40
0
10
11.089115999999999
20
-0.54058199999999934
30
0
10
11.093303999999996
20
-0.54465799999999986
30
0
10
11.103561999999997
20
-0.54820299999999933
30
0
10
11.111921999999998
20
-0.54820299999999933
30
0
0
SPLINE
5
580
100
AcDbEntity
8
0
100
AcDbSpline
70
0
71
3
72
8
73
4
74
0
42
0.000000001
43
0.0000000001
44
0.0000000001
40
-1
40
-1
40
-1
40
-1
40
0
40
0
40
0
40
0
10
11.111921999999998
20
-0.54820299999999933
30
0
10
11.120281999999996
20
-0.54820299999999933
30
0
10
11.138470999999996
20
-0.55357899999999938
30
0
10
11.152343999999999
20
-0.56013599999999997
30
0
0
SPLINE
5
581
100
AcDbEntity
8
0
100
AcDbSpline
70
0
71
3
72
8
73
4
74
0
42
0.000000001
43
0.0000000001
44
0.0000000001
40
-1
40
-1
40
-1
40
-1
40
0
40
0
40
0
40
0
10
11.152343999999999
20
-0.56013599999999997
30
0
10
11.243842000000001
20
-0.60349799999999987
30
0
10
11.271402999999999
20
-0.61531299999999944
30
0
10
11.281389999999998
20
-0.61531299999999944
30
0
0
SPLINE
5
582
100
AcDbEntity
8
0
100
AcDbSpline
70
0
71
3
72
8
73
4
74
0
42
0.000000001
43
0.0000000001
44
0.0000000001
40
-1
40
-1
40
-1
40
-1
40
0
40
0
40
0
40
0
10
11.281389999999998
20
-0.61531299999999944
30
0
10
11.287608999999998
20
-0.61531299999999944
30
0
10
11.294824000000002
20
-0.61927100000000002
30
0
10
11.297473999999999
20
-0.62340599999999957
30
0
0
SPLINE
5
583
100
AcDbEntity
8
0
100
AcDbSpline
70
0
71
3
72
8
73
4
74
0
42
0.000000001
43
0.0000000001
44
0.0000000001
40
-1
40
-1
40
-1
40
-1
40
0
40
0
40
0
40
0
10
11.297473999999999
20
-0.62340599999999957
30
0
10
11.300105
20
-0.62789599999999979
30
0
10
11.324628999999996
20
-0.61554899999999957
30
0
10
11.351978000000001
20
-0.59593600000000013
30
0
0
SPLINE
5
584
100
AcDbEntity
8
0
100
AcDbSpline
70
0
71
3
72
8
73
4
74
0
42
0.000000001
43
0.0000000001
44
0.0000000001
40
-1
40
-1
40
-1
40
-1
40
0
40
0
40
0
40
0
10
11.351978000000001
20
-0.59593600000000013
30
0
10
11.379324
20
-0.57632300000000081
30
0
10
11.417907000000003
20
-0.55151099999999997
30
0
10
11.437717999999995
20
-0.54075899999999932
30
0
0
SPLINE
5
585
100
AcDbEntity
8
0
100
AcDbSpline
70
0
71
3
72
8
73
4
74
0
42
0.000000001
43
0.0000000001
44
0.0000000001
40
-1
40
-1
40
-1
40
-1
40
0
40
0
40
0
40
0
10
11.437717999999995
20
-0.54075899999999932
30
0
10
11.457528999999996
20
-0.52994799999999986
30
0
10
11.475568999999998
20
-0.51890100000000039
30
0
10
11.477741999999999
20
-0.51535700000000062
30
0
0
SPLINE
5
586
100
AcDbEntity
8
0
100
AcDbSpline
70
0
71
3
72
8
73
4
74
0
42
0.000000001
43
0.0000000001
44
0.0000000001
40
-1
40
-1
40
-1
40
-1
40
0
40
0
40
0
40
0
10
11.477741999999999
20
-0.51535700000000062
30
0
10
11.479947999999998
20
-0.51216700000000004
30
0
10
11.496152999999996
20
-0.50041100000000061
30
0
10
11.513763999999997
20
-0.48930499999999977
30
0
0
SPLINE
5
587
100
AcDbEntity
8
0
100
AcDbSpline
70
0
71
3
72
8
73
4
74
0
42
0.000000001
43
0.0000000001
44
0.0000000001
40
-1
40
-1
40
-1
40
-1
40
0
40
0
40
0
40
0
10
11.513763999999997
20
-0.48930499999999977
30
0
10
11.531374999999999
20
-0.47813900000000076
30
0
10
11.549621999999998
20
-0.46508400000000011
30
0
10
11.55434
20
-0.46035699999999896
30
0
0
SPLINE
5
588
100
AcDbEntity
8
0
100
AcDbSpline
70
0
71
3
72
8
73
4
74
0
42
0.000000001
43
0.0000000001
44
0.0000000001
40
-1
40
-1
40
-1
40
-1
40
0
40
0
40
0
40
0
10
11.55434
20
-0.46035699999999896
30
0
10
11.559993999999996
20
-0.45504100000000036
30
0
10
11.624742999999997
20
-0.453268
30
0
10
11.745108999999999
20
-0.45622200000000057
30
0
0
LINE
5
589
100
AcDbEntity
8
0
100
AcDbLine
10
11.745108999999999
20
-0.45622200000000057
30
0
11
11.927321000000005
21
-0.46035699999999902
31
0
0
LINE
5
590
100
AcDbEntity
8
0
100
AcDbLine
10
11.927321000000005
20
-0.46035699999999902
30
0
11
11.924670000000001
21
-0.62813199999999902
31
0
0
SPLINE
5
591
100
AcDbEntity
8
0
100
AcDbSpline
70
0
71
3
72
8
73
4
74
0
42
0.000000001
43
0.0000000001
44
0.0000000001
40
-1
40
-1
40
-1
40
-1
40
0
40
0
40
0
40
0
10
11.924670000000001
20
-0.62813199999999891
30
0
10
11.923250999999999
20
-0.72040800000000116
30
0
10
11.923463
20
-0.97174500000000041
30
0
10
11.925159000000001
20
-1.1866620000000003
30
0
0
LINE
5
592
100
AcDbEntity
8
0
100
AcDbLine
10
11.925159000000001
20
-1.1866620000000003
30
0
11
11.928230329815186
21
-1.5769506120097718
31
0
0
SPLINE
5
593
100
AcDbEntity
8
0
100
AcDbSpline
70
0
71
3
72
17
73
13
74
0
42
0.000000001
43
0.0000000001
44
0.0000000001
40
-1.0123605925173655
40
-1.0123605925173655
40
-1.0123605925173655
40
-1.0123605925173655
40
-1.0104963877403317
40
-1.0104963877403317
40
-1.0104963877403317
40
-1.009724576673573
40
-1.009724576673573
40
-1.009724576673573
40
-1
40
-1
40
-1
40
0
40
0
40
0
40
0
10
11.928230329815186
20
-1.5769506120097716
30
0
10
11.922037961125966
20
-1.5774688435348891
30
0
10
11.915845592436744
20
-1.5779870750600067
30
0
10
11.909653223747519
20
-1.5785053065851242
30
0
10
11.907089482498344
20
-1.5787198628565999
30
0
10
11.904525741249168
20
-1.5789344191280763
30
0
10
11.901961999999994
20
-1.5791489753995547
30
0
10
11.869659666666665
20
-1.5818523169330361
30
0
10
11.837357333333332
20
-1.5845556584665188
30
0
10
11.805054999999998
20
-1.5872589999999995
30
0
10
11.737291999999998
20
-1.5929300000000011
30
0
10
11.645342999999997
20
-1.5970660000000001
30
0
10
11.600721999999998
20
-1.5970660000000001
30
0
0
SPLINE
5
594
100
AcDbEntity
8
0
100
AcDbSpline
70
0
71
3
72
8
73
4
74
0
42
0.000000001
43
0.0000000001
44
0.0000000001
40
-1
40
-1
40
-1
40
-1
40
0
40
0
40
0
40
0
10
11.600721999999998
20
-1.5970660000000001
30
0
10
11.523357000000001
20
-1.5970060000000004
30
0
10
11.518994000000003
20
-1.5960610000000006
30
0
10
11.506669
20
-1.5763300000000009
30
0
0
SPLINE
5
595
100
AcDbEntity
8
0
100
AcDbSpline
70
0
71
3
72
8
73
4
74
0
42
0.000000001
43
0.0000000001
44
0.0000000001
40
-1
40
-1
40
-1
40
-1
40
0
40
0
40
0
40
0
10
11.506669
20
-1.5763300000000009
30
0
10
11.499560000000001
20
-1.5649280000000005
30
0
10
11.493744999999999
20
-1.5537629999999987
30
0
10
11.493744999999999
20
-1.5508089999999994
30
0
0
SPLINE
5
596
100
AcDbEntity
8
0
100
AcDbSpline
70
0
71
3
72
8
73
4
74
0
42
0.000000001
43
0.0000000001
44
0.0000000001
40
-1
40
-1
40
-1
40
-1
40
0
40
0
40
0
40
0
10
11.493744999999999
20
-1.5508089999999994
30
0
10
11.493744999999999
20
-1.5337900000000002
30
0
10
11.277462999999994
20
-1.2950059999999994
30
0
10
11.262047000000004
20
-1.2950059999999994
30
0
0
SPLINE
5
597
100
AcDbEntity
8
0
100
AcDbSpline
70
0
71
3
72
8
73
4
74
0
42
0.000000001
43
0.0000000001
44
0.0000000001
40
-1
40
-1
40
-1
40
-1
40
0
40
0
40
0
40
0
10
11.262047000000004
20
-1.2950059999999994
30
0
10
11.259359999999999
20
-1.2950059999999994
30
0
10
11.251174999999998
20
-1.2876220000000014
30
0
10
11.243847999999996
20
-1.2787010000000001
30
0
0
SPLINE
5
598
100
AcDbEntity
8
0
100
AcDbSpline
70
0
71
3
72
8
73
4
74
0
42
0.000000001
43
0.0000000001
44
0.0000000001
40
-1
40
-1
40
-1
40
-1
40
0
40
0
40
0
40
0
10
11.243847999999996
20
-1.2787010000000001
30
0
10
11.236522999999996
20
-1.2697339999999997
30
0
10
11.194936999999999
20
-1.2386129999999991
30
0
10
11.151434999999999
20
-1.2094890000000003
30
0
0
SPLINE
5
599
100
AcDbEntity
8
0
100
AcDbSpline
70
0
71
3
72
8
73
4
74
0
42
0.000000001
43
0.0000000001
44
0.0000000001
40
-1
40
-1
40
-1
40
-1
40
0
40
0
40
0
40
0
10
11.151434999999999
20
-1.2094890000000003
30
0
10
11.043755999999997
20
-1.1374750000000009
30
0
10
11.048502000000003
20
-1.1404289999999997
30
0
10
10.985454999999998
20
-1.1066379999999989
30
0
0
SPLINE
5
600
100
AcDbEntity
8
0
100
AcDbSpline
70
0
71
3
72
8
73
4
74
0
42
0.000000001
43
0.0000000001
44
0.0000000001
40
-1
40
-1
40
-1
40
-1
40
0
40
0
40
0
40
0
10
10.985454999999998
20
-1.1066379999999989
30
0
10
10.954637
20
-1.090156000000001
30
0
10
10.920416999999999
20
-1.0714290000000002
30
0
10
10.909412
20
-1.0649899999999999
30
0
0
SPLINE
5
601
100
AcDbEntity
8
0
100
AcDbSpline
70
0
71
3
72
8
73
4
74
0
42
0.000000001
43
0.0000000001
44
0.0000000001
40
-1
40
-1
40
-1
40
-1
40
0
40
0
40
0
40
0
10
10.909412
20
-1.0649899999999999
30
0
10
10.898400999999996
20
-1.0585509999999994
30
0
10
10.878590999999998
20
-1.0490390000000003
30
0
10
10.865385
20
-1.0431319999999993
30
0
0
SPLINE
5
602
100
AcDbEntity
8
0
100
AcDbSpline
70
0
71
3
72
8
73
4
74
0
42
0.000000001
43
0.0000000001
44
0.0000000001
40
-1
40
-1
40
-1
40
-1
40
0
40
0
40
0
40
0
10
10.865385
20
-1.0431319999999993
30
0
10
10.852179999999999
20
-1.0375199999999991
30
0
10
10.834521999999996
20
-1.029426
30
0
10
10.826140000000001
20
-1.0246999999999993
30
0
0
SPLINE
5
603
100
AcDbEntity
8
0
100
AcDbSpline
70
0
71
3
72
8
73
4
74
0
42
0.000000001
43
0.0000000001
44
0.0000000001
40
-1
40
-1
40
-1
40
-1
40
0
40
0
40
0
40
0
10
10.826140000000001
20
-1.0246999999999993
30
0
10
10.798560999999999
20
-1.0097069999999997
30
0
10
10.641757
20
-0.95949299999999993
30
0
10
10.617245
20
-0.95772000000000101
30
0
0
SPLINE
5
604
100
AcDbEntity
8
0
100
AcDbSpline
70
0
71
3
72
8
73
4
74
0
42
0.000000001
43
0.0000000001
44
0.0000000001
40
-1
40
-1
40
-1
40
-1
40
0
40
0
40
0
40
0
10
10.617245
20
-0.95772000000000101
30
0
10
10.604038999999997
20
-0.95671600000000079
30
0
10
10.591056999999998
20
-0.95234500000000011
30
0
10
10.588459
20
-0.94880000000000064
30
0
0
SPLINE
5
605
100
AcDbEntity
8
0
100
AcDbSpline
70
0
71
3
72
8
73
4
74
0
42
0.000000001
43
0.0000000001
44
0.0000000001
40
-1
40
-1
40
-1
40
-1
40
0
40
0
40
0
40
0
10
10.588459
20
-0.94880000000000064
30
0
10
10.585829999999998
20
-0.94478299999999993
30
0
10
10.569617999999997
20
-0.93976100000000096
30
0
10
10.552436999999998
20
-0.9373980000000004
30
0
0
SPLINE
5
606
100
AcDbEntity
8
0
100
AcDbSpline
70
0
71
3
72
8
73
4
74
0
42
0.000000001
43
0.0000000001
44
0.0000000001
40
-1
40
-1
40
-1
40
-1
40
0
40
0
40
0
40
0
10
10.552436999999998
20
-0.9373980000000004
30
0
10
10.518114000000001
20
-0.93290900000000043
30
0
10
10.491375
20
-0.92847800000000025
30
0
10
10.485171999999999
20
-0.92552399999999946
30
0
0
SPLINE
5
607
100
AcDbEntity
8
0
100
AcDbSpline
70
0
71
3
72
8
73
4
74
0
42
0.000000001
43
0.0000000001
44
0.0000000001
40
-1
40
-1
40
-1
40
-1
40
0
40
0
40
0
40
0
10
10.485171999999999
20
-0.92552399999999946
30
0
10
10.482972
20
-0.92442499999999961
30
0
10
10.47888
20
-0.92397599999999969
30
0
10
10.476069999999998
20
-0.92434299999999825
30
0
0
SPLINE
5
608
100
AcDbEntity
8
0
100
AcDbSpline
70
0
71
3
72
8
73
4
74
0
42
0.000000001
43
0.0000000001
44
0.0000000001
40
-1
40
-1
40
-1
40
-1
40
0
40
0
40
0
40
0
10
10.476069999999998
20
-0.92434299999999825
30
0
10
10.473259999999996
20
-0.92469700000000088
30
0
10
10.458852
20
-0.92103499999999994
30
0
10
10.444051
20
-0.91689899999999991
30
0
0
SPLINE
5
609
100
AcDbEntity
8
0
100
AcDbSpline
70
0
71
3
72
8
73
4
74
0
42
0.000000001
43
0.0000000001
44
0.0000000001
40
-1
40
-1
40
-1
40
-1
40
0
40
0
40
0
40
0
10
10.444051
20
-0.91689899999999991
30
0
10
10.429245999999996
20
-0.91246900000000009
30
0
10
10.393875999999999
20
-0.90644299999999989
30
0
10
10.365449999999997
20
-0.90408000000000033
30
0
0
SPLINE
5
610
100
AcDbEntity
8
0
100
AcDbSpline
70
0
71
3
72
8
73
4
74
0
42
0.000000001
43
0.0000000001
44
0.0000000001
40
-1
40
-1
40
-1
40
-1
40
0
40
0
40
0
40
0
10
10.365449999999997
20
-0.90408000000000033
30
0
10
10.337023999999998
20
-0.90153999999999923
30
0
10
10.310629
20
-0.89728599999999925
30
0
10
10.306865
20
-0.89492300000000069
30
0
0
SPLINE
5
611
100
AcDbEntity
8
0
100
AcDbSpline
70
0
71
3
72
8
73
4
74
0
42
0.000000001
43
0.0000000001
44
0.0000000001
40
-1
40
-1
40
-1
40
-1
40
0
40
0
40
0
40
0
10
10.306865
20
-0.89492300000000069
30
0
10
10.298119
20
-0.8892520000000016
30
0
10
10.080314999999999
20
-0.87403999999999893
30
0
10
10.004898999999996
20
-0.87383299999999942
30
0
0
SPLINE
5
612
100
AcDbEntity
8
0
100
AcDbSpline
70
0
71
3
72
8
73
4
74
0
42
0.000000001
43
0.0000000001
44
0.0000000001
40
-1
40
-1
40
-1
40
-1
40
0
40
0
40
0
40
0
10
10.004898999999996
20
-0.87383299999999942
30
0
10
9.9181539999999995
20
-0.87359700000000018
30
0
10
9.7007709999999996
20
-0.88883800000000046
30
0
10
9.682715
20
-0.89640000000000031
30
0
0
SPLINE
5
613
100
AcDbEntity
8
0
100
AcDbSpline
70
0
71
3
72
8
73
4
74
0
42
0.000000001
43
0.0000000001
44
0.0000000001
40
-1
40
-1
40
-1
40
-1
40
0
40
0
40
0
40
0
10
9.682715
20
-0.89640000000000031
30
0
10
9.6750120000000006
20
-0.89935399999999854
30
0
10
9.6634179999999965
20
-0.89994499999999955
30
0
10
9.6569559999999992
20
-0.89758199999999988
30
0
0
ELLIPSE
5
614
100
AcDbEntity
8
0
100
AcDbEllipse
10
12.912211090750873
20
0.80309268743476148
30
0
11
0.26830024151756737
21
-0.60957168656244842
31
0.0
40
0.61959231280590943
41
4.9981174657653797
42
5.5246268783914037
0
SPLINE
5
615
100
AcDbEntity
8
0
100
AcDbSpline
70
0
71
3
72
8
73
4
74
0
42
0.000000001
43
0.0000000001
44
0.0000000001
40
-1
40
-1
40
-1
40
-1
40
0
40
0
40
0
40
0
10
12.625460000000002
20
0.47178399999999937
30
0
10
12.542179999999998
20
0.59490899999999902
30
0
10
12.456165999999998
20
0.66943299999999906
30
0
10
12.278356000000002
20
0.77252499999999924
30
0
0
SPLINE
5
616
100
AcDbEntity
8
0
100
AcDbSpline
70
0
71
3
72
8
73
4
74
0
42
0.000000001
43
0.0000000001
44
0.0000000001
40
-1
40
-1
40
-1
40
-1
40
0
40
0
40
0
40
0
10
12.278356000000002
20
0.77252499999999924
30
0
10
12.146334
20
0.8490699999999981
30
0
10
12.052919999999999
20
0.88570199999999943
30
0
10
11.849913999999998
20
0.94064300000000078
30
0
0
SPLINE
5
617
100
AcDbEntity
8
0
100
AcDbSpline
70
0
71
3
72
8
73
4
74
0
42
0.000000001
43
0.0000000001
44
0.0000000001
40
-1
40
-1
40
-1
40
-1
40
0
40
0
40
0
40
0
10
11.849913999999998
20
0.94064300000000078
30
0
10
11.579744999999999
20
1.0137309999999995
30
0
10
11.472623999999998
20
1.0640570000000005
30
0
10
11.308304999999999
20
1.1950870000000011
30
0
0
SPLINE
5
618
100
AcDbEntity
8
0
100
AcDbSpline
70
0
71
3
72
8
73
4
74
0
42
0.000000001
43
0.0000000001
44
0.0000000001
40
-1
40
-1
40
-1
40
-1
40
0
40
0
40
0
40
0
10
11.308304999999999
20
1.1950870000000011
30
0
10
11.271599999999998
20
1.2243529999999998
30
0
10
11.203425999999999
20
1.2721160000000005
30
0
10
11.156806999999999
20
1.3011809999999995
30
0
0
SPLINE
5
619
100
AcDbEntity
8
0
100
AcDbSpline
70
0
71
3
72
8
73
4
74
0
42
0.000000001
43
0.0000000001
44
0.0000000001
40
-1
40
-1
40
-1
40
-1
40
0
40
0
40
0
40
0
10
11.156806999999999
20
1.3011809999999995
30
0
10
10.951611999999999
20
1.4291739999999993
30
0
10
10.853282999999999
20
1.4563659999999998
30
0
10
10.594611
20
1.4565849999999987
30
0
0
SPLINE
5
620
100
AcDbEntity
8
0
100
AcDbSpline
70
0
71
3
72
8
73
4
74
0
42
0.000000001
43
0.0000000001
44
0.0000000001
40
-1
40
-1
40
-1
40
-1
40
0
40
0
40
0
40
0
10
10.594611
20
1.4565849999999987
30
0
10
10.444936
20
1.4567029999999992
30
0
10
10.302104999999996
20
1.4647960000000011
30
0
10
10.224987999999998
20
1.4776160000000012
30
0
0
SPLINE
5
621
100
AcDbEntity
8
0
100
AcDbSpline
70
0
71
3
72
8
73
4
74
0
42
0.000000001
43
0.0000000001
44
0.0000000001
40
-1
40
-1
40
-1
40
-1
40
0
40
0
40
0
40
0
10
10.224987999999998
20
1.4776160000000012
30
0
10
10.067935999999996
20
1.5036559999999999
30
0
10
9.826117
20
1.613856
30
0
10
9.6820470000000007
20
1.7250479999999977
30
0
0
SPLINE
5
622
100
AcDbEntity
8
0
100
AcDbSpline
70
0
71
3
72
8
73
4
74
0
42
0.000000001
43
0.0000000001
44
0.0000000001
40
-1
40
-1
40
-1
40
-1
40
0
40
0
40
0
40
0
10
9.6820470000000007
20
1.7250479999999977
30
0
10
9.5547859999999982
20
1.8232669999999993
30
0
10
9.4745259999999991
20
1.8624219999999985
30
0
10
9.3372670000000006
20
1.8933779999999987
30
0
0
SPLINE
5
623
100
AcDbEntity
8
0
100
AcDbSpline
70
0
71
3
72
8
73
4
74
0
42
0.000000001
43
0.0000000001
44
0.0000000001
40
-1
40
-1
40
-1
40
-1
40
0
40
0
40
0
40
0
10
9.3372670000000006
20
1.8933779999999987
30
0
10
9.2765529999999998
20
1.9070830000000003
30
0
10
9.2324470000000005
20
1.9094460000000006
30
0
10
9.0391270000000006
20
1.9094460000000006
30
0
0
SPLINE
5
624
100
AcDbEntity
8
0
100
AcDbSpline
70
0
71
3
72
8
73
4
74
0
42
0.000000001
43
0.0000000001
44
0.0000000001
40
-1
40
-1
40
-1
40
-1
40
0
40
0
40
0
40
0
10
9.0391270000000006
20
1.9094460000000006
30
0
10
8.830467999999998
20
1.9094460000000006
30
0
10
8.8050039999999949
20
1.9110409999999998
30
0
10
8.7221599999999988
20
1.9294729999999995
30
0
0
SPLINE
5
625
100
AcDbEntity
8
0
100
AcDbSpline
70
0
71
3
72
8
73
4
74
0
42
0.000000001
43
0.0000000001
44
0.0000000001
40
-1
40
-1
40
-1
40
-1
40
0
40
0
40
0
40
0
10
8.7221599999999988
20
1.9294729999999995
30
0
10
8.5599839999999965
20
1.9655269999999998
30
0
10
8.4590700000000005
20
2.0147960000000009
30
0
10
8.2047580000000035
20
2.18208
30
0
0
SPLINE
5
626
100
AcDbEntity
8
0
100
AcDbSpline
70
0
71
3
72
8
73
4
74
0
42
0.000000001
43
0.0000000001
44
0.0000000001
40
-1
40
-1
40
-1
40
-1
40
0
40
0
40
0
40
0
10
8.2047580000000035
20
2.18208
30
0
10
8.1078139999999959
20
2.2458459999999998
30
0
10
8.0200979999999973
20
2.2972180000000009
30
0
10
7.9886349999999986
20
2.3086199999999981
30
0
0
SPLINE
5
627
100
AcDbEntity
8
0
100
AcDbSpline
70
0
71
3
72
8
73
4
74
0
42
0.000000001
43
0.0000000001
44
0.0000000001
40
-1
40
-1
40
-1
40
-1
40
0
40
0
40
0
40
0
10
7.9886349999999986
20
2.3086199999999981
30
0
10
7.8504299999999976
20
2.3587750000000001
30
0
10
7.593707000000002
20
2.3765559999999981
30
0
10
7.3831279999999992
20
2.3506219999999995
30
0
0
SPLINE
5
628
100
AcDbEntity
8
0
100
AcDbSpline
70
0
71
3
72
8
73
4
74
0
42
0.000000001
43
0.0000000001
44
0.0000000001
40
-1
40
-1
40
-1
40
-1
40
0
40
0
40
0
40
0
10
7.3831279999999992
20
2.3506219999999995
30
0
10
7.3304299999999998
20
2.34436
30
0
10
7.2819110000000018
20
2.3389190000000006
30
0
10
7.2753050000000012
20
2.3390439999999981
30
0
0
SPLINE
5
629
100
AcDbEntity
8
0
100
AcDbSpline
70
0
71
3
72
8
73
4
74
0
42
0.000000001
43
0.0000000001
44
0.0000000001
40
-1
40
-1
40
-1
40
-1
40
0
40
0
40
0
40
0
10
7.2753050000000012
20
2.3390439999999981
30
0
10
7.2687020000000002
20
2.3391620000000013
30
0
10
7.2326300000000003
20
2.3366210000000005
30
0
10
7.195149999999999
20
2.3330770000000007
30
0
0
SPLINE
5
630
100
AcDbEntity
8
0
100
AcDbSpline
70
0
71
3
72
8
73
4
74
0
42
0.000000001
43
0.0000000001
44
0.0000000001
40
-1
40
-1
40
-1
40
-1
40
0
40
0
40
0
40
0
10
7.195149999999999
20
2.3330770000000007
30
0
10
7.1004410000000009
20
2.3244699999999998
30
0
10
7.0464509999999994
20
2.3402599999999993
30
0
10
6.9394039999999997
20
2.4078780000000006
30
0
0
SPLINE
5
631
100
AcDbEntity
8
0
100
AcDbSpline
70
0
71
3
72
8
73
4
74
0
42
0.000000001
43
0.0000000001
44
0.0000000001
40
-1
40
-1
40
-1
40
-1
40
0
40
0
40
0
40
0
10
6.9394039999999997
20
2.4078780000000006
30
0
10
6.8221529999999992
20
2.481941
30
0
10
6.6916640000000003
20
2.5384589999999996
30
0
10
6.5386399999999982
20
2.5815250000000001
30
0
0
SPLINE
5
632
100
AcDbEntity
8
0
100
AcDbSpline
70
0
71
3
72
8
73
4
74
0
42
0.000000001
43
0.0000000001
44
0.0000000001
40
-1
40
-1
40
-1
40
-1
40
0
40
0
40
0
40
0
10
6.5386399999999982
20
2.5815250000000001
30
0
10
6.477192999999998
20
2.5990699999999984
30
0
10
6.4528609999999995
20
2.6006120000000017
30
0
10
6.2787369999999996
20
2.6008430000000016
30
0
0
SPLINE
5
633
100
AcDbEntity
8
0
100
AcDbSpline
70
0
71
3
72
8
73
4
74
0
42
0.000000001
43
0.0000000001
44
0.0000000001
40
-1
40
-1
40
-1
40
-1
40
0
40
0
40
0
40
0
10
6.2787369999999996
20
2.6008430000000016
30
0
10
6.1567629999999998
20
2.6009609999999985
30
0
10
6.0647090000000006
20
2.5971210000000013
30
0
10
6.0265929999999992
20
2.590208999999998
30
0
0
SPLINE
5
634
100
AcDbEntity
8
0
100
AcDbSpline
70
0
71
3
72
8
73
4
74
0
42
0.000000001
43
0.0000000001
44
0.0000000001
40
-1
40
-1
40
-1
40
-1
40
0
40
0
40
0
40
0
10
6.0265929999999992
20
2.590208999999998
30
0
10
5.9935749999999981
20
2.5842419999999979
30
0
10
5.9523509999999993
20
2.5775670000000002
30
0
10
5.9349849999999993
20
2.5752040000000016
30
0
0
SPLINE
5
635
100
AcDbEntity
8
0
100
AcDbSpline
70
0
71
3
72
8
73
4
74
0
42
0.000000001
43
0.0000000001
44
0.0000000001
40
-1
40
-1
40
-1
40
-1
40
0
40
0
40
0
40
0
10
5.9349849999999993
20
2.5752040000000016
30
0
10
5.9176179999999983
20
2.5730769999999983
30
0
10
5.9010939999999996
20
2.5695329999999985
30
0
10
5.8983370000000006
20
2.5677599999999985
30
0
0
SPLINE
5
636
100
AcDbEntity
8
0
100
AcDbSpline
70
0
71
3
72
8
73
4
74
0
42
0.000000001
43
0.0000000001
44
0.0000000001
40
-1
40
-1
40
-1
40
-1
40
0
40
0
40
0
40
0
10
5.8983370000000006
20
2.5677599999999985
30
0
10
5.8955479999999998
20
2.5659880000000013
30
0
10
5.8559929999999998
20
2.558663000000001
30
0
10
5.810433999999999
20
2.5515149999999998
30
0
0
SPLINE
5
637
100
AcDbEntity
8
0
100
AcDbSpline
70
0
71
3
72
8
73
4
74
0
42
0.000000001
43
0.0000000001
44
0.0000000001
40
-1
40
-1
40
-1
40
-1
40
0
40
0
40
0
40
0
10
5.810433999999999
20
2.5515149999999998
30
0
10
5.7075049999999994
20
2.5354989999999984
30
0
10
5.5796029999999988
20
2.535263
30
0
10
5.4542639999999993
20
2.5510359999999994
30
0
0
SPLINE
5
638
100
AcDbEntity
8
0
100
AcDbSpline
70
0
71
3
72
8
73
4
74
0
42
0.000000001
43
0.0000000001
44
0.0000000001
40
-1
40
-1
40
-1
40
-1
40
0
40
0
40
0
40
0
10
5.4542639999999993
20
2.5510359999999994
30
0
10
5.3653259999999987
20
2.5622599999999998
30
0
10
5.3124559999999983
20
2.5712989999999993
30
0
10
5.1540929999999996
20
2.6025500000000008
30
0
0
SPLINE
5
639
100
AcDbEntity
8
0
100
AcDbSpline
70
0
71
3
72
8
73
4
74
0
42
0.000000001
43
0.0000000001
44
0.0000000001
40
-1
40
-1
40
-1
40
-1
40
0
40
0
40
0
40
0
10
5.1540929999999996
20
2.6025500000000008
30
0
10
4.906635999999998
20
2.6512870000000022
30
0
10
4.8703019999999988
20
2.655942
30
0
10
4.7315950000000004
20
2.6560129999999997
30
0
0
SPLINE
5
640
100
AcDbEntity
8
0
100
AcDbSpline
70
0
71
3
72
8
73
4
74
0
42
0.000000001
43
0.0000000001
44
0.0000000001
40
-1
40
-1
40
-1
40
-1
40
0
40
0
40
0
40
0
10
4.7315950000000004
20
2.6560129999999997
30
0
10
4.631034999999998
20
2.6560719999999995
30
0
10
4.5859350000000001
20
2.652882
30
0
10
4.5664530000000001
20
2.6443750000000006
30
0
0
LINE
5
641
100
AcDbEntity
8
0
100
AcDbLine
10
4.5664530000000001
20
2.6443750000000006
30
0
11
4.53965
21
2.632619
31
0
0
LINE
5
642
100
AcDbEntity
8
0
100
AcDbLine
10
4.53965
20
2.632619
30
0
11
4.4944040000000003
21
2.6805300000000001
31
0
0
LINE
5
643
100
AcDbEntity
8
0
100
AcDbLine
10
4.4944040000000003
20
2.6805300000000001
30
0
11
4.4491529999999972
21
2.72844
31
0
0
LINE
5
644
100
AcDbEntity
8
0
100
AcDbLine
10
4.4491529999999972
20
2.72844
30
0
11
4.487444
21
2.7466939999999997
31
0
0
SPLINE
5
645
100
AcDbEntity
8
0
100
AcDbSpline
70
0
71
3
72
8
73
4
74
0
42
0.000000001
43
0.0000000001
44
0.0000000001
40
-1
40
-1
40
-1
40
-1
40
0
40
0
40
0
40
0
10
4.487444
20
2.7466939999999997
30
0
10
4.558682000000001
20
2.780545
30
0
10
4.5925529999999979
20
2.7846799999999985
30
0
10
4.7762269999999996
20
2.7793629999999987
30
0
0
SPLINE
5
646
100
AcDbEntity
8
0
100
AcDbSpline
70
0
71
3
72
8
73
4
74
0
42
0.000000001
43
0.0000000001
44
0.0000000001
40
-1
40
-1
40
-1
40
-1
40
0
40
0
40
0
40
0
10
4.7762269999999996
20
2.7793629999999987
30
0
10
4.871789999999999
20
2.7767049999999998
30
0
10
4.9661879999999989
20
2.7705609999999998
30
0
10
4.9859989999999987
20
2.7664260000000009
30
0
0
SPLINE
5
647
100
AcDbEntity
8
0
100
AcDbSpline
70
0
71
3
72
8
73
4
74
0
42
0.000000001
43
0.0000000001
44
0.0000000001
40
-1
40
-1
40
-1
40
-1
40
0
40
0
40
0
40
0
10
4.9859989999999987
20
2.7664260000000009
30
0
10
5.0058100000000003
20
2.7619359999999995
30
0
10
5.048171
20
2.7536649999999998
30
0
10
5.0801269999999992
20
2.748348
30
0
0
LINE
5
648
100
AcDbEntity
8
0
100
AcDbLine
10
5.0801269999999992
20
2.748348
30
0
11
5.1382349999999999
21
2.7384239999999997
31
0
0
LINE
5
649
100
AcDbEntity
8
0
100
AcDbLine
10
5.1382349999999999
20
2.7384239999999997
30
0
11
5.2522249999999993
21
2.8093260000000004
31
0
0
SPLINE
5
650
100
AcDbEntity
8
0
100
AcDbSpline
70
0
71
3
72
8
73
4
74
0
42
0.000000001
43
0.0000000001
44
0.0000000001
40
-1
40
-1
40
-1
40
-1
40
0
40
0
40
0
40
0
10
5.2522249999999993
20
2.8093260000000004
30
0
10
6.6392819999999997
20
3.6721069999999965
30
0
10
8.3353169999999999
20
3.943334000000001
30
0
10
9.9522980000000008
20
3.5609560000000009
30
0
0
SPLINE
5
651
100
AcDbEntity
8
0
100
AcDbSpline
70
0
71
3
72
8
73
4
74
0
42
0.000000001
43
0.0000000001
44
0.0000000001
40
-1
40
-1
40
-1
40
-1
40
0
40
0
40
0
40
0
10
9.9522980000000008
20
3.5609560000000009
30
0
10
10.951285
20
3.3247190000000022
30
0
10
11.901270999999998
20
2.821572999999999
30
0
10
12.634360999999997
20
2.1404489999999994
30
0
0
ELLIPSE
5
652
100
AcDbEntity
8
0
100
AcDbEllipse
10
5.8606311703506799
20
-3.2419935956359667
30
0
11
8.1073256302823733
21
3.5092758536525643
31
0.0
40
0.78308465741656386
41
6.2513260394773704
42
6.614266222402712
0
SPLINE
5
653
100
AcDbEntity
8
0
100
AcDbSpline
70
0
71
3
72
8
73
4
74
0
42
0.000000001
43
0.0000000001
44
0.0000000001
40
-1
40
-1
40
-1
40
-1
40
0
40
0
40
0
40
0
10
14.051378999999999
20
0.063269999999998605
30
0
10
14.100614
20
-0.06449200000000041
30
0
10
14.204159000000001
20
-0.38959700000000036
30
0
10
14.240864
20
-0.53166199999999941
30
0
0
LINE
5
654
100
AcDbEntity
8
0
100
AcDbLine
10
14.240864000000002
20
-0.5316619999999993
30
0
11
14.259291000000003
21
-0.60296600000000034
31
0
0
LINE
5
655
100
AcDbEntity
8
0
100
AcDbLine
10
14.259291000000003
20
-0.60296600000000034
30
0
11
14.347342000000005
21
-0.6638899999999992
31
0
0
SPLINE
5
656
100
AcDbEntity
8
0
100
AcDbSpline
70
0
71
3
72
8
73
4
74
0
42
0.000000001
43
0.0000000001
44
0.0000000001
40
-1
40
-1
40
-1
40
-1
40
0
40
0
40
0
40
0
10
14.347342000000005
20
-0.66388999999999898
30
0
10
14.434973000000005
20
-0.72452000000000039
30
0
10
14.534697
20
-0.80081600000000175
30
0
10
14.674311999999999
20
-0.9140400000000003
30
0
0
SPLINE
5
657
100
AcDbEntity
8
0
100
AcDbSpline
70
0
71
3
72
8
73
4
74
0
42
0.000000001
43
0.0000000001
44
0.0000000001
40
-1
40
-1
40
-1
40
-1
40
0
40
0
40
0
40
0
10
14.674311999999999
20
-0.9140400000000003
30
0
10
14.714603999999998
20
-0.94670900000000091
30
0
10
14.765577
20
-0.98262700000000114
30
0
10
14.787592999999999
20
-0.99373300000000087
30
0
0
ELLIPSE
5
658
100
AcDbEntity
8
0
100
AcDbEllipse
10
15.634458473304814
20
-2.1763454458313469
30
0
11
0.86839532417694276
21
-1.185717980817975
31
0.0
40
0.073620545966385773
41
2.6235073404725555
42
2.9975213314482239
0
LINE
5
659
100
AcDbEntity
8
0
100
AcDbLine
10
14.92325270597258
20
-1.114570347387686
30
0
11
14.92367
21
-1.1150089999999986
31
0
0
SPLINE
5
660
100
AcDbEntity
8
0
100
AcDbSpline
70
0
71
3
72
8
73
4
74
0
42
0.000000001
43
0.0000000001
44
0.0000000001
40
-1.3088239325760977
40
-1.3088239325760977
40
-1.3088239325760977
40
-1.3088239325760977
40
-0.31567998459373797
40
-0.31567998459373797
40
-0.31567998459373797
40
-0.31567998459373797
10
14.92367
20
-1.1150089999999988
30
0
10
15.03714563435252
20
-1.2343153824711215
30
0
10
15.144562213405646
20
-1.3550381418606723
30
0
10
15.150080319184282
20
-1.3693606267711425
30
0
0
SPLINE
5
661
100
AcDbEntity
8
0
100
AcDbSpline
70
0
71
3
72
11
73
7
74
0
42
0.000000001
43
0.0000000001
44
0.0000000001
40
-2.5597249439797407
40
-2.5597249439797407
40
-2.5597249439797407
40
-2.5597249439797407
40
-2.5588867612003159
40
-2.5588867612003159
40
-2.5588867612003159
40
-1.5590399076065111
40
-1.5590399076065111
40
-1.5590399076065111
40
-1.5590399076065111
10
15.150080462666148
20
-1.3693605762497221
30
0
10
15.150113951747716
20
-1.3694653521259463
30
0
10
15.150147440829286
20
-1.3695701280021702
30
0
10
15.15018092991086
20
-1.3696749038783946
30
0
10
15.152200646111412
20
-1.3759939047196843
30
0
10
15.1281926414223
20
-1.3789469999999997
30
0
10
15.073621999999995
20
-1.3789469999999997
30
0
0
LINE
5
662
100
AcDbEntity
8
0
100
AcDbLine
10
15.073621999999995
20
-1.3789469999999999
30
0
11
14.994108999999995
21
-1.3789470000000006
31
0
0
LINE
5
663
100
AcDbEntity
8
0
100
AcDbLine
10
14.994108999999995
20
-1.3789470000000006
30
0
11
14.951969999999998
21
-1.3282009999999995
31
0
0
SPLINE
5
664
100
AcDbEntity
8
0
100
AcDbSpline
70
0
71
3
72
8
73
4
74
0
42
0.000000001
43
0.0000000001
44
0.0000000001
40
-1
40
-1
40
-1
40
-1
40
0
40
0
40
0
40
0
10
14.951969999999998
20
-1.3282009999999995
30
0
10
14.870853000000002
20
-1.2304599999999999
30
0
10
14.763746999999999
20
-1.1250809999999998
30
0
10
14.728885999999996
20
-1.1086579999999997
30
0
0
SPLINE
5
665
100
AcDbEntity
8
0
100
AcDbSpline
70
0
71
3
72
8
73
4
74
0
42
0.000000001
43
0.0000000001
44
0.0000000001
40
-1
40
-1
40
-1
40
-1
40
0
40
0
40
0
40
0
10
14.728885999999996
20
-1.1086579999999997
30
0
10
14.709805999999999
20
-1.0996849999999987
30
0
10
14.664781999999999
20
-1.0676720000000006
30
0
10
14.628829
20
-1.0374839999999992
30
0
0
SPLINE
5
666
100
AcDbEntity
8
0
100
AcDbSpline
70
0
71
3
72
8
73
4
74
0
42
0.000000001
43
0.0000000001
44
0.0000000001
40
-1
40
-1
40
-1
40
-1
40
0
40
0
40
0
40
0
10
14.628829
20
-1.0374839999999992
30
0
10
14.592876999999996
20
-1.0073030000000005
30
0
10
14.547251999999993
20
-0.9710889999999992
30
0
10
14.527441
20
-0.95697000000000043
30
0
0
ELLIPSE
5
667
100
AcDbEntity
8
0
100
AcDbEllipse
10
14.48690327481666
20
-0.92158278242008185
30
0
11
0.052979040063623591
21
-0.042826431296468022
31
0.0
40
0.048675126104585471
41
4.0179682076822942
42
5.62209566667517
0
SPLINE
5
668
100
AcDbEntity
8
0
100
AcDbSpline
70
0
71
3
72
8
73
4
74
0
42
0.000000001
43
0.0000000001
44
0.0000000001
40
-1
40
-1
40
-1
40
-1
40
0
40
0
40
0
40
0
10
14.451397999999996
20
-0.89615800000000012
30
0
10
14.429385999999994
20
-0.87681600000000015
30
0
10
14.375356000000002
20
-0.83706999999999965
30
0
10
14.331329000000002
20
-0.80788699999999924
30
0
0
SPLINE
5
669
100
AcDbEntity
8
0
100
AcDbSpline
70
0
71
3
72
8
73
4
74
0
42
0.000000001
43
0.0000000001
44
0.0000000001
40
-1
40
-1
40
-1
40
-1
40
0
40
0
40
0
40
0
10
14.331329000000002
20
-0.80788699999999924
30
0
10
14.287304999999995
20
-0.7786739999999992
30
0
10
14.224817999999999
20
-0.73193999999999959
30
0
10
14.192468999999996
20
-0.70405599999999935
30
0
0
SPLINE
5
670
100
AcDbEntity
8
0
100
AcDbSpline
70
0
71
3
72
8
73
4
74
0
42
0.000000001
43
0.0000000001
44
0.0000000001
40
-1
40
-1
40
-1
40
-1
40
0
40
0
40
0
40
0
10
14.192468999999996
20
-0.70405599999999935
30
0
10
14.119875999999998
20
-0.64145899999999978
30
0
10
14.045013000000001
20
-0.58256100000000033
30
0
10
14.037645000000005
20
-0.58225999999999989
30
0
0
SPLINE
5
671
100
AcDbEntity
8
0
100
AcDbSpline
70
0
71
3
72
8
73
4
74
0
42
0.000000001
43
0.0000000001
44
0.0000000001
40
-1
40
-1
40
-1
40
-1
40
0
40
0
40
0
40
0
10
14.037645000000005
20
-0.58225999999999989
30
0
10
14.024820999999998
20
-0.5817339999999992
30
0
10
13.872122999999998
20
-0.47670399999999985
30
0
10
13.839048999999997
20
-0.44568900000000017
30
0
0
SPLINE
5
672
100
AcDbEntity
8
0
100
AcDbSpline
70
0
71
3
72
8
73
4
74
0
42
0.000000001
43
0.0000000001
44
0.0000000001
40
-1
40
-1
40
-1
40
-1
40
0
40
0
40
0
40
0
10
13.839048999999997
20
-0.44568900000000017
30
0
10
13.775169999999997
20
-0.38574500000000067
30
0
10
13.671395999999998
20
-0.26093599999999928
30
0
10
13.626117999999998
20
-0.18960200000000085
30
0
0
SPLINE
5
673
100
AcDbEntity
8
0
100
AcDbSpline
70
0
71
3
72
8
73
4
74
0
42
0.000000001
43
0.0000000001
44
0.0000000001
40
-1
40
-1
40
-1
40
-1
40
0
40
0
40
0
40
0
10
13.626117999999998
20
-0.18960200000000085
30
0
10
13.509599
20
-0.0060190000000004389
30
0
10
13.397748000000007
20
0.067471000000001155
30
0
10
13.138648999999996
20
0.13067600000000065
30
0
0
SPLINE
5
674
100
AcDbEntity
8
0
100
AcDbSpline
70
0
71
3
72
8
73
4
74
0
42
0.000000001
43
0.0000000001
44
0.0000000001
40
-1
40
-1
40
-1
40
-1
40
0
40
0
40
0
40
0
10
13.138648999999996
20
0.13067600000000065
30
0
10
12.989328
20
0.16710199999999889
30
0
10
12.936760999999999
20
0.18793199999999949
30
0
10
12.847149999999996
20
0.2462979999999981
30
0
0
ELLIPSE
5
675
100
AcDbEntity
8
0
100
AcDbEllipse
10
8.2833255156007795
20
-9.3743071226438364
30
0
11
0.065438742972458164
21
0.063029190011347089
31
0.0
40
0.34583962296963394
41
3.8886000040657458
42
5.5140877602884766
0
LINE
5
676
100
AcDbEntity
8
0
100
AcDbLine
10
8.2501220000000011
20
-9.4359300000000008
30
0
11
8.2501660000000001
21
-9.4360419999999987
31
0
0
SPLINE
5
677
100
AcDbEntity
8
0
100
AcDbSpline
70
0
71
3
72
8
73
4
74
0
42
0.000000001
43
0.0000000001
44
0.0000000001
40
-1
40
-1
40
-1
40
-1
40
0
40
0
40
0
40
0
10
8.2501660000000001
20
-9.4360420000000005
30
0
10
8.1765380000000007
20
-9.4682260000000014
30
0
10
7.6275969999999971
20
-9.4258690000000005
30
0
10
7.2073149999999959
20
-9.355580999999999
30
0
0
SPLINE
5
678
100
AcDbEntity
8
0
100
AcDbSpline
70
0
71
3
72
8
73
4
74
0
42
0.000000001
43
0.0000000001
44
0.0000000001
40
-1
40
-1
40
-1
40
-1
40
0
40
0
40
0
40
0
10
7.2073149999999959
20
-9.355580999999999
30
0
10
7.0785259999999992
20
-9.3340420000000002
30
0
10
7.0513369999999984
20
-9.3228469999999994
30
0
10
7.0110799999999998
20
-9.2749369999999995
30
0
0
SPLINE
5
679
100
AcDbEntity
8
0
100
AcDbSpline
70
0
71
3
72
8
73
4
74
0
42
0.000000001
43
0.0000000001
44
0.0000000001
40
-1
40
-1
40
-1
40
-1
40
0
40
0
40
0
40
0
10
7.0110799999999998
20
-9.2749369999999995
30
0
10
6.9521460000000008
20
-9.204773000000003
30
0
10
6.9474439999999991
20
-9.2543370000000031
30
0
10
7.0869899999999992
20
-8.4747050000000037
30
0
0
SPLINE
5
680
100
AcDbEntity
8
0
100
AcDbSpline
70
0
71
3
72
8
73
4
74
0
42
0.000000001
43
0.0000000001
44
0.0000000001
40
-1
40
-1
40
-1
40
-1
40
0
40
0
40
0
40
0
10
7.0869899999999992
20
-8.4747050000000037
30
0
10
7.1555600000000004
20
-8.091588999999999
30
0
10
7.2169169999999978
20
-7.767494000000001
30
0
10
7.2233309999999982
20
-7.7544980000000017
30
0
0
SPLINE
5
681
100
AcDbEntity
8
0
100
AcDbSpline
70
0
71
3
72
8
73
4
74
0
42
0.000000001
43
0.0000000001
44
0.0000000001
40
-1
40
-1
40
-1
40
-1
40
0
40
0
40
0
40
0
10
7.2233309999999982
20
-7.7544980000000017
30
0
10
7.2391050000000003
20
-7.722526000000002
30
0
10
7.2889300000000015
20
-7.6805820000000029
30
0
10
7.3244319999999989
20
-7.6693579999999999
30
0
0
SPLINE
5
682
100
AcDbEntity
8
0
100
AcDbSpline
70
0
71
3
72
8
73
4
74
0
42
0.000000001
43
0.0000000001
44
0.0000000001
40
-1
40
-1
40
-1
40
-1
40
0
40
0
40
0
40
0
10
7.3244319999999989
20
-7.6693579999999999
30
0
10
7.3474269999999988
20
-7.6620330000000001
30
0
10
7.3775249999999977
20
-7.6638050000000009
30
0
10
7.4685139999999981
20
-7.6778059999999986
30
0
0
SPLINE
5
683
100
AcDbEntity
8
0
100
AcDbSpline
70
0
71
3
72
8
73
4
74
0
42
0.000000001
43
0.0000000001
44
0.0000000001
40
-1
40
-1
40
-1
40
-1
40
0
40
0
40
0
40
0
10
7.4685139999999981
20
-7.6778059999999986
30
0
10
7.7537499999999975
20
-7.7215989999999985
30
0
10
7.980370999999999
20
-7.7441060000000004
30
0
10
8.2140329999999988
20
-7.7517269999999998
30
0
0
LINE
5
684
100
AcDbEntity
8
0
100
AcDbLine
10
8.2140329999999988
20
-7.7517270000000007
30
0
11
8.3802719999999979
21
-7.7570439999999996
31
0
0
LINE
5
685
100
AcDbEntity
8
0
100
AcDbLine
10
8.3802719999999979
20
-7.7570439999999996
30
0
11
8.3780990000000006
21
-7.9498369999999978
31
0
0
LINE
5
686
100
AcDbEntity
8
0
100
AcDbLine
10
8.3780990000000006
20
-7.9498369999999978
30
0
11
8.3759249999999987
21
-8.1426240000000014
31
0
0
LINE
5
687
100
AcDbEntity
8
0
100
AcDbLine
10
8.3759249999999987
20
-8.1426240000000014
30
0
11
8.2998819999999984
21
-8.1715120000000017
31
0
0
SPLINE
5
688
100
AcDbEntity
8
0
100
AcDbSpline
70
0
71
3
72
8
73
4
74
0
42
0.000000001
43
0.0000000001
44
0.0000000001
40
-1
40
-1
40
-1
40
-1
40
0
40
0
40
0
40
0
10
8.2998819999999984
20
-8.1715120000000017
30
0
10
8.199069999999999
20
-8.2097870000000004
30
0
10
7.8825139999999987
20
-8.3093940000000011
30
0
10
7.8777429999999988
20
-8.304668000000003
30
0
0
SPLINE
5
689
100
AcDbEntity
8
0
100
AcDbSpline
70
0
71
3
72
8
73
4
74
0
42
0.000000001
43
0.0000000001
44
0.0000000001
40
-1
40
-1
40
-1
40
-1
40
0
40
0
40
0
40
0
10
7.8777429999999988
20
-8.304668000000003
30
0
10
7.8756969999999988
20
-8.3025120000000019
30
0
10
7.8775839999999988
20
-8.2618380000000009
30
0
10
7.8819839999999957
20
-8.2142240000000015
30
0
0
SPLINE
5
690
100
AcDbEntity
8
0
100
AcDbSpline
70
0
71
3
72
8
73
4
74
0
42
0.000000001
43
0.0000000001
44
0.0000000001
40
-1
40
-1
40
-1
40
-1
40
0
40
0
40
0
40
0
10
7.8819839999999957
20
-8.2142240000000015
30
0
10
7.8863740000000018
20
-8.1666440000000033
30
0
10
7.8890770000000012
20
-8.1267089999999982
30
0
10
7.8880699999999999
20
-8.125528000000001
30
0
0
SPLINE
5
691
100
AcDbEntity
8
0
100
AcDbSpline
70
0
71
3
72
8
73
4
74
0
42
0.000000001
43
0.0000000001
44
0.0000000001
40
-1
40
-1
40
-1
40
-1
40
0
40
0
40
0
40
0
10
7.8880699999999999
20
-8.125528000000001
30
0
10
7.8815539999999977
20
-8.1180250000000029
30
0
10
7.6772369999999999
20
-8.1018970000000028
30
0
10
7.6658759999999981
20
-8.1079820000000016
30
0
0
ELLIPSE
5
692
100
AcDbEntity
8
0
100
AcDbEllipse
10
7.6611124562576283
20
-8.1345281884320002
30
0
11
0.0095027404843537003
21
0.027243125828773876
31
0.0
40
0.38259351340473535
41
0.39474245502688088
42
1.9970563660424583
0
SPLINE
5
693
100
AcDbEntity
8
0
100
AcDbSpline
70
0
71
3
72
8
73
4
74
0
42
0.000000001
43
0.0000000001
44
0.0000000001
40
-1
40
-1
40
-1
40
-1
40
0
40
0
40
0
40
0
10
7.6476929999999994
20
-8.1424820000000011
30
0
10
7.6399080000000001
20
-8.1892940000000003
30
0
10
7.5554630000000014
20
-8.9486799999999995
30
0
10
7.5555909999999997
20
-8.9707749999999979
30
0
0
SPLINE
5
694
100
AcDbEntity
8
0
100
AcDbSpline
70
0
71
3
72
8
73
4
74
0
42
0.000000001
43
0.0000000001
44
0.0000000001
40
-1
40
-1
40
-1
40
-1
40
0
40
0
40
0
40
0
10
7.5555909999999997
20
-8.9707749999999979
30
0
10
7.5558139999999989
20
-9.0094689999999993
30
0
10
7.5642939999999985
20
-9.0133679999999998
30
0
10
7.6763599999999972
20
-9.0257150000000035
30
0
0
SPLINE
5
695
100
AcDbEntity
8
0
100
AcDbSpline
70
0
71
3
72
8
73
4
74
0
42
0.000000001
43
0.0000000001
44
0.0000000001
40
-1
40
-1
40
-1
40
-1
40
0
40
0
40
0
40
0
10
7.6763599999999972
20
-9.0257150000000035
30
0
10
7.7874280000000002
20
-9.0379430000000021
30
0
10
7.8072229999999987
20
-9.0367620000000031
30
0
10
7.8143369999999974
20
-9.0173260000000024
30
0
0
SPLINE
5
696
100
AcDbEntity
8
0
100
AcDbSpline
70
0
71
3
72
8
73
4
74
0
42
0.000000001
43
0.0000000001
44
0.0000000001
40
-1
40
-1
40
-1
40
-1
40
0
40
0
40
0
40
0
10
7.8143369999999974
20
-9.0173260000000024
30
0
10
7.8240439999999989
20
-8.9907830000000004
30
0
10
7.8297109999999988
20
-8.844890000000003
30
0
10
7.8210220000000001
20
-8.844890000000003
30
0
0
SPLINE
5
697
100
AcDbEntity
8
0
100
AcDbSpline
70
0
71
3
72
8
73
4
74
0
42
0.000000001
43
0.0000000001
44
0.0000000001
40
-1
40
-1
40
-1
40
-1
40
0
40
0
40
0
40
0
10
7.8210220000000001
20
-8.844890000000003
30
0
10
7.8161869999999984
20
-8.844890000000003
30
0
10
7.7813329999999983
20
-8.8524520000000031
30
0
10
7.7435720000000003
20
-8.8616680000000017
30
0
0
SPLINE
5
698
100
AcDbEntity
8
0
100
AcDbSpline
70
0
71
3
72
8
73
4
74
0
42
0.000000001
43
0.0000000001
44
0.0000000001
40
-1
40
-1
40
-1
40
-1
40
0
40
0
40
0
40
0
10
7.7435720000000003
20
-8.8616680000000017
30
0
10
7.7058089999999995
20
-8.870884000000002
30
0
10
7.6721779999999988
20
-8.878445000000001
30
0
10
7.6688910000000012
20
-8.878445000000001
30
0
0
SPLINE
5
699
100
AcDbEntity
8
0
100
AcDbSpline
70
0
71
3
72
8
73
4
74
0
42
0.000000001
43
0.0000000001
44
0.0000000001
40
-1
40
-1
40
-1
40
-1
40
0
40
0
40
0
40
0
10
7.6688910000000012
20
-8.878445000000001
30
0
10
7.6642210000000004
20
-8.878445000000001
30
0
10
7.6826800000000004
20
-8.6630910000000032
30
0
10
7.7012019999999985
20
-8.5014369999999992
30
0
0
SPLINE
5
700
100
AcDbEntity
8
0
100
AcDbSpline
70
0
71
3
72
8
73
4
74
0
42
0.000000001
43
0.0000000001
44
0.0000000001
40
-1
40
-1
40
-1
40
-1
40
0
40
0
40
0
40
0
10
7.7012019999999985
20
-8.5014369999999992
30
0
10
7.7029989999999975
20
-8.4857820000000022
30
0
10
7.7101399999999982
20
-8.4792250000000031
30
0
10
7.7315679999999967
20
-8.4739080000000016
30
0
0
SPLINE
5
701
100
AcDbEntity
8
0
100
AcDbSpline
70
0
71
3
72
8
73
4
74
0
42
0.000000001
43
0.0000000001
44
0.0000000001
40
-1
40
-1
40
-1
40
-1
40
0
40
0
40
0
40
0
10
7.7315679999999967
20
-8.4739080000000016
30
0
10
7.8408030000000011
20
-8.4463430000000024
30
0
10
8.1039509999999968
20
-8.3677310000000009
30
0
10
8.2258489999999966
20
-8.3262599999999978
30
0
0
LINE
5
702
100
AcDbEntity
8
0
100
AcDbLine
10
8.2258489999999966
20
-8.3262599999999978
30
0
11
8.3719329999999985
21
-8.2765780000000007
31
0
0
LINE
5
703
100
AcDbEntity
8
0
100
AcDbLine
10
8.3719329999999985
20
-8.2765780000000007
30
0
11
8.3715559999999982
21
-8.4328330000000022
31
0
0
SPLINE
5
704
100
AcDbEntity
8
0
100
AcDbSpline
70
0
71
3
72
8
73
4
74
0
42
0.000000001
43
0.0000000001
44
0.0000000001
40
-1
40
-1
40
-1
40
-1
40
0
40
0
40
0
40
0
10
8.3715559999999982
20
-8.4328330000000022
30
0
10
8.3713490000000021
20
-8.5187760000000008
30
0
10
8.368169
20
-8.7536070000000024
30
0
10
8.3644580000000008
20
-8.9546820000000036
30
0
0
SPLINE
5
705
100
AcDbEntity
8
0
100
AcDbSpline
70
0
71
3
72
8
73
4
74
0
42
0.000000001
43
0.0000000001
44
0.0000000001
40
-1
40
-1
40
-1
40
-1
40
0
40
0
40
0
40
0
10
8.3644580000000008
20
-8.9546820000000036
30
0
10
8.358907999999996
20
-9.2564109999999964
30
0
10
8.3556000000000008
20
-9.3245540000000009
30
0
10
8.3455059999999968
20
-9.3447580000000006
30
0
0
LINE
5
706
100
AcDbEntity
8
0
100
AcDbLine
10
8.5000020000000003
20
-9.4605049999999977
30
0
11
8.5000020000000003
21
-7.7650250000000014
31
0
0
LINE
5
707
100
AcDbEntity
8
0
100
AcDbLine
10
8.5000020000000003
20
-7.7650250000000014
30
0
11
8.6180699999999959
21
-7.7597080000000034
31
0
0
SPLINE
5
708
100
AcDbEntity
8
0
100
AcDbSpline
70
0
71
3
72
8
73
4
74
0
42
0.000000001
43
0.0000000001
44
0.0000000001
40
-1
40
-1
40
-1
40
-1
40
0
40
0
40
0
40
0
10
8.6180699999999959
20
-7.7597080000000034
30
0
10
8.6830069999999999
20
-7.7569319999999991
30
0
10
8.7955710000000007
20
-7.7512010000000036
30
0
10
8.8682119999999962
20
-7.747657000000002
30
0
0
SPLINE
5
709
100
AcDbEntity
8
0
100
AcDbSpline
70
0
71
3
72
8
73
4
74
0
42
0.000000001
43
0.0000000001
44
0.0000000001
40
-1
40
-1
40
-1
40
-1
40
0
40
0
40
0
40
0
10
8.8682119999999962
20
-7.747657000000002
30
0
10
8.9408539999999999
20
-7.7438169999999991
30
0
10
9.0008979999999958
20
-7.7410579999999998
30
0
10
9.0015870000000007
20
-7.7414540000000018
30
0
0
SPLINE
5
710
100
AcDbEntity
8
0
100
AcDbSpline
70
0
71
3
72
8
73
4
74
0
42
0.000000001
43
0.0000000001
44
0.0000000001
40
-1
40
-1
40
-1
40
-1
40
0
40
0
40
0
40
0
10
9.0015870000000007
20
-7.7414540000000018
30
0
10
9.0028059999999979
20
-7.7421270000000035
30
0
10
9.0264919999999975
20
-8.0347170000000006
30
0
10
9.0304679999999991
20
-8.0986900000000031
30
0
0
SPLINE
5
711
100
AcDbEntity
8
0
100
AcDbSpline
70
0
71
3
72
8
73
4
74
0
42
0.000000001
43
0.0000000001
44
0.0000000001
40
-1
40
-1
40
-1
40
-1
40
0
40
0
40
0
40
0
10
9.0304679999999991
20
-8.0986900000000031
30
0
10
9.0321169999999942
20
-8.1248010000000015
30
0
10
9.0300599999999989
20
-8.128345000000003
30
0
10
9.0102969999999996
20
-8.1307090000000031
30
0
0
SPLINE
5
712
100
AcDbEntity
8
0
100
AcDbSpline
70
0
71
3
72
8
73
4
74
0
42
0.000000001
43
0.0000000001
44
0.0000000001
40
-1
40
-1
40
-1
40
-1
40
0
40
0
40
0
40
0
10
9.0102969999999996
20
-8.1307090000000031
30
0
10
8.9937570000000004
20
-8.1327170000000031
30
0
10
8.9883289999999967
20
-8.1379160000000024
30
0
10
8.9883289999999967
20
-8.1516800000000007
30
0
0
SPLINE
5
713
100
AcDbEntity
8
0
100
AcDbSpline
70
0
71
3
72
8
73
4
74
0
42
0.000000001
43
0.0000000001
44
0.0000000001
40
-1
40
-1
40
-1
40
-1
40
0
40
0
40
0
40
0
10
8.9883289999999967
20
-8.1516800000000007
30
0
10
8.9883550000000021
20
-8.1617530000000009
30
0
10
9.0009509999999988
20
-8.3625150000000037
30
0
10
9.0163189999999975
20
-8.597825000000002
30
0
0
SPLINE
5
714
100
AcDbEntity
8
0
100
AcDbSpline
70
0
71
3
72
8
73
4
74
0
42
0.000000001
43
0.0000000001
44
0.0000000001
40
-1
40
-1
40
-1
40
-1
40
0
40
0
40
0
40
0
10
9.0163189999999975
20
-8.597825000000002
30
0
10
9.0316929999999989
20
-8.8331290000000013
30
0
10
9.0442940000000007
20
-9.0303639999999987
30
0
10
9.0442940000000007
20
-9.0356809999999985
30
0
0
SPLINE
5
715
100
AcDbEntity
8
0
100
AcDbSpline
70
0
71
3
72
8
73
4
74
0
42
0.000000001
43
0.0000000001
44
0.0000000001
40
-1
40
-1
40
-1
40
-1
40
0
40
0
40
0
40
0
10
9.0442940000000007
20
-9.0356809999999985
30
0
10
9.0443099999999994
20
-9.0417070000000024
30
0
10
9.0595669999999942
20
-9.0470820000000032
30
0
10
9.0823409999999996
20
-9.0482640000000032
30
0
0
LINE
5
716
100
AcDbEntity
8
0
100
AcDbLine
10
9.0823410000000013
20
-9.0482640000000032
30
0
11
9.1203610000000008
21
-9.0506270000000004
31
0
0
LINE
5
717
100
AcDbEntity
8
0
100
AcDbLine
10
9.1203610000000008
20
-9.0506270000000004
30
0
11
9.1340749999999993
21
-9.2389829999999975
31
0
0
SPLINE
5
718
100
AcDbEntity
8
0
100
AcDbSpline
70
0
71
3
72
8
73
4
74
0
42
0.000000001
43
0.0000000001
44
0.0000000001
40
-1
40
-1
40
-1
40
-1
40
0
40
0
40
0
40
0
10
9.1340749999999993
20
-9.2389829999999975
30
0
10
9.1416029999999999
20
-9.3425779999999996
30
0
10
9.1464800000000004
20
-9.4286630000000002
30
0
10
9.1448370000000008
20
-9.4304349999999992
30
0
0
SPLINE
5
719
100
AcDbEntity
8
0
100
AcDbSpline
70
0
71
3
72
11
73
7
74
0
42
0.000000001
43
0.0000000001
44
0.0000000001
40
-1.0011972691905118
40
-1.0011972691905118
40
-1.0011972691905118
40
-1.0011972691905118
40
-0.0011972691905117998
40
-0.0011972691905117998
40
-0.0011972691905117998
40
0
40
0
40
0
40
0
10
9.1448370000000008
20
-9.4304349999999992
30
0
10
9.1432120000000001
20
-9.432148999999999
30
0
10
9.0974179999999976
20
-9.4371109999999998
30
0
10
9.0430709999999994
20
-9.4412459999999996
30
0
10
9.0390916043400242
20
-9.4415487729415446
30
0
10
9.0351122086800455
20
-9.4418515458830861
30
0
10
9.0311328130200721
20
-9.442154318824624
30
0
0
SPLINE
5
720
100
AcDbEntity
8
0
100
AcDbSpline
70
0
71
3
72
8
73
4
74
0
42
0.000000001
43
0.0000000001
44
0.0000000001
40
-0.95607574710820864
40
-0.95607574710820864
40
-0.95607574710820864
40
-0.95607574710820864
40
-0.022222044117638871
40
-0.022222044117638871
40
-0.022222044117638871
40
-0.022222044117638871
10
9.0311328117249445
20
-9.4421543018025353
30
0
10
8.969712398887804
20
-9.4462258307313789
30
0
10
8.8362179068943565
20
-9.4512874224766055
30
0
10
8.7221289999999989
20
-9.4545970000000032
30
0
0
LINE
5
721
100
AcDbEntity
8
0
100
AcDbLine
10
8.7221290000000007
20
-9.4545970000000032
30
0
11
8.5000020000000003
21
-9.4605049999999977
31
0
0
ELLIPSE
5
722
100
AcDbEntity
8
0
100
AcDbEllipse
10
10.836108961046975
20
-7.4342809578198095
30
0
11
0.086463200314861155
21
-0.055114969556667663
31
0.0
40
0.54503496583307998
41
0.78504390050306605
42
2.3202222765390554
0
SPLINE
5
723
100
AcDbEntity
8
0
100
AcDbSpline
70
0
71
3
72
8
73
4
74
0
42
0.000000001
43
0.0000000001
44
0.0000000001
40
-1
40
-1
40
-1
40
-1
40
0
40
0
40
0
40
0
10
10.918502999999998
20
-7.4399560000000013
30
0
10
10.931525999999996
20
-7.4634440000000017
30
0
10
11.362386000000004
20
-8.6707300000000007
30
0
10
11.386993999999998
20
-8.7526910000000004
30
0
0
SPLINE
5
724
100
AcDbEntity
8
0
100
AcDbSpline
70
0
71
3
72
8
73
4
74
0
42
0.000000001
43
0.0000000001
44
0.0000000001
40
-1
40
-1
40
-1
40
-1
40
0
40
0
40
0
40
0
10
11.386993999999998
20
-8.7526910000000004
30
0
10
11.408598
20
-8.8246450000000021
30
0
10
11.368369999999999
20
-8.914824000000003
30
0
10
11.296385999999996
20
-8.9557630000000028
30
0
0
SPLINE
5
725
100
AcDbEntity
8
0
100
AcDbSpline
70
0
71
3
72
8
73
4
74
0
42
0.000000001
43
0.0000000001
44
0.0000000001
40
-1
40
-1
40
-1
40
-1
40
0
40
0
40
0
40
0
10
11.296385999999996
20
-8.9557630000000028
30
0
10
11.275042999999997
20
-8.9679090000000024
30
0
10
11.171418999999998
20
-9.0064090000000032
30
0
10
11.066112
20
-9.0413230000000002
30
0
0
LINE
5
726
100
AcDbEntity
8
0
100
AcDbLine
10
11.066112
20
-9.0413230000000002
30
0
11
11.066112999999996
21
-9.0416480000000004
31
0
0
SPLINE
5
727
100
AcDbEntity
8
0
100
AcDbSpline
70
0
71
3
72
8
73
4
74
0
42
0.000000001
43
0.0000000001
44
0.0000000001
40
-1
40
-1
40
-1
40
-1
40
0
40
0
40
0
40
0
10
11.066112999999996
20
-9.0416480000000021
30
0
10
10.960806
20
-9.0765380000000029
30
0
10
10.863263
20
-9.1071390000000019
30
0
10
10.849352
20
-9.1100920000000034
30
0
0
LINE
5
728
100
AcDbEntity
8
0
100
AcDbLine
10
10.849352
20
-9.1100920000000016
30
0
11
10.824060000000003
21
-9.1148179999999979
31
0
0
LINE
5
729
100
AcDbEntity
8
0
100
AcDbLine
10
10.824060000000003
20
-9.1148179999999979
30
0
11
10.774462
21
-8.9333379999999991
31
0
0
SPLINE
5
730
100
AcDbEntity
8
0
100
AcDbSpline
70
0
71
3
72
8
73
4
74
0
42
0.000000001
43
0.0000000001
44
0.0000000001
40
-1
40
-1
40
-1
40
-1
40
0
40
0
40
0
40
0
10
10.774462
20
-8.9333380000000009
30
0
10
10.747181999999999
20
-8.8335239999999988
30
0
10
10.727
20
-8.7480600000000024
30
0
10
10.729544999999998
20
-8.7439240000000016
30
0
0
SPLINE
5
731
100
AcDbEntity
8
0
100
AcDbSpline
70
0
71
3
72
8
73
4
74
0
42
0.000000001
43
0.0000000001
44
0.0000000001
40
-1
40
-1
40
-1
40
-1
40
0
40
0
40
0
40
0
10
10.729544999999998
20
-8.7439240000000016
30
0
10
10.732120999999998
20
-8.7394940000000023
30
0
10
10.739160999999998
20
-8.7359490000000033
30
0
10
10.745188999999996
20
-8.7359490000000033
30
0
0
SPLINE
5
732
100
AcDbEntity
8
0
100
AcDbSpline
70
0
71
3
72
8
73
4
74
0
42
0.000000001
43
0.0000000001
44
0.0000000001
40
-1
40
-1
40
-1
40
-1
40
0
40
0
40
0
40
0
10
10.745188999999996
20
-8.7359490000000033
30
0
10
10.765752000000004
20
-8.7359490000000033
30
0
10
10.781633999999999
20
-8.710900999999998
30
0
10
10.776194999999998
20
-8.6870940000000036
30
0
0
SPLINE
5
733
100
AcDbEntity
8
0
100
AcDbSpline
70
0
71
3
72
8
73
4
74
0
42
0.000000001
43
0.0000000001
44
0.0000000001
40
-1
40
-1
40
-1
40
-1
40
0
40
0
40
0
40
0
10
10.776194999999998
20
-8.6870940000000036
30
0
10
10.766477999999996
20
-8.6445060000000034
30
0
10
10.556822999999996
20
-7.9012240000000009
30
0
10
10.548033999999998
20
-7.8781839999999992
30
0
0
SPLINE
5
734
100
AcDbEntity
8
0
100
AcDbSpline
70
0
71
3
72
8
73
4
74
0
42
0.000000001
43
0.0000000001
44
0.0000000001
40
-1
40
-1
40
-1
40
-1
40
0
40
0
40
0
40
0
10
10.548033999999998
20
-7.8781839999999992
30
0
10
10.539116999999997
20
-7.8547900000000013
30
0
10
10.536694999999998
20
-7.8530179999999987
30
0
10
10.501483999999998
20
-7.8518360000000014
30
0
0
SPLINE
5
735
100
AcDbEntity
8
0
100
AcDbSpline
70
0
71
3
72
8
73
4
74
0
42
0.000000001
43
0.0000000001
44
0.0000000001
40
-1
40
-1
40
-1
40
-1
40
0
40
0
40
0
40
0
10
10.501483999999998
20
-7.8518360000000014
30
0
10
10.482853999999998
20
-7.850973999999999
30
0
10
10.479181000000001
20
-7.8413509999999995
30
0
10
10.432349999999996
20
-7.6705690000000013
30
0
0
SPLINE
5
736
100
AcDbEntity
8
0
100
AcDbSpline
70
0
71
3
72
8
73
4
74
0
42
0.000000001
43
0.0000000001
44
0.0000000001
40
-1
40
-1
40
-1
40
-1
40
0
40
0
40
0
40
0
10
10.432349999999996
20
-7.6705690000000013
30
0
10
10.405149
20
-7.5713690000000016
30
0
10
10.385179999999998
20
-7.4876530000000008
30
0
10
10.387988999999996
20
-7.4847000000000019
30
0
0
SPLINE
5
737
100
AcDbEntity
8
0
100
AcDbSpline
70
0
71
3
72
8
73
4
74
0
42
0.000000001
43
0.0000000001
44
0.0000000001
40
-1
40
-1
40
-1
40
-1
40
0
40
0
40
0
40
0
10
10.387988999999996
20
-7.4847000000000019
30
0
10
10.390793
20
-7.4816280000000006
30
0
10
10.420104999999996
20
-7.4709349999999999
30
0
10
10.453120999999998
20
-7.4608920000000012
30
0
0
SPLINE
5
738
100
AcDbEntity
8
0
100
AcDbSpline
70
0
71
3
72
8
73
4
74
0
42
0.000000001
43
0.0000000001
44
0.0000000001
40
-1
40
-1
40
-1
40
-1
40
0
40
0
40
0
40
0
10
10.453120999999998
20
-7.4608920000000012
30
0
10
10.486139999999999
20
-7.4508489999999998
30
0
10
10.568680999999996
20
-7.4236160000000035
30
0
10
10.636544999999998
20
-7.4004580000000004
30
0
0
SPLINE
5
739
100
AcDbEntity
8
0
100
AcDbSpline
70
0
71
3
72
8
73
4
74
0
42
0.000000001
43
0.0000000001
44
0.0000000001
40
-1
40
-1
40
-1
40
-1
40
0
40
0
40
0
40
0
10
10.636544999999998
20
-7.4004580000000004
30
0
10
10.736950999999996
20
-7.3657810000000028
30
0
10
10.767250000000001
20
-7.3586919999999996
30
0
10
10.799200000000004
20
-7.3622359999999993
30
0
0
SPLINE
5
740
100
AcDbEntity
8
0
100
AcDbSpline
70
0
71
3
72
8
73
4
74
0
42
0.000000001
43
0.0000000001
44
0.0000000001
40
-1
40
-1
40
-1
40
-1
40
0
40
0
40
0
40
0
10
9.8928009999999968
20
-9.1992429999999974
30
0
10
9.8928009999999968
20
-9.2497820000000033
30
0
10
9.8351699999999997
20
-9.3279390000000024
30
0
10
9.7818489999999994
20
-9.3496790000000036
30
0
0
SPLINE
5
741
100
AcDbEntity
8
0
100
AcDbSpline
70
0
71
3
72
8
73
4
74
0
42
0.000000001
43
0.0000000001
44
0.0000000001
40
-1
40
-1
40
-1
40
-1
40
0
40
0
40
0
40
0
10
9.7818489999999994
20
-9.3496790000000036
30
0
10
9.7516970000000001
20
-9.3619669999999982
30
0
10
9.6550150000000006
20
-9.377680999999999
30
0
10
9.4845689999999969
20
-9.3979440000000007
30
0
0
LINE
5
742
100
AcDbEntity
8
0
100
AcDbLine
10
9.4845689999999969
20
-9.3979440000000007
30
0
11
9.4845879999999969
21
-9.3978020000000004
31
0
0
SPLINE
5
743
100
AcDbEntity
8
0
100
AcDbSpline
70
0
71
3
72
8
73
4
74
0
42
0.000000001
43
0.0000000001
44
0.0000000001
40
-1
40
-1
40
-1
40
-1
40
0
40
0
40
0
40
0
10
9.4845879999999969
20
-9.3978020000000022
30
0
10
9.4031409999999997
20
-9.4074909999999985
30
0
10
9.3214780000000008
20
-9.4175920000000009
30
0
10
9.3031089999999992
20
-9.4199550000000016
30
0
0
LINE
5
744
100
AcDbEntity
8
0
100
AcDbLine
10
9.3031089999999974
20
-9.4199550000000034
30
0
11
9.2697160000000007
21
-9.4246820000000007
31
0
0
LINE
5
745
100
AcDbEntity
8
0
100
AcDbLine
10
9.2697160000000007
20
-9.4246820000000007
30
0
11
9.2652099999999997
21
-9.3802570000000021
31
0
0
SPLINE
5
746
100
AcDbEntity
8
0
100
AcDbSpline
70
0
71
3
72
8
73
4
74
0
42
0.000000001
43
0.0000000001
44
0.0000000001
40
-1
40
-1
40
-1
40
-1
40
0
40
0
40
0
40
0
10
9.2652099999999997
20
-9.3802570000000021
30
0
10
9.2627240000000004
20
-9.3558050000000001
30
0
10
9.256950999999999
20
-9.2791779999999999
30
0
10
9.2523389999999992
20
-9.2099660000000032
30
0
0
SPLINE
5
747
100
AcDbEntity
8
0
100
AcDbSpline
70
0
71
3
72
8
73
4
74
0
42
0.000000001
43
0.0000000001
44
0.0000000001
40
-1
40
-1
40
-1
40
-1
40
0
40
0
40
0
40
0
10
9.2523389999999992
20
-9.2099660000000032
30
0
10
9.2477479999999961
20
-9.1407589999999974
30
0
10
9.2431839999999976
20
-9.0727920000000033
30
0
10
9.2422299999999993
20
-9.0589680000000001
30
0
0
SPLINE
5
748
100
AcDbEntity
8
0
100
AcDbSpline
70
0
71
3
72
8
73
4
74
0
42
0.000000001
43
0.0000000001
44
0.0000000001
40
-1
40
-1
40
-1
40
-1
40
0
40
0
40
0
40
0
10
9.2422299999999993
20
-9.0589680000000001
30
0
10
9.2406389999999998
20
-9.0362829999999974
30
0
10
9.2431570000000001
20
-9.0331519999999959
30
0
10
9.267653999999995
20
-9.0296079999999996
30
0
0
ELLIPSE
5
749
100
AcDbEntity
8
0
100
AcDbEllipse
10
9.2760784994617236
20
-9.0167838444164516
30
0
11
0.027490242252148901
21
0.0090826819240489055
31
0.0
40
0.36198526884209647
41
4.2841672301936207
42
5.8873818379512608
0
SPLINE
5
750
100
AcDbEntity
8
0
100
AcDbSpline
70
0
71
3
72
8
73
4
74
0
42
0.000000001
43
0.0000000001
44
0.0000000001
40
-1
40
-1
40
-1
40
-1
40
0
40
0
40
0
40
0
10
9.3027109999999986
20
-9.0122400000000003
30
0
10
9.3118079999999992
20
-8.997045
30
0
10
9.2325949999999981
20
-8.1557680000000037
30
0
10
9.2196869999999969
20
-8.1304839999999992
30
0
0
SPLINE
5
751
100
AcDbEntity
8
0
100
AcDbSpline
70
0
71
3
72
8
73
4
74
0
42
0.000000001
43
0.0000000001
44
0.0000000001
40
-1
40
-1
40
-1
40
-1
40
0
40
0
40
0
40
0
10
9.2196869999999969
20
-8.1304839999999992
30
0
10
9.2142259999999983
20
-8.1199090000000016
30
0
10
9.202690999999998
20
-8.1151830000000036
30
0
10
9.1811839999999965
20
-8.1151830000000036
30
0
0
LINE
5
752
100
AcDbEntity
8
0
100
AcDbLine
10
9.1811839999999947
20
-8.1151830000000036
30
0
11
9.1504789999999989
21
-8.1151830000000036
31
0
0
LINE
5
753
100
AcDbEntity
8
0
100
AcDbLine
10
9.1504789999999989
20
-8.1151830000000036
30
0
11
9.1456549999999996
21
-8.0669779999999989
31
0
0
SPLINE
5
754
100
AcDbEntity
8
0
100
AcDbSpline
70
0
71
3
72
8
73
4
74
0
42
0.000000001
43
0.0000000001
44
0.0000000001
40
-1
40
-1
40
-1
40
-1
40
0
40
0
40
0
40
0
10
9.1456549999999996
20
-8.0669779999999989
30
0
10
9.1430149999999983
20
-8.0404470000000021
30
0
10
9.1370570000000004
20
-7.9640029999999991
30
0
10
9.1324449999999988
20
-7.897106
30
0
0
SPLINE
5
755
100
AcDbEntity
8
0
100
AcDbSpline
70
0
71
3
72
8
73
4
74
0
42
0.000000001
43
0.0000000001
44
0.0000000001
40
-1
40
-1
40
-1
40
-1
40
0
40
0
40
0
40
0
10
9.1324449999999988
20
-7.897106
30
0
10
9.1278219999999983
20
-7.8301970000000036
30
0
10
9.1224570000000007
20
-7.7655450000000013
30
0
10
9.1206019999999999
20
-7.7534340000000004
30
0
0
LINE
5
756
100
AcDbEntity
8
0
100
AcDbLine
10
9.1206019999999999
20
-7.7534340000000004
30
0
11
9.117155999999996
21
-7.7313989999999988
31
0
0
LINE
5
757
100
AcDbEntity
8
0
100
AcDbLine
10
9.117155999999996
20
-7.7313989999999988
30
0
11
9.206808999999998
21
-7.7212379999999969
31
0
0
SPLINE
5
758
100
AcDbEntity
8
0
100
AcDbSpline
70
0
71
3
72
8
73
4
74
0
42
0.000000001
43
0.0000000001
44
0.0000000001
40
-1
40
-1
40
-1
40
-1
40
0
40
0
40
0
40
0
10
9.206808999999998
20
-7.7212379999999987
30
0
10
9.256117999999999
20
-7.7156849999999997
30
0
10
9.3472449999999991
20
-7.7039879999999989
30
0
10
9.4093129999999974
20
-7.6953630000000004
30
0
0
SPLINE
5
759
100
AcDbEntity
8
0
100
AcDbSpline
70
0
71
3
72
8
73
4
74
0
42
0.000000001
43
0.0000000001
44
0.0000000001
40
-1
40
-1
40
-1
40
-1
40
0
40
0
40
0
40
0
10
9.4093129999999974
20
-7.6953630000000004
30
0
10
9.5338940000000001
20
-7.6779360000000016
30
0
10
9.5642859999999992
20
-7.6813029999999998
30
0
10
9.6098809999999997
20
-7.7173389999999999
30
0
0
SPLINE
5
760
100
AcDbEntity
8
0
100
AcDbSpline
70
0
71
3
72
8
73
4
74
0
42
0.000000001
43
0.0000000001
44
0.0000000001
40
-1
40
-1
40
-1
40
-1
40
0
40
0
40
0
40
0
10
9.6098809999999997
20
-7.7173389999999999
30
0
10
9.6638849999999987
20
-7.760038999999999
30
0
10
9.6609689999999997
20
-7.7469419999999989
30
0
10
9.7807110000000002
20
-8.4847130000000028
30
0
0
SPLINE
5
761
100
AcDbEntity
8
0
100
AcDbSpline
70
0
71
3
72
8
73
4
74
0
42
0.000000001
43
0.0000000001
44
0.0000000001
40
-1
40
-1
40
-1
40
-1
40
0
40
0
40
0
40
0
10
9.7807110000000002
20
-8.4847130000000028
30
0
10
9.8423599999999993
20
-8.8645570000000031
30
0
10
9.8928009999999968
20
-9.1861289999999993
30
0
10
9.8928009999999968
20
-9.1992429999999974
30
0
0
SPLINE
5
762
100
AcDbEntity
8
0
100
AcDbSpline
70
0
71
3
72
8
73
4
74
0
42
0.000000001
43
0.0000000001
44
0.0000000001
40
-1
40
-1
40
-1
40
-1
40
0
40
0
40
0
40
0
10
6.3406580000000012
20
-7.8082560000000028
30
0
10
6.3392269999999984
20
-7.8097570000000012
30
0
10
6.255310999999999
20
-8.0874770000000016
30
0
10
6.1541790000000001
20
-8.4254130000000025
30
0
0
SPLINE
5
763
100
AcDbEntity
8
0
100
AcDbSpline
70
0
71
3
72
8
73
4
74
0
42
0.000000001
43
0.0000000001
44
0.0000000001
40
-1
40
-1
40
-1
40
-1
40
0
40
0
40
0
40
0
10
6.1541790000000001
20
-8.4254130000000025
30
0
10
6.0530470000000003
20
-8.7633490000000016
30
0
10
5.9684579999999992
20
-9.0432900000000007
30
0
10
5.9661790000000003
20
-9.0468339999999987
30
0
0
SPLINE
5
764
100
AcDbEntity
8
0
100
AcDbSpline
70
0
71
3
72
8
73
4
74
0
42
0.000000001
43
0.0000000001
44
0.0000000001
40
-1
40
-1
40
-1
40
-1
40
0
40
0
40
0
40
0
10
5.9661790000000003
20
-9.0468339999999987
30
0
10
5.9619129999999991
20
-9.054064999999996
30
0
10
5.6521829999999991
20
-8.9465060000000012
30
0
10
5.5041879999999992
20
-8.8863970000000023
30
0
0
LINE
5
765
100
AcDbEntity
8
0
100
AcDbLine
10
5.5041879999999992
20
-8.8863970000000023
30
0
11
5.4201419999999985
21
-8.852310000000001
31
0
0
LINE
5
766
100
AcDbEntity
8
0
100
AcDbLine
10
5.4201419999999985
20
-8.852310000000001
30
0
11
5.434512999999999
21
-8.8129659999999994
31
0
0
SPLINE
5
767
100
AcDbEntity
8
0
100
AcDbSpline
70
0
71
3
72
8
73
4
74
0
42
0.000000001
43
0.0000000001
44
0.0000000001
40
-1
40
-1
40
-1
40
-1
40
0
40
0
40
0
40
0
10
5.434512999999999
20
-8.8129660000000012
30
0
10
5.4452030000000002
20
-8.7836940000000023
30
0
10
5.7625089999999988
20
-7.9320370000000011
30
0
10
6.0028940000000004
20
-7.2874230000000004
30
0
0
LINE
5
768
100
AcDbEntity
8
0
100
AcDbLine
10
6.0028940000000004
20
-7.2874230000000004
30
0
11
6.0096579999999991
21
-7.2692870000000012
31
0
0
LINE
5
769
100
AcDbEntity
8
0
100
AcDbLine
10
6.0096579999999991
20
-7.2692870000000012
30
0
11
6.0841650000000005
21
-7.2990019999999989
31
0
0
SPLINE
5
770
100
AcDbEntity
8
0
100
AcDbSpline
70
0
71
3
72
8
73
4
74
0
42
0.000000001
43
0.0000000001
44
0.0000000001
40
-1
40
-1
40
-1
40
-1
40
0
40
0
40
0
40
0
10
6.0841650000000005
20
-7.2990019999999989
30
0
10
6.3083269999999994
20
-7.3882649999999988
30
0
10
6.6255169999999994
20
-7.4909379999999999
30
0
10
6.8821900000000005
20
-7.5573269999999999
30
0
0
SPLINE
5
771
100
AcDbEntity
8
0
100
AcDbSpline
70
0
71
3
72
8
73
4
74
0
42
0.000000001
43
0.0000000001
44
0.0000000001
40
-1
40
-1
40
-1
40
-1
40
0
40
0
40
0
40
0
10
6.8821900000000005
20
-7.5573269999999999
30
0
10
6.9831279999999998
20
-7.583439000000002
30
0
10
7.0103070000000001
20
-7.5937180000000009
30
0
10
7.0327470000000005
20
-7.6143940000000017
30
0
0
SPLINE
5
772
100
AcDbEntity
8
0
100
AcDbSpline
70
0
71
3
72
8
73
4
74
0
42
0.000000001
43
0.0000000001
44
0.0000000001
40
-1
40
-1
40
-1
40
-1
40
0
40
0
40
0
40
0
10
7.0327470000000005
20
-7.6143940000000017
30
0
10
7.0693470000000005
20
-7.6480670000000019
30
0
10
7.0912029999999993
20
-7.6953100000000028
30
0
10
7.0912029999999993
20
-7.7406800000000002
30
0
0
SPLINE
5
773
100
AcDbEntity
8
0
100
AcDbSpline
70
0
71
3
72
8
73
4
74
0
42
0.000000001
43
0.0000000001
44
0.0000000001
40
-1.0079562603584036
40
-1.0079562603584036
40
-1.0079562603584036
40
-1.0079562603584036
40
-0.051884616613861761
40
-0.051884616613861761
40
-0.051884616613861761
40
-0.051884616613861761
10
7.0912029999999993
20
-7.7406800000000002
30
0
10
7.0912029999999993
20
-7.760272776195257
30
0
10
7.0319262808029777
20
-8.0795836866357451
30
0
10
6.9574515822522738
20
-8.4618146935980771
30
0
0
SPLINE
5
774
100
AcDbEntity
8
0
100
AcDbSpline
70
0
71
3
72
11
73
7
74
0
42
0.000000001
43
0.0000000001
44
0.0000000001
40
-1.0053970501735252
40
-1.0053970501735252
40
-1.0053970501735252
40
-1.0053970501735252
40
-1
40
-1
40
-1
40
0
40
0
40
0
40
0
10
6.9574517613336768
20
-8.4618147286174832
30
0
10
6.9539991742224485
20
-8.4794704857449847
30
0
10
6.9505465871112255
20
-8.4971262428724934
30
0
10
6.9470939999999999
20
-8.5147820000000003
30
0
10
6.8678330000000001
20
-8.9201050000000031
30
0
10
6.8002949999999984
20
-9.2577870000000022
30
0
10
6.7970079999999982
20
-9.265231
30
0
0
SPLINE
5
775
100
AcDbEntity
8
0
100
AcDbSpline
70
0
71
3
72
8
73
4
74
0
42
0.000000001
43
0.0000000001
44
0.0000000001
40
-1
40
-1
40
-1
40
-1
40
0
40
0
40
0
40
0
10
6.7970079999999982
20
-9.265231
30
0
10
6.7915969999999986
20
-9.2774590000000021
30
0
10
6.7830929999999983
20
-9.2768690000000031
30
0
10
6.7069850000000004
20
-9.2592639999999964
30
0
0
SPLINE
5
776
100
AcDbEntity
8
0
100
AcDbSpline
70
0
71
3
72
8
73
4
74
0
42
0.000000001
43
0.0000000001
44
0.0000000001
40
-1
40
-1
40
-1
40
-1
40
0
40
0
40
0
40
0
10
6.7069850000000004
20
-9.2592639999999964
30
0
10
6.5044679999999993
20
-9.2123989999999996
30
0
10
6.248704
20
-9.1426250000000024
30
0
10
6.245258999999999
20
-9.1332909999999998
30
0
0
SPLINE
5
777
100
AcDbEntity
8
0
100
AcDbSpline
70
0
71
3
72
8
73
4
74
0
42
0.000000001
43
0.0000000001
44
0.0000000001
40
-1
40
-1
40
-1
40
-1
40
0
40
0
40
0
40
0
10
6.245258999999999
20
-9.1332909999999998
30
0
10
6.2432120000000015
20
-9.1277030000000003
30
0
10
6.3144949999999991
20
-8.8468460000000029
30
0
10
6.4036660000000012
20
-8.5091640000000037
30
0
0
SPLINE
5
778
100
AcDbEntity
8
0
100
AcDbSpline
70
0
71
3
72
8
73
4
74
0
42
0.000000001
43
0.0000000001
44
0.0000000001
40
-1
40
-1
40
-1
40
-1
40
0
40
0
40
0
40
0
10
6.4036660000000012
20
-8.5091640000000037
30
0
10
6.5197390000000004
20
-8.0696069999999995
30
0
10
6.5636010000000002
20
-7.8915470000000036
30
0
10
6.558076999999999
20
-7.8823900000000009
30
0
0
SPLINE
5
779
100
AcDbEntity
8
0
100
AcDbSpline
70
0
71
3
72
8
73
4
74
0
42
0.000000001
43
0.0000000001
44
0.0000000001
40
-1
40
-1
40
-1
40
-1
40
0
40
0
40
0
40
0
10
6.558076999999999
20
-7.8823900000000009
30
0
10
6.5512259999999998
20
-7.8710009999999988
30
0
10
6.347173999999999
20
-7.8014630000000036
30
0
10
6.3406580000000012
20
-7.8082560000000028
30
0
0
ELLIPSE
5
780
100
AcDbEntity
8
0
100
AcDbEllipse
10
3.6160107563200765
20
-7.8127169234372458
30
0
11
0.23602797889187993
21
-0.17116639150670454
31
0.0
40
0.056097431861282805
41
3.1563145775085535
42
4.3280480749730845
0
SPLINE
5
781
100
AcDbEntity
8
0
100
AcDbSpline
70
0
71
3
72
8
73
4
74
0
42
0.000000001
43
0.0000000001
44
0.0000000001
40
-1
40
-1
40
-1
40
-1
40
0
40
0
40
0
40
0
10
3.3798670000000004
20
-7.6417640000000011
30
0
10
3.3828969999999998
20
-7.6334869999999988
30
0
10
4.2295370000000005
20
-6.4633720000000006
30
0
10
4.3311499999999992
20
-6.3270260000000009
30
0
0
LINE
5
782
100
AcDbEntity
8
0
100
AcDbLine
10
4.3311499999999983
20
-6.3270260000000009
30
0
11
4.3542160000000001
21
-6.2960700000000003
31
0
0
LINE
5
783
100
AcDbEntity
8
0
100
AcDbLine
10
4.3542160000000001
20
-6.2960700000000003
30
0
11
4.4610950000000003
21
-6.3781670000000004
31
0
0
SPLINE
5
784
100
AcDbEntity
8
0
100
AcDbSpline
70
0
71
3
72
8
73
4
74
0
42
0.000000001
43
0.0000000001
44
0.0000000001
40
-1
40
-1
40
-1
40
-1
40
0
40
0
40
0
40
0
10
4.4610950000000003
20
-6.3781670000000004
30
0
10
4.5198780000000003
20
-6.4233250000000011
30
0
10
4.6078739999999989
20
-6.4882250000000035
30
0
10
4.6566400000000003
20
-6.5223710000000015
30
0
0
SPLINE
5
785
100
AcDbEntity
8
0
100
AcDbSpline
70
0
71
3
72
8
73
4
74
0
42
0.000000001
43
0.0000000001
44
0.0000000001
40
-1
40
-1
40
-1
40
-1
40
0
40
0
40
0
40
0
10
4.6566400000000003
20
-6.5223710000000015
30
0
10
4.7054079999999994
20
-6.5565580000000026
30
0
10
4.7454330000000002
20
-6.5866860000000012
30
0
10
4.7455860000000003
20
-6.5896400000000019
30
0
0
SPLINE
5
786
100
AcDbEntity
8
0
100
AcDbSpline
70
0
71
3
72
8
73
4
74
0
42
0.000000001
43
0.0000000001
44
0.0000000001
40
-1
40
-1
40
-1
40
-1
40
0
40
0
40
0
40
0
10
4.7455860000000003
20
-6.5896400000000019
30
0
10
4.7457389999999995
20
-6.5924880000000003
30
0
10
4.6648009999999989
20
-6.7242849999999992
30
0
10
4.5657249999999996
20
-6.8825130000000003
30
0
0
SPLINE
5
787
100
AcDbEntity
8
0
100
AcDbSpline
70
0
71
3
72
8
73
4
74
0
42
0.000000001
43
0.0000000001
44
0.0000000001
40
-1
40
-1
40
-1
40
-1
40
0
40
0
40
0
40
0
10
4.5657249999999996
20
-6.8825130000000003
30
0
10
4.4666479999999993
20
-7.0407470000000032
30
0
10
4.3864569999999983
20
-7.170967000000001
30
0
10
4.3876229999999996
20
-7.172149000000001
30
0
0
SPLINE
5
788
100
AcDbEntity
8
0
100
AcDbSpline
70
0
71
3
72
8
73
4
74
0
42
0.000000001
43
0.0000000001
44
0.0000000001
40
-1
40
-1
40
-1
40
-1
40
0
40
0
40
0
40
0
10
4.3876229999999996
20
-7.172149000000001
30
0
10
4.3912110000000002
20
-7.175575000000002
30
0
10
4.6671690000000003
20
-7.2025140000000016
30
0
10
4.669713999999999
20
-7.1995600000000008
30
0
0
SPLINE
5
789
100
AcDbEntity
8
0
100
AcDbSpline
70
0
71
3
72
8
73
4
74
0
42
0.000000001
43
0.0000000001
44
0.0000000001
40
-1
40
-1
40
-1
40
-1
40
0
40
0
40
0
40
0
10
4.669713999999999
20
-7.1995600000000008
30
0
10
4.6710389999999995
20
-7.1980650000000015
30
0
10
4.7322740000000003
20
-7.0930290000000005
30
0
10
4.80579
20
-6.966152000000001
30
0
0
SPLINE
5
790
100
AcDbEntity
8
0
100
AcDbSpline
70
0
71
3
72
8
73
4
74
0
42
0.000000001
43
0.0000000001
44
0.0000000001
40
-1
40
-1
40
-1
40
-1
40
0
40
0
40
0
40
0
10
4.80579
20
-6.966152000000001
30
0
10
4.8793069999999998
20
-6.8392700000000008
30
0
10
4.9419269999999997
20
-6.7328330000000012
30
0
10
4.9450019999999997
20
-6.7292890000000005
30
0
0
SPLINE
5
791
100
AcDbEntity
8
0
100
AcDbSpline
70
0
71
3
72
8
73
4
74
0
42
0.000000001
43
0.0000000001
44
0.0000000001
40
-1
40
-1
40
-1
40
-1
40
0
40
0
40
0
40
0
10
4.9450019999999997
20
-6.7292890000000005
30
0
10
4.9480519999999997
20
-6.7258920000000018
30
0
10
5.0279780000000001
20
-6.7692829999999988
30
0
10
5.1226149999999997
20
-6.8257590000000015
30
0
0
SPLINE
5
792
100
AcDbEntity
8
0
100
AcDbSpline
70
0
71
3
72
8
73
4
74
0
42
0.000000001
43
0.0000000001
44
0.0000000001
40
-1
40
-1
40
-1
40
-1
40
0
40
0
40
0
40
0
10
5.1226149999999997
20
-6.8257590000000015
30
0
10
5.2172529999999995
20
-6.8822120000000009
30
0
10
5.3098790000000005
20
-6.9356100000000014
30
0
10
5.328449
20
-6.9443530000000004
30
0
0
SPLINE
5
793
100
AcDbEntity
8
0
100
AcDbSpline
70
0
71
3
72
8
73
4
74
0
42
0.000000001
43
0.0000000001
44
0.0000000001
40
-1
40
-1
40
-1
40
-1
40
0
40
0
40
0
40
0
10
5.328449
20
-6.9443530000000004
30
0
10
5.3470249999999995
20
-6.9531560000000017
30
0
10
5.3621549999999996
20
-6.9623710000000001
30
0
10
5.362074999999999
20
-6.9653250000000009
30
0
0
SPLINE
5
794
100
AcDbEntity
8
0
100
AcDbSpline
70
0
71
3
72
8
73
4
74
0
42
0.000000001
43
0.0000000001
44
0.0000000001
40
-1
40
-1
40
-1
40
-1
40
0
40
0
40
0
40
0
10
5.362074999999999
20
-6.9653250000000009
30
0
10
5.3619959999999995
20
-6.9680840000000002
30
0
10
5.2904530000000003
20
-7.1154359999999999
30
0
10
5.2030899999999995
20
-7.2927749999999998
30
0
0
LINE
5
795
100
AcDbEntity
8
0
100
AcDbLine
10
5.2030899999999995
20
-7.2927750000000007
30
0
11
5.0442479999999996
21
-7.6152030000000011
31
0
0
LINE
5
796
100
AcDbEntity
8
0
100
AcDbLine
10
5.0442479999999996
20
-7.6152030000000011
30
0
11
4.7922959999999986
21
-7.6104770000000004
31
0
0
LINE
5
797
100
AcDbEntity
8
0
100
AcDbLine
10
4.7922959999999986
20
-7.6104770000000004
30
0
11
4.8356969999999988
21
-7.6719809999999988
31
0
0
SPLINE
5
798
100
AcDbEntity
8
0
100
AcDbSpline
70
0
71
3
72
8
73
4
74
0
42
0.000000001
43
0.0000000001
44
0.0000000001
40
-1
40
-1
40
-1
40
-1
40
0
40
0
40
0
40
0
10
4.8356969999999988
20
-7.6719809999999988
30
0
10
4.8595689999999996
20
-7.705808000000002
30
0
10
4.8930879999999979
20
-7.7538950000000009
30
0
10
4.9101790000000003
20
-7.7788250000000003
30
0
0
LINE
5
799
100
AcDbEntity
8
0
100
AcDbLine
10
4.9101790000000003
20
-7.7788249999999985
30
0
11
4.9412599999999998
21
-7.8241360000000002
31
0
0
LINE
5
800
100
AcDbEntity
8
0
100
AcDbLine
10
4.9412599999999998
20
-7.8241360000000002
30
0
11
4.8874070000000005
21
-7.933987000000001
31
0
0
LINE
5
801
100
AcDbEntity
8
0
100
AcDbLine
10
4.8874070000000005
20
-7.933987000000001
30
0
11
4.8874019999999998
21
-7.9343649999999997
31
0
0
SPLINE
5
802
100
AcDbEntity
8
0
100
AcDbSpline
70
0
71
3
72
8
73
4
74
0
42
0.000000001
43
0.0000000001
44
0.0000000001
40
-1
40
-1
40
-1
40
-1
40
0
40
0
40
0
40
0
10
4.8874019999999998
20
-7.9343649999999997
30
0
10
4.8577820000000003
20
-7.9947820000000016
30
0
10
4.7857390000000004
20
-8.1413360000000008
30
0
10
4.7273039999999993
20
-8.2600430000000031
30
0
0
LINE
5
803
100
AcDbEntity
8
0
100
AcDbLine
10
4.7273039999999984
20
-8.2600430000000031
30
0
11
4.6210610000000001
21
-8.4758690000000012
31
0
0
LINE
5
804
100
AcDbEntity
8
0
100
AcDbLine
10
4.6210610000000001
20
-8.4758690000000012
30
0
11
4.4933519999999998
21
-8.4038970000000006
31
0
0
SPLINE
5
805
100
AcDbEntity
8
0
100
AcDbSpline
70
0
71
3
72
8
73
4
74
0
42
0.000000001
43
0.0000000001
44
0.0000000001
40
-1
40
-1
40
-1
40
-1
40
0
40
0
40
0
40
0
10
4.4933519999999998
20
-8.4038970000000006
30
0
10
4.3079889999999992
20
-8.2994220000000034
30
0
10
4.1136300000000006
20
-8.1797350000000009
30
0
10
4.113573999999999
20
-8.1700470000000003
30
0
0
SPLINE
5
806
100
AcDbEntity
8
0
100
AcDbSpline
70
0
71
3
72
8
73
4
74
0
42
0.000000001
43
0.0000000001
44
0.0000000001
40
-1
40
-1
40
-1
40
-1
40
0
40
0
40
0
40
0
10
4.113573999999999
20
-8.1700470000000003
30
0
10
4.1135489999999999
20
-8.1654330000000037
30
0
10
4.1748009999999995
20
-8.0559719999999988
30
0
10
4.249689
20
-7.9267970000000014
30
0
0
SPLINE
5
807
100
AcDbEntity
8
0
100
AcDbSpline
70
0
71
3
72
8
73
4
74
0
42
0.000000001
43
0.0000000001
44
0.0000000001
40
-1
40
-1
40
-1
40
-1
40
0
40
0
40
0
40
0
10
4.249689
20
-7.9267970000000014
30
0
10
4.3245760000000004
20
-7.7976229999999997
30
0
10
4.384309
20
-7.6879790000000003
30
0
10
4.3824540000000001
20
-7.6826620000000005
30
0
0
SPLINE
5
808
100
AcDbEntity
8
0
100
AcDbSpline
70
0
71
3
72
8
73
4
74
0
42
0.000000001
43
0.0000000001
44
0.0000000001
40
-1
40
-1
40
-1
40
-1
40
0
40
0
40
0
40
0
10
4.3824540000000001
20
-7.6826620000000005
30
0
10
4.3805880000000004
20
-7.6775639999999994
30
0
10
4.362849999999999
20
-7.6468679999999996
30
0
10
4.3430389999999983
20
-7.6144950000000016
30
0
0
SPLINE
5
809
100
AcDbEntity
8
0
100
AcDbSpline
70
0
71
3
72
8
73
4
74
0
42
0.000000001
43
0.0000000001
44
0.0000000001
40
-1
40
-1
40
-1
40
-1
40
0
40
0
40
0
40
0
10
4.3430389999999983
20
-7.6144950000000016
30
0
10
4.3035489999999994
20
-7.5499190000000009
30
0
10
4.3142690000000004
20
-7.5554130000000015
30
0
10
4.1972580000000006
20
-7.5402310000000012
30
0
0
LINE
5
810
100
AcDbEntity
8
0
100
AcDbLine
10
4.1972580000000006
20
-7.5402310000000012
30
0
11
4.1569419999999981
21
-7.534913999999997
31
0
0
LINE
5
811
100
AcDbEntity
8
0
100
AcDbLine
10
4.1569419999999981
20
-7.534913999999997
30
0
11
4.0101099999999992
21
-7.7706429999999989
31
0
0
SPLINE
5
812
100
AcDbEntity
8
0
100
AcDbSpline
70
0
71
3
72
8
73
4
74
0
42
0.000000001
43
0.0000000001
44
0.0000000001
40
-1
40
-1
40
-1
40
-1
40
0
40
0
40
0
40
0
10
4.0101099999999992
20
-7.7706429999999989
30
0
10
3.9293529999999994
20
-7.9002960000000026
30
0
10
3.8618309999999996
20
-8.0063719999999989
30
0
10
3.8600809999999997
20
-8.0063719999999989
30
0
0
SPLINE
5
813
100
AcDbEntity
8
0
100
AcDbSpline
70
0
71
3
72
8
73
4
74
0
42
0.000000001
43
0.0000000001
44
0.0000000001
40
-1
40
-1
40
-1
40
-1
40
0
40
0
40
0
40
0
10
3.8600809999999997
20
-8.0063719999999989
30
0
10
3.852576
20
-8.0063719999999989
30
0
10
3.6501730000000006
20
-7.8608219999999989
30
0
10
3.5186109999999999
20
-7.7608129999999989
30
0
0
ELLIPSE
5
814
100
AcDbEntity
8
0
100
AcDbEllipse
10
7.6980593224864098
20
-0.788330715525287
30
0
11
0.014579851053303613
21
0.0073081322902050078
31
0.0
40
0.63023224625786789
41
4.0335849113035867
42
5.6831323283038122
0
SPLINE
5
815
100
AcDbEntity
8
0
100
AcDbSpline
70
0
71
3
72
8
73
4
74
0
42
0.000000001
43
0.0000000001
44
0.0000000001
40
-1
40
-1
40
-1
40
-1
40
0
40
0
40
0
40
0
10
7.6924899999999958
20
-0.80007099999999998
30
0
10
7.6839130000000004
20
-0.80007099999999998
30
0
10
7.6757119999999981
20
-0.80278900000000131
30
0
10
7.6742269999999975
20
-0.8063330000000013
30
0
0
SPLINE
5
816
100
AcDbEntity
8
0
100
AcDbSpline
70
0
71
3
72
8
73
4
74
0
42
0.000000001
43
0.0000000001
44
0.0000000001
40
-1
40
-1
40
-1
40
-1
40
0
40
0
40
0
40
0
10
7.6742269999999975
20
-0.8063330000000013
30
0
10
7.6727589999999974
20
-0.80981900000000162
30
0
10
7.6553499999999985
20
-0.82133900000000104
30
0
10
7.6355389999999979
20
-0.83197200000000049
30
0
0
SPLINE
5
817
100
AcDbEntity
8
0
100
AcDbSpline
70
0
71
3
72
8
73
4
74
0
42
0.000000001
43
0.0000000001
44
0.0000000001
40
-1
40
-1
40
-1
40
-1
40
0
40
0
40
0
40
0
10
7.6355389999999979
20
-0.83197200000000049
30
0
10
7.6157309999999994
20
-0.8426060000000003
30
0
10
7.5887099999999998
20
-0.85867399999999905
30
0
10
7.5755050000000015
20
-0.86759499999999989
30
0
0
SPLINE
5
818
100
AcDbEntity
8
0
100
AcDbSpline
70
0
71
3
72
8
73
4
74
0
42
0.000000001
43
0.0000000001
44
0.0000000001
40
-1
40
-1
40
-1
40
-1
40
0
40
0
40
0
40
0
10
7.5755050000000015
20
-0.86759499999999989
30
0
10
7.5622999999999987
20
-0.87663299999999966
30
0
10
7.5415879999999973
20
-0.88785800000000004
30
0
10
7.5294799999999977
20
-0.89317399999999858
30
0
0
SPLINE
5
819
100
AcDbEntity
8
0
100
AcDbSpline
70
0
71
3
72
8
73
4
74
0
42
0.000000001
43
0.0000000001
44
0.0000000001
40
-1
40
-1
40
-1
40
-1
40
0
40
0
40
0
40
0
10
7.5294799999999977
20
-0.89317399999999858
30
0
10
7.5173719999999973
20
-0.89825500000000102
30
0
10
7.5074639999999988
20
-0.90552099999999924
30
0
10
7.5074639999999988
20
-0.90906600000000148
30
0
0
SPLINE
5
820
100
AcDbEntity
8
0
100
AcDbSpline
70
0
71
3
72
8
73
4
74
0
42
0.000000001
43
0.0000000001
44
0.0000000001
40
-1
40
-1
40
-1
40
-1
40
0
40
0
40
0
40
0
10
7.5074639999999988
20
-0.90906600000000148
30
0
10
7.5074639999999988
20
-0.91272800000000032
30
0
10
7.4984570000000019
20
-0.91804499999999944
30
0
10
7.4874520000000011
20
-0.92099899999999868
30
0
0
SPLINE
5
821
100
AcDbEntity
8
0
100
AcDbSpline
70
0
71
3
72
8
73
4
74
0
42
0.000000001
43
0.0000000001
44
0.0000000001
40
-1
40
-1
40
-1
40
-1
40
0
40
0
40
0
40
0
10
7.4874520000000011
20
-0.92099899999999868
30
0
10
7.476446000000001
20
-0.92389400000000044
30
0
10
7.467439999999999
20
-0.92980100000000021
30
0
10
7.467439999999999
20
-0.93452700000000155
30
0
0
SPLINE
5
822
100
AcDbEntity
8
0
100
AcDbSpline
70
0
71
3
72
8
73
4
74
0
42
0.000000001
43
0.0000000001
44
0.0000000001
40
-1
40
-1
40
-1
40
-1
40
0
40
0
40
0
40
0
10
7.467439999999999
20
-0.93452700000000155
30
0
10
7.467439999999999
20
-0.93919400000000075
30
0
10
7.4624779999999973
20
-0.94273899999999988
30
0
10
7.4564129999999977
20
-0.94273899999999988
30
0
0
SPLINE
5
823
100
AcDbEntity
8
0
100
AcDbSpline
70
0
71
3
72
8
73
4
74
0
42
0.000000001
43
0.0000000001
44
0.0000000001
40
-1
40
-1
40
-1
40
-1
40
0
40
0
40
0
40
0
10
7.4564129999999977
20
-0.94273899999999988
30
0
10
7.4503479999999973
20
-0.94273899999999988
30
0
10
7.4408959999999995
20
-0.94840999999999953
30
0
10
7.4354199999999988
20
-0.95532200000000045
30
0
0
SPLINE
5
824
100
AcDbEntity
8
0
100
AcDbSpline
70
0
71
3
72
8
73
4
74
0
42
0.000000001
43
0.0000000001
44
0.0000000001
40
-1
40
-1
40
-1
40
-1
40
0
40
0
40
0
40
0
10
7.4354199999999988
20
-0.95532200000000045
30
0
10
7.4299439999999999
20
-0.96199700000000121
30
0
10
7.4186949999999987
20
-0.96790499999999979
30
0
10
7.410429999999999
20
-0.96790499999999979
30
0
0
SPLINE
5
825
100
AcDbEntity
8
0
100
AcDbSpline
70
0
71
3
72
8
73
4
74
0
42
0.000000001
43
0.0000000001
44
0.0000000001
40
-1
40
-1
40
-1
40
-1
40
0
40
0
40
0
40
0
10
7.410429999999999
20
-0.96790499999999979
30
0
10
7.4021660000000011
20
-0.96790499999999979
30
0
10
7.3954009999999988
20
-0.97138999999999953
30
0
10
7.3954009999999988
20
-0.97611700000000079
30
0
0
SPLINE
5
826
100
AcDbEntity
8
0
100
AcDbSpline
70
0
71
3
72
8
73
4
74
0
42
0.000000001
43
0.0000000001
44
0.0000000001
40
-1
40
-1
40
-1
40
-1
40
0
40
0
40
0
40
0
10
7.3954009999999988
20
-0.97611700000000079
30
0
10
7.3954009999999988
20
-0.98072399999999904
30
0
10
7.3863939999999992
20
-0.98669100000000043
30
0
10
7.375389000000002
20
-0.989645
30
0
0
SPLINE
5
827
100
AcDbEntity
8
0
100
AcDbSpline
70
0
71
3
72
8
73
4
74
0
42
0.000000001
43
0.0000000001
44
0.0000000001
40
-1
40
-1
40
-1
40
-1
40
0
40
0
40
0
40
0
10
7.375389000000002
20
-0.989645
30
0
10
7.3643839999999976
20
-0.99254000000000042
30
0
10
7.3553769999999998
20
-0.99803399999999842
30
0
10
7.3553769999999998
20
-1.0015780000000003
30
0
0
SPLINE
5
828
100
AcDbEntity
8
0
100
AcDbSpline
70
0
71
3
72
8
73
4
74
0
42
0.000000001
43
0.0000000001
44
0.0000000001
40
-1
40
-1
40
-1
40
-1
40
0
40
0
40
0
40
0
10
7.3553769999999998
20
-1.0015780000000003
30
0
10
7.3553769999999998
20
-1.0052409999999998
30
0
10
7.3454690000000014
20
-1.0123300000000013
30
0
10
7.333361
20
-1.0176470000000002
30
0
0
SPLINE
5
829
100
AcDbEntity
8
0
100
AcDbSpline
70
0
71
3
72
8
73
4
74
0
42
0.000000001
43
0.0000000001
44
0.0000000001
40
-1
40
-1
40
-1
40
-1
40
0
40
0
40
0
40
0
10
7.333361
20
-1.0176470000000002
30
0
10
7.3212529999999987
20
-1.0228450000000007
30
0
10
7.2933420000000035
20
-1.0383230000000008
30
0
10
7.2713259999999975
20
-1.0520290000000001
30
0
0
SPLINE
5
830
100
AcDbEntity
8
0
100
AcDbSpline
70
0
71
3
72
8
73
4
74
0
42
0.000000001
43
0.0000000001
44
0.0000000001
40
-1
40
-1
40
-1
40
-1
40
0
40
0
40
0
40
0
10
7.2713259999999975
20
-1.0520290000000001
30
0
10
7.2493139999999974
20
-1.0657929999999989
30
0
10
7.2213979999999998
20
-1.0813299999999997
30
0
10
7.2092899999999984
20
-1.087237999999999
30
0
0
SPLINE
5
831
100
AcDbEntity
8
0
100
AcDbSpline
70
0
71
3
72
8
73
4
74
0
42
0.000000001
43
0.0000000001
44
0.0000000001
40
-1
40
-1
40
-1
40
-1
40
0
40
0
40
0
40
0
10
7.2092899999999984
20
-1.087237999999999
30
0
10
7.1971819999999989
20
-1.0929089999999995
30
0
10
7.1872739999999995
20
-1.0995839999999999
30
0
10
7.1872739999999995
20
-1.1031289999999994
30
0
0
SPLINE
5
832
100
AcDbEntity
8
0
100
AcDbSpline
70
0
71
3
72
8
73
4
74
0
42
0.000000001
43
0.0000000001
44
0.0000000001
40
-1
40
-1
40
-1
40
-1
40
0
40
0
40
0
40
0
10
7.1872739999999995
20
-1.1031289999999994
30
0
10
7.1872739999999995
20
-1.1062009999999989
30
0
10
7.1782679999999983
20
-1.111044999999999
30
0
10
7.1672619999999991
20
-1.1139989999999995
30
0
0
SPLINE
5
833
100
AcDbEntity
8
0
100
AcDbSpline
70
0
71
3
72
8
73
4
74
0
42
0.000000001
43
0.0000000001
44
0.0000000001
40
-1
40
-1
40
-1
40
-1
40
0
40
0
40
0
40
0
10
7.1672619999999991
20
-1.1139989999999995
30
0
10
7.1562570000000019
20
-1.1168940000000003
30
0
10
7.1472499999999997
20
-1.1228009999999995
30
0
10
7.1472499999999997
20
-1.1275270000000011
30
0
0
SPLINE
5
834
100
AcDbEntity
8
0
100
AcDbSpline
70
0
71
3
72
8
73
4
74
0
42
0.000000001
43
0.0000000001
44
0.0000000001
40
-1
40
-1
40
-1
40
-1
40
0
40
0
40
0
40
0
10
7.1472499999999997
20
-1.1275270000000011
30
0
10
7.1472499999999997
20
-1.1321940000000008
30
0
10
7.1402579999999993
20
-1.1357389999999998
30
0
10
7.1317120000000012
20
-1.1357389999999998
30
0
0
SPLINE
5
835
100
AcDbEntity
8
0
100
AcDbSpline
70
0
71
3
72
8
73
4
74
0
42
0.000000001
43
0.0000000001
44
0.0000000001
40
-1
40
-1
40
-1
40
-1
40
0
40
0
40
0
40
0
10
7.1317120000000012
20
-1.1357389999999998
30
0
10
7.1231719999999994
20
-1.1357389999999998
30
0
10
7.113842
20
-1.1399330000000021
30
0
10
7.1109259999999974
20
-1.1446589999999985
30
0
0
SPLINE
5
836
100
AcDbEntity
8
0
100
AcDbSpline
70
0
71
3
72
8
73
4
74
0
42
0.000000001
43
0.0000000001
44
0.0000000001
40
-1
40
-1
40
-1
40
-1
40
0
40
0
40
0
40
0
10
7.1109259999999974
20
-1.1446589999999985
30
0
10
7.1080319999999997
20
-1.1495619999999991
30
0
10
7.0979170000000007
20
-1.1572420000000003
30
0
10
7.088438
20
-1.1613770000000001
30
0
0
SPLINE
5
837
100
AcDbEntity
8
0
100
AcDbSpline
70
0
71
3
72
8
73
4
74
0
42
0.000000001
43
0.0000000001
44
0.0000000001
40
-1
40
-1
40
-1
40
-1
40
0
40
0
40
0
40
0
10
7.088438
20
-1.1613770000000001
30
0
10
7.0671680000000006
20
-1.1710660000000004
30
0
10
7.0405880000000005
20
-1.1883160000000004
30
0
10
7.0350219999999988
20
-1.1959959999999992
30
0
0
SPLINE
5
838
100
AcDbEntity
8
0
100
AcDbSpline
70
0
71
3
72
8
73
4
74
0
42
0.000000001
43
0.0000000001
44
0.0000000001
40
-1
40
-1
40
-1
40
-1
40
0
40
0
40
0
40
0
10
7.0350219999999988
20
-1.1959959999999992
30
0
10
7.0327320000000002
20
-1.1991270000000005
30
0
10
7.0219280000000008
20
-1.2060390000000007
30
0
10
7.0110070000000002
20
-1.2107649999999988
30
0
0
SPLINE
5
839
100
AcDbEntity
8
0
100
AcDbSpline
70
0
71
3
72
8
73
4
74
0
42
0.000000001
43
0.0000000001
44
0.0000000001
40
-1
40
-1
40
-1
40
-1
40
0
40
0
40
0
40
0
10
7.0110070000000002
20
-1.2107649999999988
30
0
10
7.0000870000000006
20
-1.2157270000000018
30
0
10
6.9803499999999996
20
-1.2270690000000004
30
0
10
6.9671449999999995
20
-1.2359899999999999
30
0
0
SPLINE
5
840
100
AcDbEntity
8
0
100
AcDbSpline
70
0
71
3
72
8
73
4
74
0
42
0.000000001
43
0.0000000001
44
0.0000000001
40
-1
40
-1
40
-1
40
-1
40
0
40
0
40
0
40
0
10
6.9671449999999995
20
-1.2359899999999999
30
0
10
6.9539359999999988
20
-1.2449099999999991
30
0
10
6.926921000000001
20
-1.2609200000000003
30
0
10
6.9071109999999987
20
-1.2714940000000006
30
0
0
SPLINE
5
841
100
AcDbEntity
8
0
100
AcDbSpline
70
0
71
3
72
8
73
4
74
0
42
0.000000001
43
0.0000000001
44
0.0000000001
40
-1
40
-1
40
-1
40
-1
40
0
40
0
40
0
40
0
10
6.9071109999999987
20
-1.2714940000000006
30
0
10
6.8872999999999998
20
-1.2821279999999997
30
0
10
6.8663279999999993
20
-1.29542
30
0
10
6.8605129999999983
20
-1.3013270000000008
30
0
0
SPLINE
5
842
100
AcDbEntity
8
0
100
AcDbSpline
70
0
71
3
72
8
73
4
74
0
42
0.000000001
43
0.0000000001
44
0.0000000001
40
-1
40
-1
40
-1
40
-1
40
0
40
0
40
0
40
0
10
6.8605129999999983
20
-1.3013270000000008
30
0
10
6.854692
20
-1.3071169999999999
30
0
10
6.8447899999999997
20
-1.3118429999999999
30
0
10
6.8384970000000012
20
-1.3118429999999999
30
0
0
SPLINE
5
843
100
AcDbEntity
8
0
100
AcDbSpline
70
0
71
3
72
8
73
4
74
0
42
0.000000001
43
0.0000000001
44
0.0000000001
40
-1
40
-1
40
-1
40
-1
40
0
40
0
40
0
40
0
10
6.8384970000000012
20
-1.3118429999999999
30
0
10
6.8322039999999982
20
-1.3118429999999999
30
0
10
6.8270619999999989
20
-1.3152690000000009
30
0
10
6.8270619999999989
20
-1.3194049999999999
30
0
0
SPLINE
5
844
100
AcDbEntity
8
0
100
AcDbSpline
70
0
71
3
72
8
73
4
74
0
42
0.000000001
43
0.0000000001
44
0.0000000001
40
-1
40
-1
40
-1
40
-1
40
0
40
0
40
0
40
0
10
6.8270619999999989
20
-1.3194049999999999
30
0
10
6.8270619999999989
20
-1.3235989999999993
30
0
10
6.8171539999999995
20
-1.3312200000000001
30
0
10
6.8050459999999999
20
-1.3359459999999999
30
0
0
SPLINE
5
845
100
AcDbEntity
8
0
100
AcDbSpline
70
0
71
3
72
8
73
4
74
0
42
0.000000001
43
0.0000000001
44
0.0000000001
40
-1
40
-1
40
-1
40
-1
40
0
40
0
40
0
40
0
10
6.8050459999999999
20
-1.3359459999999999
30
0
10
6.7772040000000002
20
-1.3472939999999995
30
0
10
6.7150690000000006
20
-1.3839209999999991
30
0
10
6.7041060000000003
20
-1.3953820000000003
30
0
0
SPLINE
5
846
100
AcDbEntity
8
0
100
AcDbSpline
70
0
71
3
72
8
73
4
74
0
42
0.000000001
43
0.0000000001
44
0.0000000001
40
-1
40
-1
40
-1
40
-1
40
0
40
0
40
0
40
0
10
6.7041060000000003
20
-1.3953820000000003
30
0
10
6.6995310000000003
20
-1.4005209999999995
30
0
10
6.6894800000000014
20
-1.4040660000000005
30
0
10
6.6817719999999996
20
-1.4040660000000005
30
0
0
SPLINE
5
847
100
AcDbEntity
8
0
100
AcDbSpline
70
0
71
3
72
8
73
4
74
0
42
0.000000001
43
0.0000000001
44
0.0000000001
40
-1
40
-1
40
-1
40
-1
40
0
40
0
40
0
40
0
10
6.6817719999999996
20
-1.4040660000000005
30
0
10
6.6740640000000004
20
-1.4040660000000005
30
0
10
6.6648559999999994
20
-1.409264000000001
30
0
10
6.6613569999999998
20
-1.4157040000000001
30
0
0
SPLINE
5
848
100
AcDbEntity
8
0
100
AcDbSpline
70
0
71
3
72
8
73
4
74
0
42
0.000000001
43
0.0000000001
44
0.0000000001
40
-1
40
-1
40
-1
40
-1
40
0
40
0
40
0
40
0
10
6.6613569999999998
20
-1.4157040000000001
30
0
10
6.6578369999999989
20
-1.4220839999999997
30
0
10
6.6477539999999991
20
-1.4286999999999992
30
0
10
6.6389490000000002
20
-1.4304720000000002
30
0
0
SPLINE
5
849
100
AcDbEntity
8
0
100
AcDbSpline
70
0
71
3
72
8
73
4
74
0
42
0.000000001
43
0.0000000001
44
0.0000000001
40
-1
40
-1
40
-1
40
-1
40
0
40
0
40
0
40
0
10
6.6389490000000002
20
-1.4304720000000002
30
0
10
6.6235969999999993
20
-1.4334849999999995
30
0
10
6.6228550000000004
20
-1.4411649999999996
30
0
10
6.6207869999999973
20
-1.6157269999999997
30
0
0
LINE
5
850
100
AcDbEntity
8
0
100
AcDbLine
10
6.6207869999999973
20
-1.6157269999999997
30
0
11
6.6186140000000009
21
-1.7978399999999992
31
0
0
LINE
5
851
100
AcDbEntity
8
0
100
AcDbLine
10
6.6186140000000009
20
-1.7978399999999992
30
0
11
6.7328339999999995
21
-1.8002030000000002
31
0
0
LINE
5
852
100
AcDbEntity
8
0
100
AcDbLine
10
6.7328339999999995
20
-1.8002030000000002
30
0
11
6.847055000000001
21
-1.8025660000000003
31
0
0
LINE
5
853
100
AcDbEntity
8
0
100
AcDbLine
10
6.847055000000001
20
-1.8025660000000003
30
0
11
6.8492279999999992
21
-1.9766319999999999
31
0
0
LINE
5
854
100
AcDbEntity
8
0
100
AcDbLine
10
6.8492279999999992
20
-1.9766319999999999
30
0
11
6.8491250000000008
21
-1.9766610000000013
31
0
0
LINE
5
855
100
AcDbEntity
8
0
100
AcDbLine
10
6.8491250000000008
20
-1.9766610000000013
30
0
11
6.8512979999999999
21
-2.1507270000000003
31
0
0
LINE
5
856
100
AcDbEntity
8
0
100
AcDbLine
10
6.8512979999999999
20
-2.1507270000000003
30
0
11
5.3537949999999999
21
-2.1507270000000003
31
0
0
LINE
5
857
100
AcDbEntity
8
0
100
AcDbLine
10
5.3537949999999999
20
-2.1507270000000003
30
0
11
5.355967999999999
21
-1.9766610000000013
31
0
0
LINE
5
858
100
AcDbEntity
8
0
100
AcDbLine
10
5.355967999999999
20
-1.9766610000000013
30
0
11
5.358142
21
-1.8025949999999988
31
0
0
LINE
5
859
100
AcDbEntity
8
0
100
AcDbLine
10
5.358142
20
-1.8025949999999988
30
0
11
5.480211999999999
21
-1.8002319999999987
31
0
0
LINE
5
860
100
AcDbEntity
8
0
100
AcDbLine
10
5.480211999999999
20
-1.8002319999999987
30
0
11
5.6022809999999996
21
-1.7978689999999999
31
0
0
LINE
5
861
100
AcDbEntity
8
0
100
AcDbLine
10
5.6022809999999996
20
-1.7978689999999999
30
0
11
5.6022809999999996
21
0.38278599999999924
31
0
0
LINE
5
862
100
AcDbEntity
8
0
100
AcDbLine
10
5.6022809999999996
20
0.38278599999999924
30
0
11
5.3541400000000001
21
0.38278599999999924
31
0
0
LINE
5
863
100
AcDbEntity
8
0
100
AcDbLine
10
5.3541400000000001
20
0.38278599999999924
30
0
11
5.3541400000000001
21
0.69316899999999959
31
0
0
LINE
5
864
100
AcDbEntity
8
0
100
AcDbLine
10
5.3541400000000001
20
0.69316899999999959
30
0
11
6.8509929999999999
21
0.69316899999999959
31
0
0
LINE
5
865
100
AcDbEntity
8
0
100
AcDbLine
10
6.8509929999999999
20
0.69316899999999959
30
0
11
6.8509929999999999
21
0.38017499999999776
31
0
0
LINE
5
866
100
AcDbEntity
8
0
100
AcDbLine
10
6.8509929999999999
20
0.38017499999999776
30
0
11
6.7269220000000001
21
0.38608300000000106
31
0
0
LINE
5
867
100
AcDbEntity
8
0
100
AcDbLine
10
6.7269220000000001
20
0.38608300000000106
30
0
11
6.6028510000000002
21
0.39199000000000206
31
0
0
LINE
5
868
100
AcDbEntity
8
0
100
AcDbLine
10
6.6028510000000002
20
0.39199000000000206
30
0
11
6.6028510000000002
21
-0.19533299999999953
31
0
0
SPLINE
5
869
100
AcDbEntity
8
0
100
AcDbSpline
70
0
71
3
72
8
73
4
74
0
42
0.000000001
43
0.0000000001
44
0.0000000001
40
-1
40
-1
40
-1
40
-1
40
0
40
0
40
0
40
0
10
6.6028510000000002
20
-0.1953329999999997
30
0
10
6.6028510000000002
20
-0.80147700000000022
30
0
10
6.6029949999999991
20
-0.80431299999999872
30
0
10
6.6325910000000015
20
-0.77329799999999871
30
0
0
ELLIPSE
5
870
100
AcDbEntity
8
0
100
AcDbEllipse
10
6.6868900036822767
20
-0.75235753294165553
30
0
11
0.058743561692839709
21
0.030043215155664497
31
0.0
40
0.19195045865209603
41
1.2332306353858125
42
2.6408108893041762
0
SPLINE
5
871
100
AcDbEntity
8
0
100
AcDbSpline
70
0
71
3
72
8
73
4
74
0
42
0.000000001
43
0.0000000001
44
0.0000000001
40
-1
40
-1
40
-1
40
-1
40
0
40
0
40
0
40
0
10
6.7009039999999995
20
-0.73176799999999931
30
0
10
6.7130119999999982
20
-0.72656999999999961
30
0
10
6.7229200000000002
20
-0.71889000000000081
30
0
10
6.7229200000000002
20
-0.71475500000000014
30
0
0
SPLINE
5
872
100
AcDbEntity
8
0
100
AcDbSpline
70
0
71
3
72
8
73
4
74
0
42
0.000000001
43
0.0000000001
44
0.0000000001
40
-1
40
-1
40
-1
40
-1
40
0
40
0
40
0
40
0
10
6.7229200000000002
20
-0.71475500000000014
30
0
10
6.7229200000000002
20
-0.71073699999999995
30
0
10
6.7302410000000004
20
-0.70719299999999918
30
0
10
6.7391839999999998
20
-0.70719299999999918
30
0
0
ELLIPSE
5
873
100
AcDbEntity
8
0
100
AcDbEllipse
10
6.7441860126344721
20
-0.69500378047362121
30
0
11
0.015929745992614309
21
0.0065076928913142098
31
0.0
40
0.64701255129634572
41
4.1455318057307675
42
5.7523070642051071
0
SPLINE
5
874
100
AcDbEntity
8
0
100
AcDbSpline
70
0
71
3
72
8
73
4
74
0
42
0.000000001
43
0.0000000001
44
0.0000000001
40
-1
40
-1
40
-1
40
-1
40
0
40
0
40
0
40
0
10
6.7600550000000004
20
-0.69460999999999984
30
0
10
6.7625890000000002
20
-0.68793400000000104
30
0
10
6.7707629999999988
20
-0.68202700000000049
30
0
10
6.7782169999999988
20
-0.68202700000000049
30
0
0
SPLINE
5
875
100
AcDbEntity
8
0
100
AcDbSpline
70
0
71
3
72
8
73
4
74
0
42
0.000000001
43
0.0000000001
44
0.0000000001
40
-1
40
-1
40
-1
40
-1
40
0
40
0
40
0
40
0
10
6.7782169999999988
20
-0.68202700000000049
30
0
10
6.7856649999999989
20
-0.68202700000000049
30
0
10
6.7957689999999982
20
-0.67794999999999916
30
0
10
6.8006990000000007
20
-0.67263400000000073
30
0
0
ELLIPSE
5
876
100
AcDbEntity
8
0
100
AcDbEllipse
10
6.8549955533034215
20
-0.65169712059125218
30
0
11
0.058741579465528673
21
0.030042187784897728
31
0.0
40
0.19200168296126174
41
1.2331718098751479
42
2.6407523125876526
0
SPLINE
5
877
100
AcDbEntity
8
0
100
AcDbSpline
70
0
71
3
72
8
73
4
74
0
42
0.000000001
43
0.0000000001
44
0.0000000001
40
-1
40
-1
40
-1
40
-1
40
0
40
0
40
0
40
0
10
6.8690109999999986
20
-0.63110399999999878
30
0
10
6.8811189999999991
20
-0.62590499999999982
30
0
10
6.8910270000000002
20
-0.61822500000000102
30
0
10
6.8910270000000002
20
-0.61408999999999925
30
0
0
SPLINE
5
878
100
AcDbEntity
8
0
100
AcDbSpline
70
0
71
3
72
8
73
4
74
0
42
0.000000001
43
0.0000000001
44
0.0000000001
40
-1
40
-1
40
-1
40
-1
40
0
40
0
40
0
40
0
10
6.8910270000000002
20
-0.61408999999999925
30
0
10
6.8910270000000002
20
-0.61007299999999987
30
0
10
6.8983479999999995
20
-0.6065279999999994
30
0
10
6.907290999999999
20
-0.6065279999999994
30
0
0
ELLIPSE
5
879
100
AcDbEntity
8
0
100
AcDbEllipse
10
6.9122336671993603
20
-0.59464711913828805
30
0
11
0.015913933549608239
21
0.0061546480496487465
31
0.0
40
0.63859552998262237
41
4.1639658690727863
42
5.7729173044761346
0
SPLINE
5
880
100
AcDbEntity
8
0
100
AcDbSpline
70
0
71
3
72
8
73
4
74
0
42
0.000000001
43
0.0000000001
44
0.0000000001
40
-1
40
-1
40
-1
40
-1
40
0
40
0
40
0
40
0
10
6.9280399999999984
20
-0.59423999999999899
30
0
10
6.9305160000000008
20
-0.58756499999999978
30
0
10
6.9399729999999984
20
-0.57947200000000065
30
0
10
6.949069999999999
20
-0.57651800000000031
30
0
0
SPLINE
5
881
100
AcDbEntity
8
0
100
AcDbSpline
70
0
71
3
72
8
73
4
74
0
42
0.000000001
43
0.0000000001
44
0.0000000001
40
-1
40
-1
40
-1
40
-1
40
0
40
0
40
0
40
0
10
6.949069999999999
20
-0.57651800000000031
30
0
10
6.9581659999999994
20
-0.57350500000000071
30
0
10
6.9916059999999991
20
-0.55448299999999984
30
0
10
7.0233869999999987
20
-0.53427899999999962
30
0
0
SPLINE
5
882
100
AcDbEntity
8
0
100
AcDbSpline
70
0
71
3
72
8
73
4
74
0
42
0.000000001
43
0.0000000001
44
0.0000000001
40
-1
40
-1
40
-1
40
-1
40
0
40
0
40
0
40
0
10
7.0233869999999987
20
-0.53427899999999962
30
0
10
7.055164999999997
20
-0.51401600000000025
30
0
10
7.0852279999999999
20
-0.49747500000000056
30
0
10
7.0901589999999981
20
-0.49747500000000056
30
0
0
SPLINE
5
883
100
AcDbEntity
8
0
100
AcDbSpline
70
0
71
3
72
8
73
4
74
0
42
0.000000001
43
0.0000000001
44
0.0000000001
40
-1
40
-1
40
-1
40
-1
40
0
40
0
40
0
40
0
10
7.0901589999999981
20
-0.49747500000000056
30
0
10
7.0951210000000007
20
-0.49747500000000056
30
0
10
7.0991490000000006
20
-0.49404800000000015
30
0
10
7.0991490000000006
20
-0.48991299999999943
30
0
0
SPLINE
5
884
100
AcDbEntity
8
0
100
AcDbSpline
70
0
71
3
72
8
73
4
74
0
42
0.000000001
43
0.0000000001
44
0.0000000001
40
-1
40
-1
40
-1
40
-1
40
0
40
0
40
0
40
0
10
7.0991490000000006
20
-0.48991299999999943
30
0
10
7.0991490000000006
20
-0.4857189999999999
30
0
10
7.1090569999999982
20
-0.47809800000000008
30
0
10
7.1211649999999995
20
-0.47337199999999957
30
0
0
SPLINE
5
885
100
AcDbEntity
8
0
100
AcDbSpline
70
0
71
3
72
8
73
4
74
0
42
0.000000001
43
0.0000000001
44
0.0000000001
40
-1
40
-1
40
-1
40
-1
40
0
40
0
40
0
40
0
10
7.1211649999999995
20
-0.47337199999999957
30
0
10
7.1490070000000019
20
-0.46202899999999936
30
0
10
7.211142999999999
20
-0.42546199999999962
30
0
10
7.2221050000000009
20
-0.41394200000000037
30
0
0
SPLINE
5
886
100
AcDbEntity
8
0
100
AcDbSpline
70
0
71
3
72
8
73
4
74
0
42
0.000000001
43
0.0000000001
44
0.0000000001
40
-1
40
-1
40
-1
40
-1
40
0
40
0
40
0
40
0
10
7.2221050000000009
20
-0.41394200000000037
30
0
10
7.2266859999999973
20
-0.40880200000000028
30
0
10
7.2365299999999992
20
-0.40525800000000051
30
0
10
7.2439840000000002
20
-0.40525800000000051
30
0
0
ELLIPSE
5
887
100
AcDbEntity
8
0
100
AcDbEllipse
10
7.248897382504242
20
-0.39306257595829291
30
0
11
0.012685909436131021
21
0.008649603965760479
31
0.0
40
0.67771009287538075
41
3.9202653999754222
42
5.5265440757895883
0
ELLIPSE
5
888
100
AcDbEntity
8
0
100
AcDbEllipse
10
7.2769581587522403
20
-0.39182789866466566
30
0
11
0.014788394875527642
21
0.0071839178677102168
31
0.0
40
0.62755844955348095
41
0.90515776397041969
42
2.5550987464148847
0
SPLINE
5
889
100
AcDbEntity
8
0
100
AcDbSpline
70
0
71
3
72
8
73
4
74
0
42
0.000000001
43
0.0000000001
44
0.0000000001
40
-1
40
-1
40
-1
40
-1
40
0
40
0
40
0
40
0
10
7.2825449999999998
20
-0.38009199999999971
30
0
10
7.2912280000000003
20
-0.38009199999999971
30
0
10
7.3006699999999984
20
-0.37589700000000048
30
0
10
7.3035850000000035
20
-0.37117099999999892
30
0
0
SPLINE
5
890
100
AcDbEntity
8
0
100
AcDbSpline
70
0
71
3
72
8
73
4
74
0
42
0.000000001
43
0.0000000001
44
0.0000000001
40
-1
40
-1
40
-1
40
-1
40
0
40
0
40
0
40
0
10
7.3035850000000035
20
-0.37117099999999892
30
0
10
7.3064739999999988
20
-0.36626800000000065
30
0
10
7.3165940000000003
20
-0.35841100000000065
30
0
10
7.3260729999999983
20
-0.35427599999999893
30
0
0
SPLINE
5
891
100
AcDbEntity
8
0
100
AcDbSpline
70
0
71
3
72
8
73
4
74
0
42
0.000000001
43
0.0000000001
44
0.0000000001
40
-1
40
-1
40
-1
40
-1
40
0
40
0
40
0
40
0
10
7.3260729999999983
20
-0.35427599999999893
30
0
10
7.3355569999999988
20
-0.34984500000000079
30
0
10
7.3541159999999977
20
-0.33879799999999893
30
0
10
7.3673219999999988
20
-0.32970000000000166
30
0
0
SPLINE
5
892
100
AcDbEntity
8
0
100
AcDbSpline
70
0
71
3
72
8
73
4
74
0
42
0.000000001
43
0.0000000001
44
0.0000000001
40
-1
40
-1
40
-1
40
-1
40
0
40
0
40
0
40
0
10
7.3673219999999988
20
-0.32970000000000166
30
0
10
7.3805319999999988
20
-0.32066199999999923
30
0
10
7.3967380000000027
20
-0.31103199999999998
30
0
10
7.4033439999999979
20
-0.30807800000000052
30
0
0
SPLINE
5
893
100
AcDbEntity
8
0
100
AcDbSpline
70
0
71
3
72
8
73
4
74
0
42
0.000000001
43
0.0000000001
44
0.0000000001
40
-1
40
-1
40
-1
40
-1
40
0
40
0
40
0
40
0
10
7.4033439999999979
20
-0.30807800000000052
30
0
10
7.4099440000000003
20
-0.30542000000000069
30
0
10
7.4189499999999988
20
-0.30128499999999886
30
0
10
7.4233500000000028
20
-0.29951299999999997
30
0
0
SPLINE
5
894
100
AcDbEntity
8
0
100
AcDbSpline
70
0
71
3
72
8
73
4
74
0
42
0.000000001
43
0.0000000001
44
0.0000000001
40
-1
40
-1
40
-1
40
-1
40
0
40
0
40
0
40
0
10
7.4233500000000028
20
-0.29951299999999997
30
0
10
7.4277559999999969
20
-0.29762200000000066
30
0
10
7.4421639999999973
20
-0.28858400000000067
30
0
10
7.4553700000000003
20
-0.27948600000000101
30
0
0
SPLINE
5
895
100
AcDbEntity
8
0
100
AcDbSpline
70
0
71
3
72
8
73
4
74
0
42
0.000000001
43
0.0000000001
44
0.0000000001
40
-1
40
-1
40
-1
40
-1
40
0
40
0
40
0
40
0
10
7.4553700000000003
20
-0.27948600000000101
30
0
10
7.4685799999999984
20
-0.27038799999999918
30
0
10
7.4871399999999992
20
-0.25904600000000044
30
0
10
7.4966189999999973
20
-0.25490999999999925
30
0
0
SPLINE
5
896
100
AcDbEntity
8
0
100
AcDbSpline
70
0
71
3
72
8
73
4
74
0
42
0.000000001
43
0.0000000001
44
0.0000000001
40
-1
40
-1
40
-1
40
-1
40
0
40
0
40
0
40
0
10
7.4966189999999973
20
-0.25490999999999925
30
0
10
7.5060969999999978
20
-0.25053900000000068
30
0
10
7.5161909999999992
20
-0.24274100000000076
30
0
10
7.5191059999999972
20
-0.23801499999999914
30
0
0
SPLINE
5
897
100
AcDbEntity
8
0
100
AcDbSpline
70
0
71
3
72
8
73
4
74
0
42
0.000000001
43
0.0000000001
44
0.0000000001
40
-1
40
-1
40
-1
40
-1
40
0
40
0
40
0
40
0
10
7.5191059999999972
20
-0.23801499999999914
30
0
10
7.5219949999999995
20
-0.23263900000000109
30
0
10
7.5314629999999978
20
-0.22909400000000071
30
0
10
7.5401470000000002
20
-0.22909400000000071
30
0
0
ELLIPSE
5
898
100
AcDbEntity
8
0
100
AcDbEllipse
10
7.5451319226171956
20
-0.21690209579204484
30
0
11
0.015400937965831987
21
0.0068392622079209361
31
0.0
40
0.65535090815079033
41
4.113166387744692
42
5.7197194216223695
0
ELLIPSE
5
899
100
AcDbEntity
8
0
100
AcDbEllipse
10
7.574338047908495
20
-0.21567646290770073
30
0
11
0.013575015779025821
21
0.007916080815306599
31
0.0
40
0.63952153132587275
41
0.82453886188540304
42
2.4733708850750391
0
SPLINE
5
900
100
AcDbEntity
8
0
100
AcDbSpline
70
0
71
3
72
8
73
4
74
0
42
0.000000001
43
0.0000000001
44
0.0000000001
40
-1
40
-1
40
-1
40
-1
40
0
40
0
40
0
40
0
10
7.5798369999999977
20
-0.20392799999999989
30
0
10
7.5879109999999974
20
-0.20392799999999989
30
0
10
7.5968539999999969
20
-0.19973400000000022
30
0
10
7.5997699999999995
20
-0.19500799999999985
30
0
0
SPLINE
5
901
100
AcDbEntity
8
0
100
AcDbSpline
70
0
71
3
72
8
73
4
74
0
42
0.000000001
43
0.0000000001
44
0.0000000001
40
-1
40
-1
40
-1
40
-1
40
0
40
0
40
0
40
0
10
7.5997699999999995
20
-0.19500799999999985
30
0
10
7.6026639999999972
20
-0.1901050000000015
30
0
10
7.6127789999999971
20
-0.18224800000000038
30
0
10
7.6222569999999994
20
-0.1781119999999991
30
0
0
SPLINE
5
902
100
AcDbEntity
8
0
100
AcDbSpline
70
0
71
3
72
8
73
4
74
0
42
0.000000001
43
0.0000000001
44
0.0000000001
40
-1
40
-1
40
-1
40
-1
40
0
40
0
40
0
40
0
10
7.6222569999999994
20
-0.1781119999999991
30
0
10
7.6317359999999974
20
-0.17368199999999939
30
0
10
7.6503009999999989
20
-0.16263399999999925
30
0
10
7.663505999999999
20
-0.15347800000000025
30
0
0
SPLINE
5
903
100
AcDbEntity
8
0
100
AcDbSpline
70
0
71
3
72
8
73
4
74
0
42
0.000000001
43
0.0000000001
44
0.0000000001
40
-1
40
-1
40
-1
40
-1
40
0
40
0
40
0
40
0
10
7.663505999999999
20
-0.15347800000000025
30
0
10
7.6767119999999993
20
-0.14432100000000053
30
0
10
7.6974229999999988
20
-0.13291900000000026
30
0
10
7.7095309999999975
20
-0.12760300000000052
30
0
0
SPLINE
5
904
100
AcDbEntity
8
0
100
AcDbSpline
70
0
71
3
72
8
73
4
74
0
42
0.000000001
43
0.0000000001
44
0.0000000001
40
-1
40
-1
40
-1
40
-1
40
0
40
0
40
0
40
0
10
7.7095309999999975
20
-0.12760300000000052
30
0
10
7.721638999999997
20
-0.12252200000000045
30
0
10
7.7315469999999991
20
-0.11496100000000008
30
0
10
7.7315469999999991
20
-0.11082500000000102
30
0
0
SPLINE
5
905
100
AcDbEntity
8
0
100
AcDbSpline
70
0
71
3
72
8
73
4
74
0
42
0.000000001
43
0.0000000001
44
0.0000000001
40
-1
40
-1
40
-1
40
-1
40
0
40
0
40
0
40
0
10
7.7315469999999991
20
-0.11082500000000102
30
0
10
7.7315469999999991
20
-0.10680800000000155
30
0
10
7.7385399999999978
20
-0.10326399999999955
30
0
10
7.7470849999999976
20
-0.10326399999999955
30
0
0
SPLINE
5
906
100
AcDbEntity
8
0
100
AcDbSpline
70
0
71
3
72
8
73
4
74
0
42
0.000000001
43
0.0000000001
44
0.0000000001
40
-1
40
-1
40
-1
40
-1
40
0
40
0
40
0
40
0
10
7.7470849999999976
20
-0.10326399999999955
30
0
10
7.7556259999999986
20
-0.10326399999999955
30
0
10
7.7649559999999989
20
-0.099069000000000504
30
0
10
7.7678710000000004
20
-0.094342999999998969
30
0
0
SPLINE
5
907
100
AcDbEntity
8
0
100
AcDbSpline
70
0
71
3
72
8
73
4
74
0
42
0.000000001
43
0.0000000001
44
0.0000000001
40
-1
40
-1
40
-1
40
-1
40
0
40
0
40
0
40
0
10
7.7678710000000004
20
-0.094342999999998969
30
0
10
7.7707659999999983
20
-0.089440000000000602
30
0
10
7.7808809999999999
20
-0.081583000000000599
30
0
10
7.7903589999999987
20
-0.077448000000001044
30
0
0
SPLINE
5
908
100
AcDbEntity
8
0
100
AcDbSpline
70
0
71
3
72
8
73
4
74
0
42
0.000000001
43
0.0000000001
44
0.0000000001
40
-1
40
-1
40
-1
40
-1
40
0
40
0
40
0
40
0
10
7.7903589999999987
20
-0.077448000000001044
30
0
10
7.7998379999999985
20
-0.073017000000000762
30
0
10
7.8184029999999973
20
-0.06197000000000117
30
0
10
7.8316080000000001
20
-0.052872000000001584
30
0
0
SPLINE
5
909
100
AcDbEntity
8
0
100
AcDbSpline
70
0
71
3
72
8
73
4
74
0
42
0.000000001
43
0.0000000001
44
0.0000000001
40
-1
40
-1
40
-1
40
-1
40
0
40
0
40
0
40
0
10
7.8316080000000001
20
-0.052872000000001584
30
0
10
7.8448130000000003
20
-0.043773999999999764
30
0
10
7.8628270000000011
20
-0.03213699999999875
30
0
10
7.871632
20
-0.027411000000001625
30
0
0
SPLINE
5
910
100
AcDbEntity
8
0
100
AcDbSpline
70
0
71
3
72
8
73
4
74
0
42
0.000000001
43
0.0000000001
44
0.0000000001
40
-1
40
-1
40
-1
40
-1
40
0
40
0
40
0
40
0
10
7.871632
20
-0.027411000000001625
30
0
10
7.8804369999999988
20
-0.022447999999999357
30
0
10
7.9008469999999988
20
-0.010159999999999057
30
0
10
7.9169890000000018
20
0
30
0
0
SPLINE
5
911
100
AcDbEntity
8
0
100
AcDbSpline
70
0
71
3
72
8
73
4
74
0
42
0.000000001
43
0.0000000001
44
0.0000000001
40
-1
40
-1
40
-1
40
-1
40
0
40
0
40
0
40
0
10
7.9169890000000018
20
0
30
0
10
7.9511170000000027
20
0.021420999999999243
30
0
10
8.0062720000000009
20
0.053735999999999763
30
0
10
8.037564999999999
20
0.070630999999999861
30
0
0
SPLINE
5
912
100
AcDbEntity
8
0
100
AcDbSpline
70
0
71
3
72
8
73
4
74
0
42
0.000000001
43
0.0000000001
44
0.0000000001
40
-1
40
-1
40
-1
40
-1
40
0
40
0
40
0
40
0
10
8.037564999999999
20
0.070630999999999861
30
0
10
8.0495830000000002
20
0.077129999999999713
30
0
10
8.0615050000000004
20
0.086167999999999773
30
0
10
8.0640499999999982
20
0.090303000000000452
30
0
0
SPLINE
5
913
100
AcDbEntity
8
0
100
AcDbSpline
70
0
71
3
72
8
73
4
74
0
42
0.000000001
43
0.0000000001
44
0.0000000001
40
-1
40
-1
40
-1
40
-1
40
0
40
0
40
0
40
0
10
8.0640499999999982
20
0.090303000000000452
30
0
10
8.0665999999999976
20
0.094615999999999603
30
0
10
8.0756759999999979
20
0.098159999999999373
30
0
10
8.0842210000000012
20
0.098159999999999373
30
0
0
SPLINE
5
914
100
AcDbEntity
8
0
100
AcDbSpline
70
0
71
3
72
8
73
4
74
0
42
0.000000001
43
0.0000000001
44
0.0000000001
40
-1
40
-1
40
-1
40
-1
40
0
40
0
40
0
40
0
10
8.0842210000000012
20
0.098159999999999373
30
0
10
8.0927669999999985
20
0.098159999999999373
30
0
10
8.0997589999999988
20
0.10158699999999961
30
0
10
8.0997589999999988
20
0.10572199999999916
30
0
0
SPLINE
5
915
100
AcDbEntity
8
0
100
AcDbSpline
70
0
71
3
72
8
73
4
74
0
42
0.000000001
43
0.0000000001
44
0.0000000001
40
-1
40
-1
40
-1
40
-1
40
0
40
0
40
0
40
0
10
8.0997589999999988
20
0.10572199999999916
30
0
10
8.0997589999999988
20
0.10985699999999986
30
0
10
8.109667
20
0.11741899999999972
30
0
10
8.121774999999996
20
0.12273599999999883
30
0
0
ELLIPSE
5
916
100
AcDbEntity
8
0
100
AcDbEllipse
10
8.1358240326500049
20
0.1433424921154679
30
0
11
0.058718442054343456
21
0.030039612046708377
31
0.0
40
0.1920151334068646
41
4.3740461694852728
42
5.7818159255521877
0
SPLINE
5
917
100
AcDbEntity
8
0
100
AcDbSpline
70
0
71
3
72
8
73
4
74
0
42
0.000000001
43
0.0000000001
44
0.0000000001
40
-1
40
-1
40
-1
40
-1
40
0
40
0
40
0
40
0
10
8.1900880000000029
20
0.16426599999999952
30
0
10
8.1950020000000006
20
0.16952400000000084
30
0
10
8.2051219999999976
20
0.17365899999999823
30
0
10
8.2125710000000005
20
0.17365899999999823
30
0
0
ELLIPSE
5
918
100
AcDbEntity
8
0
100
AcDbEllipse
10
8.2174912330907368
20
0.18584198259748111
30
0
11
0.012681107405630257
21
0.0086433721561579354
31
0.0
40
0.67706915132685597
41
3.9200043899327945
42
5.5272962673369745
0
ELLIPSE
5
919
100
AcDbEntity
8
0
100
AcDbEllipse
10
8.2451889535299454
20
0.18709100738801548
30
0
11
0.014368564260631624
21
0.007422770957139376
31
0.0
40
0.6325066630060916
41
0.8790271412201488
42
2.5291392535817234
0
ELLIPSE
5
920
100
AcDbEntity
8
0
100
AcDbEllipse
10
8.2557191706084936
20
0.21100509315435356
30
0
11
0.014946923746945038
21
0.0071264356569674617
31
0.0
40
0.6608571321280784
41
4.0837541610145269
42
5.691285546865207
0
ELLIPSE
5
921
100
AcDbEntity
8
0
100
AcDbEllipse
10
8.2845267979368984
20
0.21223935900735744
30
0
11
0.013554307908914418
21
0.0079299355377268343
31
0.0
40
0.6398826832735155
41
0.8232011098141484
42
2.4717307500614889
0
SPLINE
5
922
100
AcDbEntity
8
0
100
AcDbSpline
70
0
71
3
72
8
73
4
74
0
42
0.000000001
43
0.0000000001
44
0.0000000001
40
-1
40
-1
40
-1
40
-1
40
0
40
0
40
0
40
0
10
8.2900210000000012
20
0.22399099999999886
30
0
10
8.2980839999999976
20
0.22399099999999886
30
0
10
8.3086819999999992
20
0.22806799999999902
30
0
10
8.3136119999999973
20
0.23338399999999868
30
0
0
SPLINE
5
923
100
AcDbEntity
8
0
100
AcDbSpline
70
0
71
3
72
8
73
4
74
0
42
0.000000001
43
0.0000000001
44
0.0000000001
40
-1
40
-1
40
-1
40
-1
40
0
40
0
40
0
40
0
10
8.3136119999999973
20
0.23338399999999868
30
0
10
8.3234429999999975
20
0.24372299999999786
30
0
10
8.3399689999999982
20
0.25394300000000092
30
0
10
8.3999339999999965
20
0.28690700000000063
30
0
0
SPLINE
5
924
100
AcDbEntity
8
0
100
AcDbSpline
70
0
71
3
72
8
73
4
74
0
42
0.000000001
43
0.0000000001
44
0.0000000001
40
-1
40
-1
40
-1
40
-1
40
0
40
0
40
0
40
0
10
8.3999339999999965
20
0.28690700000000063
30
0
10
8.4219479999999987
20
0.29901699999999914
30
0
10
8.4507650000000005
20
0.31614900000000112
30
0
10
8.4639710000000008
20
0.32507000000000053
30
0
0
SPLINE
5
925
100
AcDbEntity
8
0
100
AcDbSpline
70
0
71
3
72
8
73
4
74
0
42
0.000000001
43
0.0000000001
44
0.0000000001
40
-1
40
-1
40
-1
40
-1
40
0
40
0
40
0
40
0
10
8.4639710000000008
20
0.32507000000000053
30
0
10
8.4771759999999983
20
0.33393099999999837
30
0
10
8.4963610000000003
20
0.34503700000000131
30
0
10
8.5065980000000003
20
0.34976300000000066
30
0
0
SPLINE
5
926
100
AcDbEntity
8
0
100
AcDbSpline
70
0
71
3
72
8
73
4
74
0
42
0.000000001
43
0.0000000001
44
0.0000000001
40
-1
40
-1
40
-1
40
-1
40
0
40
0
40
0
40
0
10
8.5065980000000003
20
0.34976300000000066
30
0
10
8.5168350000000004
20
0.35443000000000102
30
0
10
8.5304529999999961
20
0.3637639999999997
30
0
10
8.5368570000000012
20
0.37049899999999958
30
0
0
SPLINE
5
927
100
AcDbEntity
8
0
100
AcDbSpline
70
0
71
3
72
8
73
4
74
0
42
0.000000001
43
0.0000000001
44
0.0000000001
40
-1
40
-1
40
-1
40
-1
40
0
40
0
40
0
40
0
10
8.5368570000000012
20
0.37049899999999958
30
0
10
8.5470520000000008
20
0.38160500000000042
30
0
10
8.5402339999999981
20
0.38337700000000019
30
0
10
8.4822239999999969
20
0.38514900000000002
30
0
0
LINE
5
928
100
AcDbEntity
8
0
100
AcDbLine
10
8.4822239999999969
20
0.38514900000000007
30
0
11
8.4159419999999976
21
0.38751200000000091
31
0
0
LINE
5
929
100
AcDbEntity
8
0
100
AcDbLine
10
8.4159419999999976
20
0.38751200000000091
30
0
11
8.4159419999999976
21
0.68951299999999904
31
0
0
LINE
5
930
100
AcDbEntity
8
0
100
AcDbLine
10
8.4159419999999976
20
0.68951299999999904
30
0
11
9.1903839999999981
21
0.69128499999999904
31
0
0
SPLINE
5
931
100
AcDbEntity
8
0
100
AcDbSpline
70
0
71
3
72
8
73
4
74
0
42
0.000000001
43
0.0000000001
44
0.0000000001
40
-1
40
-1
40
-1
40
-1
40
0
40
0
40
0
40
0
10
9.1903839999999981
20
0.69128499999999904
30
0
10
9.8071689999999965
20
0.69299799999999767
30
0
10
9.9649000000000001
20
0.69128499999999904
30
0
10
9.9651879999999995
20
0.6828960000000015
30
0
0
SPLINE
5
932
100
AcDbEntity
8
0
100
AcDbSpline
70
0
71
3
72
8
73
4
74
0
42
0.000000001
43
0.0000000001
44
0.0000000001
40
-1
40
-1
40
-1
40
-1
40
0
40
0
40
0
40
0
10
9.9651879999999995
20
0.6828960000000015
30
0
10
9.9687499999999982
20
0.5793249999999992
30
0
10
9.9622829999999958
20
0.40244699999999911
30
0
10
9.9545749999999984
20
0.3926990000000008
30
0
0
SPLINE
5
933
100
AcDbEntity
8
0
100
AcDbSpline
70
0
71
3
72
8
73
4
74
0
42
0.000000001
43
0.0000000001
44
0.0000000001
40
-1
40
-1
40
-1
40
-1
40
0
40
0
40
0
40
0
10
9.9545749999999984
20
0.3926990000000008
30
0
10
9.9466540000000006
20
0.38247899999999996
30
0
10
9.916936999999999
20
0.3812979999999988
30
0
10
9.7786279999999994
20
0.38484199999999852
30
0
0
SPLINE
5
934
100
AcDbEntity
8
0
100
AcDbSpline
70
0
71
3
72
8
73
4
74
0
42
0.000000001
43
0.0000000001
44
0.0000000001
40
-1
40
-1
40
-1
40
-1
40
0
40
0
40
0
40
0
10
9.7786279999999994
20
0.38484199999999852
30
0
10
9.6870989999999981
20
0.38720499999999924
30
0
10
9.6103529999999999
20
0.38543299999999936
30
0
10
9.6080739999999984
20
0.38188799999999912
30
0
0
SPLINE
5
935
100
AcDbEntity
8
0
100
AcDbSpline
70
0
71
3
72
8
73
4
74
0
42
0.000000001
43
0.0000000001
44
0.0000000001
40
-1
40
-1
40
-1
40
-1
40
0
40
0
40
0
40
0
10
9.6080739999999984
20
0.38188799999999912
30
0
10
9.6057939999999995
20
0.37804900000000019
30
0
10
9.5905799999999992
20
0.36830099999999966
30
0
10
9.5742569999999994
20
0.36038500000000068
30
0
0
SPLINE
5
936
100
AcDbEntity
8
0
100
AcDbSpline
70
0
71
3
72
8
73
4
74
0
42
0.000000001
43
0.0000000001
44
0.0000000001
40
-1
40
-1
40
-1
40
-1
40
0
40
0
40
0
40
0
10
9.5742569999999994
20
0.36038500000000068
30
0
10
9.557934999999997
20
0.35246899999999964
30
0
10
9.5427520000000001
20
0.3436669999999985
30
0
10
9.5405789999999993
20
0.34071300000000132
30
0
0
SPLINE
5
937
100
AcDbEntity
8
0
100
AcDbSpline
70
0
71
3
72
8
73
4
74
0
42
0.000000001
43
0.0000000001
44
0.0000000001
40
-1
40
-1
40
-1
40
-1
40
0
40
0
40
0
40
0
10
9.5405789999999993
20
0.34071300000000132
30
0
10
9.5383790000000008
20
0.33787699999999971
30
0
10
9.5311739999999965
20
0.33303300000000041
30
0
10
9.5245689999999996
20
0.32948799999999995
30
0
0
SPLINE
5
938
100
AcDbEntity
8
0
100
AcDbSpline
70
0
71
3
72
8
73
4
74
0
42
0.000000001
43
0.0000000001
44
0.0000000001
40
-1
40
-1
40
-1
40
-1
40
0
40
0
40
0
40
0
10
9.5245689999999996
20
0.32948799999999995
30
0
10
9.5051400000000008
20
0.31974099999999994
30
0
10
9.4790580000000002
20
0.30319999999999891
30
0
10
9.4673899999999964
20
0.29315699999999945
30
0
0
SPLINE
5
939
100
AcDbEntity
8
0
100
AcDbSpline
70
0
71
3
72
8
73
4
74
0
42
0.000000001
43
0.0000000001
44
0.0000000001
40
-1
40
-1
40
-1
40
-1
40
0
40
0
40
0
40
0
10
9.4673899999999964
20
0.29315699999999945
30
0
10
9.4515690000000028
20
0.27960500000000044
30
0
10
9.3708469999999959
20
0.23151800000000167
30
0
10
9.3544719999999977
20
0.22620100000000146
30
0
0
SPLINE
5
940
100
AcDbEntity
8
0
100
AcDbSpline
70
0
71
3
72
8
73
4
74
0
42
0.000000001
43
0.0000000001
44
0.0000000001
40
-1
40
-1
40
-1
40
-1
40
0
40
0
40
0
40
0
10
9.3544719999999977
20
0.22620100000000146
30
0
10
9.3467640000000003
20
0.22360099999999986
30
0
10
9.3404609999999995
20
0.21822600000000136
30
0
10
9.3404609999999995
20
0.21409000000000006
30
0
0
SPLINE
5
941
100
AcDbEntity
8
0
100
AcDbSpline
70
0
71
3
72
8
73
4
74
0
42
0.000000001
43
0.0000000001
44
0.0000000001
40
-1
40
-1
40
-1
40
-1
40
0
40
0
40
0
40
0
10
9.3404609999999995
20
0.21409000000000006
30
0
10
9.3404609999999995
20
0.21019099999999957
30
0
10
9.3354989999999969
20
0.20664699999999972
30
0
10
9.3294339999999973
20
0.20664699999999972
30
0
0
SPLINE
5
942
100
AcDbEntity
8
0
100
AcDbSpline
70
0
71
3
72
8
73
4
74
0
42
0.000000001
43
0.0000000001
44
0.0000000001
40
-1
40
-1
40
-1
40
-1
40
0
40
0
40
0
40
0
10
9.3294339999999973
20
0.20664699999999972
30
0
10
9.3233639999999998
20
0.20664699999999972
30
0
10
9.3139230000000008
20
0.20097599999999932
30
0
10
9.3084409999999966
20
0.19406399999999818
30
0
0
SPLINE
5
943
100
AcDbEntity
8
0
100
AcDbSpline
70
0
71
3
72
8
73
4
74
0
42
0.000000001
43
0.0000000001
44
0.0000000001
40
-1
40
-1
40
-1
40
-1
40
0
40
0
40
0
40
0
10
9.3084409999999966
20
0.19406399999999818
30
0
10
9.302964999999995
20
0.18738799999999942
30
0
10
9.2917159999999992
20
0.18148099999999884
30
0
10
9.2834509999999995
20
0.18148099999999884
30
0
0
SPLINE
5
944
100
AcDbEntity
8
0
100
AcDbSpline
70
0
71
3
72
8
73
4
74
0
42
0.000000001
43
0.0000000001
44
0.0000000001
40
-1
40
-1
40
-1
40
-1
40
0
40
0
40
0
40
0
10
9.2834509999999995
20
0.18148099999999884
30
0
10
9.2751870000000007
20
0.18148099999999884
30
0
10
9.2684219999999993
20
0.17781799999999953
30
0
10
9.2684219999999993
20
0.17309200000000019
30
0
0
SPLINE
5
945
100
AcDbEntity
8
0
100
AcDbSpline
70
0
71
3
72
8
73
4
74
0
42
0.000000001
43
0.0000000001
44
0.0000000001
40
-1
40
-1
40
-1
40
-1
40
0
40
0
40
0
40
0
10
9.2684219999999993
20
0.17309200000000019
30
0
10
9.2684219999999993
20
0.1682479999999997
30
0
10
9.2648019999999995
20
0.16470299999999935
30
0
10
9.2603489999999979
20
0.16470299999999935
30
0
0
SPLINE
5
946
100
AcDbEntity
8
0
100
AcDbSpline
70
0
71
3
72
8
73
4
74
0
42
0.000000001
43
0.0000000001
44
0.0000000001
40
-1
40
-1
40
-1
40
-1
40
0
40
0
40
0
40
0
10
9.2603489999999979
20
0.16470299999999935
30
0
10
9.2559120000000004
20
0.16470299999999935
30
0
10
9.2373569999999976
20
0.15336099999999958
30
0
10
9.2191259999999993
20
0.13953700000000069
30
0
0
SPLINE
5
947
100
AcDbEntity
8
0
100
AcDbSpline
70
0
71
3
72
8
73
4
74
0
42
0.000000001
43
0.0000000001
44
0.0000000001
40
-1
40
-1
40
-1
40
-1
40
0
40
0
40
0
40
0
10
9.2191259999999993
20
0.13953700000000069
30
0
10
9.2008899999999993
20
0.12571300000000066
30
0
10
9.1811109999999942
20
0.11437099999999974
30
0
10
9.1751690000000004
20
0.11437099999999974
30
0
0
SPLINE
5
948
100
AcDbEntity
8
0
100
AcDbSpline
70
0
71
3
72
8
73
4
74
0
42
0.000000001
43
0.0000000001
44
0.0000000001
40
-1
40
-1
40
-1
40
-1
40
0
40
0
40
0
40
0
10
9.1751690000000004
20
0.11437099999999974
30
0
10
9.169236999999999
20
0.11437099999999974
30
0
10
9.1643589999999993
20
0.11112199999999903
30
0
10
9.1643589999999993
20
0.10757700000000091
30
0
0
SPLINE
5
949
100
AcDbEntity
8
0
100
AcDbSpline
70
0
71
3
72
8
73
4
74
0
42
0.000000001
43
0.0000000001
44
0.0000000001
40
-1
40
-1
40
-1
40
-1
40
0
40
0
40
0
40
0
10
9.1643589999999993
20
0.10757700000000091
30
0
10
9.1643589999999993
20
0.10379600000000043
30
0
10
9.1517529999999994
20
0.095526000000001318
30
0
10
9.1363479999999981
20
0.089204999999998841
30
0
0
SPLINE
5
950
100
AcDbEntity
8
0
100
AcDbSpline
70
0
71
3
72
8
73
4
74
0
42
0.000000001
43
0.0000000001
44
0.0000000001
40
-1
40
-1
40
-1
40
-1
40
0
40
0
40
0
40
0
10
9.1363479999999981
20
0.089204999999998841
30
0
10
9.1209369999999996
20
0.082883000000000207
30
0
10
9.1083370000000006
20
0.075321999999999889
30
0
10
9.108257
20
0.07295899999999908
30
0
0
SPLINE
5
951
100
AcDbEntity
8
0
100
AcDbSpline
70
0
71
3
72
8
73
4
74
0
42
0.000000001
43
0.0000000001
44
0.0000000001
40
-1
40
-1
40
-1
40
-1
40
0
40
0
40
0
40
0
10
9.108257
20
0.07295899999999908
30
0
10
9.1082139999999985
20
0.070419000000000426
30
0
10
9.0920030000000001
20
0.060788999999998865
30
0
10
9.0722349999999992
20
0.051691999999998718
30
0
0
SPLINE
5
952
100
AcDbEntity
8
0
100
AcDbSpline
70
0
71
3
72
8
73
4
74
0
42
0.000000001
43
0.0000000001
44
0.0000000001
40
-1
40
-1
40
-1
40
-1
40
0
40
0
40
0
40
0
10
9.0722349999999992
20
0.051691999999998718
30
0
10
9.0524669999999983
20
0.042594000000000222
30
0
10
9.0362869999999997
20
0.032551000000000649
30
0
10
9.0362869999999997
20
0.029597000000000085
30
0
0
SPLINE
5
953
100
AcDbEntity
8
0
100
AcDbSpline
70
0
71
3
72
8
73
4
74
0
42
0.000000001
43
0.0000000001
44
0.0000000001
40
-1
40
-1
40
-1
40
-1
40
0
40
0
40
0
40
0
10
9.0362869999999997
20
0.029597000000000085
30
0
10
9.0362869999999997
20
0.026524999999999459
30
0
10
9.0299790000000009
20
0.021680999999998955
30
0
10
9.0222759999999997
20
0.018726999999999487
30
0
0
SPLINE
5
954
100
AcDbEntity
8
0
100
AcDbSpline
70
0
71
3
72
8
73
4
74
0
42
0.000000001
43
0.0000000001
44
0.0000000001
40
-1
40
-1
40
-1
40
-1
40
0
40
0
40
0
40
0
10
9.0222759999999997
20
0.018726999999999487
30
0
10
9.0063379999999977
20
0.012701999999999993
30
0
10
8.9864649999999955
20
0.00041399999999858206
30
0
10
8.9520710000000001
20
-0.024633999999998924
30
0
0
SPLINE
5
955
100
AcDbEntity
8
0
100
AcDbSpline
70
0
71
3
72
8
73
4
74
0
42
0.000000001
43
0.0000000001
44
0.0000000001
40
-1
40
-1
40
-1
40
-1
40
0
40
0
40
0
40
0
10
8.9520710000000001
20
-0.024633999999998924
30
0
10
8.9389560000000028
20
-0.034203999999999894
30
0
10
8.9156149999999954
20
-0.048441000000001275
30
0
10
8.9002089999999985
20
-0.05629800000000016
30
0
0
SPLINE
5
956
100
AcDbEntity
8
0
100
AcDbSpline
70
0
71
3
72
8
73
4
74
0
42
0.000000001
43
0.0000000001
44
0.0000000001
40
-1
40
-1
40
-1
40
-1
40
0
40
0
40
0
40
0
10
8.9002089999999985
20
-0.05629800000000016
30
0
10
8.8705189999999998
20
-0.071422000000000957
30
0
10
8.8428099999999983
20
-0.088316999999999993
30
0
10
8.8361729999999987
20
-0.095287999999998915
30
0
0
SPLINE
5
957
100
AcDbEntity
8
0
100
AcDbSpline
70
0
71
3
72
8
73
4
74
0
42
0.000000001
43
0.0000000001
44
0.0000000001
40
-1
40
-1
40
-1
40
-1
40
0
40
0
40
0
40
0
10
8.8361729999999987
20
-0.095287999999998915
30
0
10
8.8339729999999967
20
-0.097592000000000803
30
0
10
8.821360999999996
20
-0.10515399999999951
30
0
10
8.8081559999999968
20
-0.11206600000000068
30
0
0
SPLINE
5
958
100
AcDbEntity
8
0
100
AcDbSpline
70
0
71
3
72
8
73
4
74
0
42
0.000000001
43
0.0000000001
44
0.0000000001
40
-1
40
-1
40
-1
40
-1
40
0
40
0
40
0
40
0
10
8.8081559999999968
20
-0.11206600000000068
30
0
10
8.7949499999999983
20
-0.11903699999999959
30
0
10
8.779380999999999
20
-0.12925699999999926
30
0
10
8.7735649999999961
20
-0.13516399999999981
30
0
0
SPLINE
5
959
100
AcDbEntity
8
0
100
AcDbSpline
70
0
71
3
72
8
73
4
74
0
42
0.000000001
43
0.0000000001
44
0.0000000001
40
-1
40
-1
40
-1
40
-1
40
0
40
0
40
0
40
0
10
8.7735649999999961
20
-0.13516399999999981
30
0
10
8.7677499999999959
20
-0.14089500000000085
30
0
10
8.7594219999999989
20
-0.14562099999999906
30
0
10
8.7550220000000003
20
-0.14562099999999906
30
0
0
SPLINE
5
960
100
AcDbEntity
8
0
100
AcDbSpline
70
0
71
3
72
8
73
4
74
0
42
0.000000001
43
0.0000000001
44
0.0000000001
40
-1
40
-1
40
-1
40
-1
40
0
40
0
40
0
40
0
10
8.7550220000000003
20
-0.14562099999999906
30
0
10
8.7506369999999958
20
-0.14562099999999906
30
0
10
8.7355820000000008
20
-0.15412799999999996
30
0
10
8.7215710000000009
20
-0.16452499999999978
30
0
0
SPLINE
5
961
100
AcDbEntity
8
0
100
AcDbSpline
70
0
71
3
72
8
73
4
74
0
42
0.000000001
43
0.0000000001
44
0.0000000001
40
-1
40
-1
40
-1
40
-1
40
0
40
0
40
0
40
0
10
8.7215710000000009
20
-0.16452499999999978
30
0
10
8.684215
20
-0.19223100000000048
30
0
10
8.6675109999999957
20
-0.20256999999999967
30
0
10
8.6340549999999965
20
-0.21887399999999999
30
0
0
SPLINE
5
962
100
AcDbEntity
8
0
100
AcDbSpline
70
0
71
3
72
8
73
4
74
0
42
0.000000001
43
0.0000000001
44
0.0000000001
40
-1
40
-1
40
-1
40
-1
40
0
40
0
40
0
40
0
10
8.6340549999999965
20
-0.21887399999999999
30
0
10
8.6175470000000036
20
-0.22690899999999961
30
0
10
8.6041029999999985
20
-0.23724700000000043
30
0
10
8.6041029999999985
20
-0.24197299999999969
30
0
0
SPLINE
5
963
100
AcDbEntity
8
0
100
AcDbSpline
70
0
71
3
72
8
73
4
74
0
42
0.000000001
43
0.0000000001
44
0.0000000001
40
-1
40
-1
40
-1
40
-1
40
0
40
0
40
0
40
0
10
8.6041029999999985
20
-0.24197299999999969
30
0
10
8.6041350000000012
20
-0.24666399999999966
30
0
10
8.6248469999999973
20
-0.27366100000000049
30
0
10
8.6501280000000023
20
-0.3018989999999987
30
0
0
SPLINE
5
964
100
AcDbEntity
8
0
100
AcDbSpline
70
0
71
3
72
8
73
4
74
0
42
0.000000001
43
0.0000000001
44
0.0000000001
40
-1
40
-1
40
-1
40
-1
40
0
40
0
40
0
40
0
10
8.6501280000000023
20
-0.3018989999999987
30
0
10
8.6754080000000009
20
-0.33017300000000027
30
0
10
8.7303129999999989
20
-0.39245000000000091
30
0
10
8.7721339999999977
20
-0.44030100000000066
30
0
0
SPLINE
5
965
100
AcDbEntity
8
0
100
AcDbSpline
70
0
71
3
72
8
73
4
74
0
42
0.000000001
43
0.0000000001
44
0.0000000001
40
-1
40
-1
40
-1
40
-1
40
0
40
0
40
0
40
0
10
8.7721339999999977
20
-0.44030100000000066
30
0
10
8.813957999999996
20
-0.48814100000000077
30
0
10
8.8844530000000006
20
-0.56694199999999906
30
0
10
8.9287919999999961
20
-0.6153839999999986
30
0
0
SPLINE
5
966
100
AcDbEntity
8
0
100
AcDbSpline
70
0
71
3
72
8
73
4
74
0
42
0.000000001
43
0.0000000001
44
0.0000000001
40
-1
40
-1
40
-1
40
-1
40
0
40
0
40
0
40
0
10
8.9287919999999961
20
-0.6153839999999986
30
0
10
8.9731300000000012
20
-0.66383099999999995
30
0
10
9.042982999999996
20
-0.74311699999999969
30
0
10
9.0840199999999989
20
-0.79155899999999935
30
0
0
SPLINE
5
967
100
AcDbEntity
8
0
100
AcDbSpline
70
0
71
3
72
8
73
4
74
0
42
0.000000001
43
0.0000000001
44
0.0000000001
40
-1
40
-1
40
-1
40
-1
40
0
40
0
40
0
40
0
10
9.0840199999999989
20
-0.79155899999999935
30
0
10
9.1250559999999989
20
-0.84000099999999889
30
0
10
9.1932380000000009
20
-0.91744299999999868
30
0
10
9.235536999999999
20
-0.96369899999999875
30
0
0
SPLINE
5
968
100
AcDbEntity
8
0
100
AcDbSpline
70
0
71
3
72
8
73
4
74
0
42
0.000000001
43
0.0000000001
44
0.0000000001
40
-1
40
-1
40
-1
40
-1
40
0
40
0
40
0
40
0
10
9.235536999999999
20
-0.96369899999999875
30
0
10
9.3126700000000007
20
-1.0480110000000007
30
0
10
9.4737690000000008
20
-1.2305840000000012
30
0
10
9.660641
20
-1.4454779999999996
30
0
0
SPLINE
5
969
100
AcDbEntity
8
0
100
AcDbSpline
70
0
71
3
72
8
73
4
74
0
42
0.000000001
43
0.0000000001
44
0.0000000001
40
-1
40
-1
40
-1
40
-1
40
0
40
0
40
0
40
0
10
9.660641
20
-1.4454779999999996
30
0
10
9.7156719999999979
20
-1.5087589999999991
30
0
10
9.8090910000000004
20
-1.6140139999999985
30
0
10
9.8682379999999998
20
-1.6793809999999996
30
0
0
SPLINE
5
970
100
AcDbEntity
8
0
100
AcDbSpline
70
0
71
3
72
8
73
4
74
0
42
0.000000001
43
0.0000000001
44
0.0000000001
40
-1
40
-1
40
-1
40
-1
40
0
40
0
40
0
40
0
10
9.8682379999999998
20
-1.6793809999999996
30
0
10
9.9644319999999968
20
-1.7856350000000001
30
0
10
9.9785749999999958
20
-1.798217999999999
30
0
10
10.002314
20
-1.798217999999999
30
0
0
LINE
5
971
100
AcDbEntity
8
0
100
AcDbLine
10
10.002314
20
-1.798217999999999
30
0
11
10.028852000000001
21
-1.7982179999999994
31
0
0
LINE
5
972
100
AcDbEntity
8
0
100
AcDbLine
10
10.028852000000001
20
-1.7982179999999994
30
0
11
10.028852000000001
21
-2.150627000000001
31
0
0
LINE
5
973
100
AcDbEntity
8
0
100
AcDbLine
10
10.028852000000001
20
-2.150627000000001
30
0
11
9.2560469999999988
21
-2.1482640000000002
31
0
0
LINE
5
974
100
AcDbEntity
8
0
100
AcDbLine
10
9.2560469999999988
20
-2.1482640000000002
30
0
11
8.4832429999999981
21
-2.1464919999999994
31
0
0
LINE
5
975
100
AcDbEntity
8
0
100
AcDbLine
10
8.4832429999999981
20
-2.1464919999999994
30
0
11
8.4832429999999981
21
-1.8109369999999989
31
0
0
LINE
5
976
100
AcDbEntity
8
0
100
AcDbLine
10
8.4832429999999981
20
-1.8109369999999989
30
0
11
8.5696009999999987
21
-1.8040249999999998
31
0
0
SPLINE
5
977
100
AcDbEntity
8
0
100
AcDbSpline
70
0
71
3
72
8
73
4
74
0
42
0.000000001
43
0.0000000001
44
0.0000000001
40
-1
40
-1
40
-1
40
-1
40
0
40
0
40
0
40
0
10
8.5696009999999987
20
-1.804025
30
0
10
8.6171000000000006
20
-1.800244000000002
30
0
10
8.6573679999999982
20
-1.7955770000000002
30
0
10
8.6591170000000002
20
-1.7938050000000012
30
0
0
SPLINE
5
978
100
AcDbEntity
8
0
100
AcDbSpline
70
0
71
3
72
8
73
4
74
0
42
0.000000001
43
0.0000000001
44
0.0000000001
40
-1
40
-1
40
-1
40
-1
40
0
40
0
40
0
40
0
10
8.6591170000000002
20
-1.7938050000000012
30
0
10
8.6627739999999989
20
-1.7899769999999997
30
0
10
8.4902890000000006
20
-1.5954699999999984
30
0
10
8.4339960000000005
20
-1.5399390000000011
30
0
0
SPLINE
5
979
100
AcDbEntity
8
0
100
AcDbSpline
70
0
71
3
72
8
73
4
74
0
42
0.000000001
43
0.0000000001
44
0.0000000001
40
-1
40
-1
40
-1
40
-1
40
0
40
0
40
0
40
0
10
8.4339960000000005
20
-1.5399390000000011
30
0
10
8.4130830000000003
20
-1.5193220000000005
30
0
10
8.3959759999999974
20
-1.5001819999999984
30
0
10
8.3959759999999974
20
-1.4966370000000007
30
0
0
SPLINE
5
980
100
AcDbEntity
8
0
100
AcDbSpline
70
0
71
3
72
8
73
4
74
0
42
0.000000001
43
0.0000000001
44
0.0000000001
40
-1
40
-1
40
-1
40
-1
40
0
40
0
40
0
40
0
10
8.3959759999999974
20
-1.4966370000000007
30
0
10
8.3959759999999974
20
-1.4934530000000006
30
0
10
8.3716629999999999
20
-1.4646179999999993
30
0
10
8.3419449999999955
20
-1.4325989999999995
30
0
0
SPLINE
5
981
100
AcDbEntity
8
0
100
AcDbSpline
70
0
71
3
72
8
73
4
74
0
42
0.000000001
43
0.0000000001
44
0.0000000001
40
-1
40
-1
40
-1
40
-1
40
0
40
0
40
0
40
0
10
8.3419449999999955
20
-1.4325989999999995
30
0
10
8.2762339999999988
20
-1.3617680000000001
30
0
10
7.9863869999999979
20
-1.0386300000000002
30
0
10
7.8517039999999998
20
-0.88604999999999934
30
0
0
SPLINE
5
982
100
AcDbEntity
8
0
100
AcDbSpline
70
0
71
3
72
8
73
4
74
0
42
0.000000001
43
0.0000000001
44
0.0000000001
40
-1
40
-1
40
-1
40
-1
40
0
40
0
40
0
40
0
10
7.8517039999999998
20
-0.88604999999999934
30
0
10
7.7539629999999988
20
-0.77531899999999965
30
0
10
7.7247369999999975
20
-0.75458300000000089
30
0
10
7.7126929999999989
20
-0.78748800000000063
30
0
0
ELLIPSE
5
983
100
AcDbEntity
8
0
100
AcDbEllipse
10
11.030888323539463
20
5.2693087225139683
30
0
11
-0.43204332721601557
21
-1.3328587571378339
31
0.0
40
0.02817497767069289
41
5.5950434584134268
42
6.1965116986619035
0
SPLINE
5
984
100
AcDbEntity
8
0
100
AcDbSpline
70
0
71
3
72
8
73
4
74
0
42
0.000000001
43
0.0000000001
44
0.0000000001
40
-1
40
-1
40
-1
40
-1
40
0
40
0
40
0
40
0
10
10.673315999999998
20
4.2475030000000009
30
0
10
10.715172000000003
20
4.3934959999999998
30
0
10
10.751024000000005
20
4.5149080000000001
30
0
10
10.752985999999996
20
4.5166800000000009
30
0
0
SPLINE
5
985
100
AcDbEntity
8
0
100
AcDbSpline
70
0
71
3
72
8
73
4
74
0
42
0.000000001
43
0.0000000001
44
0.0000000001
40
-1
40
-1
40
-1
40
-1
40
0
40
0
40
0
40
0
10
10.752985999999996
20
4.5166800000000009
30
0
10
10.758160999999998
20
4.5221030000000004
30
0
10
10.983309999999998
20
4.3353539999999962
30
0
10
11.117544000000002
20
4.2143079999999991
30
0
0
LINE
5
986
100
AcDbEntity
8
0
100
AcDbLine
10
11.117544000000002
20
4.2143079999999991
30
0
11
11.152442000000001
21
4.182879999999999
31
0
0
LINE
5
987
100
AcDbEntity
8
0
100
AcDbLine
10
11.152442000000001
20
4.182879999999999
30
0
11
11.133660000000001
21
4.1228409999999975
31
0
0
SPLINE
5
988
100
AcDbEntity
8
0
100
AcDbSpline
70
0
71
3
72
8
73
4
74
0
42
0.000000001
43
0.0000000001
44
0.0000000001
40
-1
40
-1
40
-1
40
-1
40
0
40
0
40
0
40
0
10
11.133660000000001
20
4.1228409999999975
30
0
10
11.114984
20
4.0631749999999993
30
0
10
11.114967999999999
20
4.0627029999999991
30
0
10
11.130744
20
4.0493509999999988
30
0
0
SPLINE
5
989
100
AcDbEntity
8
0
100
AcDbSpline
70
0
71
3
72
8
73
4
74
0
42
0.000000001
43
0.0000000001
44
0.0000000001
40
-1
40
-1
40
-1
40
-1
40
0
40
0
40
0
40
0
10
11.130744
20
4.0493509999999988
30
0
10
11.139469999999999
20
4.0419079999999994
30
0
10
11.183824999999999
20
4.0210540000000004
30
0
10
11.229303999999999
20
4.0030359999999998
30
0
0
LINE
5
990
100
AcDbEntity
8
0
100
AcDbLine
10
11.229303999999999
20
4.0030359999999998
30
0
11
11.311999
21
3.9701899999999997
31
0
0
LINE
5
991
100
AcDbEntity
8
0
100
AcDbLine
10
11.311999
20
3.9701899999999997
30
0
11
11.326116000000003
21
3.9884450000000009
31
0
0
SPLINE
5
992
100
AcDbEntity
8
0
100
AcDbSpline
70
0
71
3
72
8
73
4
74
0
42
0.000000001
43
0.0000000001
44
0.0000000001
40
-1
40
-1
40
-1
40
-1
40
0
40
0
40
0
40
0
10
11.326116000000003
20
3.9884450000000009
30
0
10
11.333881999999999
20
3.9984989999999989
30
0
10
11.350352999999995
20
4.0337439999999996
30
0
10
11.362715
20
4.0667669999999987
30
0
0
LINE
5
993
100
AcDbEntity
8
0
100
AcDbLine
10
11.362715
20
4.0667669999999996
30
0
11
11.385192999999999
21
4.1268169999999955
31
0
0
LINE
5
994
100
AcDbEntity
8
0
100
AcDbLine
10
11.385192999999999
20
4.1268169999999955
30
0
11
11.329390999999996
21
4.1808120000000004
31
0
0
SPLINE
5
995
100
AcDbEntity
8
0
100
AcDbSpline
70
0
71
3
72
8
73
4
74
0
42
0.000000001
43
0.0000000001
44
0.0000000001
40
-1
40
-1
40
-1
40
-1
40
0
40
0
40
0
40
0
10
11.329390999999996
20
4.1808120000000004
30
0
10
11.226426999999996
20
4.2804250000000001
30
0
10
11.050541000000001
20
4.4371710000000002
30
0
10
10.918977999999996
20
4.5465669999999996
30
0
0
SPLINE
5
996
100
AcDbEntity
8
0
100
AcDbSpline
70
0
71
3
72
8
73
4
74
0
42
0.000000001
43
0.0000000001
44
0.0000000001
40
-1
40
-1
40
-1
40
-1
40
0
40
0
40
0
40
0
10
10.918977999999996
20
4.5465669999999996
30
0
10
10.847211999999999
20
4.6062149999999988
30
0
10
10.790083999999998
20
4.6591470000000008
30
0
10
10.791938999999998
20
4.6644640000000006
30
0
0
SPLINE
5
997
100
AcDbEntity
8
0
100
AcDbSpline
70
0
71
3
72
8
73
4
74
0
42
0.000000001
43
0.0000000001
44
0.0000000001
40
-1
40
-1
40
-1
40
-1
40
0
40
0
40
0
40
0
10
10.791938999999998
20
4.6644640000000006
30
0
10
10.793834
20
4.669639000000001
30
0
10
10.837536
20
4.8208839999999995
30
0
10
10.889058
20
5.0005620000000004
30
0
0
SPLINE
5
998
100
AcDbEntity
8
0
100
AcDbSpline
70
0
71
3
72
8
73
4
74
0
42
0.000000001
43
0.0000000001
44
0.0000000001
40
-1
40
-1
40
-1
40
-1
40
0
40
0
40
0
40
0
10
10.889058
20
5.0005620000000004
30
0
10
10.940578999999998
20
5.1802400000000004
30
0
10
10.989957
20
5.3378840000000034
30
0
10
10.998789
20
5.3508800000000019
30
0
0
SPLINE
5
999
100
AcDbEntity
8
0
100
AcDbSpline
70
0
71
3
72
8
73
4
74
0
42
0.000000001
43
0.0000000001
44
0.0000000001
40
-1
40
-1
40
-1
40
-1
40
0
40
0
40
0
40
0
10
10.998789
20
5.3508800000000019
30
0
10
11.023247999999999
20
5.3868690000000043
30
0
10
11.084761999999998
20
5.4159930000000029
30
0
10
11.136364
20
5.4159930000000029
30
0
0
SPLINE
5
1000
100
AcDbEntity
8
0
100
AcDbSpline
70
0
71
3
72
8
73
4
74
0
42
0.000000001
43
0.0000000001
44
0.0000000001
40
-1
40
-1
40
-1
40
-1
40
0
40
0
40
0
40
0
10
11.136364
20
5.4159930000000029
30
0
10
11.216182999999996
20
5.4159930000000029
30
0
10
11.681397
20
5.2392100000000035
30
0
10
12.044468000000002
20
5.0709090000000003
30
0
0
SPLINE
5
1001
100
AcDbEntity
8
0
100
AcDbSpline
70
0
71
3
72
8
73
4
74
0
42
0.000000001
43
0.0000000001
44
0.0000000001
40
-1
40
-1
40
-1
40
-1
40
0
40
0
40
0
40
0
10
12.044468000000002
20
5.0709090000000003
30
0
10
12.172595999999999
20
5.0115150000000011
30
0
10
12.190063999999996
20
4.9987250000000003
30
0
10
12.219029000000001
20
4.9431349999999998
30
0
0
SPLINE
5
1002
100
AcDbEntity
8
0
100
AcDbSpline
70
0
71
3
72
8
73
4
74
0
42
0.000000001
43
0.0000000001
44
0.0000000001
40
-1
40
-1
40
-1
40
-1
40
0
40
0
40
0
40
0
10
12.219029000000001
20
4.9431349999999998
30
0
10
12.259851999999999
20
4.8647830000000001
30
0
10
12.256474999999996
20
4.8510720000000012
30
0
10
12.127205
20
4.5702500000000015
30
0
0
SPLINE
5
1003
100
AcDbEntity
8
0
100
AcDbSpline
70
0
71
3
72
8
73
4
74
0
42
0.000000001
43
0.0000000001
44
0.0000000001
40
-1
40
-1
40
-1
40
-1
40
0
40
0
40
0
40
0
10
12.127205
20
4.5702500000000015
30
0
10
12.064935999999998
20
4.4349789999999993
30
0
10
12.010186000000003
20
4.3168809999999995
30
0
10
12.005521000000002
20
4.3077240000000003
30
0
0
SPLINE
5
1004
100
AcDbEntity
8
0
100
AcDbSpline
70
0
71
3
72
8
73
4
74
0
42
0.000000001
43
0.0000000001
44
0.0000000001
40
-1
40
-1
40
-1
40
-1
40
0
40
0
40
0
40
0
10
12.005521000000002
20
4.3077240000000003
30
0
10
11.997814999999999
20
4.2926300000000017
30
0
10
11.986482999999998
20
4.3018460000000003
30
0
10
11.879461000000004
20
4.4101549999999996
30
0
0
SPLINE
5
1005
100
AcDbEntity
8
0
100
AcDbSpline
70
0
71
3
72
8
73
4
74
0
42
0.000000001
43
0.0000000001
44
0.0000000001
40
-1
40
-1
40
-1
40
-1
40
0
40
0
40
0
40
0
10
11.879461000000004
20
4.4101549999999996
30
0
10
11.814784
20
4.4756110000000007
30
0
10
11.725468999999999
20
4.563326
30
0
10
11.680987
20
4.6050340000000016
30
0
0
LINE
5
1006
100
AcDbEntity
8
0
100
AcDbLine
10
11.680987
20
4.6050340000000016
30
0
11
11.600105999999998
21
4.6809039999999973
31
0
0
LINE
5
1007
100
AcDbEntity
8
0
100
AcDbLine
10
11.600105999999998
20
4.6809039999999973
30
0
11
11.618951999999998
21
4.7295239999999996
31
0
0
SPLINE
5
1008
100
AcDbEntity
8
0
100
AcDbSpline
70
0
71
3
72
8
73
4
74
0
42
0.000000001
43
0.0000000001
44
0.0000000001
40
-1
40
-1
40
-1
40
-1
40
0
40
0
40
0
40
0
10
11.618951999999998
20
4.7295239999999996
30
0
10
11.629315999999999
20
4.7562669999999994
30
0
10
11.637797999999998
20
4.7891719999999998
30
0
10
11.637797999999998
20
4.8027599999999975
30
0
0
SPLINE
5
1009
100
AcDbEntity
8
0
100
AcDbSpline
70
0
71
3
72
8
73
4
74
0
42
0.000000001
43
0.0000000001
44
0.0000000001
40
-1
40
-1
40
-1
40
-1
40
0
40
0
40
0
40
0
10
11.637797999999998
20
4.8027599999999975
30
0
10
11.637797999999998
20
4.8264369999999994
30
0
10
11.634150999999994
20
4.8288589999999996
30
0
10
11.543473000000001
20
4.8658400000000004
30
0
0
SPLINE
5
1010
100
AcDbEntity
8
0
100
AcDbSpline
70
0
71
3
72
8
73
4
74
0
42
0.000000001
43
0.0000000001
44
0.0000000001
40
-1
40
-1
40
-1
40
-1
40
0
40
0
40
0
40
0
10
11.543473000000001
20
4.8658400000000004
30
0
10
11.491593999999999
20
4.886988999999998
30
0
10
11.441256999999998
20
4.904299
30
0
10
11.431614
20
4.904299
30
0
0
SPLINE
5
1011
100
AcDbEntity
8
0
100
AcDbSpline
70
0
71
3
72
8
73
4
74
0
42
0.000000001
43
0.0000000001
44
0.0000000001
40
-1
40
-1
40
-1
40
-1
40
0
40
0
40
0
40
0
10
11.431614
20
4.904299
30
0
10
11.41156
20
4.904299
30
0
10
11.401179999999997
20
4.8861799999999995
30
0
10
11.371439999999998
20
4.7992449999999973
30
0
0
LINE
5
1012
100
AcDbEntity
8
0
100
AcDbLine
10
11.371439999999998
20
4.7992449999999982
30
0
11
11.351285000000004
21
4.740345999999998
31
0
0
LINE
5
1013
100
AcDbEntity
8
0
100
AcDbLine
10
11.351285000000004
20
4.740345999999998
30
0
11
11.479978999999998
21
4.6230930000000008
31
0
0
SPLINE
5
1014
100
AcDbEntity
8
0
100
AcDbSpline
70
0
71
3
72
8
73
4
74
0
42
0.000000001
43
0.0000000001
44
0.0000000001
40
-1
40
-1
40
-1
40
-1
40
0
40
0
40
0
40
0
10
11.479978999999998
20
4.6230930000000008
30
0
10
11.55076
20
4.5586120000000019
30
0
10
11.683433000000001
20
4.4284629999999972
30
0
10
11.774805999999998
20
4.3338770000000011
30
0
0
LINE
5
1015
100
AcDbEntity
8
0
100
AcDbLine
10
11.774805999999998
20
4.3338770000000011
30
0
11
11.940939999999999
21
4.1619080000000004
31
0
0
LINE
5
1016
100
AcDbEntity
8
0
100
AcDbLine
10
11.940939999999999
20
4.1619080000000004
30
0
11
11.799373999999998
21
3.8542899999999998
31
0
0
SPLINE
5
1017
100
AcDbEntity
8
0
100
AcDbSpline
70
0
71
3
72
8
73
4
74
0
42
0.000000001
43
0.0000000001
44
0.0000000001
40
-1
40
-1
40
-1
40
-1
40
-0.0014226843183695016
40
-0.0014226843183695016
40
-0.0014226843183695016
40
-0.0014226843183695016
10
11.799373999999998
20
3.8542899999999998
30
0
10
11.721623771623713
20
3.685343699691773
30
0
10
11.649009897179356
20
3.5369866900041167
30
0
10
11.637844348700339
20
3.524270524287477
30
0
0
LINE
5
1018
100
AcDbEntity
8
0
100
AcDbLine
10
11.637844348700337
20
3.524270524287477
30
0
11
11.637796999999999
21
3.5242170000000002
31
0
0
SPLINE
5
1019
100
AcDbEntity
8
0
100
AcDbSpline
70
0
71
3
72
11
73
7
74
0
42
0.000000001
43
0.0000000001
44
0.0000000001
40
-1.0024779042868968
40
-1.0024779042868968
40
-1.0024779042868968
40
-1.0024779042868968
40
-0.0027098047471324376
40
-0.0027098047471324376
40
-0.0027098047471324376
40
0
40
0
40
0
40
0
10
11.637796999999999
20
3.5242170000000002
30
0
10
11.626789553224064
20
3.5118138769571101
30
0
10
11.605019100077364
20
3.494864863036224
30
0
10
11.589407862284526
20
3.486473837620542
30
0
10
11.58909462565955
20
3.4863054732335423
30
0
10
11.588781389034574
20
3.4861371088465418
30
0
10
11.588468152409597
20
3.4859687444595422
30
0
0
SPLINE
5
1020
100
AcDbEntity
8
0
100
AcDbSpline
70
0
71
3
72
8
73
4
74
0
42
0.000000001
43
0.0000000001
44
0.0000000001
40
-0.99120326092184363
40
-0.99120326092184363
40
-0.99120326092184363
40
-0.99120326092184363
40
0
40
0
40
0
40
0
10
11.588468141672152
20
3.485968764436211
30
0
10
11.553000351749381
20
3.4673214677633384
30
0
10
11.511455636653528
20
3.4603754757093186
30
0
10
11.485723999999998
20
3.4692180000000006
30
0
0
ELLIPSE
5
1021
100
AcDbEntity
8
0
100
AcDbEllipse
10
11.350659799347207
20
3.5298200507906601
30
0
11
0.13637525458553543
21
-0.060920210255585097
31
0.0
40
0.012295368403557293
41
4.5333165414057968
42
6.149796431432037
0
ELLIPSE
5
1022
100
AcDbEntity
8
0
100
AcDbEllipse
10
11.024117438680179
20
3.6151929313044531
30
0
11
0.59482966190380271
21
-0.23872864309575231
31
0.0
40
0.074043361306675479
41
1.069187813313083
42
2.0034535107074709
0
SPLINE
5
1023
100
AcDbEntity
8
0
100
AcDbSpline
70
0
71
3
72
8
73
4
74
0
42
0.000000001
43
0.0000000001
44
0.0000000001
40
-1
40
-1
40
-1
40
-1
40
0
40
0
40
0
40
0
10
10.790761999999999
20
3.755272999999999
30
0
10
10.723312
20
3.7796949999999994
30
0
10
10.659689999999998
20
3.8066339999999985
30
0
10
10.649379999999999
20
3.8151409999999997
30
0
0
SPLINE
5
1024
100
AcDbEntity
8
0
100
AcDbSpline
70
0
71
3
72
8
73
4
74
0
42
0.000000001
43
0.0000000001
44
0.0000000001
40
-1
40
-1
40
-1
40
-1
40
0
40
0
40
0
40
0
10
10.649379999999999
20
3.8151409999999997
30
0
10
10.621363000000002
20
3.8382389999999988
30
0
10
10.597215999999998
20
3.8971960000000005
30
0
10
10.597215999999998
20
3.9425069999999995
30
0
0
ELLIPSE
5
1025
100
AcDbEntity
8
0
100
AcDbEllipse
10
4.3224352429574164
20
0.96158151316563956
30
0
11
0.085622924719107693
21
-0.32221008290542835
31
0.0
40
0.76777176336530051
41
0.14514320250663479
42
0.99870826984655092
0
SPLINE
5
1026
100
AcDbEntity
8
0
100
AcDbSpline
70
0
71
3
72
11
73
7
74
0
42
0.000000001
43
0.0000000001
44
0.0000000001
40
-1.0003650704904392
40
-1.0003650704904392
40
-1.0003650704904392
40
-1.0003650704904392
40
-1
40
-1
40
-1
40
0
40
0
40
0
40
0
10
4.4429380007874402
20
0.65226748678782298
30
0
10
4.441831667191626
20
0.65176065785854864
30
0
10
4.4407255735266569
20
0.65125330453911456
30
0
10
4.4396190000000004
20
0.6507470000000003
30
0
10
4.3883592399308418
20
0.62729347560984039
30
0
10
4.2789150000000005
20
0.62020500000000023
30
0
10
4.2295660000000002
20
0.63721899999999998
30
0
0
SPLINE
5
1027
100
AcDbEntity
8
0
100
AcDbSpline
70
0
71
3
72
8
73
4
74
0
42
0.000000001
43
0.0000000001
44
0.0000000001
40
-1
40
-1
40
-1
40
-1
40
0
40
0
40
0
40
0
10
4.2295660000000002
20
0.63721899999999998
30
0
10
4.1752520000000004
20
0.65594600000000047
30
0
10
4.1607000000000003
20
0.66740599999999917
30
0
10
4.0567830000000002
20
0.77332299999999921
30
0
0
SPLINE
5
1028
100
AcDbEntity
8
0
100
AcDbSpline
70
0
71
3
72
8
73
4
74
0
42
0.000000001
43
0.0000000001
44
0.0000000001
40
-1
40
-1
40
-1
40
-1
40
0
40
0
40
0
40
0
10
4.0567830000000002
20
0.77332299999999921
30
0
10
3.9306619999999994
20
0.90184799999999832
30
0
10
3.8790349999999996
20
0.93162200000000073
30
0
10
3.7848699999999997
20
0.92925899999999972
30
0
0
ELLIPSE
5
1029
100
AcDbEntity
8
0
100
AcDbEllipse
10
3.3444821604380013
20
0.62525405815633694
30
0
11
0.47546136139521811
21
0.29232442252384372
31
0.0
40
0.17577345440762107
41
0.29283632804460585
42
1.1646036025711721
0
SPLINE
5
1030
100
AcDbEntity
8
0
100
AcDbSpline
70
0
71
3
72
8
73
4
74
0
42
0.000000001
43
0.0000000001
44
0.0000000001
40
-1
40
-1
40
-1
40
-1
40
0
40
0
40
0
40
0
10
3.4851419999999997
20
0.81752899999999884
30
0
10
3.3230539999999995
20
0.73400200000000004
30
0
10
3.2799629999999991
20
0.71757899999999908
30
0
10
3.2082959999999994
20
0.71226299999999942
30
0
0
SPLINE
5
1031
100
AcDbEntity
8
0
100
AcDbSpline
70
0
71
3
72
8
73
4
74
0
42
0.000000001
43
0.0000000001
44
0.0000000001
40
-1
40
-1
40
-1
40
-1
40
0
40
0
40
0
40
0
10
3.2082959999999994
20
0.71226299999999942
30
0
10
3.1323349999999999
20
0.70655599999999807
30
0
10
3.107386
20
0.71494999999999853
30
0
10
3.0245640000000003
20
0.77405599999999863
30
0
0
SPLINE
5
1032
100
AcDbEntity
8
0
100
AcDbSpline
70
0
71
3
72
8
73
4
74
0
42
0.000000001
43
0.0000000001
44
0.0000000001
40
-1
40
-1
40
-1
40
-1
40
0
40
0
40
0
40
0
10
3.0245640000000003
20
0.77405599999999863
30
0
10
2.9471189999999989
20
0.82929699999999973
30
0
10
2.9015490000000002
20
0.85208799999999973
30
0
10
2.8677959999999998
20
0.85233700000000046
30
0
0
ELLIPSE
5
1033
100
AcDbEntity
8
0
100
AcDbEllipse
10
2.8049623412016897
20
0.82255950638458064
30
0
11
0.073840491072815637
21
0.026043134793335816
31
0.0
40
0.19567202386382579
41
0.48795740753420719
42
2.2546679898422082
0
SPLINE
5
1034
100
AcDbEntity
8
0
100
AcDbSpline
70
0
71
3
72
8
73
4
74
0
42
0.000000001
43
0.0000000001
44
0.0000000001
40
-1
40
-1
40
-1
40
-1
40
0
40
0
40
0
40
0
10
2.7543599999999997
20
0.81730500000000139
30
0
10
2.737595999999999
20
0.80820700000000056
30
0
10
2.7320769999999999
20
0.81145599999999929
30
0
10
2.6914799999999994
20
0.8539910000000005
30
0
0
LINE
5
1035
100
AcDbEntity
8
0
100
AcDbLine
10
2.6914799999999994
20
0.85399100000000072
30
0
11
2.6469770000000001
21
0.90060100000000065
31
0
0
LINE
5
1036
100
AcDbEntity
8
0
100
AcDbLine
10
2.6469770000000001
20
0.90060100000000065
30
0
11
2.6898419999999987
21
0.92582699999999907
31
0
0
ELLIPSE
5
1037
100
AcDbEntity
8
0
100
AcDbEllipse
10
2.7855393566154993
20
0.87831570467836739
30
0
11
0.1734140310179931
21
0.05953147450432518
31
0.0
40
0.45441646854256229
41
0.79183020821128303
42
1.9927323206880523
0
SPLINE
5
1038
100
AcDbEntity
8
0
100
AcDbSpline
70
0
71
3
72
8
73
4
74
0
42
0.000000001
43
0.0000000001
44
0.0000000001
40
-1
40
-1
40
-1
40
-1
40
0
40
0
40
0
40
0
10
2.8881190000000001
20
0.97621799999999959
30
0
10
2.9466779999999995
20
0.9706529999999991
30
0
10
3.0027339999999993
20
0.94447700000000112
30
0
10
3.0901520000000007
20
0.88187400000000016
30
0
0
SPLINE
5
1039
100
AcDbEntity
8
0
100
AcDbSpline
70
0
71
3
72
8
73
4
74
0
42
0.000000001
43
0.0000000001
44
0.0000000001
40
-1
40
-1
40
-1
40
-1
40
0
40
0
40
0
40
0
10
3.0901520000000007
20
0.88187400000000016
30
0
10
3.1567670000000003
20
0.83431900000000103
30
0
10
3.157080000000001
20
0.83431900000000103
30
0
10
3.2036620000000005
20
0.83904500000000015
30
0
0
SPLINE
5
1040
100
AcDbEntity
8
0
100
AcDbSpline
70
0
71
3
72
8
73
4
74
0
42
0.000000001
43
0.0000000001
44
0.0000000001
40
-1
40
-1
40
-1
40
-1
40
0
40
0
40
0
40
0
10
3.2036620000000005
20
0.83904500000000015
30
0
10
3.2477689999999999
20
0.84371200000000091
30
0
10
3.2742320000000005
20
0.8529270000000011
30
0
10
3.3349880000000001
20
0.88465100000000052
30
0
0
SPLINE
5
1041
100
AcDbEntity
8
0
100
AcDbSpline
70
0
71
3
72
8
73
4
74
0
42
0.000000001
43
0.0000000001
44
0.0000000001
40
-1
40
-1
40
-1
40
-1
40
0
40
0
40
0
40
0
10
3.3349880000000001
20
0.88465100000000052
30
0
10
3.3536350000000001
20
0.89438700000000093
30
0
10
3.3826890000000009
20
0.93249000000000104
30
0
10
3.4382459999999995
20
1.0200639999999979
30
0
0
SPLINE
5
1042
100
AcDbEntity
8
0
100
AcDbSpline
70
0
71
3
72
8
73
4
74
0
42
0.000000001
43
0.0000000001
44
0.0000000001
40
-1
40
-1
40
-1
40
-1
40
0
40
0
40
0
40
0
10
3.4382459999999995
20
1.0200639999999979
30
0
10
3.6255660000000005
20
1.3153349999999997
30
0
10
3.8178149999999995
20
1.5640729999999985
30
0
10
4.0533350000000006
20
1.8158760000000003
30
0
0
LINE
5
1043
100
AcDbEntity
8
0
100
AcDbLine
10
4.0533350000000006
20
1.8158760000000003
30
0
11
4.1815369999999996
21
1.9529429999999999
31
0
0
LINE
5
1044
100
AcDbEntity
8
0
100
AcDbLine
10
4.1815369999999996
20
1.9529429999999999
30
0
11
4.1815369999999996
21
2.1514309999999983
31
0
0
SPLINE
5
1045
100
AcDbEntity
8
0
100
AcDbSpline
70
0
71
3
72
8
73
4
74
0
42
0.000000001
43
0.0000000001
44
0.0000000001
40
-1
40
-1
40
-1
40
-1
40
0
40
0
40
0
40
0
10
4.1815369999999996
20
2.1514309999999983
30
0
10
4.1815369999999996
20
2.33684
30
0
10
4.1827400000000008
20
2.3535169999999996
30
0
10
4.1998680000000004
20
2.4044400000000006
30
0
0
SPLINE
5
1046
100
AcDbEntity
8
0
100
AcDbSpline
70
0
71
3
72
8
73
4
74
0
42
0.000000001
43
0.0000000001
44
0.0000000001
40
-1
40
-1
40
-1
40
-1
40
0
40
0
40
0
40
0
10
4.1998680000000004
20
2.4044400000000006
30
0
10
4.2099509999999993
20
2.4344559999999982
30
0
10
4.2243599999999999
20
2.4722059999999981
30
0
10
4.2318879999999996
20
2.4883329999999999
30
0
0
SPLINE
5
1047
100
AcDbEntity
8
0
100
AcDbSpline
70
0
71
3
72
8
73
4
74
0
42
0.000000001
43
0.0000000001
44
0.0000000001
40
-1
40
-1
40
-1
40
-1
40
0
40
0
40
0
40
0
10
4.2318879999999996
20
2.4883329999999999
30
0
10
4.2394149999999993
20
2.504461
30
0
10
4.2460579999999997
20
2.5190529999999991
30
0
10
4.2466939999999997
20
2.5202340000000003
30
0
0
SPLINE
5
1048
100
AcDbEntity
8
0
100
AcDbSpline
70
0
71
3
72
8
73
4
74
0
42
0.000000001
43
0.0000000001
44
0.0000000001
40
-1
40
-1
40
-1
40
-1
40
0
40
0
40
0
40
0
10
4.2466939999999997
20
2.5202340000000003
30
0
10
4.2502929999999992
20
2.5284990000000001
30
0
10
4.3333640000000004
20
2.4248510000000008
30
0
10
4.3320379999999998
20
2.4137450000000005
30
0
0
SPLINE
5
1049
100
AcDbEntity
8
0
100
AcDbSpline
70
0
71
3
72
8
73
4
74
0
42
0.000000001
43
0.0000000001
44
0.0000000001
40
-1
40
-1
40
-1
40
-1
40
0
40
0
40
0
40
0
10
4.3320379999999998
20
2.4137450000000005
30
0
10
4.3311689999999983
20
2.4063010000000014
30
0
10
4.3231270000000004
20
2.3719249999999983
30
0
10
4.3141679999999996
20
2.3373070000000014
30
0
0
SPLINE
5
1050
100
AcDbEntity
8
0
100
AcDbSpline
70
0
71
3
72
8
73
4
74
0
42
0.000000001
43
0.0000000001
44
0.0000000001
40
-1
40
-1
40
-1
40
-1
40
0
40
0
40
0
40
0
10
4.3141679999999996
20
2.3373070000000014
30
0
10
4.2851530000000002
20
2.2252230000000002
30
0
10
4.2979730000000007
20
1.9915669999999981
30
0
10
4.3403979999999995
20
1.8591430000000009
30
0
0
SPLINE
5
1051
100
AcDbEntity
8
0
100
AcDbSpline
70
0
71
3
72
8
73
4
74
0
42
0.000000001
43
0.0000000001
44
0.0000000001
40
-1
40
-1
40
-1
40
-1
40
0
40
0
40
0
40
0
10
4.3403979999999995
20
1.8591430000000009
30
0
10
4.3641880000000004
20
1.7848909999999989
30
0
10
4.4027489999999991
20
1.6515990000000011
30
0
10
4.4021660000000002
20
1.645395999999999
30
0
0
SPLINE
5
1052
100
AcDbEntity
8
0
100
AcDbSpline
70
0
71
3
72
8
73
4
74
0
42
0.000000001
43
0.0000000001
44
0.0000000001
40
-1
40
-1
40
-1
40
-1
40
0
40
0
40
0
40
0
10
4.4021660000000002
20
1.645395999999999
30
0
10
4.401953999999999
20
1.642973999999999
30
0
10
4.4067730000000003
20
1.6269059999999991
30
0
10
4.4128690000000006
20
1.6095959999999996
30
0
0
SPLINE
5
1053
100
AcDbEntity
8
0
100
AcDbSpline
70
0
71
3
72
8
73
4
74
0
42
0.000000001
43
0.0000000001
44
0.0000000001
40
-1
40
-1
40
-1
40
-1
40
0
40
0
40
0
40
0
10
4.4128690000000006
20
1.6095959999999996
30
0
10
4.4189659999999993
20
1.5922870000000009
30
0
10
4.4318789999999995
20
1.5498239999999992
30
0
10
4.4415589999999998
20
1.5152059999999976
30
0
0
ELLIPSE
5
1054
100
AcDbEntity
8
0
100
AcDbEllipse
10
4.5673614054020488
20
1.1671650630369963
30
0
11
-0.14980652040251938
21
0.45735707776616052
31
0.0
40
0.036430392995643067
41
0.69412081563293848
42
1.4564772619280646
0
SPLINE
5
1055
100
AcDbEntity
8
0
100
AcDbSpline
70
0
71
3
72
8
73
4
74
0
42
0.000000001
43
0.0000000001
44
0.0000000001
40
-1
40
-1
40
-1
40
-1
40
0
40
0
40
0
40
0
10
4.5337199999999998
20
1.2139140000000002
30
0
10
4.5492359999999996
20
1.1658269999999991
30
0
10
4.5633530000000002
20
1.1186850000000015
30
0
10
4.5651559999999982
20
1.1090549999999983
30
0
0
SPLINE
5
1056
100
AcDbEntity
8
0
100
AcDbSpline
70
0
71
3
72
8
73
4
74
0
42
0.000000001
43
0.0000000001
44
0.0000000001
40
-1
40
-1
40
-1
40
-1
40
0
40
0
40
0
40
0
10
4.5651559999999982
20
1.1090549999999983
30
0
10
4.5669320000000004
20
1.0994260000000009
30
0
10
4.5722170000000002
20
1.0745549999999993
30
0
10
4.5768820000000003
20
1.0538199999999986
30
0
0
SPLINE
5
1057
100
AcDbEntity
8
0
100
AcDbSpline
70
0
71
3
72
8
73
4
74
0
42
0.000000001
43
0.0000000001
44
0.0000000001
40
-1
40
-1
40
-1
40
-1
40
0
40
0
40
0
40
0
10
4.5768820000000003
20
1.0538199999999986
30
0
10
4.5880860000000006
20
1.0040839999999984
30
0
10
4.5880330000000002
20
0.89806099999999867
30
0
10
4.5767839999999991
20
0.84241200000000127
30
0
0
SPLINE
5
1058
100
AcDbEntity
8
0
100
AcDbSpline
70
0
71
3
72
8
73
4
74
0
42
0.000000001
43
0.0000000001
44
0.0000000001
40
-1
40
-1
40
-1
40
-1
40
0
40
0
40
0
40
0
10
9.5452009999999969
20
4.9504429999999982
30
0
10
9.6010969999999958
20
5.3979810000000032
30
0
10
9.6490459999999985
20
5.7667310000000045
30
0
10
9.6517499999999998
20
5.7696840000000025
30
0
0
SPLINE
5
1059
100
AcDbEntity
8
0
100
AcDbSpline
70
0
71
3
72
8
73
4
74
0
42
0.000000001
43
0.0000000001
44
0.0000000001
40
-1
40
-1
40
-1
40
-1
40
0
40
0
40
0
40
0
10
9.6517499999999998
20
5.7696840000000025
30
0
10
9.6612130000000001
20
5.7803120000000012
30
0
10
10.023949999999996
20
5.7179050000000027
30
0
10
10.301036999999999
20
5.657979000000001
30
0
0
SPLINE
5
1060
100
AcDbEntity
8
0
100
AcDbSpline
70
0
71
3
72
8
73
4
74
0
42
0.000000001
43
0.0000000001
44
0.0000000001
40
-1
40
-1
40
-1
40
-1
40
0
40
0
40
0
40
0
10
10.301036999999999
20
5.657979000000001
30
0
10
10.448707999999996
20
5.6260360000000018
30
0
10
10.837948999999998
20
5.5263230000000005
30
0
10
10.874140999999996
20
5.5111400000000028
30
0
0
SPLINE
5
1061
100
AcDbEntity
8
0
100
AcDbSpline
70
0
71
3
72
8
73
4
74
0
42
0.000000001
43
0.0000000001
44
0.0000000001
40
-1
40
-1
40
-1
40
-1
40
0
40
0
40
0
40
0
10
10.874140999999996
20
5.5111400000000028
30
0
10
10.890592999999999
20
5.504240000000002
30
0
10
10.889709999999994
20
5.4996090000000013
30
0
10
10.829647999999999
20
5.2776030000000045
30
0
0
SPLINE
5
1062
100
AcDbEntity
8
0
100
AcDbSpline
70
0
71
3
72
8
73
4
74
0
42
0.000000001
43
0.0000000001
44
0.0000000001
40
-1
40
-1
40
-1
40
-1
40
0
40
0
40
0
40
0
10
10.829647999999999
20
5.2776030000000045
30
0
10
10.795941999999998
20
5.1530300000000011
30
0
10
10.766754000000001
20
5.0462929999999995
30
0
10
10.764739000000001
20
5.0403259999999994
30
0
0
SPLINE
5
1063
100
AcDbEntity
8
0
100
AcDbSpline
70
0
71
3
72
8
73
4
74
0
42
0.000000001
43
0.0000000001
44
0.0000000001
40
-1
40
-1
40
-1
40
-1
40
0
40
0
40
0
40
0
10
10.764739000000001
20
5.0403259999999994
30
0
10
10.762494999999999
20
5.0336680000000005
30
0
10
10.733981
20
5.0556270000000003
30
0
10
10.689980999999998
20
5.0979840000000003
30
0
0
SPLINE
5
1064
100
AcDbEntity
8
0
100
AcDbSpline
70
0
71
3
72
8
73
4
74
0
42
0.000000001
43
0.0000000001
44
0.0000000001
40
-1
40
-1
40
-1
40
-1
40
0
40
0
40
0
40
0
10
10.689980999999998
20
5.0979840000000003
30
0
10
10.650861000000001
20
5.1355849999999972
30
0
10
10.603580999999997
20
5.1734529999999994
30
0
10
10.584920999999998
20
5.1821369999999991
30
0
0
SPLINE
5
1065
100
AcDbEntity
8
0
100
AcDbSpline
70
0
71
3
72
8
73
4
74
0
42
0.000000001
43
0.0000000001
44
0.0000000001
40
-1
40
-1
40
-1
40
-1
40
0
40
0
40
0
40
0
10
10.584920999999998
20
5.1821369999999991
30
0
10
10.537651999999996
20
5.2040480000000038
30
0
10
10.120518000000001
20
5.306001000000002
30
0
10
10.113547000000001
20
5.2973750000000015
30
0
0
SPLINE
5
1066
100
AcDbEntity
8
0
100
AcDbSpline
70
0
71
3
72
8
73
4
74
0
42
0.000000001
43
0.0000000001
44
0.0000000001
40
-1
40
-1
40
-1
40
-1
40
0
40
0
40
0
40
0
10
10.113547000000001
20
5.2973750000000015
30
0
10
10.108018
20
5.2905229999999994
30
0
10
10.067410999999998
20
5.0452940000000011
30
0
10
10.071173999999999
20
5.0417500000000004
30
0
0
SPLINE
5
1067
100
AcDbEntity
8
0
100
AcDbSpline
70
0
71
3
72
8
73
4
74
0
42
0.000000001
43
0.0000000001
44
0.0000000001
40
-1
40
-1
40
-1
40
-1
40
0
40
0
40
0
40
0
10
10.071173999999999
20
5.0417500000000004
30
0
10
10.080806000000001
20
5.0316539999999987
30
0
10
10.371306000000001
20
4.9714199999999984
30
0
10
10.410365999999998
20
4.9714199999999984
30
0
0
SPLINE
5
1068
100
AcDbEntity
8
0
100
AcDbSpline
70
0
71
3
72
8
73
4
74
0
42
0.000000001
43
0.0000000001
44
0.0000000001
40
-1
40
-1
40
-1
40
-1
40
0
40
0
40
0
40
0
10
10.410365999999998
20
4.9714199999999984
30
0
10
10.433973999999994
20
4.9714199999999984
30
0
10
10.486155999999999
20
4.9790409999999987
30
0
10
10.526323
20
4.9884339999999998
30
0
0
SPLINE
5
1069
100
AcDbEntity
8
0
100
AcDbSpline
70
0
71
3
72
8
73
4
74
0
42
0.000000001
43
0.0000000001
44
0.0000000001
40
-1
40
-1
40
-1
40
-1
40
0
40
0
40
0
40
0
10
10.526323
20
4.9884339999999998
30
0
10
10.566492
20
4.997827
30
0
10
10.600360999999999
20
5.0043249999999997
30
0
10
10.601527999999997
20
5.0031439999999998
30
0
0
SPLINE
5
1070
100
AcDbEntity
8
0
100
AcDbSpline
70
0
71
3
72
8
73
4
74
0
42
0.000000001
43
0.0000000001
44
0.0000000001
40
-1
40
-1
40
-1
40
-1
40
0
40
0
40
0
40
0
10
10.601527999999997
20
5.0031439999999998
30
0
10
10.603440000000001
20
5.0010579999999996
30
0
10
10.474111999999996
20
4.4787659999999994
30
0
10
10.465641
20
4.4543670000000004
30
0
0
SPLINE
5
1071
100
AcDbEntity
8
0
100
AcDbSpline
70
0
71
3
72
8
73
4
74
0
42
0.000000001
43
0.0000000001
44
0.0000000001
40
-1
40
-1
40
-1
40
-1
40
0
40
0
40
0
40
0
10
10.465641
20
4.4543670000000004
30
0
10
10.463824000000001
20
4.4491690000000004
30
0
10
10.439555
20
4.4672460000000003
30
0
10
10.411702
20
4.4944800000000003
30
0
0
SPLINE
5
1072
100
AcDbEntity
8
0
100
AcDbSpline
70
0
71
3
72
8
73
4
74
0
42
0.000000001
43
0.0000000001
44
0.0000000001
40
-1
40
-1
40
-1
40
-1
40
0
40
0
40
0
40
0
10
10.411702
20
4.4944800000000003
30
0
10
10.341419999999996
20
4.5633379999999981
30
0
10
10.289398999999996
20
4.5870449999999998
30
0
10
10.129852999999999
20
4.622844999999999
30
0
0
SPLINE
5
1073
100
AcDbEntity
8
0
100
AcDbSpline
70
0
71
3
72
8
73
4
74
0
42
0.000000001
43
0.0000000001
44
0.0000000001
40
-1
40
-1
40
-1
40
-1
40
0
40
0
40
0
40
0
10
10.129852999999999
20
4.622844999999999
30
0
10
10.055514999999998
20
4.6395039999999996
30
0
10
9.9938290000000016
20
4.6519689999999994
30
0
10
9.9928209999999975
20
4.6507879999999986
30
0
0
SPLINE
5
1074
100
AcDbEntity
8
0
100
AcDbSpline
70
0
71
3
72
8
73
4
74
0
42
0.000000001
43
0.0000000001
44
0.0000000001
40
-1
40
-1
40
-1
40
-1
40
0
40
0
40
0
40
0
10
9.9928209999999975
20
4.6507879999999986
30
0
10
9.9917879999999997
20
4.6494879999999981
30
0
10
9.9853359999999967
20
4.6163530000000019
30
0
10
9.9784819999999996
20
4.5771259999999998
30
0
0
SPLINE
5
1075
100
AcDbEntity
8
0
100
AcDbSpline
70
0
71
3
72
8
73
4
74
0
42
0.000000001
43
0.0000000001
44
0.0000000001
40
-1
40
-1
40
-1
40
-1
40
0
40
0
40
0
40
0
10
9.9784819999999996
20
4.5771259999999998
30
0
10
9.9716219999999982
20
4.5379060000000004
30
0
10
9.9454439999999984
20
4.3953979999999984
30
0
10
9.9202949999999994
20
4.2604520000000008
30
0
0
LINE
5
1076
100
AcDbEntity
8
0
100
AcDbLine
10
9.9202949999999976
20
4.2604520000000008
30
0
11
9.8746059999999982
21
4.0147860000000009
31
0
0
LINE
5
1077
100
AcDbEntity
8
0
100
AcDbLine
10
9.8746059999999982
20
4.0147860000000009
30
0
11
9.8536979999999961
21
4.015968
31
0
0
SPLINE
5
1078
100
AcDbEntity
8
0
100
AcDbSpline
70
0
71
3
72
8
73
4
74
0
42
0.000000001
43
0.0000000001
44
0.0000000001
40
-1
40
-1
40
-1
40
-1
40
0
40
0
40
0
40
0
10
9.8536979999999961
20
4.015968
30
0
10
9.8422000000000001
20
4.0164400000000002
30
0
10
9.7877670000000006
20
4.0256560000000015
30
0
10
9.7327359999999992
20
4.0362900000000002
30
0
0
SPLINE
5
1079
100
AcDbEntity
8
0
100
AcDbSpline
70
0
71
3
72
8
73
4
74
0
42
0.000000001
43
0.0000000001
44
0.0000000001
40
-1
40
-1
40
-1
40
-1
40
0
40
0
40
0
40
0
10
9.7327359999999992
20
4.0362900000000002
30
0
10
9.6777039999999985
20
4.0470419999999985
30
0
10
9.5882640000000006
20
4.0623419999999992
30
0
10
9.5339789999999986
20
4.0703759999999996
30
0
0
LINE
5
1080
100
AcDbEntity
8
0
100
AcDbLine
10
9.5339789999999986
20
4.0703759999999996
30
0
11
9.435278999999996
21
4.0849679999999999
31
0
0
LINE
5
1081
100
AcDbEntity
8
0
100
AcDbLine
10
9.435278999999996
20
4.0849679999999999
30
0
11
9.4394139999999958
21
4.1108430000000018
31
0
0
SPLINE
5
1082
100
AcDbEntity
8
0
100
AcDbSpline
70
0
71
3
72
8
73
4
74
0
42
0.000000001
43
0.0000000001
44
0.0000000001
40
-1
40
-1
40
-1
40
-1
40
0
40
0
40
0
40
0
10
9.4394139999999958
20
4.1108430000000018
30
0
10
9.4417000000000009
20
4.1250800000000005
30
0
10
9.4893049999999981
20
4.5028979999999992
30
0
10
9.5452009999999969
20
4.9504429999999982
30
0
0
LWPOLYLINE
5
1083
100
AcDbEntity
8
0
100
AcDbPolyline
90
6
70
1
43
0.0
10
15.848471856054882
20
-5.690150456625549
42
0.27834829282902679
10
15.634777007623882
20
2.4968457135937929
42
0.24303050696075104
10
8.5000070000000072
20
6.1823570000000032
42
0.28223945107169551
10
0.71955900000000128
20
1.4101929999999991
42
0.16665142911633388
10
0.095152999999999169
20
-3.0149079999999988
42
0.35173824291221256
10
8.0917739999999974
20
-9.8088620000000049
42
0.26385330578663374
0
ENDSEC
0
SECTION
2
OBJECTS
0
DICTIONARY
5
C
100
AcDbDictionary
3
ACAD_GROUP
350
D
3
ACAD_MLINESTYLE
350
17
0
DICTIONARY
5
D
100
AcDbDictionary
0
DICTIONARY
5
1A
330
C
100
AcDbDictionary
0
DICTIONARY
5
17
100
AcDbDictionary
0
ENDSEC
0
EOF
