0
SECTION
2
HEADER
9
$INSUNITS
70
1
9
$ACADVER
1
AC1014
9
$HANDSEED
5
FFFF
0
ENDSEC
0
SECTION
2
TABLES
0
TABLE
2
VPORT
5
8
100
AcDbSymbolTable
0
ENDTAB
0
TABLE
2
LTYPE
5
5
100
AcDbSymbolTable
0
LTYPE
5
14
100
AcDbSymbolTableRecord
100
AcDbLinetypeTableRecord
2
BYBLOCK
70
0
0
LTYPE
5
15
100
AcDbSymbolTableRecord
100
AcDbLinetypeTableRecord
2
BYLAYER
70
0
0
ENDTAB
0
TABLE
2
LAYER
5
2
100
AcDbSymbolTable
70
2
0
LAYER
5
50
100
AcDbSymbolTableRecord
100
AcDbLayerTableRecord
2
0
70
0
6
CONTINUOUS
0
ENDTAB
0
TABLE
2
STYLE
5
3
100
AcDbSymbolTable
70
1
0
STYLE
5
11
100
AcDbSymbolTableRecord
100
AcDbTextStyleTableRecord
2
STANDARD
70
0
0
ENDTAB
0
TABLE
2
VIEW
5
6
100
AcDbSymbolTable
70
0
0
ENDTAB
0
TABLE
2
UCS
5
7
100
AcDbSymbolTable
70
0
0
ENDTAB
0
TABLE
2
APPID
5
9
100
AcDbSymbolTable
70
2
0
APPID
5
12
100
AcDbSymbolTableRecord
100
AcDbRegAppTableRecord
2
ACAD
70
0
0
ENDTAB
0
TABLE
2
DIMSTYLE
5
A
100
AcDbSymbolTable
70
1
0
ENDTAB
0
TABLE
2
BLOCK_RECORD
5
1
100
AcDbSymbolTable
70
1
0
BLOCK_RECORD
5
1F
100
AcDbSymbolTableRecord
100
AcDbBlockTableRecord
2
*MODEL_SPACE
0
BLOCK_RECORD
5
1B
100
AcDbSymbolTableRecord
100
AcDbBlockTableRecord
2
*PAPER_SPACE
0
ENDTAB
0
ENDSEC
0
SECTION
2
BLOCKS
0
BLOCK
5
20
100
AcDbEntity
100
AcDbBlockBegin
2
*MODEL_SPACE
0
ENDBLK
5
21
100
AcDbEntity
100
AcDbBlockEnd
0
BLOCK
5
1C
100
AcDbEntity
100
AcDbBlockBegin
2
*PAPER_SPACE
0
ENDBLK
5
1D
100
AcDbEntity
100
AcDbBlockEnd
0
ENDSEC
0
SECTION
2
ENTITIES
0
SPLINE
5
100
100
AcDbEntity
8
0
100
AcDbSpline
70
4
71
3
72
8
73
4
74
0
42
0.000000001
43
0.0000000001
44
0.0000000001
40
0
40
0
40
0
40
0
40
0.99334920195349019
40
0.99334920195349019
40
0.99334920195349019
40
0.99334920195349019
41
1
41
1
41
1
41
1
10
44.802084636853067
20
-65.592375574502228
30
0
10
44.838443079247874
20
-65.590337954444436
30
0
10
44.875585915742093
20
-65.588460663322877
30
0
10
44.912871727890142
20
-65.588039977912402
30
0
0
LINE
5
101
100
AcDbEntity
8
0
100
AcDbLine
10
44.912871727890142
20
-65.588039977912416
30
0
11
44.913620669196824
21
-65.588031735625634
31
0
0
SPLINE
5
102
100
AcDbEntity
8
0
100
AcDbSpline
70
4
71
3
72
11
73
7
74
0
42
0.000000001
43
0.0000000001
44
0.0000000001
40
0.0019024261151842439
40
0.0019024261151842439
40
0.0019024261151842439
40
0.0019024261151842439
40
0.0019050380331244018
40
0.0019050380331244018
40
0.0019050380331244018
40
1.0019050380331245
40
1.0019050380331245
40
1.0019050380331245
40
1.0019050380331245
41
1
41
1
41
1
41
1
41
1
41
1
41
1
10
44.913620669196824
20
-65.588031735625634
30
0
10
44.913621011947434
20
-65.588031731853576
30
0
10
44.913621354697135
20
-65.588031727994519
30
0
10
44.913621697448697
20
-65.588031724309474
30
0
10
45.026234094064122
20
-65.586820985674422
30
0
10
45.140109333493143
20
-65.598828276209005
30
0
10
45.237611493643548
20
-65.658805768359073
30
0
0
SPLINE
5
103
100
AcDbEntity
8
0
100
AcDbSpline
70
4
71
3
72
8
73
4
74
0
42
0.000000001
43
0.0000000001
44
0.0000000001
40
0
40
0
40
0
40
0
40
1
40
1
40
1
40
1
41
1
41
1
41
1
41
1
10
45.237611493643548
20
-65.658805768359073
30
0
10
45.237200486984683
20
-65.661676301938158
30
0
10
45.23723168098465
20
-65.666992307997901
30
0
10
45.236820674325791
20
-65.669862841577
30
0
0
SPLINE
5
104
100
AcDbEntity
8
0
100
AcDbSpline
70
4
71
3
72
8
73
4
74
0
42
0.000000001
43
0.0000000001
44
0.0000000001
40
0
40
0
40
0
40
0
40
1
40
1
40
1
40
1
41
1
41
1
41
1
41
1
10
45.236820674325791
20
-65.669862841577
30
0
10
45.125682622696722
20
-65.721945852197777
30
0
10
44.996466448319438
20
-65.696539538996532
30
0
10
44.889839186201613
20
-65.645686463231456
30
0
0
SPLINE
5
105
100
AcDbEntity
8
0
100
AcDbSpline
70
4
71
3
72
8
73
4
74
0
42
0.000000001
43
0.0000000001
44
0.0000000001
40
0
40
0
40
0
40
0
40
1
40
1
40
1
40
1
41
1
41
1
41
1
41
1
10
44.889839186201613
20
-65.645686463231456
30
0
10
44.859901516016627
20
-65.629282532745037
30
0
10
44.823000042433151
20
-65.620262324887392
30
0
10
44.802084636853067
20
-65.592375574502228
30
0
0
SPLINE
5
106
100
AcDbEntity
8
0
100
AcDbSpline
70
4
71
3
72
8
73
4
74
0
42
0.000000001
43
0.0000000001
44
0.0000000001
40
0
40
0
40
0
40
0
40
0.99999420948134388
40
0.99999420948134388
40
0.99999420948134388
40
0.99999420948134388
41
1
41
1
41
1
41
1
10
45.562040062585147
20
-59.712688279347226
30
0
10
45.713954305532425
20
-59.607498607081268
30
0
10
45.866105414461536
20
-59.576242014843594
30
0
10
45.994667757534998
20
-59.714353237971523
30
0
0
SPLINE
5
107
100
AcDbEntity
8
0
100
AcDbSpline
70
4
71
3
72
11
73
7
74
0
42
0.000000001
43
0.0000000001
44
0.0000000001
40
0
40
0
40
0
40
0
40
9.9843894077637144e-06
40
9.9843894077637144e-06
40
9.9843894077637144e-06
40
1.0000099843894077
40
1.0000099843894077
40
1.0000099843894077
40
1.0000099843894077
41
1
41
1
41
1
41
1
41
1
41
1
41
1
10
45.994667757534998
20
-59.71435323797153
30
0
10
45.994668501981167
20
-59.714354316235308
30
0
10
45.994669251042339
20
-59.714355391341819
30
0
10
45.994669990873497
20
-59.714356472762859
30
0
10
46.310810215802377
20
-60.176462842508059
30
0
10
46.501822385075243
20
-60.762558255506079
30
0
10
46.807935276961203
20
-61.158313705018614
30
0
0
SPLINE
5
108
100
AcDbEntity
8
0
100
AcDbSpline
70
4
71
3
72
8
73
4
74
0
42
0.000000001
43
0.0000000001
44
0.0000000001
40
0
40
0
40
0
40
0
40
1
40
1
40
1
40
1
41
1
41
1
41
1
41
1
10
46.807935276961203
20
-61.158313705018614
30
0
10
47.217474789452226
20
-61.607153201178249
30
0
10
47.605074293441277
20
-61.756774022235106
30
0
10
47.619928122083351
20
-62.409956842377007
30
0
0
SPLINE
5
109
100
AcDbEntity
8
0
100
AcDbSpline
70
4
71
3
72
8
73
4
74
0
42
0.000000001
43
0.0000000001
44
0.0000000001
40
0
40
0
40
0
40
0
40
1
40
1
40
1
40
1
41
1
41
1
41
1
41
1
10
47.619928122083351
20
-62.409956842377007
30
0
10
47.625669874823934
20
-62.727377387854219
30
0
10
47.54487090188487
20
-63.036978180285573
30
0
10
47.481714706859385
20
-63.345376461157883
30
0
0
SPLINE
5
110
100
AcDbEntity
8
0
100
AcDbSpline
70
4
71
3
72
8
73
4
74
0
42
0.000000001
43
0.0000000001
44
0.0000000001
40
0
40
0
40
0
40
0
40
1
40
1
40
1
40
1
41
1
41
1
41
1
41
1
10
47.481714706859385
20
-63.345376461157883
30
0
10
47.370986633515557
20
-63.25269291702385
30
0
10
47.310698915321893
20
-63.109588556838546
30
0
10
47.28773327552441
20
-62.969743112671409
30
0
0
SPLINE
5
111
100
AcDbEntity
8
0
100
AcDbSpline
70
4
71
3
72
8
73
4
74
0
42
0.000000001
43
0.0000000001
44
0.0000000001
40
0
40
0
40
0
40
0
40
1
40
1
40
1
40
1
41
1
41
1
41
1
41
1
10
47.28773327552441
20
-62.969743112671409
30
0
10
47.106519445537238
20
-62.137955446429416
30
0
10
46.822127518571087
20
-61.575145757676985
30
0
10
45.927844901544582
20
-61.691466469585741
30
0
0
SPLINE
5
112
100
AcDbEntity
8
0
100
AcDbSpline
70
4
71
3
72
8
73
4
74
0
42
0.000000001
43
0.0000000001
44
0.0000000001
40
0
40
0
40
0
40
0
40
1
40
1
40
1
40
1
41
1
41
1
41
1
41
1
10
45.927844901544582
20
-61.691466469585741
30
0
10
45.787179158015775
20
-61.465088869519185
30
0
10
45.660872595415327
20
-61.229270799573506
30
0
10
45.512414864928537
20
-61.007814652885855
30
0
0
SPLINE
5
113
100
AcDbEntity
8
0
100
AcDbSpline
70
4
71
3
72
8
73
4
74
0
42
0.000000001
43
0.0000000001
44
0.0000000001
40
0
40
0
40
0
40
0
40
1
40
1
40
1
40
1
41
1
41
1
41
1
41
1
10
45.512414864928537
20
-61.007814652885855
30
0
10
45.53661112516415
20
-61.278073298329971
30
0
10
45.592353774725737
20
-61.563084477614083
30
0
10
45.771159153682738
20
-61.777158787024604
30
0
0
SPLINE
5
114
100
AcDbEntity
8
0
100
AcDbSpline
70
4
71
3
72
8
73
4
74
0
42
0.000000001
43
0.0000000001
44
0.0000000001
40
0
40
0
40
0
40
0
40
1
40
1
40
1
40
1
41
1
41
1
41
1
41
1
10
45.771159153682738
20
-61.777158787024604
30
0
10
45.843747591598373
20
-61.871892736771628
30
0
10
45.970491898571936
20
-61.881721589089871
30
0
10
46.074658262604707
20
-61.920681352484145
30
0
0
SPLINE
5
115
100
AcDbEntity
8
0
100
AcDbSpline
70
4
71
3
72
8
73
4
74
0
42
0.000000001
43
0.0000000001
44
0.0000000001
40
0
40
0
40
0
40
0
40
1
40
1
40
1
40
1
41
1
41
1
41
1
41
1
10
46.074658262604707
20
-61.920681352484145
30
0
10
45.9177123362157
20
-62.023471581210828
30
0
10
45.74411944037351
20
-61.851150954938596
30
0
10
45.619826433331163
20
-61.802168833588929
30
0
0
SPLINE
5
116
100
AcDbEntity
8
0
100
AcDbSpline
70
4
71
3
72
8
73
4
74
0
42
0.000000001
43
0.0000000001
44
0.0000000001
40
0
40
0
40
0
40
0
40
1
40
1
40
1
40
1
41
1
41
1
41
1
41
1
10
45.619826433331163
20
-61.802168833588929
30
0
10
45.691184593599871
20
-61.874347121823718
30
0
10
45.760906268639715
20
-61.949833345219496
30
0
10
45.843337270521928
20
-62.009708342798262
30
0
0
SPLINE
5
117
100
AcDbEntity
8
0
100
AcDbSpline
70
4
71
3
72
8
73
4
74
0
42
0.000000001
43
0.0000000001
44
0.0000000001
40
0
40
0
40
0
40
0
40
1
40
1
40
1
40
1
41
1
41
1
41
1
41
1
10
45.843337270521928
20
-62.009708342798262
30
0
10
46.067098345294809
20
-62.148177823054894
30
0
10
46.149190669463131
20
-62.085848783215255
30
0
10
46.223095082827783
20
-61.841526748971752
30
0
0
SPLINE
5
118
100
AcDbEntity
8
0
100
AcDbSpline
70
4
71
3
72
8
73
4
74
0
42
0.000000001
43
0.0000000001
44
0.0000000001
40
0
40
0
40
0
40
0
40
1
40
1
40
1
40
1
41
1
41
1
41
1
41
1
10
46.223095082827783
20
-61.841526748971752
30
0
10
46.225555638121627
20
-61.84111779906015
30
0
10
46.230901809807719
20
-61.840313610885261
30
0
10
46.233362365101563
20
-61.83990243283079
30
0
0
SPLINE
5
119
100
AcDbEntity
8
0
100
AcDbSpline
70
4
71
3
72
8
73
4
74
0
42
0.000000001
43
0.0000000001
44
0.0000000001
40
0
40
0
40
0
40
0
40
1
40
1
40
1
40
1
41
1
41
1
41
1
41
1
10
46.233362365101563
20
-61.83990243283079
30
0
10
46.235822920395407
20
-62.069150737872029
30
0
10
46.268608499939717
20
-62.305357875839242
30
0
10
46.383027749015518
20
-62.507539215670178
30
0
0
SPLINE
5
120
100
AcDbEntity
8
0
100
AcDbSpline
70
4
71
3
72
8
73
4
74
0
42
0.000000001
43
0.0000000001
44
0.0000000001
40
0
40
0
40
0
40
0
40
1
40
1
40
1
40
1
41
1
41
1
41
1
41
1
10
46.383027749015518
20
-62.507539215670178
30
0
10
46.351998631623012
20
-62.544522616352459
30
0
10
46.252445551672793
20
-62.753340393977879
30
0
10
46.207518650318413
20
-62.713411388441877
30
0
0
SPLINE
5
121
100
AcDbEntity
8
0
100
AcDbSpline
70
4
71
3
72
8
73
4
74
0
42
0.000000001
43
0.0000000001
44
0.0000000001
40
0
40
0
40
0
40
0
40
1
40
1
40
1
40
1
41
1
41
1
41
1
41
1
10
46.207518650318413
20
-62.713411388441877
30
0
10
45.872984939344612
20
-62.46445927334662
30
0
10
45.780650356660722
20
-62.575272016118916
30
0
10
45.434050052360284
20
-62.688401341877537
30
0
0
SPLINE
5
122
100
AcDbEntity
8
0
100
AcDbSpline
70
4
71
3
72
8
73
4
74
0
42
0.000000001
43
0.0000000001
44
0.0000000001
40
0
40
0
40
0
40
0
40
1
40
1
40
1
40
1
41
1
41
1
41
1
41
1
10
45.434050052360284
20
-62.688401341877537
30
0
10
45.209442626093868
20
-62.382529432211079
30
0
10
44.870361446949531
20
-62.295762121542694
30
0
10
44.536759785271343
20
-62.388193028556145
30
0
0
SPLINE
5
123
100
AcDbEntity
8
0
100
AcDbSpline
70
4
71
3
72
8
73
4
74
0
42
0.000000001
43
0.0000000001
44
0.0000000001
40
0
40
0
40
0
40
0
40
1
40
1
40
1
40
1
41
1
41
1
41
1
41
1
10
44.536759785271343
20
-62.388193028556145
30
0
10
44.412162379635944
20
-62.015301838341209
30
0
10
44.041436601484428
20
-62.153818280993399
30
0
10
43.833450949517378
20
-62.032655471870491
30
0
0
SPLINE
5
124
100
AcDbEntity
8
0
100
AcDbSpline
70
4
71
3
72
8
73
4
74
0
42
0.000000001
43
0.0000000001
44
0.0000000001
40
0
40
0
40
0
40
0
40
1
40
1
40
1
40
1
41
1
41
1
41
1
41
1
10
43.833450949517378
20
-62.032655471870491
30
0
10
43.767424220912801
20
-61.9916451314676
30
0
10
43.699311265013954
20
-61.953892678709288
30
0
10
43.632054258762452
20
-61.914932572523803
30
0
0
SPLINE
5
125
100
AcDbEntity
8
0
100
AcDbSpline
70
4
71
3
72
8
73
4
74
0
42
0.000000001
43
0.0000000001
44
0.0000000001
40
0
40
0
40
0
40
0
40
1
40
1
40
1
40
1
41
1
41
1
41
1
41
1
10
43.632054258762452
20
-61.914932572523803
30
0
10
44.075075902533243
20
-61.13745931627362
30
0
10
44.90631304609456
20
-60.209669372813536
30
0
10
45.562040062585147
20
-59.712688279347226
30
0
0
SPLINE
5
126
100
AcDbEntity
8
0
100
AcDbSpline
70
4
71
3
72
8
73
4
74
0
42
0.000000001
43
0.0000000001
44
0.0000000001
40
0
40
0
40
0
40
0
40
1
40
1
40
1
40
1
41
1
41
1
41
1
41
1
10
45.393858811549855
20
-65.199498457068756
30
0
10
45.4032913972312
20
-65.171201042815923
30
0
10
45.435316323084088
20
-65.165009548009948
30
0
10
45.460332882681385
20
-65.155577305119806
30
0
0
SPLINE
5
127
100
AcDbEntity
8
0
100
AcDbSpline
70
4
71
3
72
8
73
4
74
0
42
0.000000001
43
0.0000000001
44
0.0000000001
40
0
40
0
40
0
40
0
40
0.9999857572471974
40
0.9999857572471974
40
0.9999857572471974
40
0.9999857572471974
41
1
41
1
41
1
41
1
10
45.460332882681385
20
-65.155577305119806
30
0
10
45.468227251771516
20
-65.151271223291317
30
0
10
45.476490110913829
20
-65.150091993793893
30
0
10
45.484333416792893
20
-65.151277281554286
30
0
0
SPLINE
5
128
100
AcDbEntity
8
0
100
AcDbSpline
70
4
71
3
72
8
73
4
74
0
42
0.000000001
43
0.0000000001
44
0.0000000001
40
0
40
0
40
0
40
0
40
1
40
1
40
1
40
1
41
1
41
1
41
1
41
1
10
45.484333409137001
20
-65.15127733220173
30
0
10
45.507863283263497
20
-65.154834133780014
30
0
10
45.527474025504439
20
-65.17967347032257
30
0
10
45.521014810764697
20
-65.205202502776416
30
0
0
SPLINE
5
129
100
AcDbEntity
8
0
100
AcDbSpline
70
4
71
3
72
8
73
4
74
0
42
0.000000001
43
0.0000000001
44
0.0000000001
40
0
40
0
40
0
40
0
40
1
40
1
40
1
40
1
41
1
41
1
41
1
41
1
10
45.521014810764697
20
-65.205202502776416
30
0
10
45.516093700177009
20
-65.248673227077532
30
0
10
45.468502625551004
20
-65.265919738354185
30
0
10
45.431593267769728
20
-65.272071469380009
30
0
0
SPLINE
5
130
100
AcDbEntity
8
0
100
AcDbSpline
70
4
71
3
72
8
73
4
74
0
42
0.000000001
43
0.0000000001
44
0.0000000001
40
0
40
0
40
0
40
0
40
1
40
1
40
1
40
1
41
1
41
1
41
1
41
1
10
45.431593267769728
20
-65.272071469380009
30
0
10
45.395504209350143
20
-65.274942002959079
30
0
10
45.377864516557452
20
-65.226975229168687
30
0
10
45.393858811549855
20
-65.199498457068756
30
0
0
SPLINE
5
131
100
AcDbEntity
8
0
100
AcDbSpline
70
4
71
3
72
8
73
4
74
0
42
0.000000001
43
0.0000000001
44
0.0000000001
40
0
40
0
40
0
40
0
40
1
40
1
40
1
40
1
41
1
41
1
41
1
41
1
10
44.613457261401983
20
-65.286814233670569
30
0
10
44.385849383688502
20
-65.336026710712261
30
0
10
44.140997737028044
20
-65.357786411038632
30
0
10
43.917081035046543
20
-65.280276519744092
30
0
0
SPLINE
5
132
100
AcDbEntity
8
0
100
AcDbSpline
70
4
71
3
72
8
73
4
74
0
42
0.000000001
43
0.0000000001
44
0.0000000001
40
0
40
0
40
0
40
0
40
1
40
1
40
1
40
1
41
1
41
1
41
1
41
1
10
43.917081035046543
20
-65.280276519744092
30
0
10
43.982697613970281
20
-65.215070090501214
30
0
10
44.023728007658853
20
-65.102288697819105
30
0
10
44.129534799019389
20
-65.096957266154973
30
0
0
SPLINE
5
133
100
AcDbEntity
8
0
100
AcDbSpline
70
4
71
3
72
8
73
4
74
0
42
0.000000001
43
0.0000000001
44
0.0000000001
40
0
40
0
40
0
40
0
40
1
40
1
40
1
40
1
41
1
41
1
41
1
41
1
10
44.129534799019389
20
-65.096957266154973
30
0
10
44.30095834069926
20
-65.119512927667216
30
0
10
44.49083621847857
20
-65.153120177738046
30
0
10
44.613457261401983
20
-65.286814233670569
30
0
0
SPLINE
5
134
100
AcDbEntity
8
0
100
AcDbSpline
70
4
71
3
72
8
73
4
74
0
42
0.000000001
43
0.0000000001
44
0.0000000001
40
0
40
0
40
0
40
0
40
1
40
1
40
1
40
1
41
1
41
1
41
1
41
1
10
43.842050895353537
20
-65.131795822246346
30
0
10
43.821545639454293
20
-65.097757340835372
30
0
10
43.793232456805882
20
-65.065365971180711
30
0
10
43.791592029478117
20
-65.023945481096987
30
0
0
SPLINE
5
135
100
AcDbEntity
8
0
100
AcDbSpline
70
4
71
3
72
8
73
4
74
0
42
0.000000001
43
0.0000000001
44
0.0000000001
40
0
40
0
40
0
40
0
40
1
40
1
40
1
40
1
41
1
41
1
41
1
41
1
10
43.791592029478117
20
-65.023945481096987
30
0
10
43.80389514873854
20
-65.020869615584076
30
0
10
43.816275567416461
20
-65.019328769102344
30
0
10
43.828668326577883
20
-65.018899594509435
30
0
0
SPLINE
5
136
100
AcDbEntity
8
0
100
AcDbSpline
70
4
71
3
72
8
73
4
74
0
42
0.000000001
43
0.0000000001
44
0.0000000001
40
0
40
0
40
0
40
0
40
1
40
1
40
1
40
1
41
1
41
1
41
1
41
1
10
43.828668326577883
20
-65.018899594509435
30
0
10
43.865846775457747
20
-65.017612413521917
30
0
10
43.903165083150633
20
-65.026521557028047
30
0
10
43.938844163284983
20
-65.035441327061648
30
0
0
SPLINE
5
137
100
AcDbEntity
8
0
100
AcDbSpline
70
4
71
3
72
8
73
4
74
0
42
0.000000001
43
0.0000000001
44
0.0000000001
40
0
40
0
40
0
40
0
40
1
40
1
40
1
40
1
41
1
41
1
41
1
41
1
10
43.938844163284983
20
-65.035441327061648
30
0
10
43.970012111116894
20
-65.042822992943172
30
0
10
43.976950719361575
20
-65.081360951755528
30
0
10
43.962186873411703
20
-65.105557211991126
30
0
0
SPLINE
5
138
100
AcDbEntity
8
0
100
AcDbSpline
70
4
71
3
72
8
73
4
74
0
42
0.000000001
43
0.0000000001
44
0.0000000001
40
0
40
0
40
0
40
0
40
1
40
1
40
1
40
1
41
1
41
1
41
1
41
1
10
43.962186873411703
20
-65.105557211991126
30
0
10
43.951114031798198
20
-65.121961828059966
30
0
10
43.938436413142604
20
-65.13715501999836
30
0
10
43.92695342184826
20
-65.153558950484793
30
0
0
SPLINE
5
139
100
AcDbEntity
8
0
100
AcDbSpline
70
4
71
3
72
8
73
4
74
0
42
0.000000001
43
0.0000000001
44
0.0000000001
40
0
40
0
40
0
40
0
40
1
40
1
40
1
40
1
41
1
41
1
41
1
41
1
10
43.92695342184826
20
-65.153558950484793
30
0
10
43.89783605102496
20
-65.161761258519221
30
0
10
43.859685446278093
20
-65.162143813507782
30
0
10
43.842050895353537
20
-65.131795822246346
30
0
0
SPLINE
5
140
100
AcDbEntity
8
0
100
AcDbSpline
70
4
71
3
72
8
73
4
74
0
42
0.000000001
43
0.0000000001
44
0.0000000001
40
0
40
0
40
0
40
0
40
1
40
1
40
1
40
1
41
1
41
1
41
1
41
1
10
45.630488611077013
20
-65.263032750797109
30
0
10
45.637460298673304
20
-65.161326599266971
30
0
10
45.699805792490956
20
-65.072765462205069
30
0
10
45.778135640355956
20
-65.011659844188173
30
0
0
SPLINE
5
141
100
AcDbEntity
8
0
100
AcDbSpline
70
4
71
3
72
8
73
4
74
0
42
0.000000001
43
0.0000000001
44
0.0000000001
40
0
40
0
40
0
40
0
40
1
40
1
40
1
40
1
41
1
41
1
41
1
41
1
10
45.778135640355956
20
-65.011659844188173
30
0
10
45.857695765867874
20
-64.950144247886058
30
0
10
45.948351357213056
20
-64.903777623456435
30
0
10
46.040214601985397
20
-64.864407710381315
30
0
0
SPLINE
5
142
100
AcDbEntity
8
0
100
AcDbSpline
70
4
71
3
72
8
73
4
74
0
42
0.000000001
43
0.0000000001
44
0.0000000001
40
0
40
0
40
0
40
0
40
1
40
1
40
1
40
1
41
1
41
1
41
1
41
1
10
46.040214601985397
20
-64.864407710381315
30
0
10
46.038574688844449
20
-64.964883241473316
30
0
10
45.989771161714359
20
-65.061289840921702
30
0
10
45.917182723798732
20
-65.129777467611333
30
0
0
SPLINE
5
143
100
AcDbEntity
8
0
100
AcDbSpline
70
4
71
3
72
8
73
4
74
0
42
0.000000001
43
0.0000000001
44
0.0000000001
40
0
40
0
40
0
40
0
40
1
40
1
40
1
40
1
41
1
41
1
41
1
41
1
10
45.917182723798732
20
-65.129777467611333
30
0
10
45.839262854218973
20
-65.20400616145912
30
0
10
45.736705552118394
20
-65.25113995261313
30
0
10
45.630488611077013
20
-65.263032750797109
30
0
0
SPLINE
5
144
100
AcDbEntity
8
0
100
AcDbSpline
70
4
71
3
72
8
73
4
74
0
42
0.000000001
43
0.0000000001
44
0.0000000001
40
0
40
0
40
0
40
0
40
1
40
1
40
1
40
1
41
1
41
1
41
1
41
1
10
42.7827218528925
20
-67.840559374262767
30
0
10
42.705212218691379
20
-67.88362012027865
30
0
10
42.634677185811825
20
-67.939375795906145
30
0
10
42.554296760938215
20
-67.977105453049106
30
0
0
SPLINE
5
145
100
AcDbEntity
8
0
100
AcDbSpline
70
4
71
3
72
8
73
4
74
0
42
0.000000001
43
0.0000000001
44
0.0000000001
40
0
40
0
40
0
40
0
40
1
40
1
40
1
40
1
41
1
41
1
41
1
41
1
10
42.554296760938215
20
-67.977105453049106
30
0
10
42.823642381998781
20
-67.652267591404694
30
0
10
43.285668198967258
20
-67.556584281406018
30
0
10
43.657503078073532
20
-67.561280520960992
30
0
0
SPLINE
5
146
100
AcDbEntity
8
0
100
AcDbSpline
70
4
71
3
72
8
73
4
74
0
42
0.000000001
43
0.0000000001
44
0.0000000001
40
0
40
0
40
0
40
0
40
1
40
1
40
1
40
1
41
1
41
1
41
1
41
1
10
43.657503078073532
20
-67.561280520960992
30
0
10
43.817853778139899
20
-67.57809511531508
30
0
10
43.947034987813929
20
-67.698253717593005
30
0
10
44.029055840015303
20
-67.82989719651691
30
0
0
SPLINE
5
147
100
AcDbEntity
8
0
100
AcDbSpline
70
4
71
3
72
8
73
4
74
0
42
0.000000001
43
0.0000000001
44
0.0000000001
40
0
40
0
40
0
40
0
40
1
40
1
40
1
40
1
41
1
41
1
41
1
41
1
10
44.029055840015303
20
-67.82989719651691
30
0
10
43.823183495847992
20
-67.824155443776334
30
0
10
43.611980234203372
20
-67.808986932804956
30
0
10
43.411439321700193
20
-67.86763165273679
30
0
0
SPLINE
5
148
100
AcDbEntity
8
0
100
AcDbSpline
70
4
71
3
72
8
73
4
74
0
42
0.000000001
43
0.0000000001
44
0.0000000001
40
0
40
0
40
0
40
0
40
1
40
1
40
1
40
1
41
1
41
1
41
1
41
1
10
43.411439321700193
20
-67.86763165273679
30
0
10
43.308913213599581
20
-67.899619557139161
30
0
10
43.20844453833174
20
-67.952898223494827
30
0
10
43.139136955071642
20
-68.036559160232756
30
0
0
SPLINE
5
149
100
AcDbEntity
8
0
100
AcDbSpline
70
4
71
3
72
8
73
4
74
0
42
0.000000001
43
0.0000000001
44
0.0000000001
40
0
40
0
40
0
40
0
40
1
40
1
40
1
40
1
41
1
41
1
41
1
41
1
10
43.139136955071642
20
-68.036559160232756
30
0
10
43.644530487583118
20
-67.981310815593673
30
0
10
44.235589942610403
20
-67.920021804280282
30
0
10
44.45800007723102
20
-68.369192779538437
30
0
0
SPLINE
5
150
100
AcDbEntity
8
0
100
AcDbSpline
70
4
71
3
72
8
73
4
74
0
42
0.000000001
43
0.0000000001
44
0.0000000001
40
0
40
0
40
0
40
0
40
1
40
1
40
1
40
1
41
1
41
1
41
1
41
1
10
44.45800007723102
20
-68.369192779538437
30
0
10
44.4739938580366
20
-68.396670237220775
30
0
10
44.45840662760417
20
-68.428213198634666
30
0
10
44.449794855471325
20
-68.455279992449363
30
0
0
SPLINE
5
151
100
AcDbEntity
8
0
100
AcDbSpline
70
4
71
3
72
8
73
4
74
0
42
0.000000001
43
0.0000000001
44
0.0000000001
40
0
40
0
40
0
40
0
40
1
40
1
40
1
40
1
41
1
41
1
41
1
41
1
10
44.449794855471325
20
-68.455279992449363
30
0
10
44.42928959957208
20
-68.513514734095963
30
0
10
44.391189385132847
20
-68.563135818258061
30
0
10
44.370684300629208
20
-68.620960581619428
30
0
0
SPLINE
5
152
100
AcDbEntity
8
0
100
AcDbSpline
70
4
71
3
72
8
73
4
74
0
42
0.000000001
43
0.0000000001
44
0.0000000001
40
0
40
0
40
0
40
0
40
1
40
1
40
1
40
1
41
1
41
1
41
1
41
1
10
44.370684300629208
20
-68.620960581619428
30
0
10
44.523652992022839
20
-68.53278851257906
30
0
10
44.666771406647705
20
-68.421240139873547
30
0
10
44.839425225974495
20
-68.37366826155521
30
0
0
SPLINE
5
153
100
AcDbEntity
8
0
100
AcDbSpline
70
4
71
3
72
8
73
4
74
0
42
0.000000001
43
0.0000000001
44
0.0000000001
40
0
40
0
40
0
40
0
40
1
40
1
40
1
40
1
41
1
41
1
41
1
41
1
10
44.839425225974495
20
-68.37366826155521
30
0
10
44.98542240116744
20
-68.329376895101191
30
0
10
45.144945774652356
20
-68.349504909275595
30
0
10
45.286841795828082
20
-68.288809612335157
30
0
0
SPLINE
5
154
100
AcDbEntity
8
0
100
AcDbSpline
70
4
71
3
72
8
73
4
74
0
42
0.000000001
43
0.0000000001
44
0.0000000001
40
0
40
0
40
0
40
0
40
1
40
1
40
1
40
1
41
1
41
1
41
1
41
1
10
45.286841795828082
20
-68.288809612335157
30
0
10
45.231887566045806
20
-68.247388779460223
30
0
10
45.152335324731673
20
-68.226442865462587
30
0
10
45.126909129640353
20
-68.155905347346774
30
0
0
SPLINE
5
155
100
AcDbEntity
8
0
100
AcDbSpline
70
4
71
3
72
8
73
4
74
0
42
0.000000001
43
0.0000000001
44
0.0000000001
40
0
40
0
40
0
40
0
40
1
40
1
40
1
40
1
41
1
41
1
41
1
41
1
10
45.126909129640353
20
-68.155905347346774
30
0
10
45.157145370967847
20
-67.631240093099464
30
0
10
45.857970341625794
20
-67.676932104430961
30
0
10
46.12099266466074
20
-67.7802719988603
30
0
0
SPLINE
5
156
100
AcDbEntity
8
0
100
AcDbSpline
70
4
71
3
72
8
73
4
74
0
42
0.000000001
43
0.0000000001
44
0.0000000001
40
0
40
0
40
0
40
0
40
1
40
1
40
1
40
1
41
1
41
1
41
1
41
1
10
46.12099266466074
20
-67.7802719988603
30
0
10
46.040202261501904
20
-67.807338792674997
30
0
10
45.9520085966154
20
-67.806106801072033
30
0
10
45.868347317086261
20
-67.8229207098437
30
0
0
SPLINE
5
157
100
AcDbEntity
8
0
100
AcDbSpline
70
4
71
3
72
8
73
4
74
0
42
0.000000001
43
0.0000000001
44
0.0000000001
40
0
40
0
40
0
40
0
40
1
40
1
40
1
40
1
41
1
41
1
41
1
41
1
10
45.868347317086261
20
-67.8229207098437
30
0
10
46.117029312709306
20
-68.021633345436911
30
0
10
46.411298425554087
20
-68.162070790020934
30
0
10
46.521679936986231
20
-68.44707494208528
30
0
0
SPLINE
5
158
100
AcDbEntity
8
0
100
AcDbSpline
70
4
71
3
72
8
73
4
74
0
42
0.000000001
43
0.0000000001
44
0.0000000001
40
0
40
0
40
0
40
0
40
1
40
1
40
1
40
1
41
1
41
1
41
1
41
1
10
46.521679936986231
20
-68.44707494208528
30
0
10
46.377733338801889
20
-68.371205649514124
30
0
10
46.243205271859352
20
-68.275652600174624
30
0
10
46.089006131423197
20
-68.219878413821874
30
0
0
SPLINE
5
159
100
AcDbEntity
8
0
100
AcDbSpline
70
4
71
3
72
8
73
4
74
0
42
0.000000001
43
0.0000000001
44
0.0000000001
40
0
40
0
40
0
40
0
40
1
40
1
40
1
40
1
41
1
41
1
41
1
41
1
10
46.089006131423197
20
-68.219878413821874
30
0
10
46.32348902961219
20
-68.586929641615029
30
0
10
46.558092590306543
20
-69.334213104746453
30
0
10
46.16570360755383
20
-69.650760218224676
30
0
0
SPLINE
5
160
100
AcDbEntity
8
0
100
AcDbSpline
70
4
71
3
72
8
73
4
74
0
42
0.000000001
43
0.0000000001
44
0.0000000001
40
0
40
0
40
0
40
0
40
1
40
1
40
1
40
1
41
1
41
1
41
1
41
1
10
46.16570360755383
20
-69.650760218224676
30
0
10
46.014712650037019
20
-68.977139843447191
30
0
10
45.322186654534264
20
-68.850595726539325
30
0
10
44.777909286881162
20
-68.692348907514472
30
0
0
SPLINE
5
161
100
AcDbEntity
8
0
100
AcDbSpline
70
4
71
3
72
8
73
4
74
0
42
0.000000001
43
0.0000000001
44
0.0000000001
40
0
40
0
40
0
40
0
40
1
40
1
40
1
40
1
41
1
41
1
41
1
41
1
10
44.777909286881162
20
-68.692348907514472
30
0
10
44.881665672628699
20
-68.897401123715696
30
0
10
45.033389174957847
20
-69.072483104567141
30
0
10
45.148628380604116
20
-69.270563633172074
30
0
0
SPLINE
5
162
100
AcDbEntity
8
0
100
AcDbSpline
70
4
71
3
72
8
73
4
74
0
42
0.000000001
43
0.0000000001
44
0.0000000001
40
0
40
0
40
0
40
0
40
1
40
1
40
1
40
1
41
1
41
1
41
1
41
1
10
45.148628380604116
20
-69.270563633172074
30
0
10
45.252384766351653
20
-69.446088500264764
30
0
10
45.326198340046076
20
-69.655660761339874
30
0
10
45.286008127609271
20
-69.860712977541084
30
0
0
SPLINE
5
163
100
AcDbEntity
8
0
100
AcDbSpline
70
4
71
3
72
8
73
4
74
0
42
0.000000001
43
0.0000000001
44
0.0000000001
40
0
40
0
40
0
40
0
40
1
40
1
40
1
40
1
41
1
41
1
41
1
41
1
10
45.286008127609271
20
-69.860712977541084
30
0
10
44.836466252263648
20
-69.439019459965294
30
0
10
44.39910580529947
20
-69.204446750479704
30
0
10
44.006502920832723
20
-69.087683152329703
30
0
0
SPLINE
5
164
100
AcDbEntity
8
0
100
AcDbSpline
70
4
71
3
72
8
73
4
74
0
42
0.000000001
43
0.0000000001
44
0.0000000001
40
0
40
0
40
0
40
0
40
1
40
1
40
1
40
1
41
1
41
1
41
1
41
1
10
44.006502920832723
20
-69.087683152329703
30
0
10
44.231650243252354
20
-69.343587758713568
30
0
10
44.457998363274974
20
-69.608100537922624
30
0
10
44.592922696854416
20
-69.924291148544114
30
0
0
SPLINE
5
165
100
AcDbEntity
8
0
100
AcDbSpline
70
4
71
3
72
8
73
4
74
0
42
0.000000001
43
0.0000000001
44
0.0000000001
40
0
40
0
40
0
40
0
40
1
40
1
40
1
40
1
41
1
41
1
41
1
41
1
10
44.592922696854416
20
-69.924291148544114
30
0
10
44.493267465124092
20
-69.886151513115919
30
0
10
44.397719214861525
20
-69.8369218965138
30
0
10
44.300524709820642
20
-69.792220551774548
30
0
0
SPLINE
5
166
100
AcDbEntity
8
0
100
AcDbSpline
70
4
71
3
72
8
73
4
74
0
42
0.000000001
43
0.0000000001
44
0.0000000001
40
0
40
0
40
0
40
0
40
1
40
1
40
1
40
1
41
1
41
1
41
1
41
1
10
44.300524709820642
20
-69.792220551774548
30
0
10
43.893701303469328
20
-69.600702418063079
30
0
10
43.497982275522681
20
-69.384184521523537
30
0
10
43.126017821339637
20
-69.131560427003976
30
0
0
SPLINE
5
167
100
AcDbEntity
8
0
100
AcDbSpline
70
4
71
3
72
8
73
4
74
0
42
0.000000001
43
0.0000000001
44
0.0000000001
40
0
40
0
40
0
40
0
40
1
40
1
40
1
40
1
41
1
41
1
41
1
41
1
10
43.126017821339637
20
-69.131560427003976
30
0
10
43.185865309923919
20
-69.372176545493545
30
0
10
43.368814263310178
20
-69.534788467766063
30
0
10
43.490594096608191
20
-69.704071106953919
30
0
0
SPLINE
5
168
100
AcDbEntity
8
0
100
AcDbSpline
70
4
71
3
72
8
73
4
74
0
42
0.000000001
43
0.0000000001
44
0.0000000001
40
0
40
0
40
0
40
0
40
1
40
1
40
1
40
1
41
1
41
1
41
1
41
1
10
43.490594096608191
20
-69.704071106953919
30
0
10
43.163216666296393
20
-69.513703380537834
30
0
10
42.793139877600169
20
-69.172105771132678
30
0
10
42.845905128423453
20
-68.796513557591211
30
0
0
SPLINE
5
169
100
AcDbEntity
8
0
100
AcDbSpline
70
4
71
3
72
8
73
4
74
0
42
0.000000001
43
0.0000000001
44
0.0000000001
40
0
40
0
40
0
40
0
40
1
40
1
40
1
40
1
41
1
41
1
41
1
41
1
10
42.845905128423453
20
-68.796513557591211
30
0
10
42.88281448620473
20
-68.573006833894951
30
0
10
43.055466248784278
20
-68.406100423363668
30
0
10
43.125183981725222
20
-68.195307140004275
30
0
0
SPLINE
5
170
100
AcDbEntity
8
0
100
AcDbSpline
70
4
71
3
72
8
73
4
74
0
42
0.000000001
43
0.0000000001
44
0.0000000001
40
0
40
0
40
0
40
0
40
1
40
1
40
1
40
1
41
1
41
1
41
1
41
1
10
43.125183981725222
20
-68.195307140004275
30
0
10
42.811981482067281
20
-68.311565463913098
30
0
10
42.717035858749064
20
-68.621228644344384
30
0
10
42.582597603103125
20
-68.868691674430394
30
0
0
SPLINE
5
171
100
AcDbEntity
8
0
100
AcDbSpline
70
4
71
3
72
8
73
4
74
0
42
0.000000001
43
0.0000000001
44
0.0000000001
40
0
40
0
40
0
40
0
40
1
40
1
40
1
40
1
41
1
41
1
41
1
41
1
10
42.582597603103125
20
-68.868691674430394
30
0
10
42.569064120497977
20
-68.655027171909495
30
0
10
42.577266000043387
20
-68.434373842231892
30
0
10
42.654775719942307
20
-68.232602823477421
30
0
0
SPLINE
5
172
100
AcDbEntity
8
0
100
AcDbSpline
70
4
71
3
72
8
73
4
74
0
42
0.000000001
43
0.0000000001
44
0.0000000001
40
0
40
0
40
0
40
0
40
1
40
1
40
1
40
1
41
1
41
1
41
1
41
1
10
42.654775719942307
20
-68.232602823477421
30
0
10
42.704808410647892
20
-68.104650520285475
30
0
10
42.755244909396957
20
-67.975483365050991
30
0
10
42.7827218528925
20
-67.840559374262767
30
0
0
SPLINE
5
173
100
AcDbEntity
8
0
100
AcDbSpline
70
4
71
3
72
8
73
4
74
0
42
0.000000001
43
0.0000000001
44
0.0000000001
40
0
40
0
40
0
40
0
40
1
40
1
40
1
40
1
41
1
41
1
41
1
41
1
10
47.693334802613414
20
-63.648481017398993
30
0
10
47.636330681404942
20
-63.448350254576653
30
0
10
47.593697053234713
20
-63.226882795779126
30
0
10
47.681049165704614
20
-63.0288022671742
30
0
0
SPLINE
5
174
100
AcDbEntity
8
0
100
AcDbSpline
70
4
71
3
72
8
73
4
74
0
42
0.000000001
43
0.0000000001
44
0.0000000001
40
0
40
0
40
0
40
0
40
1
40
1
40
1
40
1
41
1
41
1
41
1
41
1
10
47.681049165704614
20
-63.0288022671742
30
0
10
47.760173603590673
20
-62.989355568868397
30
0
10
47.849280807047542
20
-62.967961626761394
30
0
10
47.937950608922499
20
-62.968383259947714
30
0
0
SPLINE
5
175
100
AcDbEntity
8
0
100
AcDbSpline
70
4
71
3
72
8
73
4
74
0
42
0.000000001
43
0.0000000001
44
0.0000000001
40
0
40
0
40
0
40
0
40
1
40
1
40
1
40
1
41
1
41
1
41
1
41
1
10
47.937950608922499
20
-62.968382917156511
30
0
10
48.006916086556629
20
-62.96871096834294
30
0
10
48.075612815883375
20
-62.982240594546994
30
0
10
48.139127913304058
20
-63.010768364491859
30
0
0
SPLINE
5
176
100
AcDbEntity
8
0
100
AcDbSpline
70
4
71
3
72
8
73
4
74
0
42
0.000000001
43
0.0000000001
44
0.0000000001
40
0
40
0
40
0
40
0
40
1
40
1
40
1
40
1
41
1
41
1
41
1
41
1
10
48.139127913304058
20
-63.010768364491859
30
0
10
48.052396938503769
20
-63.039350638238858
30
0
10
47.947397249043391
20
-63.045407758891159
30
0
10
47.8668255466755
20
-63.055435430110272
30
0
0
SPLINE
5
177
100
AcDbEntity
8
0
100
AcDbSpline
70
4
71
3
72
8
73
4
74
0
42
0.000000001
43
0.0000000001
44
0.0000000001
40
0
40
0
40
0
40
0
40
1
40
1
40
1
40
1
41
1
41
1
41
1
41
1
10
47.8668255466755
20
-63.055435430110272
30
0
10
47.930981663655878
20
-63.184785635850041
30
0
10
48.099115266713198
20
-63.198526421438459
30
0
10
48.203495875251221
20
-63.260517811937838
30
0
0
SPLINE
5
178
100
AcDbEntity
8
0
100
AcDbSpline
70
4
71
3
72
8
73
4
74
0
42
0.000000001
43
0.0000000001
44
0.0000000001
40
0
40
0
40
0
40
0
40
1
40
1
40
1
40
1
41
1
41
1
41
1
41
1
10
48.203495875251221
20
-63.260517811937838
30
0
10
48.430283796394214
20
-63.394621846155587
30
0
10
48.587786072914447
20
-63.634919854403762
30
0
10
48.630026862359855
20
-63.89410565823438
30
0
0
SPLINE
5
179
100
AcDbEntity
8
0
100
AcDbSpline
70
4
71
3
72
8
73
4
74
0
42
0.000000001
43
0.0000000001
44
0.0000000001
40
0
40
0
40
0
40
0
40
1
40
1
40
1
40
1
41
1
41
1
41
1
41
1
10
48.630026862359855
20
-63.89410565823438
30
0
10
48.485259964813828
20
-63.798961558806504
30
0
10
48.404431854622061
20
-63.621391256573339
30
0
10
48.234648740269954
20
-63.561515916203369
30
0
0
SPLINE
5
180
100
AcDbEntity
8
0
100
AcDbSpline
70
4
71
3
72
8
73
4
74
0
42
0.000000001
43
0.0000000001
44
0.0000000001
40
0
40
0
40
0
40
0
40
1
40
1
40
1
40
1
41
1
41
1
41
1
41
1
10
48.234648740269954
20
-63.561515916203369
30
0
10
48.423731685236994
20
-63.939292738115924
30
0
10
48.48918698089718
20
-64.306883519271082
30
0
10
48.177652160468071
20
-64.572009551951936
30
0
0
SPLINE
5
181
100
AcDbEntity
8
0
100
AcDbSpline
70
4
71
3
72
8
73
4
74
0
42
0.000000001
43
0.0000000001
44
0.0000000001
40
0
40
0
40
0
40
0
40
1
40
1
40
1
40
1
41
1
41
1
41
1
41
1
10
48.177652160468071
20
-64.572009551951936
30
0
10
48.058312143595792
20
-64.406327591617043
30
0
10
48.10548706969481
20
-64.164364989260918
30
0
10
47.952517864114363
20
-64.017137879212257
30
0
0
SPLINE
5
182
100
AcDbEntity
8
0
100
AcDbSpline
70
4
71
3
72
8
73
4
74
0
42
0.000000001
43
0.0000000001
44
0.0000000001
40
0
40
0
40
0
40
0
40
1
40
1
40
1
40
1
41
1
41
1
41
1
41
1
10
47.952517864114363
20
-64.017137879212257
30
0
10
47.923400493291055
20
-64.197173535816191
30
0
10
47.911489869964242
20
-64.379686887274374
30
0
10
47.892625384183972
20
-64.560952821525234
30
0
0
SPLINE
5
183
100
AcDbEntity
8
0
100
AcDbSpline
70
4
71
3
72
8
73
4
74
0
42
0.000000001
43
0.0000000001
44
0.0000000001
40
0
40
0
40
0
40
0
40
1
40
1
40
1
40
1
41
1
41
1
41
1
41
1
10
47.892625384183972
20
-64.560952821525234
30
0
10
47.548546652012476
20
-64.407661392208894
30
0
10
47.438211760184672
20
-64.051572284468932
30
0
10
47.402560103346993
20
-63.709163288273515
30
0
0
SPLINE
5
184
100
AcDbEntity
8
0
100
AcDbSpline
70
4
71
3
72
8
73
4
74
0
42
0.000000001
43
0.0000000001
44
0.0000000001
40
0
40
0
40
0
40
0
40
1
40
1
40
1
40
1
41
1
41
1
41
1
41
1
10
47.402560103346993
20
-63.709163288273515
30
0
10
47.388910157428789
20
-63.651136963681623
30
0
10
47.3006314803226
20
-63.88391927468578
30
0
10
47.28733838005234
20
-63.906830410681131
30
0
0
SPLINE
5
185
100
AcDbEntity
8
0
100
AcDbSpline
70
4
71
3
72
8
73
4
74
0
42
0.000000001
43
0.0000000001
44
0.0000000001
40
0
40
0
40
0
40
0
40
1
40
1
40
1
40
1
41
1
41
1
41
1
41
1
10
47.28733838005234
20
-63.906830410681131
30
0
10
47.228693660120499
20
-63.730485587017959
30
0
10
47.242642519972421
20
-63.534875897443129
30
0
10
47.31441065852637
20
-63.364682804805781
30
0
0
SPLINE
5
186
100
AcDbEntity
8
0
100
AcDbSpline
70
4
71
3
72
8
73
4
74
0
42
0.000000001
43
0.0000000001
44
0.0000000001
40
0
40
0
40
0
40
0
40
1
40
1
40
1
40
1
41
1
41
1
41
1
41
1
10
47.31441065852637
20
-63.364682804805781
30
0
10
47.418167044273901
20
-63.485253442116182
30
0
10
47.54405711555615
20
-63.589835954675948
30
0
10
47.693334802613414
20
-63.648481017398993
30
0
0
SPLINE
5
187
100
AcDbEntity
8
0
100
AcDbSpline
70
4
71
3
72
8
73
4
74
0
42
0.000000001
43
0.0000000001
44
0.0000000001
40
0
40
0
40
0
40
0
40
1
40
1
40
1
40
1
41
1
41
1
41
1
41
1
10
46.935442637164648
20
-62.96811965350846
30
0
10
47.05479328056439
20
-62.682809731686234
30
0
10
46.941549462542163
20
-62.387162940974925
30
0
10
46.565118438913764
20
-62.418951683685229
30
0
0
SPLINE
5
188
100
AcDbEntity
8
0
100
AcDbSpline
70
4
71
3
72
8
73
4
74
0
42
0.000000001
43
0.0000000001
44
0.0000000001
40
0
40
0
40
0
40
0
40
1
40
1
40
1
40
1
41
1
41
1
41
1
41
1
10
46.565118438913764
20
-62.418951683685229
30
0
10
46.513855384863454
20
-62.242606860022057
30
0
10
46.474484100623506
20
-62.06301477524179
30
0
10
46.452748738472941
20
-61.88092854162926
30
0
0
SPLINE
5
189
100
AcDbEntity
8
0
100
AcDbSpline
70
4
71
3
72
8
73
4
74
0
42
0.000000001
43
0.0000000001
44
0.0000000001
40
0
40
0
40
0
40
0
40
1
40
1
40
1
40
1
41
1
41
1
41
1
41
1
10
46.452748738472941
20
-61.88092854162926
30
0
10
46.877919530066677
20
-62.052347798419028
30
0
10
47.108035953843164
20
-62.700895738632248
30
0
10
47.201207289866737
20
-63.082112813112232
30
0
0
SPLINE
5
190
100
AcDbEntity
8
0
100
AcDbSpline
70
4
71
3
72
8
73
4
74
0
42
0.000000001
43
0.0000000001
44
0.0000000001
40
0
40
0
40
0
40
0
40
1
40
1
40
1
40
1
41
1
41
1
41
1
41
1
10
47.201207289866737
20
-63.082112813112232
30
0
10
47.110984301026548
20
-63.047254032339559
30
0
10
47.024845326643153
20
-63.004208711928051
30
0
10
46.935442637164648
20
-62.96811965350846
30
0
0
SPLINE
5
191
100
AcDbEntity
8
0
100
AcDbSpline
70
4
71
3
72
8
73
4
74
0
42
0.000000001
43
0.0000000001
44
0.0000000001
40
0
40
0
40
0
40
0
40
1
40
1
40
1
40
1
41
1
41
1
41
1
41
1
10
43.084159072695982
20
-64.004457004040177
30
0
10
43.047249714914706
20
-63.845746731301574
30
0
10
43.093185193701977
20
-63.683313060457408
30
0
10
43.143217884407555
20
-63.533215074038459
30
0
0
SPLINE
5
192
100
AcDbEntity
8
0
100
AcDbSpline
70
4
71
3
72
8
73
4
74
0
42
0.000000001
43
0.0000000001
44
0.0000000001
40
0
40
0
40
0
40
0
40
1
40
1
40
1
40
1
41
1
41
1
41
1
41
1
10
43.143217884407555
20
-63.533215074038459
30
0
10
43.211742189756478
20
-63.509106225560991
30
0
10
43.273402615344153
20
-63.492598429338415
30
0
10
43.337462579390575
20
-63.476525635159298
30
0
0
SPLINE
5
193
100
AcDbEntity
8
0
100
AcDbSpline
70
4
71
3
72
8
73
4
74
0
42
0.000000001
43
0.0000000001
44
0.0000000001
40
0
40
0
40
0
40
0
40
1
40
1
40
1
40
1
41
1
41
1
41
1
41
1
10
43.337462236599364
20
-63.476525635159298
30
0
10
43.600612420755041
20
-63.598062258094956
30
0
10
43.785272844947002
20
-63.681840429426146
30
0
10
44.045465940743476
20
-63.671033593790362
30
0
0
SPLINE
5
194
100
AcDbEntity
8
0
100
AcDbSpline
70
4
71
3
72
8
73
4
74
0
42
0.000000001
43
0.0000000001
44
0.0000000001
40
0
40
0
40
0
40
0
40
1
40
1
40
1
40
1
41
1
41
1
41
1
41
1
10
44.045465940743476
20
-63.671033593790362
30
0
10
44.067201302894034
20
-63.776020599976022
30
0
10
44.107804921528164
20
-63.882239940555863
30
0
10
44.187365047040089
20
-63.957288933765334
30
0
0
SPLINE
5
195
100
AcDbEntity
8
0
100
AcDbSpline
70
4
71
3
72
8
73
4
74
0
42
0.000000001
43
0.0000000001
44
0.0000000001
40
0
40
0
40
0
40
0
40
1
40
1
40
1
40
1
41
1
41
1
41
1
41
1
10
44.187365047040089
20
-63.957288933765334
30
0
10
44.209476451146259
20
-63.978994473080768
30
0
10
44.235206359248217
20
-63.996616683521829
30
0
10
44.263053345853208
20
-64.009897786099799
30
0
0
SPLINE
5
196
100
AcDbEntity
8
0
100
AcDbSpline
70
4
71
3
72
8
73
4
74
0
42
0.000000001
43
0.0000000001
44
0.0000000001
40
0
40
0
40
0
40
0
40
1
40
1
40
1
40
1
41
1
41
1
41
1
41
1
10
44.263053345853208
20
-64.009897786099799
30
0
10
44.198000315676076
20
-64.011984698976491
30
0
10
44.156472017757309
20
-64.043303817731285
30
0
10
44.167357181184222
20
-64.085849348560956
30
0
0
SPLINE
5
197
100
AcDbEntity
8
0
100
AcDbSpline
70
4
71
3
72
8
73
4
74
0
42
0.000000001
43
0.0000000001
44
0.0000000001
40
0
40
0
40
0
40
0
40
1
40
1
40
1
40
1
41
1
41
1
41
1
41
1
10
44.167357181184222
20
-64.085849348560956
30
0
10
44.307612603636585
20
-64.196987400190025
30
0
10
44.485588599264887
20
-64.247454150263238
30
0
10
44.626664492474539
20
-64.357361924245382
30
0
0
SPLINE
5
198
100
AcDbEntity
8
0
100
AcDbSpline
70
4
71
3
72
8
73
4
74
0
42
0.000000001
43
0.0000000001
44
0.0000000001
40
0
40
0
40
0
40
0
40
1
40
1
40
1
40
1
41
1
41
1
41
1
41
1
10
44.626664492474539
20
-64.357361924245382
30
0
10
44.727960151532628
20
-64.438562648480669
30
0
10
44.797250938023517
20
-64.551720425909579
30
0
10
44.895676234898126
20
-64.636202004800396
30
0
0
SPLINE
5
199
100
AcDbEntity
8
0
100
AcDbSpline
70
4
71
3
72
8
73
4
74
0
42
0.000000001
43
0.0000000001
44
0.0000000001
40
0
40
0
40
0
40
0
40
1
40
1
40
1
40
1
41
1
41
1
41
1
41
1
10
44.895676234898126
20
-64.636202004800396
30
0
10
44.895676234898126
20
-64.53941730664917
30
0
10
44.851385554026528
20
-64.446746445789842
30
0
10
44.78207797076643
20
-64.380309738900024
30
0
0
SPLINE
5
200
100
AcDbEntity
8
0
100
AcDbSpline
70
4
71
3
72
8
73
4
74
0
42
0.000000001
43
0.0000000001
44
0.0000000001
40
0
40
0
40
0
40
0
40
1
40
1
40
1
40
1
41
1
41
1
41
1
41
1
10
44.78207797076643
20
-64.380309738900024
30
0
10
44.688163977589873
20
-64.280654507169714
30
0
10
44.560653875056758
20
-64.218711450230714
30
0
10
44.471251356973859
20
-64.114545086197936
30
0
0
SPLINE
5
201
100
AcDbEntity
8
0
100
AcDbSpline
70
4
71
3
72
8
73
4
74
0
42
0.000000001
43
0.0000000001
44
0.0000000001
40
0
40
0
40
0
40
0
40
1
40
1
40
1
40
1
41
1
41
1
41
1
41
1
10
44.471251356973859
20
-64.114545086197936
30
0
10
44.568036055125098
20
-64.148993888685368
30
0
10
44.665238101572562
20
-64.182222697262134
30
0
10
44.764483183622048
20
-64.210109790438509
30
0
0
SPLINE
5
202
100
AcDbEntity
8
0
100
AcDbSpline
70
4
71
3
72
8
73
4
74
0
42
0.000000001
43
0.0000000001
44
0.0000000001
40
0
40
0
40
0
40
0
40
1
40
1
40
1
40
1
41
1
41
1
41
1
41
1
10
44.764483183622048
20
-64.210109790438509
30
0
10
44.687990182447216
20
-64.118529691204301
30
0
10
44.579413295331655
20
-64.07568935993541
30
0
10
44.475024973991452
20
-64.048465910538482
30
0
0
SPLINE
5
203
100
AcDbEntity
8
0
100
AcDbSpline
70
4
71
3
72
8
73
4
74
0
42
0.000000001
43
0.0000000001
44
0.0000000001
40
0
40
0
40
0
40
0
40
1
40
1
40
1
40
1
41
1
41
1
41
1
41
1
10
44.475024973991452
20
-64.048465910538482
30
0
10
44.707670682699067
20
-64.060050196634904
30
0
10
44.941555067438209
20
-64.005261192215073
30
0
10
45.153148082686776
20
-63.908892299799604
30
0
0
SPLINE
5
204
100
AcDbEntity
8
0
100
AcDbSpline
70
4
71
3
72
8
73
4
74
0
42
0.000000001
43
0.0000000001
44
0.0000000001
40
0
40
0
40
0
40
0
40
1
40
1
40
1
40
1
41
1
41
1
41
1
41
1
10
45.153148082686776
20
-63.908892299799604
30
0
10
45.212134565453383
20
-64.036964922705693
30
0
10
45.311381875645722
20
-64.152946614109339
30
0
10
45.444493186523964
20
-64.206555731189894
30
0
0
SPLINE
5
205
100
AcDbEntity
8
0
100
AcDbSpline
70
4
71
3
72
8
73
4
74
0
42
0.000000001
43
0.0000000001
44
0.0000000001
40
0
40
0
40
0
40
0
40
1
40
1
40
1
40
1
41
1
41
1
41
1
41
1
10
45.444493186523964
20
-64.206555731189894
30
0
10
45.316753756672441
20
-64.393674825324055
30
0
10
45.209016536621839
20
-64.598620776250684
30
0
10
45.210495680686059
20
-64.787359216053275
30
0
0
SPLINE
5
206
100
AcDbEntity
8
0
100
AcDbSpline
70
4
71
3
72
8
73
4
74
0
42
0.000000001
43
0.0000000001
44
0.0000000001
40
0
40
0
40
0
40
0
40
1
40
1
40
1
40
1
41
1
41
1
41
1
41
1
10
45.210495680686059
20
-64.787359216053275
30
0
10
45.293336660853505
20
-64.727894196759763
30
0
10
45.326973048177045
20
-64.623301743254956
30
0
10
45.359371273655874
20
-64.531028177406171
30
0
0
SPLINE
5
207
100
AcDbEntity
8
0
100
AcDbSpline
70
4
71
3
72
8
73
4
74
0
42
0.000000001
43
0.0000000001
44
0.0000000001
40
0
40
0
40
0
40
0
40
1
40
1
40
1
40
1
41
1
41
1
41
1
41
1
10
45.359371273655874
20
-64.531028177406171
30
0
10
45.391359520849463
20
-64.526927023388964
30
0
10
45.42538531898574
20
-64.522825869371744
30
0
10
45.450811514077067
20
-64.50026986506829
30
0
0
SPLINE
5
208
100
AcDbEntity
8
0
100
AcDbSpline
70
4
71
3
72
8
73
4
74
0
42
0.000000001
43
0.0000000001
44
0.0000000001
40
0
40
0
40
0
40
0
40
1
40
1
40
1
40
1
41
1
41
1
41
1
41
1
10
45.450811514077067
20
-64.50026986506829
30
0
10
45.532259047982393
20
-64.408235567482947
30
0
10
45.600381602035085
20
-64.310342282563767
30
0
10
45.681693733413105
20
-64.228976675757238
30
0
0
SPLINE
5
209
100
AcDbEntity
8
0
100
AcDbSpline
70
4
71
3
72
8
73
4
74
0
42
0.000000001
43
0.0000000001
44
0.0000000001
40
0
40
0
40
0
40
0
40
1
40
1
40
1
40
1
41
1
41
1
41
1
41
1
10
45.681693733413105
20
-64.228976675757238
30
0
10
45.694257031200699
20
-64.227049160792447
30
0
10
45.706740801427948
20
-64.224859067762026
30
0
10
45.719077171435586
20
-64.222219575457402
30
0
0
SPLINE
5
210
100
AcDbEntity
8
0
100
AcDbSpline
70
4
71
3
72
8
73
4
74
0
42
0.000000001
43
0.0000000001
44
0.0000000001
40
0
40
0
40
0
40
0
40
1
40
1
40
1
40
1
41
1
41
1
41
1
41
1
10
45.719077171435586
20
-64.222219575457402
30
0
10
45.812990993216538
20
-64.194332482281027
30
0
10
45.87616501338487
20
-64.114739106021887
30
0
10
45.932759499099305
20
-64.039690112812409
30
0
0
SPLINE
5
211
100
AcDbEntity
8
0
100
AcDbSpline
70
4
71
3
72
8
73
4
74
0
42
0.000000001
43
0.0000000001
44
0.0000000001
40
0
40
0
40
0
40
0
40
1
40
1
40
1
40
1
41
1
41
1
41
1
41
1
10
45.932759499099305
20
-64.039690112812409
30
0
10
46.036515884846843
20
-64.099565453182379
30
0
10
46.146014708917377
20
-64.147984711367869
30
0
10
46.251001372311833
20
-64.205809474729222
30
0
0
SPLINE
5
212
100
AcDbEntity
8
0
100
AcDbSpline
70
4
71
3
72
8
73
4
74
0
42
0.000000001
43
0.0000000001
44
0.0000000001
40
0
40
0
40
0
40
0
40
1
40
1
40
1
40
1
41
1
41
1
41
1
41
1
10
46.251001372311833
20
-64.205809474729222
30
0
10
46.313913157205739
20
-64.243191198795657
30
0
10
46.305080798930291
20
-64.303301008352179
30
0
10
46.261268654585614
20
-64.350955499351727
30
0
0
SPLINE
5
213
100
AcDbEntity
8
0
100
AcDbSpline
70
4
71
3
72
8
73
4
74
0
42
0.000000001
43
0.0000000001
44
0.0000000001
40
0
40
0
40
0
40
0
40
1
40
1
40
1
40
1
41
1
41
1
41
1
41
1
10
46.261268654585614
20
-64.350955499351727
30
0
10
46.166944511728211
20
-64.444049021770994
30
0
10
46.06849419109539
20
-64.534267554325481
30
0
10
45.960226673045405
20
-64.611367124543548
30
0
0
SPLINE
5
214
100
AcDbEntity
8
0
100
AcDbSpline
70
4
71
3
72
8
73
4
74
0
42
0.000000001
43
0.0000000001
44
0.0000000001
40
0
40
0
40
0
40
0
40
1
40
1
40
1
40
1
41
1
41
1
41
1
41
1
10
45.960226673045405
20
-64.611367124543548
30
0
10
45.755584435129414
20
-64.760645154392023
30
0
10
45.531677674092968
20
-64.879578963682363
30
0
10
45.315142980784202
20
-65.009992164959357
30
0
0
SPLINE
5
215
100
AcDbEntity
8
0
100
AcDbSpline
70
4
71
3
72
8
73
4
74
0
42
0.000000001
43
0.0000000001
44
0.0000000001
40
0
40
0
40
0
40
0
40
1
40
1
40
1
40
1
41
1
41
1
41
1
41
1
10
45.315142980784202
20
-65.009992164959357
30
0
10
45.184730122298419
20
-65.087091735177424
30
0
10
45.06005181793784
20
-65.173218026286122
30
0
10
44.939070859550988
20
-65.264261314487996
30
0
0
SPLINE
5
216
100
AcDbEntity
8
0
100
AcDbSpline
70
4
71
3
72
8
73
4
74
0
42
0.000000001
43
0.0000000001
44
0.0000000001
40
0
40
0
40
0
40
0
40
1
40
1
40
1
40
1
41
1
41
1
41
1
41
1
10
44.939070859550988
20
-65.264261314487996
30
0
10
44.480984399149357
20
-64.887785728002498
30
0
10
43.867457894137189
20
-64.788149349788625
30
0
10
43.392967331853534
20
-64.437920600547343
30
0
0
SPLINE
5
217
100
AcDbEntity
8
0
100
AcDbSpline
70
4
71
3
72
8
73
4
74
0
42
0.000000001
43
0.0000000001
44
0.0000000001
40
0
40
0
40
0
40
0
40
1
40
1
40
1
40
1
41
1
41
1
41
1
41
1
10
43.392967331853534
20
-64.437920600547343
30
0
10
43.249840947333077
20
-64.330063403573817
30
0
10
43.118197725502569
20
-64.18613325936748
30
0
10
43.084159072695982
20
-64.004457004040177
30
0
0
SPLINE
5
218
100
AcDbEntity
8
0
100
AcDbSpline
70
4
71
3
72
8
73
4
74
0
42
0.000000001
43
0.0000000001
44
0.0000000001
40
0
40
0
40
0
40
0
40
1
40
1
40
1
40
1
41
1
41
1
41
1
41
1
10
42.852442842349923
20
-64.599081830425959
30
0
10
42.728591350383986
20
-64.569554138526229
30
0
10
42.60066441374147
20
-64.565067687190776
30
0
10
42.474352366481682
20
-64.551123969206984
30
0
0
SPLINE
5
219
100
AcDbEntity
8
0
100
AcDbSpline
70
4
71
3
72
8
73
4
74
0
42
0.000000001
43
0.0000000001
44
0.0000000001
40
0
40
0
40
0
40
0
40
1
40
1
40
1
40
1
41
1
41
1
41
1
41
1
10
42.474352366481682
20
-64.551123969206984
30
0
10
42.588771444161885
20
-64.477715231929679
30
0
10
42.727362272506291
20
-64.449392793918634
30
0
10
42.861876456404893
20
-64.445291982692638
30
0
0
SPLINE
5
220
100
AcDbEntity
8
0
100
AcDbSpline
70
4
71
3
72
8
73
4
74
0
42
0.000000001
43
0.0000000001
44
0.0000000001
40
0
40
0
40
0
40
0
40
1
40
1
40
1
40
1
41
1
41
1
41
1
41
1
10
42.861876456404893
20
-64.445291982692638
30
0
10
43.038631344051097
20
-64.445291982692638
30
0
10
43.221552017162658
20
-64.499020733904899
30
0
10
43.356066201061253
20
-64.616720494845026
30
0
0
SPLINE
5
221
100
AcDbEntity
8
0
100
AcDbSpline
70
4
71
3
72
8
73
4
74
0
42
0.000000001
43
0.0000000001
44
0.0000000001
40
0
40
0
40
0
40
0
40
1
40
1
40
1
40
1
41
1
41
1
41
1
41
1
10
43.356066201061253
20
-64.616720494845026
30
0
10
43.313005283649773
20
-64.640096455718947
30
0
10
43.270360857556483
20
-64.665519222898197
30
0
10
43.228120068111075
20
-64.691355739065969
30
0
0
SPLINE
5
222
100
AcDbEntity
8
0
100
AcDbSpline
70
4
71
3
72
8
73
4
74
0
42
0.000000001
43
0.0000000001
44
0.0000000001
40
0
40
0
40
0
40
0
40
1
40
1
40
1
40
1
41
1
41
1
41
1
41
1
10
43.228120068111075
20
-64.691355739065969
30
0
10
43.271591135203401
20
-64.724984242191709
30
0
10
43.324470621196888
20
-64.743421610126333
30
0
10
43.368351837970053
20
-64.775819492813952
30
0
0
SPLINE
5
223
100
AcDbEntity
8
0
100
AcDbSpline
70
4
71
3
72
8
73
4
74
0
42
0.000000001
43
0.0000000001
44
0.0000000001
40
0
40
0
40
0
40
0
40
1
40
1
40
1
40
1
41
1
41
1
41
1
41
1
10
43.368351837970053
20
-64.775819492813952
30
0
10
43.309296796961767
20
-64.779510668545925
30
0
10
43.249835462673744
20
-64.776662073604172
30
0
10
43.190780507363264
20
-64.779943956633332
30
0
0
SPLINE
5
224
100
AcDbEntity
8
0
100
AcDbSpline
70
4
71
3
72
8
73
4
74
0
42
0.000000001
43
0.0000000001
44
0.0000000001
40
0
40
0
40
0
40
0
40
1
40
1
40
1
40
1
41
1
41
1
41
1
41
1
10
43.190780507363264
20
-64.779943956633332
30
0
10
43.223588796825126
20
-64.802499618145575
30
0
10
43.260909932545488
20
-64.818097303709862
30
0
10
43.29248803005823
20
-64.842293563945475
30
0
0
SPLINE
5
225
100
AcDbEntity
8
0
100
AcDbSpline
70
4
71
3
72
8
73
4
74
0
42
0.000000001
43
0.0000000001
44
0.0000000001
40
0
40
0
40
0
40
0
40
1
40
1
40
1
40
1
41
1
41
1
41
1
41
1
10
43.29248803005823
20
-64.842293563945475
30
0
10
43.470473281049159
20
-64.965735077626178
30
0
10
43.580415676943353
20
-65.160525839004166
30
0
10
43.751839218623225
20
-65.290938697489949
30
0
0
SPLINE
5
226
100
AcDbEntity
8
0
100
AcDbSpline
70
4
71
3
72
8
73
4
74
0
42
0.000000001
43
0.0000000001
44
0.0000000001
40
0
40
0
40
0
40
0
40
1
40
1
40
1
40
1
41
1
41
1
41
1
41
1
10
43.751839218623225
20
-65.290938697489949
30
0
10
43.834270220505438
20
-65.355325170162359
30
0
10
43.932664323380081
20
-65.39344972277739
30
0
10
44.030679299178246
20
-65.425027648894527
30
0
0
SPLINE
5
227
100
AcDbEntity
8
0
100
AcDbSpline
70
4
71
3
72
8
73
4
74
0
42
0.000000001
43
0.0000000001
44
0.0000000001
40
0
40
0
40
0
40
0
40
1
40
1
40
1
40
1
41
1
41
1
41
1
41
1
10
44.030679299178246
20
-65.425027648894527
30
0
10
44.295196534672996
20
-65.495565852592762
30
0
10
44.562985026669431
20
-65.392618796888243
30
0
10
44.829552839172784
20
-65.401641061493137
30
0
0
SPLINE
5
228
100
AcDbEntity
8
0
100
AcDbSpline
70
4
71
3
72
8
73
4
74
0
42
0.000000001
43
0.0000000001
44
0.0000000001
40
0
40
0
40
0
40
0
40
1
40
1
40
1
40
1
41
1
41
1
41
1
41
1
10
44.829552839172784
20
-65.401641061493137
30
0
10
44.781980618063244
20
-65.490223794401174
30
0
10
44.688516709743304
20
-65.538231703136574
30
0
10
44.606085707861091
20
-65.58908477890165
30
0
0
SPLINE
5
229
100
AcDbEntity
8
0
100
AcDbSpline
70
4
71
3
72
8
73
4
74
0
42
0.000000001
43
0.0000000001
44
0.0000000001
40
0
40
0
40
0
40
0
40
1
40
1
40
1
40
1
41
1
41
1
41
1
41
1
10
44.606085707861091
20
-65.58908477890165
30
0
10
44.627821241407261
20
-65.62435388075076
30
0
10
44.662272272037548
20
-65.648960804854028
30
0
10
44.697131224205819
20
-65.670696509795803
30
0
0
SPLINE
5
230
100
AcDbEntity
8
0
100
AcDbSpline
70
4
71
3
72
8
73
4
74
0
42
0.000000001
43
0.0000000001
44
0.0000000001
40
0
40
0
40
0
40
0
40
1
40
1
40
1
40
1
41
1
41
1
41
1
41
1
10
44.697131224205819
20
-65.670696509795803
30
0
10
44.820982716171763
20
-65.742874626634986
30
0
10
44.974345446059438
20
-65.750236410626428
30
0
10
45.089174673420473
20
-65.839229121819699
30
0
0
SPLINE
5
231
100
AcDbEntity
8
0
100
AcDbSpline
70
4
71
3
72
8
73
4
74
0
42
0.000000001
43
0.0000000001
44
0.0000000001
40
0
40
0
40
0
40
0
40
1
40
1
40
1
40
1
41
1
41
1
41
1
41
1
10
45.089174673420473
20
-65.839229121819699
30
0
10
45.152330868445972
20
-65.886391021852788
30
0
10
45.181845191488591
20
-65.962292536797534
30
0
10
45.211372883388336
20
-66.032420762210535
30
0
0
SPLINE
5
232
100
AcDbEntity
8
0
100
AcDbSpline
70
4
71
3
72
8
73
4
74
0
42
0.000000001
43
0.0000000001
44
0.0000000001
40
0
40
0
40
0
40
0
40
1
40
1
40
1
40
1
41
1
41
1
41
1
41
1
10
45.211372883388336
20
-66.032420762210535
30
0
10
45.274223308655941
20
-66.27205375551442
30
0
10
45.390877556410459
20
-66.891938180464251
30
0
10
45.183072041223426
20
-67.043309293431165
30
0
0
SPLINE
5
233
100
AcDbEntity
8
0
100
AcDbSpline
70
4
71
3
72
8
73
4
74
0
42
0.000000001
43
0.0000000001
44
0.0000000001
40
0
40
0
40
0
40
0
40
1
40
1
40
1
40
1
41
1
41
1
41
1
41
1
10
45.183072041223426
20
-67.043309293431165
30
0
10
45.144932405795224
20
-67.070786751113516
30
0
10
45.096969745499329
20
-67.051089968279271
30
0
10
45.05595957649205
20
-67.041247061521474
30
0
0
SPLINE
5
234
100
AcDbEntity
8
0
100
AcDbSpline
70
4
71
3
72
8
73
4
74
0
42
0.000000001
43
0.0000000001
44
0.0000000001
40
0
40
0
40
0
40
0
40
1
40
1
40
1
40
1
41
1
41
1
41
1
41
1
10
45.05595957649205
20
-67.041247061521474
30
0
10
44.437932565704898
20
-66.886227278932438
30
0
10
43.891650040878304
20
-66.499935866194605
30
0
10
43.498360202829929
20
-66.004119920045625
30
0
0
SPLINE
5
235
100
AcDbEntity
8
0
100
AcDbSpline
70
4
71
3
72
8
73
4
74
0
42
0.000000001
43
0.0000000001
44
0.0000000001
40
0
40
0
40
0
40
0
40
1
40
1
40
1
40
1
41
1
41
1
41
1
41
1
10
43.498360202829929
20
-66.004119920045625
30
0
10
43.428232320208153
20
-65.906925586400348
30
0
10
43.352383937900704
20
-65.801511119577825
30
0
10
43.34992338260686
20
-65.67683932825021
30
0
0
SPLINE
5
236
100
AcDbEntity
8
0
100
AcDbSpline
70
4
71
3
72
8
73
4
74
0
42
0.000000001
43
0.0000000001
44
0.0000000001
40
0
40
0
40
0
40
0
40
1
40
1
40
1
40
1
41
1
41
1
41
1
41
1
10
43.34992338260686
20
-65.67683932825021
30
0
10
43.357715369564836
20
-65.616554009594992
30
0
10
43.423339147103945
20
-65.586188878773143
30
0
10
43.478703183775863
20
-65.586188878773143
30
0
0
SPLINE
5
237
100
AcDbEntity
8
0
100
AcDbSpline
70
4
71
3
72
8
73
4
74
0
42
0.000000001
43
0.0000000001
44
0.0000000001
40
0
40
0
40
0
40
0
40
1
40
1
40
1
40
1
41
1
41
1
41
1
41
1
10
43.478703183775863
20
-65.586188878773143
30
0
10
43.653407580111264
20
-65.580857789900222
30
0
10
43.824427142352043
20
-65.631720463819136
30
0
10
43.999131538687443
20
-65.630899821666233
30
0
0
SPLINE
5
238
100
AcDbEntity
8
0
100
AcDbSpline
70
4
71
3
72
8
73
4
74
0
42
0.000000001
43
0.0000000001
44
0.0000000001
40
0
40
0
40
0
40
0
40
1
40
1
40
1
40
1
41
1
41
1
41
1
41
1
10
43.999131538687443
20
-65.630899821666233
30
0
10
43.751262301019501
20
-65.379138189826989
30
0
10
43.073824689043157
20
-65.305524463407068
30
0
10
42.855733637950493
20
-65.584170524138131
30
0
0
SPLINE
5
239
100
AcDbEntity
8
0
100
AcDbSpline
70
4
71
3
72
8
73
4
74
0
42
0.000000001
43
0.0000000001
44
0.0000000001
40
0
40
0
40
0
40
0
40
1
40
1
40
1
40
1
41
1
41
1
41
1
41
1
10
42.855733637950493
20
-65.584170524138131
30
0
10
42.962770792655746
20
-65.588681656440585
30
0
10
43.069410652350484
20
-65.577610871574322
30
0
10
43.176037743072705
20
-65.572279782701401
30
0
0
SPLINE
5
240
100
AcDbEntity
8
0
100
AcDbSpline
70
4
71
3
72
8
73
4
74
0
42
0.000000001
43
0.0000000001
44
0.0000000001
40
0
40
0
40
0
40
0
40
1
40
1
40
1
40
1
41
1
41
1
41
1
41
1
10
43.176037743072705
20
-65.572279782701401
30
0
10
43.183829730030681
20
-65.687929309424121
30
0
10
43.194912769682631
20
-65.805627356408209
30
0
10
43.240844477766608
20
-65.913074575096502
30
0
0
SPLINE
5
241
100
AcDbEntity
8
0
100
AcDbSpline
70
4
71
3
72
8
73
4
74
0
42
0.000000001
43
0.0000000001
44
0.0000000001
40
0
40
0
40
0
40
0
40
1
40
1
40
1
40
1
41
1
41
1
41
1
41
1
10
43.240844477766608
20
-65.913074575096502
30
0
10
43.273652852926276
20
-65.994684934825827
30
0
10
43.330645147838055
20
-66.062334779802143
30
0
10
43.38313847953529
20
-66.131232384777007
30
0
0
SPLINE
5
242
100
AcDbEntity
8
0
100
AcDbSpline
70
4
71
3
72
8
73
4
74
0
42
0.000000001
43
0.0000000001
44
0.0000000001
40
0
40
0
40
0
40
0
40
1
40
1
40
1
40
1
41
1
41
1
41
1
41
1
10
43.38313847953529
20
-66.131232384777007
30
0
10
43.632891869080161
20
-66.444141797951772
30
0
10
43.963414922915767
20
-66.683233181146392
30
0
10
44.313643843552654
20
-66.871880781278776
30
0
0
SPLINE
5
243
100
AcDbEntity
8
0
100
AcDbSpline
70
4
71
3
72
8
73
4
74
0
42
0.000000001
43
0.0000000001
44
0.0000000001
40
0
40
0
40
0
40
0
40
1
40
1
40
1
40
1
41
1
41
1
41
1
41
1
10
44.313643843552654
20
-66.871880781278776
30
0
10
44.510903901400297
20
-66.978098065111368
30
0
10
44.714745893240291
20
-67.07284007045179
30
0
10
44.927179775323047
20
-67.143788252435257
30
0
0
SPLINE
5
244
100
AcDbEntity
8
0
100
AcDbSpline
70
4
71
3
72
8
73
4
74
0
42
0.000000001
43
0.0000000001
44
0.0000000001
40
0
40
0
40
0
40
0
40
1
40
1
40
1
40
1
41
1
41
1
41
1
41
1
10
44.927179775323047
20
-67.143788252435257
30
0
10
45.099423444969005
20
-67.199972417073255
30
0
10
45.29546368030158
20
-67.223345292826309
30
0
10
45.465246794653694
20
-67.146245379817017
30
0
0
SPLINE
5
245
100
AcDbEntity
8
0
100
AcDbSpline
70
4
71
3
72
8
73
4
74
0
42
0.000000001
43
0.0000000001
44
0.0000000001
40
0
40
0
40
0
40
0
40
1
40
1
40
1
40
1
41
1
41
1
41
1
41
1
10
45.465246794653694
20
-67.146245379817017
30
0
10
45.791279626450567
20
-67.002299124423885
30
0
10
46.046356049274962
20
-66.735749479854576
30
0
10
46.242795979156533
20
-66.444165107753932
30
0
0
SPLINE
5
246
100
AcDbEntity
8
0
100
AcDbSpline
70
4
71
3
72
8
73
4
74
0
42
0.000000001
43
0.0000000001
44
0.0000000001
40
0
40
0
40
0
40
0
40
1
40
1
40
1
40
1
41
1
41
1
41
1
41
1
10
46.242795979156533
20
-66.444165107753932
30
0
10
46.368698048131073
20
-66.261258574779717
30
0
10
46.450291268299978
20
-66.045095809932064
30
0
10
46.460953788837031
20
-65.822819021091519
30
0
0
SPLINE
5
247
100
AcDbEntity
8
0
100
AcDbSpline
70
4
71
3
72
8
73
4
74
0
42
0.000000001
43
0.0000000001
44
0.0000000001
40
0
40
0
40
0
40
0
40
1
40
1
40
1
40
1
41
1
41
1
41
1
41
1
10
46.460953788837031
20
-65.822819021091519
30
0
10
46.46628487770996
20
-65.703479004219247
30
0
10
46.442095473298515
20
-65.583740663962814
30
0
10
46.394523594980178
20
-65.474652846551137
30
0
0
SPLINE
5
248
100
AcDbEntity
8
0
100
AcDbSpline
70
4
71
3
72
8
73
4
74
0
42
0.000000001
43
0.0000000001
44
0.0000000001
40
0
40
0
40
0
40
0
40
1
40
1
40
1
40
1
41
1
41
1
41
1
41
1
10
46.394523594980178
20
-65.474652846551137
30
0
10
46.444146050307118
20
-65.460299493073308
30
0
10
46.49459497523749
20
-65.447597707637527
30
0
10
46.544627751640874
20
-65.435294931168315
30
0
0
SPLINE
5
249
100
AcDbEntity
8
0
100
AcDbSpline
70
4
71
3
72
8
73
4
74
0
42
0.000000001
43
0.0000000001
44
0.0000000001
40
0
40
0
40
0
40
0
40
1
40
1
40
1
40
1
41
1
41
1
41
1
41
1
10
46.544627751640874
20
-65.435294931168315
30
0
10
46.321285224933433
20
-65.261894683985233
30
0
10
45.801039577735921
20
-65.366494678896629
30
0
10
45.665765939915133
20
-65.623133544048883
30
0
0
SPLINE
5
250
100
AcDbEntity
8
0
100
AcDbSpline
70
4
71
3
72
8
73
4
74
0
42
0.000000001
43
0.0000000001
44
0.0000000001
40
0
40
0
40
0
40
0
40
1
40
1
40
1
40
1
41
1
41
1
41
1
41
1
10
45.665765939915133
20
-65.623133544048883
30
0
10
45.860155292788093
20
-65.594016173225597
30
0
10
46.052085461532045
20
-65.504593601856996
30
0
10
46.251395924992693
20
-65.54437383600856
30
0
0
SPLINE
5
251
100
AcDbEntity
8
0
100
AcDbSpline
70
4
71
3
72
8
73
4
74
0
42
0.000000001
43
0.0000000001
44
0.0000000001
40
0
40
0
40
0
40
0
40
1
40
1
40
1
40
1
41
1
41
1
41
1
41
1
10
46.251395924992693
20
-65.54437383600856
30
0
10
46.313321842371266
20
-65.573081228546627
30
0
10
46.336722141420985
20
-65.646077930791449
30
0
10
46.337132119706226
20
-65.710054425178626
30
0
0
SPLINE
5
252
100
AcDbEntity
8
0
100
AcDbSpline
70
4
71
3
72
8
73
4
74
0
42
0.000000001
43
0.0000000001
44
0.0000000001
40
0
40
0
40
0
40
0
40
1
40
1
40
1
40
1
41
1
41
1
41
1
41
1
10
46.337132119706226
20
-65.710054425178626
30
0
10
46.331390709756853
20
-65.895831491731926
30
0
10
46.277645847357789
20
-66.079153487650714
30
0
10
46.1874228585176
20
-66.241144957836056
30
0
0
SPLINE
5
253
100
AcDbEntity
8
0
100
AcDbSpline
70
4
71
3
72
8
73
4
74
0
42
0.000000001
43
0.0000000001
44
0.0000000001
40
0
40
0
40
0
40
0
40
1
40
1
40
1
40
1
41
1
41
1
41
1
41
1
10
46.1874228585176
20
-66.241144957836056
30
0
10
46.083256494484822
20
-66.43143315669181
30
0
10
45.936437648765363
20
-66.594662103139456
30
0
10
45.776907076665076
20
-66.740248957255943
30
0
0
SPLINE
5
254
100
AcDbEntity
8
0
100
AcDbSpline
70
4
71
3
72
8
73
4
74
0
42
0.000000001
43
0.0000000001
44
0.0000000001
40
0
40
0
40
0
40
0
40
1
40
1
40
1
40
1
41
1
41
1
41
1
41
1
10
45.776907076665076
20
-66.740248957255943
30
0
10
45.723183467320922
20
-66.78782083557428
30
0
10
45.669874978130139
20
-66.836608251517575
30
0
10
45.60876936011325
20
-66.874337908660536
30
0
0
SPLINE
5
255
100
AcDbEntity
8
0
100
AcDbSpline
70
4
71
3
72
8
73
4
74
0
42
0.000000001
43
0.0000000001
44
0.0000000001
40
0
40
0
40
0
40
0
40
1
40
1
40
1
40
1
41
1
41
1
41
1
41
1
10
45.60876936011325
20
-66.874337908660536
30
0
10
45.539461776853145
20
-66.917808632961652
30
0
10
45.46360208243582
20
-66.950192118418528
30
0
10
45.386092533932512
20
-66.977668890518459
30
0
0
SPLINE
5
256
100
AcDbEntity
8
0
100
AcDbSpline
70
4
71
3
72
8
73
4
74
0
42
0.000000001
43
0.0000000001
44
0.0000000001
40
0
40
0
40
0
40
0
40
1
40
1
40
1
40
1
41
1
41
1
41
1
41
1
10
45.386092533932512
20
-66.977668890518459
30
0
10
45.498693618438992
20
-66.493752598377611
30
0
10
45.436567853785924
20
-66.323354516597647
30
0
10
45.247879118708539
20
-65.854410658856992
30
0
0
SPLINE
5
257
100
AcDbEntity
8
0
100
AcDbSpline
70
4
71
3
72
8
73
4
74
0
42
0.000000001
43
0.0000000001
44
0.0000000001
40
0
40
0
40
0
40
0
40
1
40
1
40
1
40
1
41
1
41
1
41
1
41
1
10
45.247879118708539
20
-65.854410658856992
30
0
10
45.251980272725753
20
-65.751474572471139
30
0
10
45.347138426593169
20
-65.684201797824059
30
0
10
45.371744665114015
20
-65.58741744246403
30
0
0
SPLINE
5
258
100
AcDbEntity
8
0
100
AcDbSpline
70
4
71
3
72
8
73
4
74
0
42
0.000000001
43
0.0000000001
44
0.0000000001
40
0
40
0
40
0
40
0
40
1
40
1
40
1
40
1
41
1
41
1
41
1
41
1
10
45.371744665114015
20
-65.58741744246403
30
0
10
45.306127914794686
20
-65.516469260480562
30
0
10
45.206868264118846
20
-65.50048696318045
30
0
10
45.124847240521873
20
-65.455785618441197
30
0
0
SPLINE
5
259
100
AcDbEntity
8
0
100
AcDbSpline
70
4
71
3
72
8
73
4
74
0
42
0.000000001
43
0.0000000001
44
0.0000000001
40
0
40
0
40
0
40
0
40
1
40
1
40
1
40
1
41
1
41
1
41
1
41
1
10
45.124847240521873
20
-65.455785618441197
30
0
10
45.356965907746584
20
-65.412724872425315
30
0
10
45.59768280685141
20
-65.424615613862045
30
0
10
45.824470385203192
20
-65.354078095746232
30
0
0
SPLINE
5
260
100
AcDbEntity
8
0
100
AcDbSpline
70
4
71
3
72
8
73
4
74
0
42
0.000000001
43
0.0000000001
44
0.0000000001
40
0
40
0
40
0
40
0
40
1
40
1
40
1
40
1
41
1
41
1
41
1
41
1
10
45.824470385203192
20
-65.354078095746232
30
0
10
45.942170146143319
20
-65.312247284586064
30
0
10
46.025850964771323
20
-65.209307084705713
30
0
10
46.078344296468558
20
-65.099809289008803
30
0
0
SPLINE
5
261
100
AcDbEntity
8
0
100
AcDbSpline
70
4
71
3
72
8
73
4
74
0
42
0.000000001
43
0.0000000001
44
0.0000000001
40
0
40
0
40
0
40
0
40
1
40
1
40
1
40
1
41
1
41
1
41
1
41
1
10
46.078344296468558
20
-65.099809289008803
30
0
10
46.140269871055921
20
-64.973497241749016
30
0
10
46.175937639080395
20
-64.836123664985607
30
0
10
46.240734090038046
20
-64.711451530866782
30
0
0
SPLINE
5
262
100
AcDbEntity
8
0
100
AcDbSpline
70
4
71
3
72
8
73
4
74
0
42
0.000000001
43
0.0000000001
44
0.0000000001
40
0
40
0
40
0
40
0
40
1
40
1
40
1
40
1
41
1
41
1
41
1
41
1
10
46.240734090038046
20
-64.711451530866782
30
0
10
46.257958662677368
20
-64.677413049455808
30
0
10
46.28872451642183
20
-64.653610656318634
30
0
10
46.317431566168679
20
-64.630234695444699
30
0
0
SPLINE
5
263
100
AcDbEntity
8
0
100
AcDbSpline
70
4
71
3
72
8
73
4
74
0
42
0.000000001
43
0.0000000001
44
0.0000000001
40
0
40
0
40
0
40
0
40
1
40
1
40
1
40
1
41
1
41
1
41
1
41
1
10
46.317431566168679
20
-64.630234695444699
30
0
10
46.446614489798755
20
-64.530169142637931
30
0
10
46.614774487779123
20
-64.473603451385003
30
0
10
46.778406213896623
20
-64.496979412258924
30
0
0
SPLINE
5
264
100
AcDbEntity
8
0
100
AcDbSpline
70
4
71
3
72
8
73
4
74
0
42
0.000000001
43
0.0000000001
44
0.0000000001
40
0
40
0
40
0
40
0
40
1
40
1
40
1
40
1
41
1
41
1
41
1
41
1
10
46.778406213896623
20
-64.496979412258924
30
0
10
46.798911298400263
20
-64.500260266914452
30
0
10
46.82186562608787
20
-64.501081251858551
30
0
10
46.837859921080266
20
-64.517075204059736
30
0
0
SPLINE
5
265
100
AcDbEntity
8
0
100
AcDbSpline
70
4
71
3
72
8
73
4
74
0
42
0.000000001
43
0.0000000001
44
0.0000000001
40
0
40
0
40
0
40
0
40
1
40
1
40
1
40
1
41
1
41
1
41
1
41
1
10
46.837859921080266
20
-64.517075204059736
30
0
10
46.761170671938636
20
-64.54824315189164
30
0
10
46.675853368081754
20
-64.55273885858972
30
0
10
46.601624674233967
20
-64.589648216370989
30
0
0
SPLINE
5
266
100
AcDbEntity
8
0
100
AcDbSpline
70
4
71
3
72
8
73
4
74
0
42
0.000000001
43
0.0000000001
44
0.0000000001
40
0
40
0
40
0
40
0
40
1
40
1
40
1
40
1
41
1
41
1
41
1
41
1
10
46.601624674233967
20
-64.589648216370989
30
0
10
46.569636427040379
20
-64.605642168572189
30
0
10
46.543830419290153
20
-64.632324007859864
30
0
10
46.528656766450645
20
-64.664722233338679
30
0
0
SPLINE
5
267
100
AcDbEntity
8
0
100
AcDbSpline
70
4
71
3
72
8
73
4
74
0
42
0.000000001
43
0.0000000001
44
0.0000000001
40
0
40
0
40
0
40
0
40
1
40
1
40
1
40
1
41
1
41
1
41
1
41
1
10
46.528656766450645
20
-64.664722233338679
30
0
10
46.63897486150924
20
-64.670053322211601
30
0
10
46.750110170808632
20
-64.676986959983765
30
0
10
46.860017944790776
20
-64.691750634538039
30
0
0
SPLINE
5
268
100
AcDbEntity
8
0
100
AcDbSpline
70
4
71
3
72
8
73
4
74
0
42
0.000000001
43
0.0000000001
44
0.0000000001
40
0
40
0
40
0
40
0
40
1
40
1
40
1
40
1
41
1
41
1
41
1
41
1
10
46.860017944790776
20
-64.691750634538039
30
0
10
46.788659784522068
20
-64.731530868689603
30
0
10
46.698006249924141
20
-64.708582368452539
30
0
10
46.627468389017118
20
-64.751643114468422
30
0
0
SPLINE
5
269
100
AcDbEntity
8
0
100
AcDbSpline
70
4
71
3
72
8
73
4
74
0
42
0.000000001
43
0.0000000001
44
0.0000000001
40
0
40
0
40
0
40
0
40
1
40
1
40
1
40
1
41
1
41
1
41
1
41
1
10
46.627468389017118
20
-64.751643114468422
30
0
10
46.605733026866559
20
-64.763536255443611
30
0
10
46.597134452195235
20
-64.788163061436961
30
0
10
46.586881909943415
20
-64.809078467017045
30
0
0
SPLINE
5
270
100
AcDbEntity
8
0
100
AcDbSpline
70
4
71
3
72
8
73
4
74
0
42
0.000000001
43
0.0000000001
44
0.0000000001
40
0
40
0
40
0
40
0
40
1
40
1
40
1
40
1
41
1
41
1
41
1
41
1
10
46.586881909943415
20
-64.809078467017045
30
0
10
46.692278551623104
20
-64.863622375722883
30
0
10
46.789867780740451
20
-64.934947628035587
30
0
10
46.865327095026366
20
-65.02763117216962
30
0
0
SPLINE
5
271
100
AcDbEntity
8
0
100
AcDbSpline
70
4
71
3
72
8
73
4
74
0
42
0.000000001
43
0.0000000001
44
0.0000000001
40
0
40
0
40
0
40
0
40
1
40
1
40
1
40
1
41
1
41
1
41
1
41
1
10
46.865327095026366
20
-65.02763117216962
30
0
10
47.007633094487339
20
-65.198234243092202
30
0
10
47.082273137785194
20
-65.421334416415306
30
0
10
47.080632881853035
20
-65.642790563102963
30
0
0
SPLINE
5
272
100
AcDbEntity
8
0
100
AcDbSpline
70
4
71
3
72
8
73
4
74
0
42
0.000000001
43
0.0000000001
44
0.0000000001
40
0
40
0
40
0
40
0
40
1
40
1
40
1
40
1
41
1
41
1
41
1
41
1
10
47.080632881853035
20
-65.642790563102963
30
0
10
47.085054202858885
20
-66.471266180689469
30
0
10
45.841812535227
20
-67.252194600924639
30
0
10
44.986907715473407
20
-67.409130586368605
30
0
0
SPLINE
5
273
100
AcDbEntity
8
0
100
AcDbSpline
70
4
71
3
72
8
73
4
74
0
42
0.000000001
43
0.0000000001
44
0.0000000001
40
0
40
0
40
0
40
0
40
1
40
1
40
1
40
1
41
1
41
1
41
1
41
1
10
44.986907715473407
20
-67.409130586368605
30
0
10
45.047193034128611
20
-67.447680200082047
30
0
10
45.062509630902021
20
-67.449741060826895
30
0
10
45.126075804212746
20
-67.482959585667416
30
0
0
SPLINE
5
274
100
AcDbEntity
8
0
100
AcDbSpline
70
4
71
3
72
8
73
4
74
0
42
0.000000001
43
0.0000000001
44
0.0000000001
40
0
40
0
40
0
40
0
40
1
40
1
40
1
40
1
41
1
41
1
41
1
41
1
10
45.126075804212746
20
-67.482959585667416
30
0
10
44.877937132655013
20
-67.773827524142519
30
0
10
44.913129106482238
20
-67.93730328026021
30
0
10
44.916517940368408
20
-68.213340699895411
30
0
0
SPLINE
5
275
100
AcDbEntity
8
0
100
AcDbSpline
70
4
71
3
72
8
73
4
74
0
42
0.000000001
43
0.0000000001
44
0.0000000001
40
0
40
0
40
0
40
0
40
1
40
1
40
1
40
1
41
1
41
1
41
1
41
1
10
44.916517940368408
20
-68.213340699895411
30
0
10
44.827640064229954
20
-68.261538514960264
30
0
10
44.711261763398184
20
-68.293353652593623
30
0
10
44.623681180587901
20
-68.312985990680687
30
0
0
SPLINE
5
276
100
AcDbEntity
8
0
100
AcDbSpline
70
4
71
3
72
8
73
4
74
0
42
0.000000001
43
0.0000000001
44
0.0000000001
40
0
40
0
40
0
40
0
40
1
40
1
40
1
40
1
41
1
41
1
41
1
41
1
10
44.623681180587901
20
-68.312985990680687
30
0
10
44.547987225719829
20
-68.22336460041123
30
0
10
44.464774488486881
20
-68.118456778994712
30
0
10
44.416185548653246
20
-68.028397987143336
30
0
0
SPLINE
5
277
100
AcDbEntity
8
0
100
AcDbSpline
70
4
71
3
72
8
73
4
74
0
42
0.000000001
43
0.0000000001
44
0.0000000001
40
0
40
0
40
0
40
0
40
1
40
1
40
1
40
1
41
1
41
1
41
1
41
1
10
44.416185548653246
20
-68.028397987143336
30
0
10
44.34031625608209
20
-67.869687714404733
30
0
10
44.352191571914439
20
-67.682264564468724
30
0
10
44.26401916008286
20
-67.528065424032562
30
0
0
SPLINE
5
278
100
AcDbEntity
8
0
100
AcDbSpline
70
4
71
3
72
8
73
4
74
0
42
0.000000001
43
0.0000000001
44
0.0000000001
40
0
40
0
40
0
40
0
40
1
40
1
40
1
40
1
41
1
41
1
41
1
41
1
10
44.26401916008286
20
-67.528065424032562
30
0
10
44.162722986837956
20
-67.359922908403817
30
0
10
44.004834727417077
20
-67.23811479483112
30
0
10
43.85104573666176
20
-67.121235333252685
30
0
0
SPLINE
5
279
100
AcDbEntity
8
0
100
AcDbSpline
70
4
71
3
72
8
73
4
74
0
42
0.000000001
43
0.0000000001
44
0.0000000001
40
0
40
0
40
0
40
0
40
1
40
1
40
1
40
1
41
1
41
1
41
1
41
1
10
43.85104573666176
20
-67.121235333252685
30
0
10
43.525012904864887
20
-66.869021217018371
30
0
10
43.176431781566755
20
-66.641816461765956
30
0
10
42.888948734878916
20
-66.344081044221909
30
0
0
SPLINE
5
280
100
AcDbEntity
8
0
100
AcDbSpline
70
4
71
3
72
8
73
4
74
0
42
0.000000001
43
0.0000000001
44
0.0000000001
40
0
40
0
40
0
40
0
40
1
40
1
40
1
40
1
41
1
41
1
41
1
41
1
10
42.888948734878916
20
-66.344081044221909
30
0
10
42.72818788513171
20
-66.177168463448879
30
0
10
42.586282865686755
20
-65.988130766921344
30
0
10
42.494009385535762
20
-65.774466264400459
30
0
0
SPLINE
5
281
100
AcDbEntity
8
0
100
AcDbSpline
70
4
71
3
72
8
73
4
74
0
42
0.000000001
43
0.0000000001
44
0.0000000001
40
0
40
0
40
0
40
0
40
1
40
1
40
1
40
1
41
1
41
1
41
1
41
1
10
42.494009385535762
20
-65.774466264400459
30
0
10
42.403786482393379
20
-65.547679028839894
30
0
10
42.440716150553754
20
-65.299962333259671
30
0
10
42.459170829444389
20
-65.063742512017754
30
0
0
SPLINE
5
282
100
AcDbEntity
8
0
100
AcDbSpline
70
4
71
3
72
8
73
4
74
0
42
0.000000001
43
0.0000000001
44
0.0000000001
40
0
40
0
40
0
40
0
40
1
40
1
40
1
40
1
41
1
41
1
41
1
41
1
10
42.459170829444389
20
-65.063742512017754
30
0
10
42.350903311394404
20
-65.110084112689165
30
0
10
42.247952656382196
20
-65.169126470422739
30
0
10
42.140095288013057
20
-65.216698348741076
30
0
0
SPLINE
5
283
100
AcDbEntity
8
0
100
AcDbSpline
70
4
71
3
72
8
73
4
74
0
42
0.000000001
43
0.0000000001
44
0.0000000001
40
0
40
0
40
0
40
0
40
1
40
1
40
1
40
1
41
1
41
1
41
1
41
1
10
42.140095288013057
20
-65.216698348741076
30
0
10
42.183156205424538
20
-65.071931451195056
30
0
10
42.284894407932669
20
-64.948894431140261
30
0
10
42.405465045243076
20
-64.860722019308682
30
0
0
SPLINE
5
284
100
AcDbEntity
8
0
100
AcDbSpline
70
4
71
3
72
8
73
4
74
0
42
0.000000001
43
0.0000000001
44
0.0000000001
40
0
40
0
40
0
40
0
40
1
40
1
40
1
40
1
41
1
41
1
41
1
41
1
10
42.405465045243076
20
-64.860722019308682
30
0
10
42.534650025620394
20
-64.723407402633114
30
0
10
42.748254282586402
20
-64.727602824232619
30
0
10
42.852442842349923
20
-64.599081830425959
30
0
0
SPLINE
5
285
100
AcDbEntity
8
0
100
AcDbSpline
70
4
71
3
72
8
73
4
74
0
42
0.000000001
43
0.0000000001
44
0.0000000001
40
-1
40
-1
40
-1
40
-1
40
-0.85013539578819186
40
-0.85013539578819186
40
-0.85013539578819186
40
-0.85013539578819186
41
1
41
1
41
1
41
1
10
44.488299957944164
20
-62.56212437661474
30
0
10
44.477728820980985
20
-62.554257483990973
30
0
10
44.466678727963355
20
-62.547026129208717
30
0
10
44.45523802173377
20
-62.540482765830681
30
0
0
SPLINE
5
286
100
AcDbEntity
8
0
100
AcDbSpline
70
4
71
3
72
8
73
4
74
0
42
0.000000001
43
0.0000000001
44
0.0000000001
40
0.045281364887177912
40
0.045281364887177912
40
0.045281364887177912
40
0.045281364887177912
40
1
40
1
40
1
40
1
41
1
41
1
41
1
41
1
10
44.45523802173377
20
-62.540482765830696
30
0
10
44.814088902839579
20
-62.40304806577732
30
0
10
45.187079068867426
20
-62.565369368397803
30
0
10
45.380344268158971
20
-62.854082616630016
30
0
0
SPLINE
5
287
100
AcDbEntity
8
0
100
AcDbSpline
70
4
71
3
72
8
73
4
74
0
42
0.000000001
43
0.0000000001
44
0.0000000001
40
0
40
0
40
0
40
0
40
1
40
1
40
1
40
1
41
1
41
1
41
1
41
1
10
45.380344268158971
20
-62.854082616630016
30
0
10
45.694489786431191
20
-62.705693444384913
30
0
10
46.062412389476087
20
-62.663122547005827
30
0
10
46.268639693939683
20
-62.954561575634109
30
0
0
SPLINE
5
288
100
AcDbEntity
8
0
100
AcDbSpline
70
4
71
3
72
8
73
4
74
0
42
0.000000001
43
0.0000000001
44
0.0000000001
40
0
40
0
40
0
40
0
40
1
40
1
40
1
40
1
41
1
41
1
41
1
41
1
10
46.268639693939683
20
-62.954561575634109
30
0
10
46.349430097098519
20
-62.844243480575521
30
0
10
46.415057131154114
20
-62.712193794069663
30
0
10
46.539318601405292
20
-62.643296189094798
30
0
0
SPLINE
5
289
100
AcDbEntity
8
0
100
AcDbSpline
70
4
71
3
72
8
73
4
74
0
42
0.000000001
43
0.0000000001
44
0.0000000001
40
0
40
0
40
0
40
0
40
1
40
1
40
1
40
1
41
1
41
1
41
1
41
1
10
46.539318601405292
20
-62.643296189094798
30
0
10
46.94072504968598
20
-62.516877533769211
30
0
10
46.888849084955069
20
-63.021080895205152
30
0
10
46.530674778294454
20
-63.135028806369412
30
0
0
SPLINE
5
290
100
AcDbEntity
8
0
100
AcDbSpline
70
4
71
3
72
8
73
4
74
0
42
0.000000001
43
0.0000000001
44
0.0000000001
40
0
40
0
40
0
40
0
40
1
40
1
40
1
40
1
41
1
41
1
41
1
41
1
10
46.530674778294454
20
-63.135028806369412
30
0
10
46.947438615502357
20
-63.1083699340927
30
0
10
47.262768134608372
20
-63.160188309900605
30
0
10
47.054788824278681
20
-63.556996556911919
30
0
0
SPLINE
5
291
100
AcDbEntity
8
0
100
AcDbSpline
70
4
71
3
72
8
73
4
74
0
42
0.000000001
43
0.0000000001
44
0.0000000001
40
0
40
0
40
0
40
0
40
1
40
1
40
1
40
1
41
1
41
1
41
1
41
1
10
47.054788824278681
20
-63.556996556911919
30
0
10
46.929707054665819
20
-63.486869017081339
30
0
10
46.80625457166645
20
-63.412243028223017
30
0
10
46.67174021637225
20
-63.362620230104881
30
0
0
SPLINE
5
292
100
AcDbEntity
8
0
100
AcDbSpline
70
4
71
3
72
8
73
4
74
0
42
0.000000001
43
0.0000000001
44
0.0000000001
40
0
40
0
40
0
40
0
40
1
40
1
40
1
40
1
41
1
41
1
41
1
41
1
10
46.67174021637225
20
-63.362620230104881
30
0
10
46.762373183497679
20
-63.470887748154858
30
0
10
46.896504983803311
20
-63.55576593647379
30
0
10
46.930133486929059
20
-63.701352790590285
30
0
0
SPLINE
5
293
100
AcDbEntity
8
0
100
AcDbSpline
70
4
71
3
72
8
73
4
74
0
42
0.000000001
43
0.0000000001
44
0.0000000001
40
0
40
0
40
0
40
0
40
1
40
1
40
1
40
1
41
1
41
1
41
1
41
1
10
46.930133486929059
20
-63.701352790590285
30
0
10
46.951420820970256
20
-63.873900516038084
30
0
10
46.77091348366357
20
-63.87963061387758
30
0
10
46.66314027053609
20
-63.827675464377521
30
0
0
SPLINE
5
294
100
AcDbEntity
8
0
100
AcDbSpline
70
4
71
3
72
8
73
4
74
0
42
0.000000001
43
0.0000000001
44
0.0000000001
40
0
40
0
40
0
40
0
40
1
40
1
40
1
40
1
41
1
41
1
41
1
41
1
10
46.66314027053609
20
-63.827675464377521
30
0
10
46.533137390335547
20
-63.764929590428473
30
0
10
46.440059979103076
20
-63.650908664736825
30
0
10
46.332612760414776
20
-63.558225120602799
30
0
0
SPLINE
5
295
100
AcDbEntity
8
0
100
AcDbSpline
70
4
71
3
72
8
73
4
74
0
42
0.000000001
43
0.0000000001
44
0.0000000001
40
0
40
0
40
0
40
0
40
1
40
1
40
1
40
1
41
1
41
1
41
1
41
1
10
46.332612760414776
20
-63.558225120602799
30
0
10
46.465242792436442
20
-63.792834851538899
30
0
10
46.527840923374669
20
-64.134389954834219
30
0
10
46.18334227197289
20
-64.026176255003946
30
0
0
SPLINE
5
296
100
AcDbEntity
8
0
100
AcDbSpline
70
4
71
3
72
8
73
4
74
0
42
0.000000001
43
0.0000000001
44
0.0000000001
40
0
40
0
40
0
40
0
40
1
40
1
40
1
40
1
41
1
41
1
41
1
41
1
10
46.18334227197289
20
-64.026176255003946
30
0
10
46.038985695503314
20
-63.980244632617776
30
0
10
45.927022888226858
20
-63.871575020480343
30
0
10
45.826137378849609
20
-63.763307502430365
30
0
0
SPLINE
5
297
100
AcDbEntity
8
0
100
AcDbSpline
70
4
71
3
72
8
73
4
74
0
42
0.000000001
43
0.0000000001
44
0.0000000001
40
0
40
0
40
0
40
0
40
1
40
1
40
1
40
1
41
1
41
1
41
1
41
1
10
45.826137378849609
20
-63.763307502430365
30
0
10
45.715371598472856
20
-64.242508015917338
30
0
10
45.356405101329656
20
-64.035910496948674
30
0
10
45.186362836823996
20
-63.741983146938672
30
0
0
SPLINE
5
298
100
AcDbEntity
8
0
100
AcDbSpline
70
4
71
3
72
8
73
4
74
0
42
0.000000001
43
0.0000000001
44
0.0000000001
40
0
40
0
40
0
40
0
40
1
40
1
40
1
40
1
41
1
41
1
41
1
41
1
10
45.186362836823996
20
-63.741983146938672
30
0
10
45.169138606975885
20
-63.71409605376229
30
0
10
45.156427908968681
20
-63.68208004048082
30
0
10
45.133051948094753
20
-63.658704079606892
30
0
0
SPLINE
5
299
100
AcDbEntity
8
0
100
AcDbSpline
70
4
71
3
72
8
73
4
74
0
42
0.000000001
43
0.0000000001
44
0.0000000001
40
0
40
0
40
0
40
0
40
1
40
1
40
1
40
1
41
1
41
1
41
1
41
1
10
45.133051948094753
20
-63.658704079606892
30
0
10
45.133462954753611
20
-63.709967133657194
30
0
10
45.126890961706309
20
-63.761245956103082
30
0
10
45.119098974748333
20
-63.812099031868158
30
0
0
SPLINE
5
300
100
AcDbEntity
8
0
100
AcDbSpline
70
4
71
3
72
8
73
4
74
0
42
0.000000001
43
0.0000000001
44
0.0000000001
40
0
40
0
40
0
40
0
40
1
40
1
40
1
40
1
41
1
41
1
41
1
41
1
10
45.119098974748333
20
-63.812099031868158
30
0
10
44.480112852502018
20
-63.881054225766029
30
0
10
44.050547306221091
20
-64.019440064967824
30
0
10
44.354669095373104
20
-63.308914445903561
30
0
0
SPLINE
5
301
100
AcDbEntity
8
0
100
AcDbSpline
70
4
71
3
72
8
73
4
74
0
42
0.000000001
43
0.0000000001
44
0.0000000001
40
0
40
0
40
0
40
0
40
1
40
1
40
1
40
1
41
1
41
1
41
1
41
1
10
44.354669095373104
20
-63.308914445903561
30
0
10
44.248042004650884
20
-63.351975534710654
30
0
10
44.157004029712738
20
-63.426995733458625
30
0
10
44.083595292435419
20
-63.51434818871973
30
0
0
SPLINE
5
302
100
AcDbEntity
8
0
100
AcDbSpline
70
4
71
3
72
8
73
4
74
0
42
0.000000001
43
0.0000000001
44
0.0000000001
40
0
40
0
40
0
40
0
40
1
40
1
40
1
40
1
41
1
41
1
41
1
41
1
10
44.083595292435419
20
-63.51434818871973
30
0
10
43.531819367098734
20
-63.480788243835661
30
0
10
43.373829127293362
20
-63.466989869324223
30
0
10
43.168666360927425
20
-62.96890978724381
30
0
0
SPLINE
5
303
100
AcDbEntity
8
0
100
AcDbSpline
70
4
71
3
72
8
73
4
74
0
42
0.000000001
43
0.0000000001
44
0.0000000001
40
0
40
0
40
0
40
0
40
1
40
1
40
1
40
1
41
1
41
1
41
1
41
1
10
43.168666360927425
20
-62.96890978724381
30
0
10
43.168666360927425
20
-63.110805808419542
30
0
10
43.210479861131574
20
-63.263780498659315
30
0
10
43.139531850543705
20
-63.397064233515394
30
0
0
SPLINE
5
304
100
AcDbEntity
8
0
100
AcDbSpline
70
4
71
3
72
8
73
4
74
0
42
0.000000001
43
0.0000000001
44
0.0000000001
40
0
40
0
40
0
40
0
40
1
40
1
40
1
40
1
41
1
41
1
41
1
41
1
10
43.139531850543705
20
-63.397064233515394
30
0
10
42.843760283832545
20
-63.24754385028259
30
0
10
42.608784537583674
20
-63.134344595117462
30
0
10
42.513710281864512
20
-62.836443952210963
30
0
0
SPLINE
5
305
100
AcDbEntity
8
0
100
AcDbSpline
70
4
71
3
72
8
73
4
74
0
42
0.000000001
43
0.0000000001
44
0.0000000001
40
0
40
0
40
0
40
0
40
1
40
1
40
1
40
1
41
1
41
1
41
1
41
1
10
42.513710281864512
20
-62.836443952210963
30
0
10
42.664218503662099
20
-62.805276347170263
30
0
10
42.815158470986667
20
-62.851215853754233
30
0
10
42.961565624464846
20
-62.882383801586137
30
0
0
SPLINE
5
306
100
AcDbEntity
8
0
100
AcDbSpline
70
4
71
3
72
8
73
4
74
0
42
0.000000001
43
0.0000000001
44
0.0000000001
40
0
40
0
40
0
40
0
40
1
40
1
40
1
40
1
41
1
41
1
41
1
41
1
10
42.961565624464846
20
-62.882383801586137
30
0
10
42.807900895522572
20
-62.715762936131448
30
0
10
42.490401893707535
20
-62.413851978877965
30
0
10
42.612127008958915
20
-62.315621044618517
30
0
0
SPLINE
5
307
100
AcDbEntity
8
0
100
AcDbSpline
70
4
71
3
72
8
73
4
74
0
42
0.000000001
43
0.0000000001
44
0.0000000001
40
0
40
0
40
0
40
0
40
1
40
1
40
1
40
1
41
1
41
1
41
1
41
1
10
42.612127008958915
20
-62.315621044618517
30
0
10
42.713422753714802
20
-62.404203777526547
30
0
10
42.762259274498696
20
-62.542022297278443
30
0
10
42.876268202498053
20
-62.617891589849606
30
0
0
SPLINE
5
308
100
AcDbEntity
8
0
100
AcDbSpline
70
4
71
3
72
8
73
4
74
0
42
0.000000001
43
0.0000000001
44
0.0000000001
40
0
40
0
40
0
40
0
40
1
40
1
40
1
40
1
41
1
41
1
41
1
41
1
10
42.876268202498053
20
-62.617891589849606
30
0
10
42.636535714045927
20
-62.162521578378886
30
0
10
42.850832494950694
20
-61.65081948786375
30
0
10
43.436449368264533
20
-61.9080011628945
30
0
0
SPLINE
5
309
100
AcDbEntity
8
0
100
AcDbSpline
70
4
71
3
72
8
73
4
74
0
42
0.000000001
43
0.0000000001
44
0.0000000001
40
0
40
0
40
0
40
0
40
1
40
1
40
1
40
1
41
1
41
1
41
1
41
1
10
43.436449368264533
20
-61.908000820103283
30
0
10
43.378624604903166
20
-61.963775006456046
30
0
10
43.309333132829863
20
-62.006413090911984
30
0
10
43.250278091821578
20
-62.060956999617808
30
0
0
SPLINE
5
310
100
AcDbEntity
8
0
100
AcDbSpline
70
4
71
3
72
8
73
4
74
0
42
0.000000001
43
0.0000000001
44
0.0000000001
40
0
40
0
40
0
40
0
40
1
40
1
40
1
40
1
41
1
41
1
41
1
41
1
10
43.250278091821578
20
-62.060956999617808
30
0
10
43.365927447148692
20
-62.042502320727181
30
0
10
43.484855428988489
20
-62.034300698275167
30
0
10
43.601735061962529
20
-62.050294821871965
30
0
0
SPLINE
5
311
100
AcDbEntity
8
0
100
AcDbSpline
70
4
71
3
72
8
73
4
74
0
42
0.000000001
43
0.0000000001
44
0.0000000001
40
0
40
0
40
0
40
0
40
1
40
1
40
1
40
1
41
1
41
1
41
1
41
1
10
43.601735061962529
20
-62.050294821871965
30
0
10
43.642745402365414
20
-62.056856702578621
30
0
10
43.68539874103012
20
-62.058897167246585
30
0
10
43.723538376458322
20
-62.077761995818058
30
0
0
SPLINE
5
312
100
AcDbEntity
8
0
100
AcDbSpline
70
4
71
3
72
8
73
4
74
0
42
0.000000001
43
0.0000000001
44
0.0000000001
40
0
40
0
40
0
40
0
40
1
40
1
40
1
40
1
41
1
41
1
41
1
41
1
10
43.723538376458322
20
-62.077761995818058
30
0
10
43.687859296323964
20
-62.118362357935702
30
0
10
43.654608720505465
20
-62.161008155193826
30
0
10
43.622620644707489
20
-62.204479736472976
30
0
0
SPLINE
5
313
100
AcDbEntity
8
0
100
AcDbSpline
70
4
71
3
72
8
73
4
74
0
42
0.000000001
43
0.0000000001
44
0.0000000001
40
0
40
0
40
0
40
0
40
0.9603533531423093
40
0.9603533531423093
40
0.9603533531423093
40
0.9603533531423093
41
1
41
1
41
1
41
1
10
43.622620644707489
20
-62.204479736472976
30
0
10
44.025088565082783
20
-62.255860556605775
30
0
10
44.29177144568574
20
-62.13681573481913
30
0
10
44.392650290342225
20
-62.512920235041818
30
0
0
SPLINE
5
314
100
AcDbEntity
8
0
100
AcDbSpline
70
4
71
3
72
8
73
4
74
0
42
0.000000001
43
0.0000000001
44
0.0000000001
40
-0.5902289631274209
40
-0.5902289631274209
40
-0.5902289631274209
40
-0.5902289631274209
40
0
40
0
40
0
40
0
41
1
41
1
41
1
41
1
10
44.392650290342225
20
-62.512920235041818
30
0
10
44.34330251299582
20
-62.497169467988741
30
0
10
44.290272360308805
20
-62.493501240308923
30
0
10
44.238956624610836
20
-62.505119897448083
30
0
0
SPLINE
5
315
100
AcDbEntity
8
0
100
AcDbSpline
70
4
71
3
72
8
73
4
74
0
42
0.000000001
43
0.0000000001
44
0.0000000001
40
-1
40
-1
40
-1
40
-1
40
0
40
0
40
0
40
0
41
1
41
1
41
1
41
1
10
44.238956624610836
20
-62.505119897448083
30
0
10
44.243467770444163
20
-62.55023135578142
30
0
10
44.25823152044417
20
-62.594932709948083
30
0
10
44.282017562110831
20
-62.633892605781412
30
0
0
SPLINE
5
316
100
AcDbEntity
8
0
100
AcDbSpline
70
4
71
3
72
8
73
4
74
0
42
0.000000001
43
0.0000000001
44
0.0000000001
40
-1
40
-1
40
-1
40
-1
40
0
40
0
40
0
40
0
41
1
41
1
41
1
41
1
10
44.282017562110831
20
-62.633892605781412
30
0
10
44.3488645412775
20
-62.742160105781409
30
0
10
44.464103812110835
20
-62.804906043281413
30
0
10
44.567039957944168
20
-62.873803543281419
30
0
0
SPLINE
5
317
100
AcDbEntity
8
0
100
AcDbSpline
70
4
71
3
72
8
73
4
74
0
42
0.000000001
43
0.0000000001
44
0.0000000001
40
-1
40
-1
40
-1
40
-1
40
0
40
0
40
0
40
0
41
1
41
1
41
1
41
1
10
44.567039957944168
20
-62.873803543281419
30
0
10
44.506754645444168
20
-62.787681668281422
30
0
10
44.440727874610836
20
-62.705250730781415
30
0
10
44.380032457944168
20
-62.618718751614743
30
0
0
SPLINE
5
318
100
AcDbEntity
8
0
100
AcDbSpline
70
4
71
3
72
8
73
4
74
0
42
0.000000001
43
0.0000000001
44
0.0000000001
40
-1
40
-1
40
-1
40
-1
40
0
40
0
40
0
40
0
41
1
41
1
41
1
41
1
10
44.380032457944168
20
-62.618718751614743
30
0
10
44.492811103777498
20
-62.678183855781413
30
0
10
44.5961573537775
20
-62.753643022448088
30
0
10
44.704014749610835
20
-62.821310209948088
30
0
0
SPLINE
5
319
100
AcDbEntity
8
0
100
AcDbSpline
70
4
71
3
72
8
73
4
74
0
42
0.000000001
43
0.0000000001
44
0.0000000001
40
-1
40
-1
40
-1
40
-1
40
0
40
0
40
0
40
0
41
1
41
1
41
1
41
1
10
44.704014749610835
20
-62.821310209948088
30
0
10
44.647010270444163
20
-62.724115522448081
30
0
10
44.579343082944163
20
-62.630201668281408
30
0
10
44.488299957944164
20
-62.56212437661474
30
0
0
SPLINE
5
320
100
AcDbEntity
8
0
100
AcDbSpline
70
4
71
3
72
8
73
4
74
0
42
0.000000001
43
0.0000000001
44
0.0000000001
40
0
40
0
40
0
40
0
40
1
40
1
40
1
40
1
41
1
41
1
41
1
41
1
10
46.013932114455514
20
-59.403485981695631
30
0
10
45.926284858755189
20
-59.332990677781517
30
0
10
45.718143750975131
20
-59.347416851627649
30
0
10
45.62969882013288
20
-59.398966622404181
30
0
0
SPLINE
5
321
100
AcDbEntity
8
0
100
AcDbSpline
70
4
71
3
72
8
73
4
74
0
42
0.000000001
43
0.0000000001
44
0.0000000001
40
0
40
0
40
0
40
0
40
1
40
1
40
1
40
1
41
1
41
1
41
1
41
1
10
45.62969882013288
20
-59.398966622404181
30
0
10
45.277829472168229
20
-59.572440676819305
30
0
10
44.979665222822483
20
-59.836540328348875
30
0
10
44.716788243259899
20
-60.12443348186865
30
0
0
SPLINE
5
322
100
AcDbEntity
8
0
100
AcDbSpline
70
4
71
3
72
8
73
4
74
0
42
0.000000001
43
0.0000000001
44
0.0000000001
40
0
40
0
40
0
40
0
40
1
40
1
40
1
40
1
41
1
41
1
41
1
41
1
10
44.716788243259899
20
-60.12443348186865
30
0
10
44.449400302790465
20
-60.426680288808555
30
0
10
44.178334555446185
20
-60.727304236470125
30
0
10
43.946215545430263
20
-61.058668414233338
30
0
0
SPLINE
5
323
100
AcDbEntity
8
0
100
AcDbSpline
70
4
71
3
72
8
73
4
74
0
42
0.000000001
43
0.0000000001
44
0.0000000001
40
0
40
0
40
0
40
0
40
1
40
1
40
1
40
1
41
1
41
1
41
1
41
1
10
43.946215545430263
20
-61.058668414233338
30
0
10
43.785454695683057
20
-61.288736847240642
30
0
10
43.639037772655435
20
-61.531500724046396
30
0
10
43.531180404286296
20
-61.791506655843087
30
0
0
SPLINE
5
324
100
AcDbEntity
8
0
100
AcDbSpline
70
4
71
3
72
8
73
4
74
0
42
0.000000001
43
0.0000000001
44
0.0000000001
40
0
40
0
40
0
40
0
40
1
40
1
40
1
40
1
41
1
41
1
41
1
41
1
10
43.531180404286296
20
-61.791506655843087
30
0
10
42.852602497355228
20
-61.519539710411941
30
0
10
42.623547440857728
20
-61.778991006033458
30
0
10
42.614584136340675
20
-62.160602290403091
30
0
0
SPLINE
5
325
100
AcDbEntity
8
0
100
AcDbSpline
70
4
71
3
72
8
73
4
74
0
42
0.000000001
43
0.0000000001
44
0.0000000001
40
0
40
0
40
0
40
0
40
1
40
1
40
1
40
1
41
1
41
1
41
1
41
1
10
42.614584136340675
20
-62.160602290403091
30
0
10
42.324461083161403
20
-62.307990512319698
30
0
10
42.498452216689941
20
-62.531701539576162
30
0
10
42.605589295032445
20
-62.633467679567758
30
0
0
SPLINE
5
326
100
AcDbEntity
8
0
100
AcDbSpline
70
4
71
3
72
8
73
4
74
0
42
0.000000001
43
0.0000000001
44
0.0000000001
40
0
40
0
40
0
40
0
40
1
40
1
40
1
40
1
41
1
41
1
41
1
41
1
10
42.605589295032445
20
-62.633467679567758
30
0
10
41.946250330427929
20
-62.732998820880645
30
0
10
42.570480705166659
20
-63.246919284700887
30
0
10
42.926683191098796
20
-63.436860578853754
30
0
0
SPLINE
5
327
100
AcDbEntity
8
0
100
AcDbSpline
70
4
71
3
72
8
73
4
74
0
42
0.000000001
43
0.0000000001
44
0.0000000001
40
0
40
0
40
0
40
0
40
1
40
1
40
1
40
1
41
1
41
1
41
1
41
1
10
42.926683191098796
20
-63.436860578853754
30
0
10
42.879111141384854
20
-63.584087688902414
30
0
10
42.845057148671692
20
-63.734989177913818
30
0
10
42.79338403063835
20
-63.880986353106771
30
0
0
SPLINE
5
328
100
AcDbEntity
8
0
100
AcDbSpline
70
4
71
3
72
8
73
4
74
0
42
0.000000001
43
0.0000000001
44
0.0000000001
40
0
40
0
40
0
40
0
40
1
40
1
40
1
40
1
41
1
41
1
41
1
41
1
10
42.79338403063835
20
-63.880986353106771
30
0
10
42.665431556050805
20
-63.894109771728886
30
0
10
42.539150274301974
20
-63.860903930163076
30
0
10
42.411607863697476
20
-63.861724229524761
30
0
0
SPLINE
5
329
100
AcDbEntity
8
0
100
AcDbSpline
70
4
71
3
72
8
73
4
74
0
42
0.000000001
43
0.0000000001
44
0.0000000001
40
0
40
0
40
0
40
0
40
1
40
1
40
1
40
1
41
1
41
1
41
1
41
1
10
42.411607863697476
20
-63.861724229524761
30
0
10
42.34312049410125
20
-63.866645340112449
30
0
10
42.263969961234459
20
-63.875642238167927
30
0
10
42.216397868671621
20
-63.93100644623545
30
0
0
SPLINE
5
330
100
AcDbEntity
8
0
100
AcDbSpline
70
4
71
3
72
8
73
4
74
0
42
0.000000001
43
0.0000000001
44
0.0000000001
40
0
40
0
40
0
40
0
40
1
40
1
40
1
40
1
41
1
41
1
41
1
41
1
10
42.216397868671621
20
-63.93100644623545
30
0
10
42.349681689225498
20
-63.960944116420428
30
0
10
42.487475270916988
20
-63.971611436034401
30
0
10
42.618708600160055
20
-64.010161049747836
30
0
0
SPLINE
5
331
100
AcDbEntity
8
0
100
AcDbSpline
70
4
71
3
72
8
73
4
74
0
42
0.000000001
43
0.0000000001
44
0.0000000001
40
0
40
0
40
0
40
0
40
1
40
1
40
1
40
1
41
1
41
1
41
1
41
1
10
42.618708600160055
20
-64.010161049747836
30
0
10
42.715083062932649
20
-64.038048142924211
30
0
10
42.808969032927926
20
-64.085622763572218
30
0
10
42.874995761532503
20
-64.162722333790299
30
0
0
SPLINE
5
332
100
AcDbEntity
8
0
100
AcDbSpline
70
4
71
3
72
8
73
4
74
0
42
0.000000001
43
0.0000000001
44
0.0000000001
40
0
40
0
40
0
40
0
40
1
40
1
40
1
40
1
41
1
41
1
41
1
41
1
10
42.874995761532503
20
-64.162722333790299
30
0
10
42.656820298104769
20
-64.133194984681765
30
0
10
42.437415371159233
20
-64.08073627489658
30
0
10
42.21595909592488
20
-64.107393090426029
30
0
0
SPLINE
5
333
100
AcDbEntity
8
0
100
AcDbSpline
70
4
71
3
72
8
73
4
74
0
42
0.000000001
43
0.0000000001
44
0.0000000001
40
0
40
0
40
0
40
0
40
1
40
1
40
1
40
1
41
1
41
1
41
1
41
1
10
42.21595909592488
20
-64.107393090426029
30
0
10
42.353343984798165
20
-64.194335224610697
30
0
10
42.523161635364517
20
-64.194732176830016
30
0
10
42.675310284489875
20
-64.240253478139735
30
0
0
SPLINE
5
334
100
AcDbEntity
8
0
100
AcDbSpline
70
4
71
3
72
8
73
4
74
0
42
0.000000001
43
0.0000000001
44
0.0000000001
40
0
40
0
40
0
40
0
40
1
40
1
40
1
40
1
41
1
41
1
41
1
41
1
10
42.675310284489875
20
-64.240253478139735
30
0
10
42.594929859616265
20
-64.339088410508367
30
0
10
42.456290183524658
20
-64.342354182350746
30
0
10
42.352943947457966
20
-64.405100399090998
30
0
0
SPLINE
5
335
100
AcDbEntity
8
0
100
AcDbSpline
70
4
71
3
72
8
73
4
74
0
42
0.000000001
43
0.0000000001
44
0.0000000001
40
0
40
0
40
0
40
0
40
1
40
1
40
1
40
1
41
1
41
1
41
1
41
1
10
42.352943947457966
20
-64.405100399090998
30
0
10
42.265181642458323
20
-64.460874585443747
30
0
10
42.18235227434306
20
-64.526889316356034
30
0
10
42.118376037049288
20
-64.608910339952999
30
0
0
SPLINE
5
336
100
AcDbEntity
8
0
100
AcDbSpline
70
4
71
3
72
8
73
4
74
0
42
0.000000001
43
0.0000000001
44
0.0000000001
40
0
40
0
40
0
40
0
40
1
40
1
40
1
40
1
41
1
41
1
41
1
41
1
10
42.118376037049288
20
-64.608910339952999
30
0
10
42.061371551625157
20
-64.682319077230318
30
0
10
42.023224396214829
20
-64.774618352419736
30
0
10
42.031016383172805
20
-64.868532174200695
30
0
0
SPLINE
5
337
100
AcDbEntity
8
0
100
AcDbSpline
70
4
71
3
72
8
73
4
74
0
42
0.000000001
43
0.0000000001
44
0.0000000001
40
0
40
0
40
0
40
0
40
1
40
1
40
1
40
1
41
1
41
1
41
1
41
1
10
42.031016383172805
20
-64.868532174200695
30
0
10
42.043319502433235
20
-65.057180117124275
30
0
10
41.914968833008238
20
-65.231040047317819
30
0
10
41.960900498243312
20
-65.420508289603077
30
0
0
SPLINE
5
338
100
AcDbEntity
8
0
100
AcDbSpline
70
4
71
3
72
8
73
4
74
0
42
0.000000001
43
0.0000000001
44
0.0000000001
40
0
40
0
40
0
40
0
40
1
40
1
40
1
40
1
41
1
41
1
41
1
41
1
10
41.960900498243312
20
-65.420508289603077
30
0
10
42.012573616276654
20
-65.575938050477376
30
0
10
42.131506997077985
20
-65.695314403217736
30
0
10
42.236493660472441
20
-65.817114975383859
30
0
0
SPLINE
5
339
100
AcDbEntity
8
0
100
AcDbSpline
70
4
71
3
72
8
73
4
74
0
42
0.000000001
43
0.0000000001
44
0.0000000001
40
0
40
0
40
0
40
0
40
1
40
1
40
1
40
1
41
1
41
1
41
1
41
1
10
42.236493660472441
20
-65.817114975383859
30
0
10
42.296778979127645
20
-65.884781959920602
30
0
10
42.35581379545463
20
-65.954474154916511
30
0
10
42.405026272496329
20
-66.030753425772915
30
0
0
SPLINE
5
340
100
AcDbEntity
8
0
100
AcDbSpline
70
4
71
3
72
8
73
4
74
0
42
0.000000001
43
0.0000000001
44
0.0000000001
40
0
40
0
40
0
40
0
40
1
40
1
40
1
40
1
41
1
41
1
41
1
41
1
10
42.405026272496329
20
-66.030753425772915
30
0
10
42.625252227234867
20
-66.364988565604207
30
0
10
42.920536687638908
20
-66.640982793547153
30
0
10
43.231805759183707
20
-66.888685777479026
30
0
0
SPLINE
5
341
100
AcDbEntity
8
0
100
AcDbSpline
70
4
71
3
72
8
73
4
74
0
42
0.000000001
43
0.0000000001
44
0.0000000001
40
0
40
0
40
0
40
0
40
1
40
1
40
1
40
1
41
1
41
1
41
1
41
1
10
43.231805759183707
20
-66.888685777479026
30
0
10
43.405279877872189
20
-67.026890965713989
30
0
10
43.584895786641439
20
-67.157334675408521
30
0
10
43.763291187313214
20
-67.28897815433244
30
0
0
SPLINE
5
342
100
AcDbEntity
8
0
100
AcDbSpline
70
4
71
3
72
8
73
4
74
0
42
0.000000001
43
0.0000000001
44
0.0000000001
40
0
40
0
40
0
40
0
40
1
40
1
40
1
40
1
41
1
41
1
41
1
41
1
10
43.763291187313214
20
-67.28897815433244
30
0
10
43.830548193564709
20
-67.339831230097502
30
0
10
43.895747595587828
20
-67.395983172361909
30
0
10
43.943319645301763
20
-67.466110712192489
30
0
0
SPLINE
5
343
100
AcDbEntity
8
0
100
AcDbSpline
70
4
71
3
72
8
73
4
74
0
42
0.000000001
43
0.0000000001
44
0.0000000001
40
0
40
0
40
0
40
0
40
1
40
1
40
1
40
1
41
1
41
1
41
1
41
1
10
43.943319645301763
20
-67.466110712192489
30
0
10
43.203306526606944
20
-67.066228999206729
30
0
10
42.619399153049365
20
-67.349107845779031
30
0
10
42.318500286838656
20
-67.70932244571199
30
0
0
SPLINE
5
344
100
AcDbEntity
8
0
100
AcDbSpline
70
4
71
3
72
8
73
4
74
0
42
0.000000001
43
0.0000000001
44
0.0000000001
40
0
40
0
40
0
40
0
40
1
40
1
40
1
40
1
41
1
41
1
41
1
41
1
10
42.318500286838656
20
-67.70932244571199
30
0
10
42.513299789392462
20
-67.644116016469113
30
0
10
42.693759050232167
20
-67.540370257249037
30
0
10
42.895530326080056
20
-67.496078890795019
30
0
0
SPLINE
5
345
100
AcDbEntity
8
0
100
AcDbSpline
70
4
71
3
72
8
73
4
74
0
42
0.000000001
43
0.0000000001
44
0.0000000001
40
0
40
0
40
0
40
0
40
1
40
1
40
1
40
1
41
1
41
1
41
1
41
1
10
42.895530326080056
20
-67.496078890795019
30
0
10
42.752403941559606
20
-67.616649528105427
30
0
10
42.585486904500868
20
-67.706028907781757
30
0
10
42.446051524316779
20
-67.831520655679853
30
0
0
SPLINE
5
346
100
AcDbEntity
8
0
100
AcDbSpline
70
4
71
3
72
8
73
4
74
0
42
0.000000001
43
0.0000000001
44
0.0000000001
40
0
40
0
40
0
40
0
40
1
40
1
40
1
40
1
41
1
41
1
41
1
41
1
10
42.446051524316779
20
-67.831520655679853
30
0
10
42.305798244309464
20
-67.958210801642494
30
0
10
42.248915385490967
20
-68.091576463597363
30
0
10
42.221312123435141
20
-68.258051642788487
30
0
0
SPLINE
5
347
100
AcDbEntity
8
0
100
AcDbSpline
70
4
71
3
72
8
73
4
74
0
42
0.000000001
43
0.0000000001
44
0.0000000001
40
0
40
0
40
0
40
0
40
1
40
1
40
1
40
1
41
1
41
1
41
1
41
1
10
42.221312123435141
20
-68.258051642788487
30
0
10
42.143802424960668
20
-68.764940430550979
30
0
10
42.105254203836516
20
-69.281243636060765
30
0
10
41.952695447879222
20
-69.772958428192538
30
0
0
SPLINE
5
348
100
AcDbEntity
8
0
100
AcDbSpline
70
4
71
3
72
8
73
4
74
0
42
0.000000001
43
0.0000000001
44
0.0000000001
40
0
40
0
40
0
40
0
40
1
40
1
40
1
40
1
41
1
41
1
41
1
41
1
10
41.952695447879222
20
-69.772958428192538
30
0
10
41.914145652057961
20
-69.891478488494343
30
0
10
41.874792514327602
20
-70.011214772003527
30
0
10
41.817377932783756
20
-70.122353166423792
30
0
0
LINE
5
349
100
AcDbEntity
8
0
100
AcDbLine
10
41.817377932783756
20
-70.122353166423792
30
0
11
41.817377932783756
21
-70.135911244298143
31
0
0
SPLINE
5
350
100
AcDbEntity
8
0
100
AcDbSpline
70
4
71
3
72
8
73
4
74
0
42
0.000000001
43
0.0000000001
44
0.0000000001
40
0
40
0
40
0
40
0
40
1
40
1
40
1
40
1
41
1
41
1
41
1
41
1
10
41.817377932783756
20
-70.135911244298143
30
0
10
41.897758346945139
20
-70.137962506889167
30
0
10
41.978131819584547
20
-70.137533332296258
30
0
10
42.058922329865645
20
-70.138763267151973
30
0
0
SPLINE
5
351
100
AcDbEntity
8
0
100
AcDbSpline
70
4
71
3
72
8
73
4
74
0
42
0.000000001
43
0.0000000001
44
0.0000000001
40
0
40
0
40
0
40
0
40
1
40
1
40
1
40
1
41
1
41
1
41
1
41
1
10
42.058922329865645
20
-70.138763267151973
30
0
10
42.146274528033345
20
-69.925098764631088
30
0
10
42.229104967371136
20
-69.707773252004557
30
0
10
42.272165884782623
20
-69.48016537429109
30
0
0
SPLINE
5
352
100
AcDbEntity
8
0
100
AcDbSpline
70
4
71
3
72
8
73
4
74
0
42
0.000000001
43
0.0000000001
44
0.0000000001
40
0
40
0
40
0
40
0
40
1
40
1
40
1
40
1
41
1
41
1
41
1
41
1
10
42.272165884782623
20
-69.48016537429109
30
0
10
42.334501694748631
20
-69.194322754931022
30
0
10
42.336947210078208
20
-68.898596093868164
30
0
10
42.406254836187216
20
-68.613984094946218
30
0
0
SPLINE
5
353
100
AcDbEntity
8
0
100
AcDbSpline
70
4
71
3
72
8
73
4
74
0
42
0.000000001
43
0.0000000001
44
0.0000000001
40
0
40
0
40
0
40
0
40
1
40
1
40
1
40
1
41
1
41
1
41
1
41
1
10
42.406254836187216
20
-68.613984094946218
30
0
10
42.421428703271225
20
-68.68944340923214
30
0
10
42.421032693727732
20
-68.766553605977677
30
0
10
42.427184296206846
20
-68.8432428551193
30
0
0
SPLINE
5
354
100
AcDbEntity
8
0
100
AcDbSpline
70
4
71
3
72
8
73
4
74
0
42
0.000000001
43
0.0000000001
44
0.0000000001
40
0
40
0
40
0
40
0
40
1
40
1
40
1
40
1
41
1
41
1
41
1
41
1
10
42.427184296206846
20
-68.8432428551193
30
0
10
42.438257094971441
20
-68.988009752665334
30
0
10
42.451398381585292
20
-69.135652668449765
30
0
10
42.507172567938049
20
-69.271397301390891
30
0
0
SPLINE
5
355
100
AcDbEntity
8
0
100
AcDbSpline
70
4
71
3
72
8
73
4
74
0
42
0.000000001
43
0.0000000001
44
0.0000000001
40
0
40
0
40
0
40
0
40
1
40
1
40
1
40
1
41
1
41
1
41
1
41
1
10
42.507172567938049
20
-69.271397301390891
30
0
10
42.545722353047083
20
-69.365721101457083
30
0
10
42.6088506962869
20
-69.450622942369392
30
0
10
42.691281612471307
20
-69.51131823930983
30
0
0
SPLINE
5
356
100
AcDbEntity
8
0
100
AcDbSpline
70
4
71
3
72
8
73
4
74
0
42
0.000000001
43
0.0000000001
44
0.0000000001
40
0
40
0
40
0
40
0
40
1
40
1
40
1
40
1
41
1
41
1
41
1
41
1
10
42.691281612471307
20
-69.51131823930983
30
0
10
42.720809132975447
20
-69.47604913746072
30
0
10
42.749930445897647
20
-69.440797175172023
30
0
10
42.78109839372955
20
-69.406758693761034
30
0
0
SPLINE
5
357
100
AcDbEntity
8
0
100
AcDbSpline
70
4
71
3
72
8
73
4
74
0
42
0.000000001
43
0.0000000001
44
0.0000000001
40
0
40
0
40
0
40
0
40
1
40
1
40
1
40
1
41
1
41
1
41
1
41
1
10
42.78109839372955
20
-69.406758693761034
30
0
10
42.84917569934273
20
-69.464993435407621
30
0
10
42.920111883633908
20
-69.520736770551636
30
0
10
42.984908334591566
20
-69.58266268793021
30
0
0
SPLINE
5
358
100
AcDbEntity
8
0
100
AcDbSpline
70
4
71
3
72
8
73
4
74
0
42
0.000000001
43
0.0000000001
44
0.0000000001
40
0
40
0
40
0
40
0
40
1
40
1
40
1
40
1
41
1
41
1
41
1
41
1
10
42.984908334591566
20
-69.58266268793021
30
0
10
42.914780537667575
20
-69.773360865071197
30
0
10
42.810628570865553
20
-69.950544156030077
30
0
10
42.727787505000308
20
-70.135911244298143
30
0
0
SPLINE
5
359
100
AcDbEntity
8
0
100
AcDbSpline
70
4
71
3
72
8
73
4
74
0
42
0.000000001
43
0.0000000001
44
0.0000000001
40
0
40
0
40
0
40
0
40
1
40
1
40
1
40
1
41
1
41
1
41
1
41
1
10
42.727787505000308
20
-70.135911244298143
30
0
10
42.781776177646343
20
-70.141537819192706
30
0
10
42.778452302694163
20
-70.157713450734335
30
0
10
42.930368882171436
20
-70.132225553225496
30
0
0
SPLINE
5
360
100
AcDbEntity
8
0
100
AcDbSpline
70
4
71
3
72
8
73
4
74
0
42
0.000000001
43
0.0000000001
44
0.0000000001
40
0
40
0
40
0
40
0
40
1
40
1
40
1
40
1
41
1
41
1
41
1
41
1
10
42.930368882171436
20
-70.132225553225496
30
0
10
43.024282703952387
20
-70.014525449494172
30
0
10
43.097690841345084
20
-69.882042132109703
30
0
10
43.177661202235655
20
-69.755319763773485
30
0
0
SPLINE
5
361
100
AcDbEntity
8
0
100
AcDbSpline
70
4
71
3
72
8
73
4
74
0
42
0.000000001
43
0.0000000001
44
0.0000000001
40
0
40
0
40
0
40
0
40
1
40
1
40
1
40
1
41
1
41
1
41
1
41
1
10
43.177661202235655
20
-69.755319763773485
30
0
10
43.411830617864574
20
-69.822986748310214
30
0
10
43.63002716295162
20
-69.945193185267073
30
0
10
43.8728088649002
20
-69.984973419418637
30
0
0
SPLINE
5
362
100
AcDbEntity
8
0
100
AcDbSpline
70
4
71
3
72
8
73
4
74
0
42
0.000000001
43
0.0000000001
44
0.0000000001
40
0
40
0
40
0
40
0
40
1
40
1
40
1
40
1
41
1
41
1
41
1
41
1
10
43.8728088649002
20
-69.984973419418637
30
0
10
43.816214550581371
20
-69.883267267888499
30
0
10
43.746916394079491
20
-69.788963349712404
30
0
10
43.680889665474922
20
-69.693408929208076
30
0
0
SPLINE
5
363
100
AcDbEntity
8
0
100
AcDbSpline
70
4
71
3
72
8
73
4
74
0
42
0.000000001
43
0.0000000001
44
0.0000000001
40
0
40
0
40
0
40
0
40
1
40
1
40
1
40
1
41
1
41
1
41
1
41
1
10
43.680889665474922
20
-69.693408929208076
30
0
10
43.870357736364589
20
-69.753284269578032
30
0
10
44.046282469401866
20
-69.847992681380049
30
0
10
44.223037271350272
20
-69.937805349143787
30
0
0
SPLINE
5
364
100
AcDbEntity
8
0
100
AcDbSpline
70
4
71
3
72
8
73
4
74
0
42
0.000000001
43
0.0000000001
44
0.0000000001
40
0
40
0
40
0
40
0
40
1
40
1
40
1
40
1
41
1
41
1
41
1
41
1
10
44.223037271350272
20
-69.937805349143787
30
0
10
44.447917902209767
20
-70.061568743769172
30
0
10
44.616979269672605
20
-70.144905400023958
30
0
10
44.855396553955934
20
-70.138368371679917
30
0
0
SPLINE
5
365
100
AcDbEntity
8
0
100
AcDbSpline
70
4
71
3
72
8
73
4
74
0
42
0.000000001
43
0.0000000001
44
0.0000000001
40
0
40
0
40
0
40
0
40
1
40
1
40
1
40
1
41
1
41
1
41
1
41
1
10
44.855396553955934
20
-70.138368371679917
30
0
10
44.82586886205619
20
-69.970635834336392
30
0
10
44.763527138941839
20
-69.811519011224632
30
0
10
44.705292397295239
20
-69.651988781915563
30
0
0
SPLINE
5
366
100
AcDbEntity
8
0
100
AcDbSpline
70
4
71
3
72
8
73
4
74
0
42
0.000000001
43
0.0000000001
44
0.0000000001
40
0
40
0
40
0
40
0
40
1
40
1
40
1
40
1
41
1
41
1
41
1
41
1
10
44.705292397295239
20
-69.651988781915563
30
0
10
44.960486054712909
20
-69.782340623566256
30
0
10
45.103565733931219
20
-69.905934679334678
30
0
10
45.242130852934999
20
-70.108838965824106
30
0
0
SPLINE
5
367
100
AcDbEntity
8
0
100
AcDbSpline
70
4
71
3
72
8
73
4
74
0
42
0.000000001
43
0.0000000001
44
0.0000000001
40
0
40
0
40
0
40
0
40
1
40
1
40
1
40
1
41
1
41
1
41
1
41
1
10
45.242130852934999
20
-70.108838965824106
30
0
10
45.682775925257999
20
-69.812517904805901
30
0
10
45.429669523508231
20
-69.411548858107111
30
0
10
45.231863570661218
20
-69.014671367271703
30
0
0
SPLINE
5
368
100
AcDbEntity
8
0
100
AcDbSpline
70
4
71
3
72
8
73
4
74
0
42
0.000000001
43
0.0000000001
44
0.0000000001
40
0
40
0
40
0
40
0
40
1
40
1
40
1
40
1
41
1
41
1
41
1
41
1
10
45.231863570661218
20
-69.014671367271703
30
0
10
45.501209020326179
20
-69.156793287853773
30
0
10
45.86850431545971
20
-69.282261040367274
30
0
10
45.912663364507281
20
-69.59209630198518
30
0
0
SPLINE
5
369
100
AcDbEntity
8
0
100
AcDbSpline
70
4
71
3
72
8
73
4
74
0
42
0.000000001
43
0.0000000001
44
0.0000000001
40
0
40
0
40
0
40
0
40
1
40
1
40
1
40
1
41
1
41
1
41
1
41
1
10
45.912663364507281
20
-69.59209630198518
30
0
10
45.929887594355392
20
-69.728250913211525
30
0
10
45.901183972520627
20
-69.864818930635209
30
0
10
45.910206237125522
20
-70.001383520146817
30
0
0
SPLINE
5
370
100
AcDbEntity
8
0
100
AcDbSpline
70
4
71
3
72
8
73
4
74
0
42
0.000000001
43
0.0000000001
44
0.0000000001
40
0
40
0
40
0
40
0
40
1
40
1
40
1
40
1
41
1
41
1
41
1
41
1
10
45.910206237125522
20
-70.001383520146817
30
0
10
46.129201828519328
20
-69.929615381592868
30
0
10
46.277645504566578
20
-69.742615236008021
30
0
10
46.434715178581811
20
-69.5847249198399
30
0
0
SPLINE
5
371
100
AcDbEntity
8
0
100
AcDbSpline
70
4
71
3
72
8
73
4
74
0
42
0.000000001
43
0.0000000001
44
0.0000000001
40
0
40
0
40
0
40
0
40
1
40
1
40
1
40
1
41
1
41
1
41
1
41
1
10
46.434715178581811
20
-69.5847249198399
30
0
10
46.534370410312142
20
-69.767221474528867
30
0
10
46.623787497021397
20
-69.955446755892524
30
0
10
46.72303275046648
20
-70.138763267151973
30
0
0
SPLINE
5
372
100
AcDbEntity
8
0
100
AcDbSpline
70
4
71
3
72
8
73
4
74
0
42
0.000000001
43
0.0000000001
44
0.0000000001
40
0
40
0
40
0
40
0
40
1
40
1
40
1
40
1
41
1
41
1
41
1
41
1
10
46.72303275046648
20
-70.138763267151973
30
0
10
46.800132663475765
20
-70.137943310581491
30
0
10
46.877633984990084
20
-70.137125410758273
30
0
10
46.955143533493398
20
-70.136306139770213
30
0
0
SPLINE
5
373
100
AcDbEntity
8
0
100
AcDbSpline
70
4
71
3
72
8
73
4
74
0
42
0.000000001
43
0.0000000001
44
0.0000000001
40
0
40
0
40
0
40
0
40
1
40
1
40
1
40
1
41
1
41
1
41
1
41
1
10
46.955143533493398
20
-70.136306139770213
30
0
10
46.897729091208483
20
-69.954219563366479
30
0
10
46.795591022755772
20
-69.79059914935884
30
0
10
46.723822541410613
20
-69.614254325695683
30
0
0
SPLINE
5
374
100
AcDbEntity
8
0
100
AcDbSpline
70
4
71
3
72
8
73
4
74
0
42
0.000000001
43
0.0000000001
44
0.0000000001
40
0
40
0
40
0
40
0
40
1
40
1
40
1
40
1
41
1
41
1
41
1
41
1
10
46.723822541410613
20
-69.614254325695683
30
0
10
46.694705170587319
20
-69.535514499545442
30
0
10
46.654958187182963
20
-69.453099266058814
30
0
10
46.66972186173723
20
-69.366567110159394
30
0
0
SPLINE
5
375
100
AcDbEntity
8
0
100
AcDbSpline
70
4
71
3
72
8
73
4
74
0
42
0.000000001
43
0.0000000001
44
0.0000000001
40
0
40
0
40
0
40
0
40
1
40
1
40
1
40
1
41
1
41
1
41
1
41
1
10
46.66972186173723
20
-69.366567110159394
30
0
10
46.686536113300107
20
-69.24804704985759
30
0
10
46.741471832357142
20
-69.138922210995418
30
0
10
46.76484779323107
20
-69.022042749416983
30
0
0
SPLINE
5
376
100
AcDbEntity
8
0
100
AcDbSpline
70
4
71
3
72
8
73
4
74
0
42
0.000000001
43
0.0000000001
44
0.0000000001
40
0
40
0
40
0
40
0
40
1
40
1
40
1
40
1
41
1
41
1
41
1
41
1
10
46.76484779323107
20
-69.022042749416983
30
0
10
46.816521168357816
20
-68.764497544309734
30
0
10
46.7509215575989
20
-68.486447940281266
30
0
10
46.588110130843077
20
-68.280165789224327
30
0
0
SPLINE
5
377
100
AcDbEntity
8
0
100
AcDbSpline
70
4
71
3
72
8
73
4
74
0
42
0.000000001
43
0.0000000001
44
0.0000000001
40
0
40
0
40
0
40
0
40
1
40
1
40
1
40
1
41
1
41
1
41
1
41
1
10
46.588110130843077
20
-68.280165789224327
30
0
10
46.511010560625003
20
-68.183791412149532
30
0
10
46.411353957729844
20
-68.106718922436912
30
0
10
46.342046374469746
20
-68.003782836051073
30
0
0
SPLINE
5
378
100
AcDbEntity
8
0
100
AcDbSpline
70
4
71
3
72
8
73
4
74
0
42
0.000000001
43
0.0000000001
44
0.0000000001
40
0
40
0
40
0
40
0
40
1
40
1
40
1
40
1
41
1
41
1
41
1
41
1
10
46.342046374469746
20
-68.003782836051073
30
0
10
46.455235003107411
20
-68.027569118001438
30
0
10
46.543798882498983
20
-68.110000119883651
30
0
10
46.612286509188607
20
-68.198992831076922
30
0
0
SPLINE
5
379
100
AcDbEntity
8
0
100
AcDbSpline
70
4
71
3
72
8
73
4
74
0
42
0.000000001
43
0.0000000001
44
0.0000000001
40
0
40
0
40
0
40
0
40
1
40
1
40
1
40
1
41
1
41
1
41
1
41
1
10
46.612286509188607
20
-68.198992831076922
30
0
10
46.661498986230306
20
-68.258868171446878
30
0
10
46.70293421633599
20
-68.324884273523992
30
0
10
46.75624784739491
20
-68.381478416447237
30
0
0
SPLINE
5
380
100
AcDbEntity
8
0
100
AcDbSpline
70
4
71
3
72
8
73
4
74
0
42
0.000000001
43
0.0000000001
44
0.0000000001
40
0
40
0
40
0
40
0
40
1
40
1
40
1
40
1
41
1
41
1
41
1
41
1
10
46.75624784739491
20
-68.381478416447237
30
0
10
46.831993735131043
20
-67.816875244092486
30
0
10
46.247914194689045
20
-67.665856520487793
30
0
10
45.967202816927411
20
-67.576856953470369
30
0
0
SPLINE
5
381
100
AcDbEntity
8
0
100
AcDbSpline
70
4
71
3
72
8
73
4
74
0
42
0.000000001
43
0.0000000001
44
0.0000000001
40
0
40
0
40
0
40
0
40
1
40
1
40
1
40
1
41
1
41
1
41
1
41
1
10
45.967202816927411
20
-67.576856953470369
30
0
10
46.02256702499492
20
-67.531745630445869
30
0
10
46.090243950476705
20
-67.505079216762581
30
0
10
46.14560781575301
20
-67.459967893738096
30
0
0
SPLINE
5
382
100
AcDbEntity
8
0
100
AcDbSpline
70
4
71
3
72
8
73
4
74
0
42
0.000000001
43
0.0000000001
44
0.0000000001
40
0
40
0
40
0
40
0
40
1
40
1
40
1
40
1
41
1
41
1
41
1
41
1
10
46.14560781575301
20
-67.459967893738096
30
0
10
45.981156133065035
20
-67.457507338444245
30
0
10
45.813009161150582
20
-67.45343086539404
30
0
10
45.654708866697213
20
-67.504283941159116
30
0
0
SPLINE
5
383
100
AcDbEntity
8
0
100
AcDbSpline
70
4
71
3
72
8
73
4
74
0
42
0.000000001
43
0.0000000001
44
0.0000000001
40
0
40
0
40
0
40
0
40
1
40
1
40
1
40
1
41
1
41
1
41
1
41
1
10
45.654708866697213
20
-67.504283941159116
30
0
10
45.540289617621418
20
-67.543244218740199
30
0
10
45.423002234504992
20
-67.576859695800024
30
0
10
45.303251896556269
20
-67.595724181580294
30
0
0
SPLINE
5
384
100
AcDbEntity
8
0
100
AcDbSpline
70
4
71
3
72
8
73
4
74
0
42
0.000000001
43
0.0000000001
44
0.0000000001
40
0
40
0
40
0
40
0
40
1
40
1
40
1
40
1
41
1
41
1
41
1
41
1
10
45.303251896556269
20
-67.595724181580294
30
0
10
45.372149158739923
20
-67.553073413849646
30
0
10
45.443907013557613
20
-67.514937891915949
30
0
10
45.516495451473247
20
-67.479668790066839
30
0
0
SPLINE
5
385
100
AcDbEntity
8
0
100
AcDbSpline
70
4
71
3
72
8
73
4
74
0
42
0.000000001
43
0.0000000001
44
0.0000000001
40
0
40
0
40
0
40
0
40
1
40
1
40
1
40
1
41
1
41
1
41
1
41
1
10
45.516495451473247
20
-67.479668790066839
30
0
10
46.058568328865164
20
-67.295761306764106
30
0
10
46.817110426445041
20
-66.675898820451621
30
0
10
47.080632539061831
20
-66.282170209656499
30
0
0
SPLINE
5
386
100
AcDbEntity
8
0
100
AcDbSpline
70
4
71
3
72
8
73
4
74
0
42
0.000000001
43
0.0000000001
44
0.0000000001
40
0
40
0
40
0
40
0
40
1
40
1
40
1
40
1
41
1
41
1
41
1
41
1
10
47.080632539061831
20
-66.282170209656499
30
0
10
47.44144051057652
20
-65.718151153520864
30
0
10
47.277993206129139
20
-65.26716338485825
30
0
10
46.950229278729879
20
-64.813992721780565
30
0
0
SPLINE
5
387
100
AcDbEntity
8
0
100
AcDbSpline
70
4
71
3
72
8
73
4
74
0
42
0.000000001
43
0.0000000001
44
0.0000000001
40
0
40
0
40
0
40
0
40
1
40
1
40
1
40
1
41
1
41
1
41
1
41
1
10
46.950229278729879
20
-64.813992721780565
30
0
10
47.100737243434068
20
-64.842700114318632
30
0
10
47.239775071514217
20
-64.910334533690573
30
0
10
47.384131647983793
20
-64.960367310093957
30
0
0
SPLINE
5
388
100
AcDbEntity
8
0
100
AcDbSpline
70
4
71
3
72
8
73
4
74
0
42
0.000000001
43
0.0000000001
44
0.0000000001
40
0
40
0
40
0
40
0
40
1
40
1
40
1
40
1
41
1
41
1
41
1
41
1
10
47.384131647983793
20
-64.960367310093957
30
0
10
47.337379726235937
20
-64.851689813758739
30
0
10
47.268479721722613
20
-64.754938709145904
30
0
10
47.200812394394667
20
-64.658974310356356
30
0
0
SPLINE
5
389
100
AcDbEntity
8
0
100
AcDbSpline
70
4
71
3
72
8
73
4
74
0
42
0.000000001
43
0.0000000001
44
0.0000000001
40
0
40
0
40
0
40
0
40
1
40
1
40
1
40
1
41
1
41
1
41
1
41
1
10
47.200812394394667
20
-64.658974310356356
30
0
10
47.253715704377136
20
-64.64462061408733
30
0
10
47.30784346455598
20
-64.633948495396439
30
0
10
47.359516496891523
20
-64.614263367463266
30
0
0
SPLINE
5
390
100
AcDbEntity
8
0
100
AcDbSpline
70
4
71
3
72
8
73
4
74
0
42
0.000000001
43
0.0000000001
44
0.0000000001
40
0
40
0
40
0
40
0
40
1
40
1
40
1
40
1
41
1
41
1
41
1
41
1
10
47.359516496891523
20
-64.614263367463266
30
0
10
47.315225130437511
20
-64.563820612774649
30
0
10
47.266827125306946
20
-64.51708034592788
30
0
10
47.209412340230827
20
-64.482631543440434
30
0
0
SPLINE
5
391
100
AcDbEntity
8
0
100
AcDbSpline
70
4
71
3
72
8
73
4
74
0
42
0.000000001
43
0.0000000001
44
0.0000000001
40
0
40
0
40
0
40
0
40
1
40
1
40
1
40
1
41
1
41
1
41
1
41
1
10
47.209412340230827
20
-64.482631543440434
30
0
10
47.071207151995864
20
-64.396509365826248
30
0
10
46.909609891700171
20
-64.364077546809
30
0
10
46.757871649349063
20
-64.310764258541298
30
0
0
SPLINE
5
392
100
AcDbEntity
8
0
100
AcDbSpline
70
4
71
3
72
8
73
4
74
0
42
0.000000001
43
0.0000000001
44
0.0000000001
40
0
40
0
40
0
40
0
40
1
40
1
40
1
40
1
41
1
41
1
41
1
41
1
10
46.757871649349063
20
-64.310764258541298
30
0
10
46.757871649349063
20
-64.308303703247461
30
0
10
46.75830973651339
20
-64.303411729912483
30
0
10
46.75830973651339
20
-64.300540853542202
30
0
0
SPLINE
5
393
100
AcDbEntity
8
0
100
AcDbSpline
70
4
71
3
72
8
73
4
74
0
42
0.000000001
43
0.0000000001
44
0.0000000001
40
0
40
0
40
0
40
0
40
1
40
1
40
1
40
1
41
1
41
1
41
1
41
1
10
46.75830973651339
20
-64.300540853542202
30
0
10
46.885441740343644
20
-64.245176645474672
30
0
10
47.019116942759702
20
-64.20458433895044
30
0
10
47.142147792572743
20
-64.140608187354459
30
0
0
SPLINE
5
394
100
AcDbEntity
8
0
100
AcDbSpline
70
4
71
3
72
8
73
4
74
0
42
0.000000001
43
0.0000000001
44
0.0000000001
40
0
40
0
40
0
40
0
40
1
40
1
40
1
40
1
41
1
41
1
41
1
41
1
10
47.142147792572743
20
-64.140608187354459
30
0
10
47.053975380741164
20
-64.123793935791582
30
0
10
46.963342070824531
20
-64.128702705895762
30
0
10
46.874759680707704
20
-64.118450163643942
30
0
0
SPLINE
5
395
100
AcDbEntity
8
0
100
AcDbSpline
70
4
71
3
72
8
73
4
74
0
42
0.000000001
43
0.0000000001
44
0.0000000001
40
0
40
0
40
0
40
0
40
1
40
1
40
1
40
1
41
1
41
1
41
1
41
1
10
46.874759680707704
20
-64.118450163643942
30
0
10
46.878040535363233
20
-64.090973391544011
30
0
10
46.880095911448763
20
-64.063920309377664
30
0
10
46.881736167380922
20
-64.036443537277734
30
0
0
SPLINE
5
396
100
AcDbEntity
8
0
100
AcDbSpline
70
4
71
3
72
8
73
4
74
0
42
0.000000001
43
0.0000000001
44
0.0000000001
40
0
40
0
40
0
40
0
40
1
40
1
40
1
40
1
41
1
41
1
41
1
41
1
10
46.881736167380922
20
-64.036443537277734
30
0
10
46.78413116986799
20
-64.067201164033193
30
0
10
46.686536113300107
20
-64.096712744746142
30
0
10
46.58688088156979
20
-64.119678727334829
30
0
0
SPLINE
5
397
100
AcDbEntity
8
0
100
AcDbSpline
70
4
71
3
72
8
73
4
74
0
42
0.000000001
43
0.0000000001
44
0.0000000001
40
0
40
0
40
0
40
0
40
1
40
1
40
1
40
1
41
1
41
1
41
1
41
1
10
46.58688088156979
20
-64.119678727334829
30
0
10
46.594262547451315
20
-64.095482467099217
30
0
10
46.602460399200027
20
-64.071681445126885
30
0
10
46.610662364443243
20
-64.047895505967716
30
0
0
SPLINE
5
398
100
AcDbEntity
8
0
100
AcDbSpline
70
4
71
3
72
8
73
4
74
0
42
0.000000001
43
0.0000000001
44
0.0000000001
40
0
40
0
40
0
40
0
40
1
40
1
40
1
40
1
41
1
41
1
41
1
41
1
10
46.610662364443243
20
-64.047895505967716
30
0
10
46.736154455132549
20
-64.015087302203654
30
0
10
46.872283357018283
20
-64.018380840133887
30
0
10
46.988752840311477
20
-63.956455265546516
30
0
0
SPLINE
5
399
100
AcDbEntity
8
0
100
AcDbSpline
70
4
71
3
72
8
73
4
74
0
42
0.000000001
43
0.0000000001
44
0.0000000001
40
0
40
0
40
0
40
0
40
1
40
1
40
1
40
1
41
1
41
1
41
1
41
1
10
46.988752840311477
20
-63.956455265546516
30
0
10
47.015819634126167
20
-63.940051335060097
30
0
10
47.045372349784131
20
-63.924476616506773
30
0
10
47.06382685727916
20
-63.898230122053761
30
0
0
SPLINE
5
400
100
AcDbEntity
8
0
100
AcDbSpline
70
4
71
3
72
8
73
4
74
0
42
0.000000001
43
0.0000000001
44
0.0000000001
40
0
40
0
40
0
40
0
40
1
40
1
40
1
40
1
41
1
41
1
41
1
41
1
10
47.06382685727916
20
-63.898230122053761
30
0
10
47.085972197714959
20
-63.82318112884429
30
0
10
47.098673640359543
20
-63.744423477551209
30
0
10
47.13394274220866
20
-63.673885616644192
30
0
0
SPLINE
5
401
100
AcDbEntity
8
0
100
AcDbSpline
70
4
71
3
72
8
73
4
74
0
42
0.000000001
43
0.0000000001
44
0.0000000001
40
0
40
0
40
0
40
0
40
1
40
1
40
1
40
1
41
1
41
1
41
1
41
1
10
47.13394274220866
20
-63.673885616644192
30
0
10
47.149936694409845
20
-63.812500783164396
30
0
10
47.138027442247868
20
-63.956880669436146
30
0
10
47.186419962719093
20
-64.089754426006976
30
0
0
SPLINE
5
402
100
AcDbEntity
8
0
100
AcDbSpline
70
4
71
3
72
8
73
4
74
0
42
0.000000001
43
0.0000000001
44
0.0000000001
40
0
40
0
40
0
40
0
40
1
40
1
40
1
40
1
41
1
41
1
41
1
41
1
10
47.186419962719093
20
-64.089754426006976
30
0
10
47.226199854079447
20
-64.192690512392829
30
0
10
47.350074313056346
20
-64.218114650736894
30
0
10
47.407078777056022
20
-64.307517340215412
30
0
0
SPLINE
5
403
100
AcDbEntity
8
0
100
AcDbSpline
70
4
71
3
72
8
73
4
74
0
42
0.000000001
43
0.0000000001
44
0.0000000001
40
0
40
0
40
0
40
0
40
1
40
1
40
1
40
1
41
1
41
1
41
1
41
1
10
47.407078777056022
20
-64.307517340215412
30
0
10
47.490740056585153
20
-64.437110242130714
30
0
10
47.571541771853873
20
-64.574494102630368
30
0
10
47.69785347632245
20
-64.668407924411312
30
0
0
SPLINE
5
404
100
AcDbEntity
8
0
100
AcDbSpline
70
4
71
3
72
8
73
4
74
0
42
0.000000001
43
0.0000000001
44
0.0000000001
40
0
40
0
40
0
40
0
40
1
40
1
40
1
40
1
41
1
41
1
41
1
41
1
10
47.69785347632245
20
-64.668407924411312
30
0
10
47.818652412577649
20
-64.767714880273928
30
0
10
47.902778174194154
20
-64.722138389579641
30
0
10
48.024300399899062
20
-64.674550742865719
30
0
0
SPLINE
5
405
100
AcDbEntity
8
0
100
AcDbSpline
70
4
71
3
72
8
73
4
74
0
42
0.000000001
43
0.0000000001
44
0.0000000001
40
0
40
0
40
0
40
0
40
1
40
1
40
1
40
1
41
1
41
1
41
1
41
1
10
48.024300399899062
20
-64.674550742865719
30
0
10
48.186423501908422
20
-64.733248938226069
30
0
10
48.243894504742727
20
-64.754251069981876
30
0
10
48.367552319675916
20
-64.627777568062939
30
0
0
SPLINE
5
406
100
AcDbEntity
8
0
100
AcDbSpline
70
4
71
3
72
8
73
4
74
0
42
0.000000001
43
0.0000000001
44
0.0000000001
40
0
40
0
40
0
40
0
40
1
40
1
40
1
40
1
41
1
41
1
41
1
41
1
10
48.367552319675916
20
-64.627777568062939
30
0
10
48.512319217221936
20
-64.466606740030485
30
0
10
48.561533751010892
20
-64.243127782422121
30
0
10
48.561533751010892
20
-64.031924177986284
30
0
0
SPLINE
5
407
100
AcDbEntity
8
0
100
AcDbSpline
70
4
71
3
72
8
73
4
74
0
42
0.000000001
43
0.0000000001
44
0.0000000001
40
0
40
0
40
0
40
0
40
1
40
1
40
1
40
1
41
1
41
1
41
1
41
1
10
48.561533751010892
20
-64.031924177986284
30
0
10
48.683005243616954
20
-64.031391823239645
30
0
10
48.757728927969659
20
-64.038204112924035
30
0
10
48.76451002365409
20
-63.9142014500352
30
0
0
SPLINE
5
408
100
AcDbEntity
8
0
100
AcDbSpline
70
4
71
3
72
8
73
4
74
0
42
0.000000001
43
0.0000000001
44
0.0000000001
40
0
40
0
40
0
40
0
40
1
40
1
40
1
40
1
41
1
41
1
41
1
41
1
10
48.76451002365409
20
-63.9142014500352
30
0
10
48.792476301599606
20
-63.562679692355864
30
0
10
48.554902797875741
20
-63.320206673890439
30
0
10
48.316259785581693
20
-63.149376675187895
30
0
0
SPLINE
5
409
100
AcDbEntity
8
0
100
AcDbSpline
70
4
71
3
72
8
73
4
74
0
42
0.000000001
43
0.0000000001
44
0.0000000001
40
0
40
0
40
0
40
0
40
1
40
1
40
1
40
1
41
1
41
1
41
1
41
1
10
48.316259785581693
20
-63.149376675187895
30
0
10
48.342095958958254
20
-63.098113621137593
30
0
10
48.368789795938213
20
-63.047670180866554
30
0
10
48.393396034459066
20
-62.995586827454552
30
0
0
SPLINE
5
410
100
AcDbEntity
8
0
100
AcDbSpline
70
4
71
3
72
8
73
4
74
0
42
0.000000001
43
0.0000000001
44
0.0000000001
40
0
40
0
40
0
40
0
40
1
40
1
40
1
40
1
41
1
41
1
41
1
41
1
10
48.393396034459066
20
-62.995586827454552
30
0
10
48.14382415285904
20
-62.703620243156557
30
0
10
47.979544208566466
20
-62.829867502877946
30
0
10
47.761387770050796
20
-62.815953264938074
30
0
0
SPLINE
5
411
100
AcDbEntity
8
0
100
AcDbSpline
70
4
71
3
72
8
73
4
74
0
42
0.000000001
43
0.0000000001
44
0.0000000001
40
0
40
0
40
0
40
0
40
1
40
1
40
1
40
1
41
1
41
1
41
1
41
1
10
47.761387770050796
20
-62.815953264938074
30
0
10
48.077315117024256
20
-62.287203653442759
30
0
10
47.794314236781759
20
-61.817038087835392
30
0
10
47.503038376768664
20
-61.460979145721772
30
0
0
SPLINE
5
412
100
AcDbEntity
8
0
100
AcDbSpline
70
4
71
3
72
8
73
4
74
0
42
0.000000001
43
0.0000000001
44
0.0000000001
40
0
40
0
40
0
40
0
40
1
40
1
40
1
40
1
41
1
41
1
41
1
41
1
10
47.503038376768664
20
-61.460979145721772
30
0
10
47.368525049848088
20
-61.300628445655391
30
0
10
47.159776516046762
20
-61.223112041327909
30
0
10
47.033464468786981
20
-61.054149054941881
30
0
0
SPLINE
5
413
100
AcDbEntity
8
0
100
AcDbSpline
70
4
71
3
72
8
73
4
74
0
42
0.000000001
43
0.0000000001
44
0.0000000001
40
0
40
0
40
0
40
0
40
1
40
1
40
1
40
1
41
1
41
1
41
1
41
1
10
47.033464468786981
20
-61.054149054941881
30
0
10
46.799294881762457
20
-60.742059769733203
30
0
10
46.624993093701306
20
-60.389362066813476
30
0
10
46.472844530273761
20
-60.030931009537774
30
0
0
SPLINE
5
414
100
AcDbEntity
8
0
100
AcDbSpline
70
4
71
3
72
8
73
4
74
0
42
0.000000001
43
0.0000000001
44
0.0000000001
40
0
40
0
40
0
40
0
40
1
40
1
40
1
40
1
41
1
41
1
41
1
41
1
10
46.472844530273761
20
-60.030931009537774
30
0
10
46.371138721534827
20
-59.790199841748894
30
0
10
46.210782365413522
20
-59.575319630207446
30
0
10
46.013932114455514
20
-59.403485981695631
30
0
0
ENDSEC
0
SECTION
2
OBJECTS
0
DICTIONARY
5
C
100
AcDbDictionary
3
ACAD_GROUP
350
D
3
ACAD_MLINESTYLE
350
17
0
DICTIONARY
5
D
100
AcDbDictionary
0
DICTIONARY
5
1A
330
C
100
AcDbDictionary
0
DICTIONARY
5
17
100
AcDbDictionary
0
ENDSEC
0
EOF
