0
SECTION
2
HEADER
9
$INSUNITS
70
4
9
$ACADVER
1
AC1014
9
$HANDSEED
5
FFFF
0
ENDSEC
0
SECTION
2
TABLES
0
TABLE
2
VPORT
5
8
100
AcDbSymbolTable
0
ENDTAB
0
TABLE
2
LTYPE
5
5
100
AcDbSymbolTable
0
LTYPE
5
14
100
AcDbSymbolTableRecord
100
AcDbLinetypeTableRecord
2
BYBLOCK
70
0
0
LTYPE
5
15
100
AcDbSymbolTableRecord
100
AcDbLinetypeTableRecord
2
BYLAYER
70
0
0
ENDTAB
0
TABLE
2
LAYER
5
2
100
AcDbSymbolTable
70
2
0
LAYER
5
50
100
AcDbSymbolTableRecord
100
AcDbLayerTableRecord
2
0
70
0
6
CONTINUOUS
0
ENDTAB
0
TABLE
2
STYLE
5
3
100
AcDbSymbolTable
70
1
0
STYLE
5
11
100
AcDbSymbolTableRecord
100
AcDbTextStyleTableRecord
2
STANDARD
70
0
0
ENDTAB
0
TABLE
2
VIEW
5
6
100
AcDbSymbolTable
70
0
0
ENDTAB
0
TABLE
2
UCS
5
7
100
AcDbSymbolTable
70
0
0
ENDTAB
0
TABLE
2
APPID
5
9
100
AcDbSymbolTable
70
2
0
APPID
5
12
100
AcDbSymbolTableRecord
100
AcDbRegAppTableRecord
2
ACAD
70
0
0
ENDTAB
0
TABLE
2
DIMSTYLE
5
A
100
AcDbSymbolTable
70
1
0
ENDTAB
0
TABLE
2
BLOCK_RECORD
5
1
100
AcDbSymbolTable
70
1
0
BLOCK_RECORD
5
1F
100
AcDbSymbolTableRecord
100
AcDbBlockTableRecord
2
*MODEL_SPACE
0
BLOCK_RECORD
5
1B
100
AcDbSymbolTableRecord
100
AcDbBlockTableRecord
2
*PAPER_SPACE
0
ENDTAB
0
ENDSEC
0
SECTION
2
BLOCKS
0
BLOCK
5
20
100
AcDbEntity
100
AcDbBlockBegin
2
*MODEL_SPACE
0
ENDBLK
5
21
100
AcDbEntity
100
AcDbBlockEnd
0
BLOCK
5
1C
100
AcDbEntity
100
AcDbBlockBegin
2
*PAPER_SPACE
0
ENDBLK
5
1D
100
AcDbEntity
100
AcDbBlockEnd
0
ENDSEC
0
SECTION
2
ENTITIES
0
LINE
5
100
100
AcDbEntity
8
0
100
AcDbLine
10
194.33497694066273
20
190.99421445726585
30
0
11
194.33497694066284
21
159.40419339565582
31
0
0
SPLINE
5
101
100
AcDbEntity
8
0
100
AcDbSpline
70
4
71
5
72
61
73
55
74
0
42
0.000000001
43
0.0000000001
44
0.0000000001
40
0
40
0
40
0
40
0
40
0
40
0
40
0.02
40
0.040000000000000001
40
0.059999999999999998
40
0.080000000000000002
40
0.10000000000000001
40
0.12
40
0.14000000000000001
40
0.16
40
0.17999999999999999
40
0.20000000000000001
40
0.22
40
0.23999999999999991
40
0.26000000000000001
40
0.28000000000000003
40
0.29999999999999999
40
0.32000000000000001
40
0.34000000000000002
40
0.35999999999999999
40
0.38000000000000012
40
0.40000000000000008
40
0.4200000000000001
40
0.44000000000000022
40
0.46000000000000019
40
0.4800000000000002
40
0.50000000000000011
40
0.52000000000000013
40
0.54000000000000015
40
0.56000000000000016
40
0.58000000000000018
40
0.6000000000000002
40
0.62000000000000022
40
0.64000000000000035
40
0.66000000000000025
40
0.68000000000000027
40
0.70000000000000029
40
0.72000000000000031
40
0.74000000000000032
40
0.76000000000000045
40
0.78000000000000036
40
0.80000000000000027
40
0.8200000000000004
40
0.8400000000000003
40
0.86000000000000043
40
0.88000000000000045
40
0.90000000000000047
40
0.92000000000000037
40
0.94000000000000039
40
0.96000000000000041
40
0.98000000000000065
40
1
40
1
40
1
40
1
40
1
40
1
41
1
41
1
41
1
41
1
41
1
41
1
41
1
41
1
41
1
41
1
41
1
41
1
41
1
41
1
41
1
41
1
41
1
41
1
41
1
41
1
41
1
41
1
41
1
41
1
41
1
41
1
41
1
41
1
41
1
41
1
41
1
41
1
41
1
41
1
41
1
41
1
41
1
41
1
41
1
41
1
41
1
41
1
41
1
41
1
41
1
41
1
41
1
41
1
41
1
41
1
41
1
41
1
41
1
41
1
41
1
10
162.68965513207181
20
162.837398989722
30
0
10
162.75352267673776
20
162.91071226445925
30
0
10
162.86981339864556
20
163.07183369030952
30
0
10
163.00850467425548
20
163.3575276952902
30
0
10
163.11865756296618
20
163.82258015483137
30
0
10
163.1327264208731
20
164.51204678613601
30
0
10
163.03073692212564
20
165.26291967470442
30
0
10
162.82420547547451
20
166.02141374940462
30
0
10
162.52602591223734
20
166.7342511214689
30
0
10
162.14781982670667
20
167.35639734954623
30
0
10
161.69750530855495
20
167.85830038802035
30
0
10
161.18111016883375
20
168.22355744475885
30
0
10
160.60434575590901
20
168.44705610729875
30
0
10
159.97434742129812
20
168.53297714957364
30
0
10
159.30117425422284
20
168.49287600278842
30
0
10
158.59984248239067
20
168.34378438382888
30
0
10
157.89072434150427
20
168.10623038422983
30
0
10
157.1967204455832
20
167.80205045473195
30
0
10
156.54112782589169
20
167.45225085865852
30
0
10
155.94523561492701
20
167.0748560933819
30
0
10
155.42602468645728
20
166.68274548827083
30
0
10
154.99382971178773
20
166.28151247152257
30
0
10
154.64994726760796
20
165.86721704156363
30
0
10
154.38897565985297
20
165.43089996039294
30
0
10
154.20119737039684
20
164.96312476976459
30
0
10
154.0749462286536
20
164.45860448959718
30
0
10
153.99893420952992
20
163.92057395704953
30
0
10
153.96469394559887
20
163.36590069814434
30
0
10
153.96725581519061
20
162.82016703312473
30
0
10
154.00563234532711
20
162.31192752464918
30
0
10
154.08345827873077
20
161.86717836863522
30
0
10
154.20940004986466
20
161.50395413781499
30
0
10
154.39814581222458
20
161.22626037622047
30
0
10
154.66365527441536
20
161.02807445622065
30
0
10
155.01192494064634
20
160.89815333734555
30
0
10
155.4335742258431
20
160.82461210454821
30
0
10
155.89736343305538
20
160.79936811347034
30
0
10
156.36231331146544
20
160.81707074259975
30
0
10
156.78967532169932
20
160.87432004520633
30
0
10
157.15356184222702
20
160.96873469887922
30
0
10
157.45558479165157
20
161.09819958970834
30
0
10
157.72233087751655
20
161.25945405659587
30
0
10
157.99067413983727
20
161.44596976456489
30
0
10
158.29747065871274
20
161.64647477992648
30
0
10
158.66567425251918
20
161.84211627083286
30
0
10
159.10339643774873
20
162.01119428093605
30
0
10
159.60662285290454
20
162.13639014002777
30
0
10
160.16072245038208
20
162.21102737573034
30
0
10
160.74239032571515
20
162.24609663507925
30
0
10
161.32148208176301
20
162.27605149637333
30
0
10
161.86483508587327
20
162.34752737555516
30
0
10
162.24491754821094
20
162.47671392429942
30
0
10
162.48660813064984
20
162.63195404188596
30
0
10
162.62578758740585
20
162.76408571498473
30
0
10
162.68965513207181
20
162.837398989722
30
0
0
SPLINE
5
102
100
AcDbEntity
8
0
100
AcDbSpline
70
4
71
5
72
66
73
60
74
0
42
0.000000001
43
0.0000000001
44
0.0000000001
40
0
40
0
40
0
40
0
40
0
40
0
40
0.018181818181818198
40
0.036363636363636397
40
0.054545454545454598
40
0.072727272727272696
40
0.090909090909090898
40
0.1090909090909091
40
0.12727272727272729
40
0.1454545454545455
40
0.16363636363636369
40
0.18181818181818191
40
0.20000000000000001
40
0.2181818181818182
40
0.23636363636363639
40
0.25454545454545457
40
0.27272727272727271
40
0.29090909090909101
40
0.30909090909090908
40
0.32727272727272733
40
0.34545454545454551
40
0.3636363636363637
40
0.38181818181818189
40
0.40000000000000008
40
0.41818181818181832
40
0.43636363636363651
40
0.4545454545454547
40
0.47272727272727288
40
0.49090909090909102
40
0.50909090909090915
40
0.52727272727272745
40
0.54545454545454553
40
0.56363636363636371
40
0.58181818181818201
40
0.60000000000000009
40
0.61818181818181828
40
0.63636363636363646
40
0.65454545454545465
40
0.67272727272727295
40
0.69090909090909114
40
0.70909090909090922
40
0.72727272727272751
40
0.74545454545454559
40
0.76363636363636378
40
0.78181818181818208
40
0.80000000000000016
40
0.81818181818181834
40
0.83636363636363653
40
0.85454545454545461
40
0.8727272727272728
40
0.89090909090909098
40
0.90909090909090917
40
0.92727272727272758
40
0.94545454545454555
40
0.96363636363636385
40
0.98181818181818203
40
1
40
1
40
1
40
1
40
1
40
1
41
1
41
1
41
1
41
1
41
1
41
1
41
1
41
1
41
1
41
1
41
1
41
1
41
1
41
1
41
1
41
1
41
1
41
1
41
1
41
1
41
1
41
1
41
1
41
1
41
1
41
1
41
1
41
1
41
1
41
1
41
1
41
1
41
1
41
1
41
1
41
1
41
1
41
1
41
1
41
1
41
1
41
1
41
1
41
1
41
1
41
1
41
1
41
1
41
1
41
1
41
1
41
1
41
1
41
1
41
1
41
1
41
1
41
1
41
1
41
1
10
139.28469861976035
20
156.43547833509243
30
0
10
139.4230571250022
20
156.47996601154398
30
0
10
139.69436912526527
20
156.55940089743777
30
0
10
140.08378537352925
20
156.64707319336773
30
0
10
140.56739131115589
20
156.69582214036384
30
0
10
141.12578175166814
20
156.65200329746813
30
0
10
141.65592262685448
20
156.52446642585312
30
0
10
142.17116225102035
20
156.33744010858206
30
0
10
142.66934448877217
20
156.10798534650567
30
0
10
143.12734037850521
20
155.83969914337456
30
0
10
143.51303058952593
20
155.52925854037863
30
0
10
143.79429620387239
20
155.17076170054122
30
0
10
143.9491630712937
20
154.76091764445516
30
0
10
143.97553095545788
20
154.30390808847312
30
0
10
143.88457580022649
20
153.80968882122727
30
0
10
143.69386713901173
20
153.29219201230362
30
0
10
143.42086012135272
20
152.76758631398576
30
0
10
143.0756019504887
20
152.25250166633157
30
0
10
142.66241926341624
20
151.76257181055004
30
0
10
142.18253113780153
20
151.31104110023432
30
0
10
141.63638197034714
20
150.90727590985233
30
0
10
141.02596077122524
20
150.55546231279064
30
0
10
140.35747061697725
20
150.25280498742751
30
0
10
139.6405536616144
20
149.99186922594956
30
0
10
138.88690866313013
20
149.76363816551634
30
0
10
138.10913179839164
20
149.56030119340062
30
0
10
137.31945813203328
20
149.37818502261703
30
0
10
136.52856754059081
20
149.22056124132862
30
0
10
135.74430256041103
20
149.10070921477686
30
0
10
134.97258783618489
20
149.03791618469214
30
0
10
134.21841289826236
20
149.05328419771178
30
0
10
133.48679829927841
20
149.16554904122802
30
0
10
132.78374707556449
20
149.38703492687517
30
0
10
132.11725301866315
20
149.71919265732669
30
0
10
131.49814634197907
20
150.14931001335609
30
0
10
130.93992532657307
20
150.6557202958675
30
0
10
130.45861852751949
20
151.21198270400083
30
0
10
130.07280052444793
20
151.79169943136526
30
0
10
129.80317860922631
20
152.37247057210598
30
0
10
129.67328861567245
20
152.94169404599128
30
0
10
129.70552817671268
20
153.49491946760767
30
0
10
129.91401220010817
20
154.02920173307709
30
0
10
130.29840936044502
20
154.53798728663497
30
0
10
130.83722489553503
20
155.00527398313719
30
0
10
131.48160642817186
20
155.40032237624897
30
0
10
132.16919090565901
20
155.68827625773454
30
0
10
132.83723117340207
20
155.84019754720555
30
0
10
133.4365710975386
20
155.8438936774939
30
0
10
133.94392782522488
20
155.71314146711791
30
0
10
134.37849569429733
20
155.5010619396005
30
0
10
134.78880608355271
20
155.28472871005616
30
0
10
135.23142597945389
20
155.14165016887847
30
0
10
135.7542714277794
20
155.13118674416455
30
0
10
136.37362385903262
20
155.26867619316289
30
0
10
137.07412803478144
20
155.52686213532408
30
0
10
137.82249989745895
20
155.85371247611167
30
0
10
138.42615675356376
20
156.11893833972292
30
0
10
138.86421809381406
20
156.29247483872862
30
0
10
139.14634011451849
20
156.3909906586409
30
0
10
139.28469861976035
20
156.43547833509243
30
0
0
SPLINE
5
103
100
AcDbEntity
8
0
100
AcDbSpline
70
4
71
5
72
66
73
60
74
0
42
0.000000001
43
0.0000000001
44
0.0000000001
40
0
40
0
40
0
40
0
40
0
40
0
40
0.018181818181818198
40
0.036363636363636397
40
0.054545454545454598
40
0.072727272727272696
40
0.090909090909090898
40
0.1090909090909091
40
0.12727272727272729
40
0.1454545454545455
40
0.16363636363636369
40
0.18181818181818191
40
0.20000000000000001
40
0.2181818181818182
40
0.23636363636363639
40
0.25454545454545457
40
0.27272727272727271
40
0.29090909090909101
40
0.30909090909090908
40
0.32727272727272733
40
0.34545454545454551
40
0.3636363636363637
40
0.38181818181818189
40
0.40000000000000008
40
0.41818181818181832
40
0.43636363636363651
40
0.4545454545454547
40
0.47272727272727288
40
0.49090909090909102
40
0.50909090909090915
40
0.52727272727272745
40
0.54545454545454553
40
0.56363636363636371
40
0.58181818181818201
40
0.60000000000000009
40
0.61818181818181828
40
0.63636363636363646
40
0.65454545454545465
40
0.67272727272727295
40
0.69090909090909114
40
0.70909090909090922
40
0.72727272727272751
40
0.74545454545454559
40
0.76363636363636378
40
0.78181818181818208
40
0.80000000000000016
40
0.81818181818181834
40
0.83636363636363653
40
0.85454545454545461
40
0.8727272727272728
40
0.89090909090909098
40
0.90909090909090917
40
0.92727272727272758
40
0.94545454545454555
40
0.96363636363636385
40
0.98181818181818203
40
1
40
1
40
1
40
1
40
1
40
1
41
1
41
1
41
1
41
1
41
1
41
1
41
1
41
1
41
1
41
1
41
1
41
1
41
1
41
1
41
1
41
1
41
1
41
1
41
1
41
1
41
1
41
1
41
1
41
1
41
1
41
1
41
1
41
1
41
1
41
1
41
1
41
1
41
1
41
1
41
1
41
1
41
1
41
1
41
1
41
1
41
1
41
1
41
1
41
1
41
1
41
1
41
1
41
1
41
1
41
1
41
1
41
1
41
1
41
1
41
1
41
1
41
1
41
1
41
1
41
1
10
132.55554307845
20
166.67476010889359
30
0
10
132.59725405372529
20
166.77434092409968
30
0
10
132.68434067563115
20
166.96206434842446
30
0
10
132.82539862736769
20
167.20872595534189
30
0
10
133.03451689095962
20
167.47050277435588
30
0
10
133.33911151515932
20
167.70951547617261
30
0
10
133.69793556566768
20
167.89127478990076
30
0
10
134.12061204481137
20
168.04548662043521
30
0
10
134.60994877722501
20
168.18988459481596
30
0
10
135.16083956234434
20
168.3280282777724
30
0
10
135.76253050720959
20
168.4537634458047
30
0
10
136.39990184238232
20
168.5537353768018
30
0
10
137.05514553386283
20
168.61069755509129
30
0
10
137.70925874616691
20
168.60643931382836
30
0
10
138.34363018301192
20
168.52495417320543
30
0
10
138.94109000765201
20
168.35351405854715
30
0
10
139.48692730378693
20
168.08364363905162
30
0
10
139.96996310889389
20
167.71217711969555
30
0
10
140.38351955067779
20
167.24220871502681
30
0
10
140.72665619662141
20
166.68430705783535
30
0
10
141.00466481492163
20
166.0570214166919
30
0
10
141.22621888481427
20
165.38417788371501
30
0
10
141.40097907745269
20
164.69262594919425
30
0
10
141.53706005292574
20
164.00983255098058
30
0
10
141.63847787120574
20
163.36151358103251
30
0
10
141.70278181239433
20
162.76932008210957
30
0
10
141.71809829014515
20
162.24829705337305
30
0
10
141.66802540501436
20
161.80720353758917
30
0
10
141.53753828576765
20
161.44907436116338
30
0
10
141.31811714265075
20
161.17175716027364
30
0
10
141.01418467186494
20
160.96826838547756
30
0
10
140.64597606210521
20
160.8277725093964
30
0
10
140.24118912458744
20
160.73868282262993
30
0
10
139.82862407327659
20
160.69134069299903
30
0
10
139.43090848045324
20
160.68097822350992
30
0
10
139.05798865127625
20
160.71024983823375
30
0
10
138.7106011416536
20
160.78368214159616
30
0
10
138.38340680051397
20
160.90236103944622
30
0
10
138.06818852129919
20
161.0586804495513
30
0
10
137.75713055579652
20
161.23063206968391
30
0
10
137.44230231913954
20
161.38961541774171
30
0
10
137.11496046435531
20
161.50887333553931
30
0
10
136.76494377463837
20
161.57156805853765
30
0
10
136.37994648557822
20
161.57937138820853
30
0
10
135.94910628684678
20
161.54853651180247
30
0
10
135.46703129331704
20
161.50554967171684
30
0
10
134.93712294122147
20
161.48298082231878
30
0
10
134.37653729993153
20
161.51521840029505
30
0
10
133.81555023372863
20
161.63445313550551
30
0
10
133.29019853210258
20
161.86697872996831
30
0
10
132.83656585111484
20
162.22930830236433
30
0
10
132.4845985625048
20
162.72454578372316
30
0
10
132.2516519236942
20
163.33814114719897
30
0
10
132.13747768281402
20
164.03527047467944
30
0
10
132.12997037162384
20
164.76929735202179
30
0
10
132.20973063860089
20
165.48903499206671
30
0
10
132.32599891444181
20
166.01497399548907
30
0
10
132.43407482397939
20
166.36457945718809
30
0
10
132.51383210317471
20
166.57517929368754
30
0
10
132.55554307845
20
166.67476010889359
30
0
0
SPLINE
5
104
100
AcDbEntity
8
0
100
AcDbSpline
70
4
71
5
72
96
73
90
74
0
42
0.000000001
43
0.0000000001
44
0.0000000001
40
0
40
0
40
0
40
0
40
0
40
0
40
0.011764705882353
40
0.023529411764705899
40
0.035294117647058802
40
0.047058823529411799
40
0.058823529411764698
40
0.070588235294117702
40
0.082352941176470601
40
0.094117647058823597
40
0.1058823529411765
40
0.1176470588235294
40
0.12941176470588231
40
0.14117647058823529
40
0.15294117647058819
40
0.1647058823529412
40
0.17647058823529421
40
0.18823529411764711
40
0.20000000000000009
40
0.21176470588235299
40
0.22352941176470603
40
0.2352941176470589
40
0.24705882352941189
40
0.25882352941176479
40
0.2705882352941178
40
0.2823529411764707
40
0.29411764705882371
40
0.30588235294117672
40
0.31764705882352962
40
0.32941176470588263
40
0.34117647058823553
40
0.35294117647058848
40
0.36470588235294138
40
0.37647058823529439
40
0.3882352941176474
40
0.4000000000000003
40
0.41176470588235331
40
0.42352941176470632
40
0.43529411764705922
40
0.44705882352941217
40
0.45882352941176507
40
0.47058823529411808
40
0.48235294117647104
40
0.49411764705882388
40
0.50588235294117689
40
0.51764705882352979
40
0.52941176470588269
40
0.54117647058823559
40
0.55294117647058849
40
0.56470588235294139
40
0.57647058823529429
40
0.58823529411764719
40
0.60000000000000009
40
0.61176470588235299
40
0.62352941176470589
40
0.63529411764705879
40
0.64705882352941169
40
0.65882352941176459
40
0.67058823529411749
40
0.68235294117647038
40
0.69411764705882328
40
0.70588235294117618
40
0.71764705882352908
40
0.72941176470588209
40
0.74117647058823488
40
0.75294117647058778
40
0.76470588235294068
40
0.77647058823529358
40
0.78823529411764648
40
0.79999999999999938
40
0.81176470588235206
40
0.82352941176470484
40
0.83529411764705785
40
0.84705882352941075
40
0.85882352941176365
40
0.87058823529411655
40
0.88235294117646945
40
0.89411764705882235
40
0.90588235294117525
40
0.91764705882352815
40
0.92941176470588116
40
0.94117647058823406
40
0.95294117647058685
40
0.96470588235293975
40
0.97647058823529276
40
0.98823529411764555
40
1
40
1
40
1
40
1
40
1
40
1
41
1
41
1
41
1
41
1
41
1
41
1
41
1
41
1
41
1
41
1
41
1
41
1
41
1
41
1
41
1
41
1
41
1
41
1
41
1
41
1
41
1
41
1
41
1
41
1
41
1
41
1
41
1
41
1
41
1
41
1
41
1
41
1
41
1
41
1
41
1
41
1
41
1
41
1
41
1
41
1
41
1
41
1
41
1
41
1
41
1
41
1
41
1
41
1
41
1
41
1
41
1
41
1
41
1
41
1
41
1
41
1
41
1
41
1
41
1
41
1
41
1
41
1
41
1
41
1
41
1
41
1
41
1
41
1
41
1
41
1
41
1
41
1
41
1
41
1
41
1
41
1
41
1
41
1
41
1
41
1
41
1
41
1
41
1
41
1
41
1
41
1
41
1
41
1
41
1
41
1
10
84.618486482275529
20
211.47189698744157
30
0
10
84.524732693733696
20
211.54330770751659
30
0
10
84.328023841733113
20
211.70605490628844
30
0
10
84.003508725141302
20
212.00432484926432
30
0
10
83.506004236702495
20
212.49128958650513
30
0
10
82.768615823398889
20
213.21522062989672
30
0
10
81.915331680669169
20
214.03075874771071
30
0
10
80.952699936548655
20
214.92045693726467
30
0
10
79.894036794231624
20
215.86913557648336
30
0
10
78.759257726708043
20
216.86006897936329
30
0
10
77.57474821335812
20
217.87106061660961
30
0
10
76.373132261579627
20
218.87076436448382
30
0
10
75.18941840609719
20
219.82278447387881
30
0
10
74.057274570343438
20
220.68953362688194
30
0
10
73.005210338685643
20
221.43621061012854
30
0
10
72.052894048806195
20
222.03465867028157
30
0
10
71.20717361365439
20
222.467443858396
30
0
10
70.458750523519527
20
222.73146854090891
30
0
10
69.777268000271107
20
222.8427104707487
30
0
10
69.111047122058693
20
222.83766938978661
30
0
10
68.401818162257513
20
222.76403336820658
30
0
10
67.597601374347974
20
222.67282360817146
30
0
10
66.665011938397726
20
222.61060390171988
30
0
10
65.604970850368161
20
222.61011824852659
30
0
10
64.455453535420702
20
222.68724504840762
30
0
10
63.276955922081527
20
222.84644250734635
30
0
10
62.142279844995763
20
223.08406942087711
30
0
10
61.124654151622181
20
223.39252146242677
30
0
10
60.286403529436257
20
223.76409977696818
30
0
10
59.6677712236432
20
224.19478873183223
30
0
10
59.27457512122519
20
224.68863668285448
30
0
10
59.089276340366311
20
225.24948423872036
30
0
10
59.083856150646632
20
225.87153123811981
30
0
10
59.231572979725996
20
226.53090465387203
30
0
10
59.520370213841929
20
227.17523742876591
30
0
10
59.947302824842836
20
227.73908422594911
30
0
10
60.510749735610325
20
228.16291728303921
30
0
10
61.204199956588766
20
228.40879060764055
30
0
10
62.007482283035827
20
228.48238871477702
30
0
10
62.887364262984811
20
228.43061956115108
30
0
10
63.804743602921462
20
228.32185653307829
30
0
10
64.720009451031402
20
228.23098180112865
30
0
10
65.598934491499989
20
228.22310735993113
30
0
10
66.418867052697536
20
228.33632787074146
30
0
10
67.17321236814648
20
228.56949638815428
30
0
10
67.867349718411774
20
228.89439486513896
30
0
10
68.515867580167637
20
229.26453678774081
30
0
10
69.139089432522979
20
229.62506890081431
30
0
10
69.760392152835635
20
229.92265675509793
30
0
10
70.401652090100285
20
230.11387097027196
30
0
10
71.07450368467552
20
230.16881703564493
30
0
10
71.772023138528894
20
230.07589847991002
30
0
10
72.460987120011083
20
229.84573531623707
30
0
10
73.071837810872395
20
229.51655836169206
30
0
10
73.529072497092841
20
229.13769198577779
30
0
10
73.784795023890524
20
228.75139058642384
30
0
10
73.850727779009873
20
228.37546591725271
30
0
10
73.831956500006953
20
227.98506154441446
30
0
10
73.868435112810928
20
227.53917471609566
30
0
10
74.078286827123378
20
227.00631077222943
30
0
10
74.494823240464171
20
226.3931670083245
30
0
10
75.086689971677814
20
225.73337972275289
30
0
10
75.785724389682031
20
225.07264555203196
30
0
10
76.512885342710447
20
224.45458087880888
30
0
10
77.202979694585764
20
223.90758386206815
30
0
10
77.835060073235098
20
223.42787697311036
30
0
10
78.425779614961542
20
222.98681046454413
30
0
10
79.011829537525983
20
222.54515032260613
30
0
10
79.635542287816975
20
222.06559277157166
30
0
10
80.330348696716698
20
221.52471119433315
30
0
10
81.10330958038611
20
220.92849654865211
30
0
10
81.936639644849265
20
220.30642434099144
30
0
10
82.796645106677573
20
219.69708206942201
30
0
10
83.640117379682323
20
219.13696483738926
30
0
10
84.421988216010106
20
218.64707596678815
30
0
10
85.101948589645787
20
218.22249648979439
30
0
10
85.652766616968066
20
217.815444271416
30
0
10
86.061025129735071
20
217.35031366202401
30
0
10
86.324690181750555
20
216.75387060365921
30
0
10
86.451602303725963
20
215.97838729825153
30
0
10
86.457822601701722
20
215.03282334602653
30
0
10
86.365297831161456
20
213.99394501898234
30
0
10
86.1973893075711
20
212.97369845973972
30
0
10
85.97494769321446
20
212.09579982948122
30
0
10
85.711967135543603
20
211.46772949253506
30
0
10
85.41188023909335
20
211.15687736874605
30
0
10
85.132250215429636
20
211.15865247041262
30
0
10
84.89054657298405
20
211.27759058583797
30
0
10
84.712240270817404
20
211.40048626736649
30
0
10
84.618486482275529
20
211.47189698744157
30
0
0
SPLINE
5
105
100
AcDbEntity
8
0
100
AcDbSpline
70
4
71
5
72
106
73
100
74
0
42
0.000000001
43
0.0000000001
44
0.0000000001
40
0
40
0
40
0
40
0
40
0
40
0
40
0.0105263157894737
40
0.021052631578947399
40
0.031578947368421102
40
0.042105263157894701
40
0.052631578947368397
40
0.063157894736842093
40
0.073684210526315796
40
0.0842105263157895
40
0.094736842105263203
40
0.10526315789473691
40
0.1157894736842105
40
0.12631578947368419
40
0.1368421052631579
40
0.14736842105263159
40
0.15789473684210531
40
0.168421052631579
40
0.17894736842105269
40
0.18947368421052641
40
0.20000000000000009
40
0.21052631578947381
40
0.22105263157894739
40
0.23157894736842111
40
0.2421052631578948
40
0.25263157894736848
40
0.26315789473684209
40
0.27368421052631581
40
0.28421052631578952
40
0.29473684210526307
40
0.30526315789473679
40
0.3157894736842104
40
0.32631578947368411
40
0.33684210526315778
40
0.34736842105263138
40
0.3578947368421051
40
0.36842105263157882
40
0.37894736842105242
40
0.38947368421052608
40
0.39999999999999969
40
0.41052631578947352
40
0.42105263157894712
40
0.43157894736842067
40
0.4421052631578945
40
0.45263157894736811
40
0.46315789473684171
40
0.47368421052631537
40
0.48421052631578909
40
0.4947368421052627
40
0.50526315789473653
40
0.51578947368421013
40
0.52631578947368385
40
0.53684210526315757
40
0.54736842105263139
40
0.557894736842105
40
0.56842105263157883
40
0.57894736842105243
40
0.58947368421052615
40
0.59999999999999987
40
0.61052631578947369
40
0.6210526315789473
40
0.63157894736842113
40
0.64210526315789473
40
0.65263157894736845
40
0.66315789473684217
40
0.673684210526316
40
0.6842105263157896
40
0.69473684210526343
40
0.70526315789473715
40
0.71578947368421075
40
0.72631578947368447
40
0.7368421052631583
40
0.7473684210526319
40
0.75789473684210573
40
0.76842105263157934
40
0.77894736842105305
40
0.78947368421052677
40
0.80000000000000049
40
0.81052631578947409
40
0.82105263157894792
40
0.83157894736842153
40
0.84210526315789536
40
0.85263157894736896
40
0.86315789473684279
40
0.8736842105263164
40
0.88421052631579022
40
0.89473684210526383
40
0.90526315789473755
40
0.91578947368421115
40
0.9263157894736852
40
0.93684210526315881
40
0.94736842105263241
40
0.95789473684210602
40
0.96842105263157996
40
0.97894736842105357
40
0.98947368421052739
40
1
40
1
40
1
40
1
40
1
40
1
41
1
41
1
41
1
41
1
41
1
41
1
41
1
41
1
41
1
41
1
41
1
41
1
41
1
41
1
41
1
41
1
41
1
41
1
41
1
41
1
41
1
41
1
41
1
41
1
41
1
41
1
41
1
41
1
41
1
41
1
41
1
41
1
41
1
41
1
41
1
41
1
41
1
41
1
41
1
41
1
41
1
41
1
41
1
41
1
41
1
41
1
41
1
41
1
41
1
41
1
41
1
41
1
41
1
41
1
41
1
41
1
41
1
41
1
41
1
41
1
41
1
41
1
41
1
41
1
41
1
41
1
41
1
41
1
41
1
41
1
41
1
41
1
41
1
41
1
41
1
41
1
41
1
41
1
41
1
41
1
41
1
41
1
41
1
41
1
41
1
41
1
41
1
41
1
41
1
41
1
41
1
41
1
41
1
41
1
41
1
41
1
41
1
41
1
41
1
41
1
10
108.40857002603967
20
195.13959884203646
30
0
10
108.55128349831828
20
195.24462012237205
30
0
10
108.83214736791663
20
195.42893119901535
30
0
10
109.23634839879978
20
195.62401496553565
30
0
10
109.72882927305972
20
195.70593312178579
30
0
10
110.24182543691029
20
195.49208438477922
30
0
10
110.63149215425027
20
194.97255554599201
30
0
10
110.87984503610176
20
194.20353887906748
30
0
10
110.97221053422163
20
193.28532436314222
30
0
10
110.90119015822455
20
192.33391289728982
30
0
10
110.67018851876641
20
191.45766428594169
30
0
10
110.29637693923846
20
190.73454651110833
30
0
10
109.81573378106533
20
190.1826997930668
30
0
10
109.28004361523361
20
189.75878403125569
30
0
10
108.74470144400611
20
189.38724362284177
30
0
10
108.25972597107524
20
188.98043122866676
30
0
10
107.85777225739284
20
188.46436125620144
30
0
10
107.54875919215657
20
187.79593136193267
30
0
10
107.33023185003388
20
186.96128725761454
30
0
10
107.19529895037024
20
185.97828482236881
30
0
10
107.14049663222067
20
184.8958931833975
30
0
10
107.17616601147269
20
183.79847350788572
30
0
10
107.32649760886667
20
182.79484885483618
30
0
10
107.61730565956746
20
181.99083950764344
30
0
10
108.06641818143157
20
181.46434946795455
30
0
10
108.67421427019302
20
181.24306035939907
30
0
10
109.4111273531735
20
181.27206733808393
30
0
10
110.21765989311426
20
181.41959001467856
30
0
10
111.01919093949276
20
181.52714751840443
30
0
10
111.73690996504743
20
181.44800967071913
30
0
10
112.3003105614427
20
181.09064927870793
30
0
10
112.65903975670234
20
180.45950164997879
30
0
10
112.78488006189528
20
179.62253433005418
30
0
10
112.67414337351744
20
178.67755901215548
30
0
10
112.34902194296266
20
177.72174184094138
30
0
10
111.86164195976866
20
176.81320599556301
30
0
10
111.28650590797545
20
175.96663775708421
30
0
10
110.70567460705961
20
175.17005434521133
30
0
10
110.19620351091122
20
174.39512642075445
30
0
10
109.81652993648881
20
173.6102191226592
30
0
10
109.59357108301236
20
172.79210017259089
30
0
10
109.50875464588907
20
171.93866651785447
30
0
10
109.51539334008443
20
171.06236099861582
30
0
10
109.55668472370368
20
170.18320037178373
30
0
10
109.58393005604223
20
169.32181635114259
30
0
10
109.57361329870616
20
168.49279327141602
30
0
10
109.5477938818085
20
167.69707579539656
30
0
10
109.55528777796394
20
166.92530629717379
30
0
10
109.64781566831775
20
166.16242592370187
30
0
10
109.85896201484935
20
165.39180290471188
30
0
10
110.17960632976093
20
164.59959783040816
30
0
10
110.54172826889848
20
163.77890275045274
30
0
10
110.84842241298395
20
162.93279569521212
30
0
10
110.99889933795444
20
162.07769110654485
30
0
10
110.91459640802046
20
161.24623135653707
30
0
10
110.56673356325511
20
160.49121171160334
30
0
10
109.99777421168292
20
159.88671065085396
30
0
10
109.29147742612072
20
159.50830630485632
30
0
10
108.54692913849624
20
159.41429926481081
30
0
10
107.85278237797937
20
159.62842485361256
30
0
10
107.25702528701744
20
160.11710161379841
30
0
10
106.77131973697766
20
160.80499880393648
30
0
10
106.38448274584788
20
161.60080771417856
30
0
10
106.07260919506281
20
162.41886450283826
30
0
10
105.8110961308892
20
163.20402257663591
30
0
10
105.58437681425593
20
163.95076253069703
30
0
10
105.38320438476254
20
164.68524869725499
30
0
10
105.20305198322487
20
165.45058020314514
30
0
10
105.04218187925888
20
166.29168355414964
30
0
10
104.89964701353024
20
167.23835633003503
30
0
10
104.77401590750952
20
168.29570219958327
30
0
10
104.6639011457579
20
169.45155884984953
30
0
10
104.56811992474056
20
170.68044919548817
30
0
10
104.48598616382606
20
171.94886188485629
30
0
10
104.41758255857755
20
173.22006382400849
30
0
10
104.36395770527673
20
174.45885860010912
30
0
10
104.32757178723577
20
175.63701222093715
30
0
10
104.3113746356737
20
176.73468698940638
30
0
10
104.31729964655017
20
177.74027652004355
30
0
10
104.3450099268412
20
178.65073008278847
30
0
10
104.39039772431616
20
179.47176192028937
30
0
10
104.44451440456801
20
180.21792451157378
30
0
10
104.4914573856438
20
180.91324738282819
30
0
10
104.51283450697078
20
181.58813064567488
30
0
10
104.49454710915521
20
182.27503038625707
30
0
10
104.43205854045263
20
183.00475040126094
30
0
10
104.33804361905194
20
183.80201361024615
30
0
10
104.24248158002538
20
184.68308700399578
30
0
10
104.1839926781152
20
185.65569724188916
30
0
10
104.2035140250656
20
186.718374689444
30
0
10
104.33686155366561
20
187.85997584254216
30
0
10
104.60815290720761
20
189.05923075155169
30
0
10
105.02183163260699
20
190.28398412586884
30
0
10
105.56528424192689
20
191.49338695942299
30
0
10
106.21320065974973
20
192.64060232235252
30
0
10
106.93131897191107
20
193.67531412099154
30
0
10
107.53059782878719
20
194.37213639421827
30
0
10
107.97586653424486
20
194.7988035170016
30
0
10
108.26585655376101
20
195.03457756170087
30
0
10
108.40857002603967
20
195.13959884203646
30
0
0
SPLINE
5
106
100
AcDbEntity
8
0
100
AcDbSpline
70
4
71
5
72
71
73
65
74
0
42
0.000000001
43
0.0000000001
44
0.0000000001
40
0
40
0
40
0
40
0
40
0
40
0
40
0.016666666666666701
40
0.033333333333333298
40
0.050000000000000003
40
0.066666666666666693
40
0.083333333333333301
40
0.10000000000000001
40
0.1166666666666666
40
0.1333333333333333
40
0.14999999999999999
40
0.1666666666666666
40
0.18333333333333329
40
0.20000000000000001
40
0.21666666666666659
40
0.23333333333333331
40
0.25
40
0.26666666666666661
40
0.28333333333333333
40
0.29999999999999999
40
0.3166666666666666
40
0.33333333333333331
40
0.34999999999999998
40
0.36666666666666659
40
0.3833333333333333
40
0.40000000000000002
40
0.41666666666666657
40
0.43333333333333329
40
0.45000000000000001
40
0.46666666666666662
40
0.48333333333333328
40
0.5
40
0.51666666666666661
40
0.53333333333333333
40
0.55000000000000004
40
0.56666666666666676
40
0.58333333333333348
40
0.6000000000000002
40
0.61666666666666703
40
0.63333333333333375
40
0.65000000000000036
40
0.66666666666666707
40
0.68333333333333379
40
0.70000000000000062
40
0.71666666666666734
40
0.73333333333333417
40
0.75000000000000067
40
0.76666666666666738
40
0.7833333333333341
40
0.80000000000000082
40
0.81666666666666743
40
0.83333333333333415
40
0.85000000000000109
40
0.86666666666666758
40
0.88333333333333441
40
0.90000000000000102
40
0.91666666666666785
40
0.93333333333333457
40
0.95000000000000118
40
0.9666666666666679
40
0.98333333333333461
40
1
40
1
40
1
40
1
40
1
40
1
41
1
41
1
41
1
41
1
41
1
41
1
41
1
41
1
41
1
41
1
41
1
41
1
41
1
41
1
41
1
41
1
41
1
41
1
41
1
41
1
41
1
41
1
41
1
41
1
41
1
41
1
41
1
41
1
41
1
41
1
41
1
41
1
41
1
41
1
41
1
41
1
41
1
41
1
41
1
41
1
41
1
41
1
41
1
41
1
41
1
41
1
41
1
41
1
41
1
41
1
41
1
41
1
41
1
41
1
41
1
41
1
41
1
41
1
41
1
41
1
41
1
41
1
41
1
41
1
41
1
10
193.40617956085651
20
217.87117192462813
30
0
10
193.51533345979593
20
217.84442353486406
30
0
10
193.73378020183964
20
217.76811465250208
30
0
10
194.05850371253794
20
217.58499092093848
30
0
10
194.47379398400673
20
217.21001524270218
30
0
10
194.94197883157909
20
216.56596978375177
30
0
10
195.34530007791133
20
215.80496236664658
30
0
10
195.6769334332065
20
214.99053222107608
30
0
10
195.93679511341384
20
214.18045177117858
30
0
10
196.13104914877812
20
213.41681127000351
30
0
10
196.27197613834423
20
212.71344873274305
30
0
10
196.37543935619715
20
212.06124367476374
30
0
10
196.45777839909798
20
211.43771466846701
30
0
10
196.53288298766736
20
210.81515735296617
30
0
10
196.60922856376087
20
210.16929629961595
30
0
10
196.68682501198774
20
209.48791395062915
30
0
10
196.75445860271819
20
208.77894992161026
30
0
10
196.79443150823136
20
208.06342442140445
30
0
10
196.7868913559202
20
207.36913438713316
30
0
10
196.71449792209347
20
206.72383340135787
30
0
10
196.56652010559102
20
206.1491815504852
30
0
10
196.34422663171478
20
205.65303314464629
30
0
10
196.06228594139623
20
205.22682242695873
30
0
10
195.74215477631327
20
204.85319253654529
30
0
10
195.40698853735009
20
204.51164458041336
30
0
10
195.0763335470252
20
204.18455246055078
30
0
10
194.7599339770392
20
203.86408245380639
30
0
10
194.45824504239297
20
203.5517410021782
30
0
10
194.16501496526286
20
203.25544156716256
30
0
10
193.86936230150636
20
202.98752906486908
30
0
10
193.55756100894072
20
202.76214424386586
30
0
10
193.2173380763534
20
202.59412127649523
30
0
10
192.84446653682295
20
202.49878466676179
30
0
10
192.44785409827597
20
202.49138692541288
30
0
10
192.05730594938942
20
202.58693657666467
30
0
10
191.71361653804084
20
202.7978811964681
30
0
10
191.45496084436837
20
203.13136602604942
30
0
10
191.30442823450412
20
203.58659334755595
30
0
10
191.25740203045805
20
204.1522164095756
30
0
10
191.29040751964106
20
204.80936620558865
30
0
10
191.36923520330058
20
205.53449880605802
30
0
10
191.45766077003947
20
206.30238776650739
30
0
10
191.52511484091309
20
207.08884663166546
30
0
10
191.55675757724933
20
207.87406757913982
30
0
10
191.55459558651995
20
208.643662273362
30
0
10
191.53038469976377
20
209.38761477431993
30
0
10
191.50096144990141
20
210.09982807208627
30
0
10
191.48231417265865
20
210.77742302931696
30
0
10
191.48483865636382
20
211.42017918930406
30
0
10
191.50650974866213
20
212.02985074016635
30
0
10
191.53244123647579
20
212.60977842898751
30
0
10
191.54376584998371
20
213.1648297043227
30
0
10
191.52469692910199
20
213.7013727550362
30
0
10
191.46948343899467
20
214.22701010722062
30
0
10
191.39144825373808
20
214.75096866226482
30
0
10
191.32424433331744
20
215.28235388727168
30
0
10
191.30957564605723
20
215.82506316416826
30
0
10
191.38750911655865
20
216.37296568302287
30
0
10
191.58679827310567
20
216.9059868853131
30
0
10
191.91258639043457
20
217.38324202574051
30
0
10
192.34677325224226
20
217.74871802960828
30
0
10
192.7553837949078
20
217.90641979710185
30
0
10
193.07885680820317
20
217.92860499108622
30
0
10
193.2970256619171
20
217.89792031439214
30
0
10
193.40617956085651
20
217.87117192462813
30
0
0
SPLINE
5
107
100
AcDbEntity
8
0
100
AcDbSpline
70
4
71
5
72
66
73
60
74
0
42
0.000000001
43
0.0000000001
44
0.0000000001
40
0
40
0
40
0
40
0
40
0
40
0
40
0.018181818181818198
40
0.036363636363636397
40
0.054545454545454598
40
0.072727272727272696
40
0.090909090909090898
40
0.1090909090909091
40
0.12727272727272729
40
0.1454545454545455
40
0.16363636363636369
40
0.18181818181818191
40
0.20000000000000001
40
0.2181818181818182
40
0.23636363636363639
40
0.25454545454545457
40
0.27272727272727271
40
0.29090909090909101
40
0.30909090909090908
40
0.32727272727272733
40
0.34545454545454551
40
0.3636363636363637
40
0.38181818181818189
40
0.40000000000000008
40
0.41818181818181832
40
0.43636363636363651
40
0.4545454545454547
40
0.47272727272727288
40
0.49090909090909102
40
0.50909090909090915
40
0.52727272727272745
40
0.54545454545454553
40
0.56363636363636371
40
0.58181818181818201
40
0.60000000000000009
40
0.61818181818181828
40
0.63636363636363646
40
0.65454545454545465
40
0.67272727272727295
40
0.69090909090909114
40
0.70909090909090922
40
0.72727272727272751
40
0.74545454545454559
40
0.76363636363636378
40
0.78181818181818208
40
0.80000000000000016
40
0.81818181818181834
40
0.83636363636363653
40
0.85454545454545461
40
0.8727272727272728
40
0.89090909090909098
40
0.90909090909090917
40
0.92727272727272758
40
0.94545454545454555
40
0.96363636363636385
40
0.98181818181818203
40
1
40
1
40
1
40
1
40
1
40
1
41
1
41
1
41
1
41
1
41
1
41
1
41
1
41
1
41
1
41
1
41
1
41
1
41
1
41
1
41
1
41
1
41
1
41
1
41
1
41
1
41
1
41
1
41
1
41
1
41
1
41
1
41
1
41
1
41
1
41
1
41
1
41
1
41
1
41
1
41
1
41
1
41
1
41
1
41
1
41
1
41
1
41
1
41
1
41
1
41
1
41
1
41
1
41
1
41
1
41
1
41
1
41
1
41
1
41
1
41
1
41
1
41
1
41
1
41
1
41
1
10
154.00303563518801
20
156.43548002448173
30
0
10
154.11748700436829
20
156.42983195711511
30
0
10
154.33995830131127
20
156.40804601220162
30
0
10
154.65182779653117
20
156.34621606385235
30
0
10
155.02130462451191
20
156.21796780334807
30
0
10
155.42523613382244
20
156.0216502481251
30
0
10
155.80481662274124
20
155.83156430404787
30
0
10
156.19689461631285
20
155.68517652929418
30
0
10
156.62860673855516
20
155.60716351095832
30
0
10
157.1150169835424
20
155.60828726673526
30
0
10
157.66092374441178
20
155.68691786186537
30
0
10
158.26141918316256
20
155.82983437521276
30
0
10
158.90265585297826
20
156.01292032710643
30
0
10
159.56342882120254
20
156.20308796930965
30
0
10
160.21969192449106
20
156.36395694859883
30
0
10
160.84845444181244
20
156.46076663678431
30
0
10
161.43199556235692
20
156.46566519633745
30
0
10
161.96178782268936
20
156.36268564453434
30
0
10
162.44301974615757
20
156.15333454417316
30
0
10
162.88795208635543
20
155.85150590660777
30
0
10
163.30828038101461
20
155.47759383015887
30
0
10
163.70847890333354
20
155.05324324250279
30
0
10
164.07727921435833
20
154.59507298145101
30
0
10
164.38440164677345
20
154.11122316130528
30
0
10
164.59268270480604
20
153.60617128460137
30
0
10
164.66813528335354
20
153.08437446246333
30
0
10
164.58954975801515
20
152.55382573992006
30
0
10
164.36144210105743
20
152.03099123665839
30
0
10
164.01228622244372
20
151.5394735019336
30
0
10
163.58137538577122
20
151.10384310678413
30
0
10
163.10850763068458
20
150.74459541048668
30
0
10
162.62361525588955
20
150.47325187517163
30
0
10
162.13362688351194
20
150.28582439525312
30
0
10
161.62620704872009
20
150.16576656508735
30
0
10
161.08051436680202
20
150.09083728179147
30
0
10
160.47580666320738
20
150.03876624712419
30
0
10
159.8006052640558
20
149.99321812909204
30
0
10
159.06252881677847
20
149.95016190256689
30
0
10
158.28318339685214
20
149.91549679247615
30
0
10
157.49163179439506
20
149.90186683785478
30
0
10
156.7184759857366
20
149.92580235153287
30
0
10
155.98951759758558
20
150.00469857384959
30
0
10
155.31999394412409
20
150.15395039812435
30
0
10
154.70747892469035
20
150.38379536179872
30
0
10
154.13836269108717
20
150.69905569565134
30
0
10
153.59577521669223
20
151.09923722237184
30
0
10
153.06734892608162
20
151.57845873640991
30
0
10
152.55223319677214
20
152.12550612937011
30
0
10
152.07043023531037
20
152.72365680017163
30
0
10
151.66461570632765
20
153.35112601117567
30
0
10
151.38549606763428
20
153.98284291051345
30
0
10
151.28064435540171
20
154.59194871965227
30
0
10
151.38180561584727
20
155.15139540314624
30
0
10
151.69315234168818
20
155.63551200801226
30
0
10
152.17818018755401
20
156.02155544168514
30
0
10
152.7746626732515
20
156.29228915803822
30
0
10
153.28349761824924
20
156.40935607313477
30
0
10
153.65325008622966
20
156.44193441640135
30
0
10
153.88858426600768
20
156.44112809184844
30
0
10
154.00303563518801
20
156.43548002448173
30
0
0
SPLINE
5
108
100
AcDbEntity
8
0
100
AcDbSpline
70
4
71
5
72
131
73
125
74
0
42
0.000000001
43
0.0000000001
44
0.0000000001
40
0
40
0
40
0
40
0
40
0
40
0
40
0.0083333333333333003
40
0.016666666666666701
40
0.025000000000000001
40
0.033333333333333298
40
0.041666666666666699
40
0.050000000000000003
40
0.0583333333333333
40
0.066666666666666693
40
0.074999999999999997
40
0.083333333333333301
40
0.091666666666666702
40
0.10000000000000001
40
0.1083333333333333
40
0.1166666666666666
40
0.125
40
0.1333333333333333
40
0.14166666666666661
40
0.14999999999999999
40
0.1583333333333333
40
0.1666666666666666
40
0.17499999999999999
40
0.18333333333333329
40
0.1916666666666666
40
0.20000000000000001
40
0.20833333333333329
40
0.21666666666666659
40
0.22500000000000001
40
0.23333333333333331
40
0.24166666666666661
40
0.25
40
0.2583333333333333
40
0.26666666666666661
40
0.27500000000000002
40
0.28333333333333338
40
0.29166666666666669
40
0.3000000000000001
40
0.30833333333333351
40
0.31666666666666682
40
0.32500000000000018
40
0.33333333333333348
40
0.3416666666666669
40
0.35000000000000031
40
0.35833333333333361
40
0.36666666666666708
40
0.37500000000000028
40
0.38333333333333369
40
0.39166666666666711
40
0.40000000000000052
40
0.40833333333333383
40
0.41666666666666718
40
0.4250000000000006
40
0.4333333333333339
40
0.44166666666666732
40
0.45000000000000062
40
0.45833333333333398
40
0.4666666666666674
40
0.4750000000000007
40
0.48333333333333411
40
0.49166666666666742
40
0.50000000000000067
40
0.50833333333333397
40
0.51666666666666738
40
0.52500000000000058
40
0.53333333333333399
40
0.54166666666666718
40
0.5500000000000006
40
0.55833333333333379
40
0.56666666666666721
40
0.5750000000000004
40
0.58333333333333381
40
0.59166666666666701
40
0.60000000000000042
40
0.60833333333333361
40
0.61666666666666703
40
0.62500000000000022
40
0.63333333333333364
40
0.64166666666666683
40
0.65000000000000024
40
0.65833333333333344
40
0.66666666666666685
40
0.67500000000000004
40
0.68333333333333335
40
0.69166666666666665
40
0.69999999999999996
40
0.70833333333333326
40
0.71666666666666656
40
0.72499999999999987
40
0.73333333333333328
40
0.74166666666666647
40
0.74999999999999989
40
0.75833333333333308
40
0.7666666666666665
40
0.77499999999999969
40
0.7833333333333331
40
0.7916666666666663
40
0.79999999999999971
40
0.80833333333333279
40
0.81666666666666621
40
0.8249999999999994
40
0.83333333333333282
40
0.84166666666666579
40
0.84999999999999942
40
0.85833333333333262
40
0.86666666666666581
40
0.87499999999999922
40
0.88333333333333264
40
0.89166666666666583
40
0.89999999999999925
40
0.90833333333333244
40
0.91666666666666585
40
0.92499999999999916
40
0.93333333333333235
40
0.94166666666666565
40
0.94999999999999918
40
0.95833333333333237
40
0.96666666666666556
40
0.97499999999999876
40
0.98333333333333239
40
0.99166666666666559
40
1
40
1
40
1
40
1
40
1
40
1
41
1
41
1
41
1
41
1
41
1
41
1
41
1
41
1
41
1
41
1
41
1
41
1
41
1
41
1
41
1
41
1
41
1
41
1
41
1
41
1
41
1
41
1
41
1
41
1
41
1
41
1
41
1
41
1
41
1
41
1
41
1
41
1
41
1
41
1
41
1
41
1
41
1
41
1
41
1
41
1
41
1
41
1
41
1
41
1
41
1
41
1
41
1
41
1
41
1
41
1
41
1
41
1
41
1
41
1
41
1
41
1
41
1
41
1
41
1
41
1
41
1
41
1
41
1
41
1
41
1
41
1
41
1
41
1
41
1
41
1
41
1
41
1
41
1
41
1
41
1
41
1
41
1
41
1
41
1
41
1
41
1
41
1
41
1
41
1
41
1
41
1
41
1
41
1
41
1
41
1
41
1
41
1
41
1
41
1
41
1
41
1
41
1
41
1
41
1
41
1
41
1
41
1
41
1
41
1
41
1
41
1
41
1
41
1
41
1
41
1
41
1
41
1
41
1
41
1
41
1
41
1
41
1
41
1
41
1
41
1
41
1
41
1
41
1
41
1
41
1
10
116.56869376725956
20
137.96562309532888
30
0
10
116.77712452071411
20
137.76068623285735
30
0
10
117.1956213983342
20
137.33959968716982
30
0
10
117.8339985569686
20
136.68107076906023
30
0
10
118.72772217837955
20
135.77278015430289
30
0
10
119.9596338407087
20
134.6315819220724
30
0
10
121.33941497041826
20
133.51759976070861
30
0
10
122.88806652537033
20
132.45513313340564
30
0
10
124.61323979013066
20
131.46242279446486
30
0
10
126.50757340022209
20
130.55456509460927
30
0
10
128.55235133014898
20
129.74362871163515
30
0
10
130.72173164114048
20
129.038477225744
30
0
10
132.98671077038728
20
128.44470944281764
30
0
10
135.31932378551195
20
127.96451679249971
30
0
10
137.69644912868495
20
127.59664800071711
30
0
10
140.10449266792688
20
127.33614922970844
30
0
10
142.54146473070801
20
127.17475708197617
30
0
10
145.01108666402578
20
127.10329597945102
30
0
10
147.51831737399996
20
127.11370648436008
30
0
10
150.06425400817466
20
127.20126170472179
30
0
10
152.64145189145495
20
127.36660781529089
30
0
10
155.2287045185754
20
127.61810731282905
30
0
10
157.78688763178221
20
127.9735264353571
30
0
10
160.25214368959863
20
128.46339435393429
30
0
10
162.54759691767649
20
129.12264967061449
30
0
10
164.59974313951039
20
129.97931287718345
30
0
10
166.35268497933697
20
131.04455422576333
30
0
10
167.78452079370544
20
132.30131890943073
30
0
10
168.9199377992945
20
133.69553331811528
30
0
10
169.85145471781181
20
135.12139783116692
30
0
10
170.73350014764455
20
136.42527846855791
30
0
10
171.72590204483095
20
137.44444943701569
30
0
10
172.94619652025065
20
138.03951172804716
30
0
10
174.42292481716362
20
138.12675657335959
30
0
10
176.03667801429845
20
137.71731511263707
30
0
10
177.57090010357931
20
136.89410799598724
30
0
10
178.7881883527096
20
135.77476276516464
30
0
10
179.49260887760738
20
134.48146014047842
30
0
10
179.60980516536947
20
133.10314038635633
30
0
10
179.22112120358403
20
131.67626085939878
30
0
10
178.49194390767966
20
130.20771789876699
30
0
10
177.61845790299262
20
128.69027995625399
30
0
10
176.77157035345019
20
127.11958170212353
30
0
10
176.0307350215592
20
125.51400515886932
30
0
10
175.39418595416385
20
123.91066678582158
30
0
10
174.81449360686003
20
122.3534056411896
30
0
10
174.22693300196315
20
120.88301878001543
30
0
10
173.57793374071014
20
119.52753217692477
30
0
10
172.86085090628777
20
118.28999390419017
30
0
10
172.1105710772332
20
117.14982463638526
30
0
10
171.37527142366818
20
116.0710895345165
30
0
10
170.69750608626182
20
115.00886693724462
30
0
10
170.08643365032452
20
113.9157394392887
30
0
10
169.51235441347114
20
112.75089915749957
30
0
10
168.92789757430882
20
111.4948001692688
30
0
10
168.28136687250094
20
110.16019487037701
30
0
10
167.53587207793038
20
108.80957064111277
30
0
10
166.67726463123645
20
107.55343572272737
30
0
10
165.70302612333293
20
106.51181266128022
30
0
10
164.61522638003493
20
105.78387158686766
30
0
10
163.41173971268
20
105.41384854166822
30
0
10
162.07852626553901
20
105.35973262428553
30
0
10
160.59733025135137
20
105.52471094868531
30
0
10
158.9536859472976
20
105.7889914046882
30
0
10
157.14388545878589
20
106.03892776628373
30
0
10
155.18463419074789
20
106.20346738390256
30
0
10
153.11125235232649
20
106.25912029320853
30
0
10
150.96830247583659
20
106.21427411377675
30
0
10
148.80265548842314
20
106.09985910047884
30
0
10
146.65518940653533
20
105.95707970963852
30
0
10
144.55391168385518
20
105.82715836459857
30
0
10
142.50441499568083
20
105.73838964541217
30
0
10
140.48877229049845
20
105.70084447155079
30
0
10
138.47702194937645
20
105.71215274072911
30
0
10
136.43552472822972
20
105.76062964077451
30
0
10
134.33684527128631
20
105.82951897453283
30
0
10
132.16837392439956
20
105.90063973975688
30
0
10
129.94295564791753
20
105.95856586193896
30
0
10
127.70419798894879
20
105.99372716529322
30
0
10
125.51085090359831
20
106.00156052897987
30
0
10
123.4243246317608
20
105.98224338480327
30
0
10
121.49493917649592
20
105.94019944158786
30
0
10
119.74881526522297
20
105.8837107275975
30
0
10
118.17423440494828
20
105.824469252168
30
0
10
116.70885194975283
20
105.7771969113337
30
0
10
115.2663820542122
20
105.7602766823935
30
0
10
113.76418489829902
20
105.79656483158701
30
0
10
112.14779416823701
20
105.91376509676837
30
0
10
110.42319740494591
20
106.14587233058275
30
0
10
108.66367964435568
20
106.53114809125513
30
0
10
106.97377849038151
20
107.104411578784
30
0
10
105.46196892455126
20
107.89029322729561
30
0
10
104.21200655765122
20
108.89679197332597
30
0
10
103.24969658150565
20
110.10704441882035
30
0
10
102.52789869523303
20
111.4770761310302
30
0
10
101.96302985787257
20
112.94985751390642
30
0
10
101.46354010459524
20
114.46698670530583
30
0
10
100.95846142762571
20
115.98000148200406
30
0
10
100.43354434877037
20
117.46506570410583
30
0
10
99.931031672529855
20
118.92223984387918
30
0
10
99.521574147793203
20
120.36304772742211
30
0
10
99.284122842018235
20
121.8013613141764
30
0
10
99.282959456724811
20
123.24316122838205
30
0
10
99.544838310708158
20
124.67611425050109
30
0
10
100.06178109373785
20
126.07773323326765
30
0
10
100.79493031413379
20
127.42524498733026
30
0
10
101.6791528181524
20
128.70369364627459
30
0
10
102.62450576671424
20
129.91751644751045
30
0
10
103.53030848807877
20
131.08978528218384
30
0
10
104.31223383624874
20
132.24944272734723
30
0
10
104.92497190146901
20
133.42199107155776
30
0
10
105.38865545338575
20
134.61837744017348
30
0
10
105.80812003334384
20
135.82575653819165
30
0
10
106.32038025372999
20
137.01112241567884
30
0
10
107.04910104301175
20
138.12423651326736
30
0
10
108.05315117669596
20
139.10039502690194
30
0
10
109.28693077729017
20
139.86443795956427
30
0
10
110.64792525693029
20
140.34589567545427
30
0
10
112.01632605128394
20
140.4931230226961
30
0
10
113.29748890605356
20
140.28773860121981
30
0
10
114.46367827519717
20
139.75919469379707
30
0
10
115.32137805542249
20
139.12683439352622
30
0
10
115.94503687760653
20
138.56922086199901
30
0
10
116.36026301380491
20
138.17055995780041
30
0
10
116.56869376725956
20
137.96562309532888
30
0
0
SPLINE
5
109
100
AcDbEntity
8
0
100
AcDbSpline
70
4
71
5
72
86
73
80
74
0
42
0.000000001
43
0.0000000001
44
0.0000000001
40
0
40
0
40
0
40
0
40
0
40
0
40
0.013333333333333299
40
0.0266666666666667
40
0.040000000000000001
40
0.053333333333333302
40
0.066666666666666693
40
0.080000000000000002
40
0.093333333333333393
40
0.1066666666666667
40
0.12
40
0.1333333333333333
40
0.1466666666666667
40
0.16
40
0.17333333333333331
40
0.1866666666666667
40
0.20000000000000001
40
0.21333333333333329
40
0.22666666666666671
40
0.23999999999999999
40
0.25333333333333341
40
0.26666666666666661
40
0.28000000000000003
40
0.29333333333333328
40
0.30666666666666659
40
0.3199999999999999
40
0.3333333333333332
40
0.34666666666666651
40
0.35999999999999982
40
0.37333333333333307
40
0.38666666666666649
40
0.39999999999999969
40
0.41333333333333311
40
0.42666666666666642
40
0.43999999999999972
40
0.45333333333333292
40
0.46666666666666629
40
0.4799999999999997
40
0.4933333333333329
40
0.50666666666666627
40
0.51999999999999957
40
0.53333333333333288
40
0.54666666666666619
40
0.55999999999999961
40
0.57333333333333281
40
0.58666666666666611
40
0.59999999999999953
40
0.61333333333333284
40
0.62666666666666615
40
0.63999999999999935
40
0.65333333333333266
40
0.66666666666666607
40
0.67999999999999927
40
0.69333333333333258
40
0.70666666666666578
40
0.71999999999999931
40
0.7333333333333325
40
0.74666666666666581
40
0.75999999999999912
40
0.77333333333333254
40
0.78666666666666585
40
0.79999999999999905
40
0.81333333333333235
40
0.82666666666666555
40
0.83999999999999886
40
0.85333333333333217
40
0.86666666666666548
40
0.87999999999999878
40
0.8933333333333322
40
0.90666666666666562
40
0.91999999999999882
40
0.93333333333333202
40
0.94666666666666544
40
0.95999999999999885
40
0.97333333333333205
40
0.98666666666666525
40
1
40
1
40
1
40
1
40
1
40
1
41
1
41
1
41
1
41
1
41
1
41
1
41
1
41
1
41
1
41
1
41
1
41
1
41
1
41
1
41
1
41
1
41
1
41
1
41
1
41
1
41
1
41
1
41
1
41
1
41
1
41
1
41
1
41
1
41
1
41
1
41
1
41
1
41
1
41
1
41
1
41
1
41
1
41
1
41
1
41
1
41
1
41
1
41
1
41
1
41
1
41
1
41
1
41
1
41
1
41
1
41
1
41
1
41
1
41
1
41
1
41
1
41
1
41
1
41
1
41
1
41
1
41
1
41
1
41
1
41
1
41
1
41
1
41
1
41
1
41
1
41
1
41
1
41
1
41
1
41
1
41
1
41
1
41
1
41
1
41
1
10
100.42029313094019
20
178.78317156379507
30
0
10
100.51150285256249
20
178.6740895953111
30
0
10
100.67511940321494
20
178.42582407038819
30
0
10
100.85851306692327
20
177.96675465956341
30
0
10
100.971073168052
20
177.19995201061238
30
0
10
100.9245186727326
20
176.04352240000739
30
0
10
100.75644488205717
20
174.75514181169046
30
0
10
100.54536987454702
20
173.39944500171728
30
0
10
100.36377085322567
20
172.03278701688205
30
0
10
100.25612987470353
20
170.69512018948356
30
0
10
100.22620423090547
20
169.4054552705839
30
0
10
100.25265422661008
20
168.16841949171192
30
0
10
100.29975204116403
20
166.9788826917372
30
0
10
100.32998607107167
20
165.82732298675802
30
0
10
100.31589939242137
20
164.70488832972956
30
0
10
100.25214843112218
20
163.60854262106733
30
0
10
100.16780804115453
20
162.54630249860833
30
0
10
100.11336285655926
20
161.53274886359054
30
0
10
100.14752672376615
20
160.58446905643521
30
0
10
100.32376137537335
20
159.71538587862392
30
0
10
100.67778909510318
20
158.93245966249742
30
0
10
101.21239035852328
20
158.23036798673857
30
0
10
101.90230050989317
20
157.59374878217866
30
0
10
102.70335101263733
20
157.00103654154293
30
0
10
103.56016892063869
20
156.42776666638252
30
0
10
104.41435936418463
20
155.85003952197422
30
0
10
105.21275555618269
20
155.24807316924165
30
0
10
105.91014006352147
20
154.60656177274376
30
0
10
106.4715624919301
20
153.91478106042288
30
0
10
106.87475487769223
20
153.16681478578403
30
0
10
107.11266670954303
20
152.36168457967071
30
0
10
107.19557206491588
20
151.50366034106173
30
0
10
107.14378991247629
20
150.60459888335603
30
0
10
106.98034922496143
20
149.68658726284499
30
0
10
106.72451060172827
20
148.78374729083663
30
0
10
106.38294186826587
20
147.94616762038831
30
0
10
105.94905146769378
20
147.23657682209353
30
0
10
105.41449973118591
20
146.71612046434495
30
0
10
104.77713630314582
20
146.43343887688707
30
0
10
104.0517440032406
20
146.41094760069404
30
0
10
103.27550974538939
20
146.63666701962785
30
0
10
102.49483014701646
20
147.07623105217098
30
0
10
101.75464170619647
20
147.682012109597
30
0
10
101.08721052043239
20
148.40314553538988
30
0
10
100.49997756719962
20
149.19570171107839
30
0
10
99.98287810063465
20
150.02380978812357
30
0
10
99.51732113267326
20
150.85988548406499
30
0
10
99.084743382586154
20
151.68522594475658
30
0
10
98.674903572285203
20
152.49039420184931
30
0
10
98.29546405182225
20
153.27587944530694
30
0
10
97.965444078145353
20
154.05048632739889
30
0
10
97.70641376780263
20
154.8295297396761
30
0
10
97.535142838394009
20
155.63300784522764
30
0
10
97.454123148433524
20
156.48402140553191
30
0
10
97.448029474018298
20
157.40632434890369
30
0
10
97.491782680112664
20
158.42012354494369
30
0
10
97.556186622988889
20
159.53820457254864
30
0
10
97.614443597293558
20
160.76201276804269
30
0
10
97.648490798425229
20
162.07752057394418
30
0
10
97.65486849885076
20
163.45178771384784
30
0
10
97.640054619238867
20
164.84106809553163
30
0
10
97.616320257376046
20
166.19841933664753
30
0
10
97.597537265285041
20
167.48124628963009
30
0
10
97.594687596236284
20
168.65943676764897
30
0
10
97.612249896836886
20
169.72194695465274
30
0
10
97.642350583745213
20
170.68730380779726
30
0
10
97.667041888881855
20
171.59987800273763
30
0
10
97.668432421818437
20
172.51205360183266
30
0
10
97.637429612185912
20
173.46944823965001
30
0
10
97.581474883960922
20
174.49653176544558
30
0
10
97.536561698584862
20
175.5780569330494
30
0
10
97.563482756786897
20
176.65690920905587
30
0
10
97.72448479925778
20
177.65338252804588
30
0
10
98.063369892346017
20
178.4794815534531
30
0
10
98.587395492245889
20
179.05425013863982
30
0
10
99.240586811069363
20
179.32103070669729
30
0
10
99.775241376511786
20
179.2684710005399
30
0
10
100.12786107348134
20
179.08031588129202
30
0
10
100.32908340931795
20
178.89225353227908
30
0
10
100.42029313094019
20
178.78317156379507
30
0
0
SPLINE
5
110
100
AcDbEntity
8
0
100
AcDbSpline
70
4
71
5
72
81
73
75
74
0
42
0.000000001
43
0.0000000001
44
0.0000000001
40
0
40
0
40
0
40
0
40
0
40
0
40
0.014285714285714299
40
0.028571428571428598
40
0.042857142857142899
40
0.057142857142857099
40
0.071428571428571397
40
0.085714285714285798
40
0.10000000000000001
40
0.1142857142857143
40
0.12857142857142859
40
0.1428571428571429
40
0.1571428571428572
40
0.17142857142857151
40
0.18571428571428569
40
0.20000000000000001
40
0.2142857142857143
40
0.22857142857142859
40
0.24285714285714291
40
0.25714285714285717
40
0.27142857142857141
40
0.28571428571428581
40
0.29999999999999999
40
0.31428571428571428
40
0.32857142857142863
40
0.34285714285714292
40
0.35714285714285721
40
0.3714285714285715
40
0.38571428571428579
40
0.40000000000000008
40
0.41428571428571448
40
0.42857142857142871
40
0.44285714285714289
40
0.45714285714285718
40
0.47142857142857159
40
0.48571428571428588
40
0.50000000000000011
40
0.51428571428571435
40
0.52857142857142858
40
0.54285714285714282
40
0.55714285714285705
40
0.57142857142857129
40
0.58571428571428552
40
0.59999999999999976
40
0.61428571428571399
40
0.62857142857142823
40
0.64285714285714246
40
0.6571428571428567
40
0.67142857142857093
40
0.68571428571428517
40
0.6999999999999994
40
0.71428571428571375
40
0.72857142857142787
40
0.74285714285714211
40
0.75714285714285645
40
0.77142857142857058
40
0.78571428571428481
40
0.79999999999999905
40
0.81428571428571328
40
0.82857142857142752
40
0.84285714285714175
40
0.85714285714285599
40
0.87142857142857022
40
0.88571428571428445
40
0.89999999999999869
40
0.91428571428571281
40
0.92857142857142716
40
0.94285714285714139
40
0.95714285714285563
40
0.97142857142856998
40
0.98571428571428399
40
1
40
1
40
1
40
1
40
1
40
1
41
1
41
1
41
1
41
1
41
1
41
1
41
1
41
1
41
1
41
1
41
1
41
1
41
1
41
1
41
1
41
1
41
1
41
1
41
1
41
1
41
1
41
1
41
1
41
1
41
1
41
1
41
1
41
1
41
1
41
1
41
1
41
1
41
1
41
1
41
1
41
1
41
1
41
1
41
1
41
1
41
1
41
1
41
1
41
1
41
1
41
1
41
1
41
1
41
1
41
1
41
1
41
1
41
1
41
1
41
1
41
1
41
1
41
1
41
1
41
1
41
1
41
1
41
1
41
1
41
1
41
1
41
1
41
1
41
1
41
1
41
1
41
1
41
1
41
1
41
1
10
115.9749408966283
20
187.15464749584328
30
0
10
115.89881867889657
20
187.30672852339339
30
0
10
115.76773692464565
20
187.61329927726666
30
0
10
115.63864256487199
20
188.07810150762987
30
0
10
115.60506417445964
20
188.69064679828028
30
0
10
115.76524648833599
20
189.38666385689035
30
0
10
116.08493355068217
20
189.96241733638416
30
0
10
116.53708447894979
20
190.40368200528721
30
0
10
117.11960260226726
20
190.73736787401711
30
0
10
117.83371246460015
20
190.9985430883018
30
0
10
118.66998275042789
20
191.20689763997797
30
0
10
119.5905211938211
20
191.3382016839785
30
0
10
120.54012652582658
20
191.34261724925335
30
0
10
121.45841112382713
20
191.16492910273709
30
0
10
122.29063095774343
20
190.76233717669308
30
0
10
123.0014272121507
20
190.12763048020133
30
0
10
123.57537652117904
20
189.2881179295232
30
0
10
124.01078397994996
20
188.29215470746959
30
0
10
124.31559032585167
20
187.19953766429995
30
0
10
124.50245061984042
20
186.0703905027928
30
0
10
124.58409040686313
20
184.95450329648858
30
0
10
124.57212060577228
20
183.88861990385561
30
0
10
124.47601058754331
20
182.8940466742863
30
0
10
124.30203629458161
20
181.97419793804315
30
0
10
124.0521451767502
20
181.11195223981815
30
0
10
123.72310150532587
20
180.26759492162128
30
0
10
123.31084441717408
20
179.38852191235463
30
0
10
122.81477859570725
20
178.4186037979041
30
0
10
122.24176332266232
20
177.30727288263193
30
0
10
121.61101528954019
20
176.01966375732206
30
0
10
120.95620707132016
20
174.5434079536314
30
0
10
120.31850263888376
20
172.88456913242857
30
0
10
119.74115155653993
20
171.06544655755553
30
0
10
119.26345316348224
20
169.12166806822751
30
0
10
118.91503463366968
20
167.09960635272981
30
0
10
118.70986948801425
20
165.05367629290339
30
0
10
118.64064920352732
20
163.04369045333038
30
0
10
118.67235037135559
20
161.13221378751695
30
0
10
118.73790817003555
20
159.38188013398869
30
0
10
118.75544892202099
20
157.85219125841894
30
0
10
118.64386176768734
20
156.5963488035928
30
0
10
118.33894372922244
20
155.65807442151626
30
0
10
117.80944298693855
20
155.06839875107926
30
0
10
117.07289422635682
20
154.8424972041264
30
0
10
116.2124265507793
20
154.97633609765512
30
0
10
115.34757812734446
20
155.45134764640508
30
0
10
114.60349924950854
20
156.23935597507415
30
0
10
114.0817670102677
20
157.30725669586545
30
0
10
113.82788589467516
20
158.62214650115814
30
0
10
113.84009669229155
20
160.15080885319389
30
0
10
114.08196676956253
20
161.85868689551
30
0
10
114.49364286303089
20
163.70900890895444
30
0
10
115.00347160312504
20
165.66190807961129
30
0
10
115.53980176235667
20
167.67339415498537
30
0
10
116.04185606987669
20
169.69472157723607
30
0
10
116.47306749130144
20
171.67075771620117
30
0
10
116.82647728726849
20
173.54152856499445
30
0
10
117.11444114763083
20
175.24992120035068
30
0
10
117.36166307629398
20
176.74822222805983
30
0
10
117.597044054115
20
178.00481198335177
30
0
10
117.84575846273387
20
179.01155030822193
30
0
10
118.12190289000191
20
179.78918030916188
30
0
10
118.419251046536
20
180.39780478680035
30
0
10
118.70841505066946
20
180.9307867372047
30
0
10
118.94503352893885
20
181.47940141611093
30
0
10
119.07570444484173
20
182.10455501518726
30
0
10
119.04424400677884
20
182.80455414559077
30
0
10
118.80990724675442
20
183.54361713636732
30
0
10
118.36304989504092
20
184.27775956720848
30
0
10
117.74775842199571
20
184.98759989436525
30
0
10
117.06017139673216
20
185.68702619340942
30
0
10
116.54402872176922
20
186.25768917056408
30
0
10
116.22447023103604
20
186.70081311196583
30
0
10
116.05106311435998
20
187.00256646829308
30
0
10
115.9749408966283
20
187.15464749584328
30
0
0
SPLINE
5
111
100
AcDbEntity
8
0
100
AcDbSpline
70
4
71
5
72
146
73
140
74
0
42
0.000000001
43
0.0000000001
44
0.0000000001
40
0
40
0
40
0
40
0
40
0
40
0
40
0.0074074074074073999
40
0.0148148148148148
40
0.022222222222222199
40
0.0296296296296296
40
0.037037037037037
40
0.044444444444444502
40
0.051851851851851802
40
0.059259259259259303
40
0.066666666666666693
40
0.074074074074074098
40
0.081481481481481502
40
0.088888888888888906
40
0.096296296296296297
40
0.1037037037037037
40
0.1111111111111111
40
0.1185185185185185
40
0.12592592592592591
40
0.1333333333333333
40
0.14074074074074069
40
0.14814814814814811
40
0.15555555555555561
40
0.162962962962963
40
0.17037037037037039
40
0.17777777777777781
40
0.1851851851851852
40
0.1925925925925927
40
0.20000000000000009
40
0.20740740740740751
40
0.2148148148148149
40
0.22222222222222229
40
0.22962962962962979
40
0.23703703703703721
40
0.24444444444444449
40
0.25185185185185199
40
0.25925925925925941
40
0.26666666666666677
40
0.27407407407407419
40
0.28148148148148172
40
0.28888888888888908
40
0.2962962962962965
40
0.30370370370370392
40
0.31111111111111128
40
0.31851851851851881
40
0.32592592592592617
40
0.33333333333333359
40
0.34074074074074107
40
0.34814814814814837
40
0.35555555555555579
40
0.36296296296296321
40
0.37037037037037068
40
0.3777777777777781
40
0.38518518518518552
40
0.39259259259259288
40
0.40000000000000041
40
0.40740740740740777
40
0.4148148148148153
40
0.42222222222222261
40
0.42962962962963008
40
0.4370370370370375
40
0.44444444444444492
40
0.45185185185185228
40
0.4592592592592597
40
0.46666666666666717
40
0.47407407407407459
40
0.48148148148148207
40
0.48888888888888937
40
0.4962962962962969
40
0.50370370370370421
40
0.51111111111111163
40
0.51851851851851904
40
0.52592592592592646
40
0.53333333333333399
40
0.5407407407407413
40
0.54814814814814883
40
0.55555555555555625
40
0.56296296296296355
40
0.57037037037037097
40
0.57777777777777839
40
0.58518518518518592
40
0.59259259259259334
40
0.60000000000000075
40
0.60740740740740806
40
0.61481481481481548
40
0.6222222222222229
40
0.62962962962963032
40
0.63703703703703785
40
0.64444444444444515
40
0.65185185185185268
40
0.65925925925925999
40
0.66666666666666741
40
0.67407407407407494
40
0.68148148148148224
40
0.68888888888888966
40
0.69629629629629708
40
0.70370370370370461
40
0.71111111111111214
40
0.71851851851851944
40
0.72592592592592675
40
0.73333333333333417
40
0.74074074074074159
40
0.74814814814814912
40
0.75555555555555654
40
0.76296296296296395
40
0.77037037037037126
40
0.77777777777777868
40
0.7851851851851861
40
0.79259259259259363
40
0.80000000000000082
40
0.80740740740740835
40
0.81481481481481566
40
0.82222222222222319
40
0.8296296296296306
40
0.83703703703703791
40
0.84444444444444533
40
0.85185185185185275
40
0.85925925925926017
40
0.86666666666666758
40
0.87407407407407511
40
0.88148148148148253
40
0.88888888888888995
40
0.89629629629629737
40
0.90370370370370479
40
0.91111111111111198
40
0.91851851851851962
40
0.92592592592592704
40
0.93333333333333435
40
0.94074074074074177
40
0.94814814814814918
40
0.95555555555555682
40
0.96296296296296413
40
0.97037037037037144
40
0.97777777777777874
40
0.98518518518518639
40
0.9925925925925938
40
1
40
1
40
1
40
1
40
1
40
1
41
1
41
1
41
1
41
1
41
1
41
1
41
1
41
1
41
1
41
1
41
1
41
1
41
1
41
1
41
1
41
1
41
1
41
1
41
1
41
1
41
1
41
1
41
1
41
1
41
1
41
1
41
1
41
1
41
1
41
1
41
1
41
1
41
1
41
1
41
1
41
1
41
1
41
1
41
1
41
1
41
1
41
1
41
1
41
1
41
1
41
1
41
1
41
1
41
1
41
1
41
1
41
1
41
1
41
1
41
1
41
1
41
1
41
1
41
1
41
1
41
1
41
1
41
1
41
1
41
1
41
1
41
1
41
1
41
1
41
1
41
1
41
1
41
1
41
1
41
1
41
1
41
1
41
1
41
1
41
1
41
1
41
1
41
1
41
1
41
1
41
1
41
1
41
1
41
1
41
1
41
1
41
1
41
1
41
1
41
1
41
1
41
1
41
1
41
1
41
1
41
1
41
1
41
1
41
1
41
1
41
1
41
1
41
1
41
1
41
1
41
1
41
1
41
1
41
1
41
1
41
1
41
1
41
1
41
1
41
1
41
1
41
1
41
1
41
1
41
1
41
1
41
1
41
1
41
1
41
1
41
1
41
1
41
1
41
1
41
1
41
1
41
1
41
1
41
1
41
1
10
254.19930589432761
20
259.46646851915477
30
0
10
254.32121439627934
20
259.50601989235497
30
0
10
254.56786414999769
20
259.58007525658041
30
0
10
254.94179714667212
20
259.67415806326335
30
0
10
255.42798563984411
20
259.7532025458147
30
0
10
255.96260169509318
20
259.73196142681837
30
0
10
256.37916917418494
20
259.54975570032923
30
0
10
256.64893226821385
20
259.18014437562198
30
0
10
256.76960105655434
20
258.62596428418436
30
0
10
256.75900503998918
20
257.91302320100164
30
0
10
256.6466599888164
20
257.08110395859234
30
0
10
256.46578969791392
20
256.17564646475853
30
0
10
256.24581132535729
20
255.23977909408097
30
0
10
256.00297415867936
20
254.3046063639342
30
0
10
255.74017824149331
20
253.38836256096118
30
0
10
255.45153501670836
20
252.50016461330779
30
0
10
255.12545912745199
20
251.64233590420451
30
0
10
254.74832415703506
20
250.81328586884598
30
0
10
254.30797528815168
20
250.01022934480434
30
0
10
253.79706860750622
20
249.2317860020043
30
0
10
253.21710248574465
20
248.48112439971541
30
0
10
252.57708520360268
20
247.76481813174374
30
0
10
251.89101925736949
20
247.09075346575804
30
0
10
251.17579417398844
20
246.46636285918518
30
0
10
250.44891177541044
20
245.89672530046099
30
0
10
249.72627788094729
20
245.38271468248851
30
0
10
249.01997933556123
20
244.91914605497411
30
0
10
248.33602692438089
20
244.49286603664029
30
0
10
247.67560853846055
20
244.08559354215885
30
0
10
247.03638585987414
20
243.67680754417788
30
0
10
246.41378346456281
20
243.24665081691816
30
0
10
245.80225735529214
20
242.7787485681736
30
0
10
245.19662593601436
20
242.26325063900623
30
0
10
244.59321571150747
20
241.69923640031541
30
0
10
243.9895963313237
20
241.09232421914976
30
0
10
243.38445649561515
20
240.45273807881847
30
0
10
242.77742135184982
20
239.7932286704544
30
0
10
242.16890626782177
20
239.12699402235722
30
0
10
241.55992920367544
20
238.46574987767957
30
0
10
240.95200946353029
20
237.81734637142907
30
0
10
240.34650106900295
20
237.18651583692963
30
0
10
239.74376401077279
20
236.57643068361776
30
0
10
239.142428171267
20
235.98994980435549
30
0
10
238.53853327499326
20
235.43107355723851
30
0
10
237.92491765015328
20
234.90612758667763
30
0
10
237.29001590058192
20
234.42551092706816
30
0
10
236.61872391349064
20
234.00352568912052
30
0
10
235.89582857249673
20
233.65585544663315
30
0
10
235.10871056106066
20
233.39768877460318
30
0
10
234.25049529199686
20
233.24148668292139
30
0
10
233.32266281761915
20
233.19511860749054
30
0
10
232.33875343985954
20
233.25930679836543
30
0
10
231.32444323289761
20
233.42731898263912
30
0
10
230.31297011020288
20
233.68751983893475
30
0
10
229.34169491840265
20
234.02523823698982
30
0
10
228.44827222624048
20
234.42484016259709
30
0
10
227.66683248492188
20
234.87187451340819
30
0
10
227.02452262075121
20
235.35481099189326
30
0
10
226.53699747967346
20
235.86787648315581
30
0
10
226.20762049588149
20
236.41007560441622
30
0
10
226.03151270068537
20
236.97942477621575
30
0
10
225.99849151438977
20
237.56802386545675
30
0
10
226.09623479954823
20
238.15756057537482
30
0
10
226.31391645117205
20
238.71263505969881
30
0
10
226.64179703921292
20
239.18886656782036
30
0
10
227.06952639193935
20
239.54622077162628
30
0
10
227.58489667484284
20
239.75930559467611
30
0
10
228.17236706067266
20
239.83198676389233
30
0
10
228.81187919243666
20
239.79770287198585
30
0
10
229.47800090788289
20
239.70749705262989
30
0
10
230.13872433649721
20
239.62146265914427
30
0
10
230.75496864059784
20
239.59882006693135
30
0
10
231.27832264798718
20
239.68850114318303
30
0
10
231.66071952039982
20
239.92076745279184
30
0
10
231.86629831827727
20
240.30003240705503
30
0
10
231.88352864065951
20
240.79576689173513
30
0
10
231.73435857834406
20
241.33846768279469
30
0
10
231.46056753861075
20
241.85066967086908
30
0
10
231.11301413782232
20
242.27275523712939
30
0
10
230.7390000435613
20
242.59373859668813
30
0
10
230.37270687979557
20
242.87114622369813
30
0
10
230.04185122236348
20
243.18579476345278
30
0
10
229.77183142336827
20
243.607881846097
30
0
10
229.59222721507473
20
244.15077965163067
30
0
10
229.53758584250841
20
244.7568762148249
30
0
10
229.63837829716326
20
245.33864050265916
30
0
10
229.91460010683176
20
245.80588145892943
30
0
10
230.36727890124024
20
246.10188914163516
30
0
10
230.97399580222623
20
246.2256185405609
30
0
10
231.69761551930989
20
246.21116849102242
30
0
10
232.49314064208579
20
246.11330170550886
30
0
10
233.3149891896376
20
245.99142884893752
30
0
10
234.1248139931578
20
245.89233940032219
30
0
10
234.89677342557974
20
245.83959835883405
30
0
10
235.61562821153495
20
245.84205368946317
30
0
10
236.27617636586962
20
245.89867200806862
30
0
10
236.8822077142579
20
246.00492034297395
30
0
10
237.4455578694166
20
246.15827023960352
30
0
10
237.98542806465059
20
246.36466339248105
30
0
10
238.52144653766462
20
246.63443143882256
30
0
10
239.06568329188406
20
246.97720672784033
30
0
10
239.61597371313724
20
247.39751545605398
30
0
10
240.14651719737302
20
247.88933118097302
30
0
10
240.60629078433894
20
248.43339218343186
30
0
10
240.94157762016297
20
249.00327452076095
30
0
10
241.11606036069287
20
249.57023084174094
30
0
10
241.12861145739845
20
250.1080647631527
30
0
10
241.0399548014754
20
250.59907067379524
30
0
10
240.96637868392818
20
251.03553566090278
30
0
10
241.02838299927899
20
251.41517104096073
30
0
10
241.31293678448009
20
251.73823254037586
30
0
10
241.82454594196528
20
252.00356705430761
30
0
10
242.50712482007918
20
252.20965692710564
30
0
10
243.27445476962771
20
252.35619526601243
30
0
10
244.03715909531024
20
252.44545562920521
30
0
10
244.73227031020173
20
252.48380995028396
30
0
10
245.34848148896879
20
252.48300863003109
30
0
10
245.90745809541033
20
252.45890041807328
30
0
10
246.44739768330541
20
252.43034520653504
30
0
10
247.00705557675104
20
252.41800759281398
30
0
10
247.60643608227397
20
252.44331573866617
30
0
10
248.24072415833382
20
252.52693049418244
30
0
10
248.88999366754504
20
252.68672493549036
30
0
10
249.52494173717901
20
252.93579634195683
30
0
10
250.11395856113722
20
253.280664712815
30
0
10
250.6303217014171
20
253.71888413032733
30
0
10
251.05571941371423
20
254.23949691790241
30
0
10
251.38149548457534
20
254.82496021167077
30
0
10
251.61084645093641
20
255.45256710448368
30
0
10
251.76013618062811
20
256.09616796749498
30
0
10
251.8618500143827
20
256.72752187871231
30
0
10
251.95900021850505
20
257.3194046613699
30
0
10
252.09640355690325
20
257.84953878092074
30
0
10
252.31330278789841
20
258.30384832759967
30
0
10
252.63470190136616
20
258.68093366718983
30
0
10
253.06548032046553
20
258.99314329892445
30
0
10
253.48797488961151
20
259.20325777091426
30
0
10
253.83641313828826
20
259.34276701737895
30
0
10
254.07739739237616
20
259.42691714595452
30
0
10
254.19930589432761
20
259.46646851915477
30
0
0
SPLINE
5
112
100
AcDbEntity
8
0
100
AcDbSpline
70
4
71
5
72
106
73
100
74
0
42
0.000000001
43
0.0000000001
44
0.0000000001
40
0
40
0
40
0
40
0
40
0
40
0
40
0.0105263157894737
40
0.021052631578947399
40
0.031578947368421102
40
0.042105263157894701
40
0.052631578947368397
40
0.063157894736842093
40
0.073684210526315796
40
0.0842105263157895
40
0.094736842105263203
40
0.10526315789473691
40
0.1157894736842105
40
0.12631578947368419
40
0.1368421052631579
40
0.14736842105263159
40
0.15789473684210531
40
0.168421052631579
40
0.17894736842105269
40
0.18947368421052641
40
0.20000000000000009
40
0.21052631578947381
40
0.22105263157894739
40
0.23157894736842111
40
0.2421052631578948
40
0.25263157894736848
40
0.26315789473684209
40
0.27368421052631581
40
0.28421052631578952
40
0.29473684210526307
40
0.30526315789473679
40
0.3157894736842104
40
0.32631578947368411
40
0.33684210526315778
40
0.34736842105263138
40
0.3578947368421051
40
0.36842105263157882
40
0.37894736842105242
40
0.38947368421052608
40
0.39999999999999969
40
0.41052631578947352
40
0.42105263157894712
40
0.43157894736842067
40
0.4421052631578945
40
0.45263157894736811
40
0.46315789473684171
40
0.47368421052631537
40
0.48421052631578909
40
0.4947368421052627
40
0.50526315789473653
40
0.51578947368421013
40
0.52631578947368385
40
0.53684210526315757
40
0.54736842105263139
40
0.557894736842105
40
0.56842105263157883
40
0.57894736842105243
40
0.58947368421052615
40
0.59999999999999987
40
0.61052631578947369
40
0.6210526315789473
40
0.63157894736842113
40
0.64210526315789473
40
0.65263157894736845
40
0.66315789473684217
40
0.673684210526316
40
0.6842105263157896
40
0.69473684210526343
40
0.70526315789473715
40
0.71578947368421075
40
0.72631578947368447
40
0.7368421052631583
40
0.7473684210526319
40
0.75789473684210573
40
0.76842105263157934
40
0.77894736842105305
40
0.78947368421052677
40
0.80000000000000049
40
0.81052631578947409
40
0.82105263157894792
40
0.83157894736842153
40
0.84210526315789536
40
0.85263157894736896
40
0.86315789473684279
40
0.8736842105263164
40
0.88421052631579022
40
0.89473684210526383
40
0.90526315789473755
40
0.91578947368421115
40
0.9263157894736852
40
0.93684210526315881
40
0.94736842105263241
40
0.95789473684210602
40
0.96842105263157996
40
0.97894736842105357
40
0.98947368421052739
40
1
40
1
40
1
40
1
40
1
40
1
41
1
41
1
41
1
41
1
41
1
41
1
41
1
41
1
41
1
41
1
41
1
41
1
41
1
41
1
41
1
41
1
41
1
41
1
41
1
41
1
41
1
41
1
41
1
41
1
41
1
41
1
41
1
41
1
41
1
41
1
41
1
41
1
41
1
41
1
41
1
41
1
41
1
41
1
41
1
41
1
41
1
41
1
41
1
41
1
41
1
41
1
41
1
41
1
41
1
41
1
41
1
41
1
41
1
41
1
41
1
41
1
41
1
41
1
41
1
41
1
41
1
41
1
41
1
41
1
41
1
41
1
41
1
41
1
41
1
41
1
41
1
41
1
41
1
41
1
41
1
41
1
41
1
41
1
41
1
41
1
41
1
41
1
41
1
41
1
41
1
41
1
41
1
41
1
41
1
41
1
41
1
41
1
41
1
41
1
41
1
41
1
41
1
41
1
41
1
41
1
10
87.628953374434985
20
251.70977673940899
30
0
10
87.875351383089566
20
251.64658505342399
30
0
10
88.365352435239629
20
251.49820621295132
30
0
10
89.088965037732947
20
251.21125362071126
30
0
10
90.018650146067657
20
250.71313719886956
30
0
10
91.092293855767792
20
249.9541682463796
30
0
10
92.051164888010675
20
249.12707197707533
30
0
10
92.875268780379969
20
248.30076476931066
30
0
10
93.553439769735519
20
247.53411673378238
30
0
10
94.086338472444325
20
246.86399646752773
30
0
10
94.488334067031317
20
246.29607059086044
30
0
10
94.792190762556999
20
245.78869275855976
30
0
10
95.041199474110783
20
245.26770283364911
30
0
10
95.274053538668412
20
244.65897938777485
30
0
10
95.512259899790081
20
243.91495265539763
30
0
10
95.745806528183323
20
243.04492194744989
30
0
10
95.921448389432328
20
242.14020853297373
30
0
10
95.967527239526461
20
241.3300783093689
30
0
10
95.817989401021904
20
240.73925936647285
30
0
10
95.434872028922172
20
240.44812192403219
30
0
10
94.835748964673101
20
240.4440797025797
30
0
10
94.105681474916707
20
240.60049311339029
30
0
10
93.361216180599897
20
240.74058569210439
30
0
10
92.721687542557234
20
240.68853380269584
30
0
10
92.279664015890148
20
240.32177602003881
30
0
10
92.066560066891924
20
239.63267895710419
30
0
10
92.06345741173152
20
238.70432184221502
30
0
10
92.221468872495421
20
237.6682575191879
30
0
10
92.479479299552025
20
236.66710623995721
30
0
10
92.781373391633934
20
235.81841496787419
30
0
10
93.097358368157387
20
235.17002874579791
30
0
10
93.430300706407394
20
234.68617918329414
30
0
10
93.794384799343817
20
234.29024657097909
30
0
10
94.199858845580422
20
233.89501642482156
30
0
10
94.635528669094683
20
233.4376222090722
30
0
10
95.051661270522899
20
232.9133797447611
30
0
10
95.378014611400047
20
232.35707300276115
30
0
10
95.543605358708433
20
231.82203295837152
30
0
10
95.494375668570726
20
231.3612500414487
30
0
10
95.215407070741534
20
231.00464872850517
30
0
10
94.724727012400592
20
230.75980938785574
30
0
10
94.060214738112165
20
230.61861694952924
30
0
10
93.26808752503338
20
230.56203410487367
30
0
10
92.393087104582619
20
230.56522230860682
30
0
10
91.47682671802167
20
230.60096883716386
30
0
10
90.554676260457455
20
230.64340845332009
30
0
10
89.652984788902529
20
230.6718307397573
30
0
10
88.786711240685733
20
230.67397722185265
30
0
10
87.955495832140755
20
230.65073773291689
30
0
10
87.145701049436099
20
230.61572541193104
30
0
10
86.339117994211151
20
230.58920249053756
30
0
10
85.519818079293671
20
230.59354661591581
30
0
10
84.681945786194945
20
230.64800228256854
30
0
10
83.836683197783401
20
230.76394609997374
30
0
10
83.020747151865606
20
230.93936139847915
30
0
10
82.282021894510763
20
231.1644223827
30
0
10
81.663590790327845
20
231.42784758391485
30
0
10
81.188289691249395
20
231.72299487370853
30
0
10
80.843153431979431
20
232.05402037172399
30
0
10
80.563532499866071
20
232.44214898427902
30
0
10
80.266166968786322
20
232.91349194216241
30
0
10
79.882931333477984
20
233.4866065983
30
0
10
79.393943983634912
20
234.16029907253346
30
0
10
78.86200370642112
20
234.90091633260289
30
0
10
78.396475662494325
20
235.65655905425641
30
0
10
78.116729834475564
20
236.37144614146425
30
0
10
78.114461770587241
20
237.00074905866558
30
0
10
78.41944134893042
20
237.52401609162192
30
0
10
78.95591873434951
20
237.96243250340865
30
0
10
79.576621004667913
20
238.36394612064009
30
0
10
80.113078314861013
20
238.78134333957618
30
0
10
80.416764727170843
20
239.25475151968809
30
0
10
80.412260857849546
20
239.78766473796526
30
0
10
80.11761361783482
20
240.34144986417871
30
0
10
79.604589198583852
20
240.86480816427408
30
0
10
78.973173119357156
20
241.31405686219509
30
0
10
78.317942562588286
20
241.68047006737373
30
0
10
77.705411462572215
20
242.00433642334897
30
0
10
77.181049040317774
20
242.34873754368022
30
0
10
76.771769281607646
20
242.77860595588959
30
0
10
76.490146554333208
20
243.33998882104254
30
0
10
76.33793727452715
20
244.03357300579532
30
0
10
76.30957880520414
20
244.81993420150999
30
0
10
76.395293204023531
20
245.64008497628726
30
0
10
76.584473589938185
20
246.43193949888581
30
0
10
76.868625891583349
20
247.14673316352702
30
0
10
77.245318410315363
20
247.76983348177129
30
0
10
77.717557599044241
20
248.31755052506938
30
0
10
78.290875810401289
20
248.82161969233431
30
0
10
78.971064217268975
20
249.31705917652005
30
0
10
79.761796868643358
20
249.82976322925009
30
0
10
80.661914523197126
20
250.36144824960613
30
0
10
81.664270449593474
20
250.88586571781534
30
0
10
82.756696729391322
20
251.36014246459536
30
0
10
83.922430941877124
20
251.73229154806018
30
0
10
85.140757978000835
20
251.95026968467596
30
0
10
86.138197094481399
20
251.96634970446422
30
0
10
86.88696438331236
20
251.87735632886157
30
0
10
87.38255536578049
20
251.77296842539405
30
0
10
87.628953374434985
20
251.70977673940899
30
0
0
SPLINE
5
113
100
AcDbEntity
8
0
100
AcDbSpline
70
4
71
5
72
21
73
15
74
0
42
0.000000001
43
0.0000000001
44
0.0000000001
40
0
40
0
40
0
40
0
40
0
40
0
40
0.10000000000000001
40
0.20000000000000001
40
0.29999999999999999
40
0.40000000000000002
40
0.5
40
0.59999999999999998
40
0.69999999999999996
40
0.80000000000000004
40
0.90000000000000002
40
1
40
1
40
1
40
1
40
1
40
1
41
1
41
1
41
1
41
1
41
1
41
1
41
1
41
1
41
1
41
1
41
1
41
1
41
1
41
1
41
1
10
194.33497694066273
20
190.99421445726585
30
0
10
194.29914416198002
20
191.11412755741861
30
0
10
194.22179158497869
20
191.35134204844468
30
0
10
194.08870164602067
20
191.6993286504636
30
0
10
193.87656500776487
20
192.14738277363236
30
0
10
193.5497538635511
20
192.67914268909965
30
0
10
193.15614315239569
20
193.1802255434707
30
0
10
192.69082229210866
20
193.64837619892563
30
0
10
192.15212031996515
20
194.08282728184471
30
0
10
191.54400887371193
20
194.48540272881093
30
0
10
190.87218888718141
20
194.85872063906561
30
0
10
190.28817350302955
20
195.13599301124927
30
0
10
189.82567162441651
20
195.33270033616299
30
0
10
189.5066311125683
20
195.45892195878483
30
0
10
189.34443422844438
20
195.5208035542407
30
0
0
SPLINE
5
114
100
AcDbEntity
8
0
100
AcDbSpline
70
4
71
5
72
961
73
955
74
0
42
0.000000001
43
0.0000000001
44
0.0000000001
40
0
40
0
40
0
40
0
40
0
40
0
40
0.0010526315789474001
40
0.0021052631578946999
40
0.0031578947368421
40
0.0042105263157894996
40
0.0052631578947368004
40
0.0063157894736842
40
0.0073684210526315996
40
0.0084210526315789003
40
0.0094736842105263008
40
0.0105263157894737
40
0.0115789473684211
40
0.0126315789473684
40
0.0136842105263158
40
0.014736842105263199
40
0.015789473684210499
40
0.016842105263157901
40
0.0178947368421053
40
0.018947368421052602
40
0.02
40
0.021052631578947399
40
0.022105263157894701
40
0.0231578947368421
40
0.024210526315789498
40
0.0252631578947368
40
0.026315789473684199
40
0.027368421052631601
40
0.028421052631578899
40
0.029473684210526301
40
0.0305263157894737
40
0.031578947368420998
40
0.0326315789473684
40
0.033684210526315803
40
0.034736842105263101
40
0.035789473684210503
40
0.036842105263157898
40
0.0378947368421053
40
0.038947368421052599
40
0.040000000000000001
40
0.041052631578947403
40
0.042105263157894701
40
0.043157894736842103
40
0.044210526315789499
40
0.045263157894736797
40
0.046315789473684199
40
0.047368421052631601
40
0.048421052631578899
40
0.049473684210526302
40
0.050526315789473697
40
0.051578947368420995
40
0.052631578947368397
40
0.0536842105263158
40
0.054736842105263098
40
0.0557894736842105
40
0.056842105263157902
40
0.0578947368421052
40
0.058947368421052602
40
0.059999999999999998
40
0.061052631578947303
40
0.062105263157894698
40
0.063157894736842093
40
0.064210526315789496
40
0.065263157894736801
40
0.066315789473684203
40
0.067368421052631605
40
0.068421052631579007
40
0.069473684210526299
40
0.070526315789473701
40
0.071578947368421103
40
0.072631578947368394
40
0.073684210526315796
40
0.074736842105263199
40
0.075789473684210601
40
0.076842105263157906
40
0.077894736842105294
40
0.078947368421052697
40
0.080000000000000099
40
0.081052631578947501
40
0.082105263157894806
40
0.083157894736842194
40
0.084210526315789597
40
0.085263157894736902
40
0.086315789473684304
40
0.087368421052631706
40
0.088421052631579095
40
0.0894736842105264
40
0.090526315789473802
40
0.091578947368421204
40
0.092631578947368606
40
0.093684210526315995
40
0.0947368421052633
40
0.095789473684210702
40
0.096842105263158104
40
0.097894736842105395
40
0.098947368421052798
40
0.1000000000000002
40
0.1010526315789475
40
0.10210526315789489
40
0.1031578947368423
40
0.1042105263157897
40
0.10526315789473699
40
0.10631578947368441
40
0.10736842105263179
40
0.1084210526315792
40
0.1094736842105265
40
0.1105263157894739
40
0.11157894736842131
40
0.11263157894736869
40
0.113684210526316
40
0.1147368421052634
40
0.1157894736842108
40
0.11684210526315821
40
0.1178947368421055
40
0.1189473684210529
40
0.1200000000000003
40
0.1210526315789477
40
0.12210526315789501
40
0.1231578947368424
40
0.1242105263157898
40
0.12526315789473719
40
0.12631578947368449
40
0.12736842105263191
40
0.12842105263157921
40
0.1294736842105266
40
0.13052631578947402
40
0.1315789473684213
40
0.13263157894736871
40
0.13368421052631599
40
0.1347368421052634
40
0.13578947368421079
40
0.1368421052631581
40
0.13789473684210549
40
0.13894736842105279
40
0.14000000000000021
40
0.1410526315789476
40
0.1421052631578949
40
0.14315789473684229
40
0.14421052631578959
40
0.14526315789473698
40
0.1463157894736844
40
0.1473684210526317
40
0.14842105263157909
40
0.1494736842105264
40
0.15052631578947381
40
0.1515789473684212
40
0.15263157894736851
40
0.1536842105263159
40
0.15473684210526331
40
0.15578947368421059
40
0.15684210526315803
40
0.15789473684210531
40
0.1589473684210527
40
0.16
40
0.16105263157894739
40
0.16210526315789481
40
0.16315789473684211
40
0.1642105263157895
40
0.16526315789473689
40
0.16631578947368419
40
0.16736842105263161
40
0.16842105263157889
40
0.1694736842105263
40
0.17052631578947361
40
0.171578947368421
40
0.17263157894736841
40
0.17368421052631569
40
0.17473684210526311
40
0.1757894736842105
40
0.1768421052631578
40
0.17789473684210519
40
0.17894736842105249
40
0.17999999999999991
40
0.1810526315789473
40
0.1821052631578946
40
0.18315789473684199
40
0.1842105263157893
40
0.18526315789473671
40
0.1863157894736841
40
0.18736842105263141
40
0.18842105263157879
40
0.1894736842105261
40
0.19052631578947349
40
0.1915789473684209
40
0.19263157894736821
40
0.1936842105263156
40
0.19473684210526299
40
0.19578947368421029
40
0.19684210526315771
40
0.19789473684210501
40
0.1989473684210524
40
0.19999999999999979
40
0.20105263157894709
40
0.20210526315789451
40
0.20315789473684179
40
0.2042105263157892
40
0.20526315789473651
40
0.2063157894736839
40
0.20736842105263131
40
0.2084210526315787
40
0.20947368421052601
40
0.21052631578947339
40
0.2115789473684207
40
0.21263157894736809
40
0.21368421052631539
40
0.21473684210526281
40
0.2157894736842102
40
0.2168421052631575
40
0.21789473684210489
40
0.2189473684210522
40
0.21999999999999961
40
0.221052631578947
40
0.22210526315789431
40
0.22315789473684169
40
0.22421052631578911
40
0.22526315789473639
40
0.2263157894736838
40
0.22736842105263111
40
0.2284210526315785
40
0.22947368421052591
40
0.23052631578947319
40
0.23157894736842061
40
0.23263157894736791
40
0.2336842105263153
40
0.23473684210526261
40
0.23578947368420999
40
0.23684210526315741
40
0.2378947368421048
40
0.2389473684210521
40
0.23999999999999949
40
0.2410526315789468
40
0.24210526315789421
40
0.24315789473684149
40
0.24421052631578891
40
0.24526315789473629
40
0.2463157894736836
40
0.24736842105263102
40
0.24842105263157829
40
0.24947368421052571
40
0.2505263157894731
40
0.25157894736842051
40
0.25263157894736782
40
0.25368421052631518
40
0.25473684210526248
40
0.2557894736842099
40
0.25684210526315732
40
0.25789473684210462
40
0.25894736842105198
40
0.25999999999999929
40
0.2610526315789467
40
0.26210526315789412
40
0.26315789473684142
40
0.26421052631578879
40
0.2652631578947362
40
0.26631578947368351
40
0.26736842105263092
40
0.26842105263157823
40
0.26947368421052559
40
0.270526315789473
40
0.27157894736842031
40
0.27263157894736773
40
0.27368421052631503
40
0.27473684210526239
40
0.2757894736842097
40
0.27684210526315711
40
0.27789473684210447
40
0.27894736842105189
40
0.27999999999999919
40
0.2810526315789465
40
0.28210526315789392
40
0.28315789473684128
40
0.28421052631578858
40
0.285263157894736
40
0.28631578947368341
40
0.28736842105263072
40
0.28842105263157808
40
0.28947368421052538
40
0.2905263157894728
40
0.2915789473684201
40
0.29263157894736752
40
0.29368421052631488
40
0.29473684210526219
40
0.2957894736842096
40
0.29684210526315691
40
0.29789473684210432
40
0.29894736842105168
40
0.29999999999999893
40
0.30105263157894641
40
0.30210526315789382
40
0.30315789473684113
40
0.30421052631578849
40
0.30526315789473579
40
0.30631578947368321
40
0.30736842105263062
40
0.30842105263157787
40
0.30947368421052529
40
0.3105263157894726
40
0.31157894736842001
40
0.31263157894736737
40
0.31368421052631468
40
0.31473684210526209
40
0.31578947368420951
40
0.31684210526315681
40
0.31789473684210418
40
0.31894736842105148
40
0.3199999999999989
40
0.32105263157894631
40
0.32210526315789362
40
0.32315789473684098
40
0.32421052631578828
40
0.3252631578947357
40
0.326315789473683
40
0.32736842105263042
40
0.32842105263157778
40
0.3294736842105252
40
0.3305263157894725
40
0.33157894736841992
40
0.33263157894736722
40
0.33368421052631458
40
0.33473684210526189
40
0.33578947368420931
40
0.33684210526315672
40
0.33789473684210397
40
0.33894736842105139
40
0.33999999999999869
40
0.34105263157894611
40
0.34210526315789341
40
0.34315789473684077
40
0.34421052631578819
40
0.34526315789473561
40
0.34631578947368291
40
0.34736842105263033
40
0.34842105263157758
40
0.34947368421052499
40
0.3505263157894723
40
0.35157894736841971
40
0.35263157894736707
40
0.35368421052631438
40
0.3547368421052618
40
0.3557894736842091
40
0.35684210526315652
40
0.35789473684210388
40
0.35894736842105118
40
0.3599999999999986
40
0.36105263157894602
40
0.36210526315789332
40
0.36315789473684068
40
0.36421052631578793
40
0.3652631578947354
40
0.36631578947368282
40
0.36736842105263012
40
0.36842105263157748
40
0.36947368421052479
40
0.3705263157894722
40
0.37157894736841962
40
0.37263157894736693
40
0.37368421052631429
40
0.3747368421052617
40
0.37578947368420901
40
0.37684210526315642
40
0.37789473684210367
40
0.37894736842105109
40
0.37999999999999851
40
0.38105263157894581
40
0.38210526315789323
40
0.38315789473684048
40
0.38421052631578789
40
0.3852631578947352
40
0.38631578947368261
40
0.38736842105263003
40
0.38842105263157739
40
0.3894736842105247
40
0.39052631578947211
40
0.39157894736841942
40
0.39263157894736672
40
0.39368421052631408
40
0.3947368421052615
40
0.39578947368420891
40
0.39684210526315622
40
0.39789473684210358
40
0.39894736842105089
40
0.3999999999999983
40
0.40105263157894572
40
0.40210526315789308
40
0.40315789473684038
40
0.40421052631578769
40
0.40526315789473522
40
0.40631578947368252
40
0.40736842105262988
40
0.40842105263157719
40
0.4094736842105246
40
0.41052631578947202
40
0.41157894736841932
40
0.41263157894736657
40
0.4136842105263141
40
0.41473684210526141
40
0.41578947368420871
40
0.41684210526315613
40
0.41789473684210338
40
0.4189473684210509
40
0.41999999999999821
40
0.42105263157894551
40
0.42210526315789287
40
0.42315789473684029
40
0.42421052631578771
40
0.42526315789473496
40
0.42631578947368232
40
0.42736842105262968
40
0.42842105263157709
40
0.4294736842105244
40
0.43052631578947181
40
0.43157894736841912
40
0.43263157894736648
40
0.4336842105263139
40
0.4347368421052612
40
0.43578947368420862
40
0.43684210526315598
40
0.43789473684210328
40
0.4389473684210507
40
0.439999999999998
40
0.44105263157894542
40
0.44210526315789278
40
0.44315789473684009
40
0.4442105263157875
40
0.44526315789473481
40
0.44631578947368222
40
0.44736842105262958
40
0.44842105263157689
40
0.44947368421052419
40
0.45052631578947172
40
0.45157894736841903
40
0.45263157894736639
40
0.45368421052631369
40
0.45473684210526111
40
0.45578947368420852
40
0.45684210526315577
40
0.45789473684210319
40
0.45894736842105049
40
0.45999999999999791
40
0.46105263157894533
40
0.46210526315789258
40
0.46315789473683988
40
0.46421052631578741
40
0.46526315789473471
40
0.46631578947368196
40
0.46736842105262938
40
0.4684210526315768
40
0.46947368421052421
40
0.47052631578947152
40
0.47157894736841882
40
0.47263157894736618
40
0.4736842105263136
40
0.47473684210526101
40
0.47578947368420832
40
0.47684210526315562
40
0.4778947368421031
40
0.4789473684210504
40
0.47999999999999771
40
0.48105263157894512
40
0.48210526315789248
40
0.48315789473683979
40
0.4842105263157872
40
0.48526315789473451
40
0.48631578947368193
40
0.48736842105262929
40
0.48842105263157659
40
0.48947368421052395
40
0.49052631578947131
40
0.49157894736841878
40
0.49263157894736609
40
0.49368421052631339
40
0.49473684210526081
40
0.49578947368420823
40
0.49684210526315548
40
0.49789473684210289
40
0.4989473684210502
40
0.49999999999999761
40
0.50105263157894508
40
0.50210526315789239
40
0.50315789473683992
40
0.50421052631578722
40
0.50526315789473475
40
0.50631578947368194
40
0.50736842105262958
40
0.50842105263157689
40
0.50947368421052441
40
0.51052631578947172
40
0.51157894736841925
40
0.51263157894736655
40
0.51368421052631408
40
0.51473684210526138
40
0.51578947368420891
40
0.51684210526315622
40
0.51789473684210374
40
0.51894736842105105
40
0.51999999999999846
40
0.52105263157894588
40
0.52210526315789341
40
0.52315789473684071
40
0.52421052631578824
40
0.52526315789473554
40
0.52631578947368296
40
0.52736842105263038
40
0.5284210526315779
40
0.52947368421052521
40
0.53052631578947274
40
0.53157894736842004
40
0.53263157894736746
40
0.53368421052631487
40
0.5347368421052624
40
0.5357894736842097
40
0.53684210526315723
40
0.53789473684210454
40
0.53894736842105206
40
0.53999999999999937
40
0.5410526315789469
40
0.5421052631578942
40
0.54315789473684173
40
0.54421052631578903
40
0.54526315789473645
40
0.54631578947368387
40
0.54736842105263139
40
0.5484210526315787
40
0.54947368421052623
40
0.55052631578947353
40
0.55157894736842106
40
0.55263157894736836
40
0.55368421052631589
40
0.55473684210526319
40
0.55578947368421072
40
0.55684210526315792
40
0.55789473684210555
40
0.55894736842105286
40
0.56000000000000039
40
0.56105263157894769
40
0.56210526315789522
40
0.56315789473684252
40
0.56421052631579005
40
0.56526315789473736
40
0.56631578947368488
40
0.56736842105263219
40
0.56842105263157972
40
0.56947368421052691
40
0.57052631578947455
40
0.57157894736842185
40
0.57263157894736938
40
0.57368421052631668
40
0.57473684210526421
40
0.57578947368421152
40
0.57684210526315893
40
0.57789473684210635
40
0.57894736842105377
40
0.58000000000000118
40
0.58105263157894871
40
0.58210526315789601
40
0.58315789473684354
40
0.58421052631579085
40
0.58526315789473826
40
0.58631578947368568
40
0.58736842105263321
40
0.58842105263158051
40
0.58947368421052804
40
0.59052631578947534
40
0.59157894736842276
40
0.59263157894737017
40
0.5936842105263177
40
0.59473684210526501
40
0.59578947368421253
40
0.59684210526315984
40
0.59789473684210726
40
0.59894736842105467
40
0.6000000000000022
40
0.6010526315789495
40
0.60210526315789703
40
0.60315789473684434
40
0.60421052631579175
40
0.60526315789473917
40
0.60631578947368669
40
0.607368421052634
40
0.60842105263158153
40
0.60947368421052883
40
0.61052631578947625
40
0.61157894736842366
40
0.61263157894737119
40
0.6136842105263185
40
0.61473684210526602
40
0.61578947368421333
40
0.61684210526316074
40
0.61789473684210816
40
0.61894736842105569
40
0.62000000000000288
40
0.62105263157895052
40
0.62210526315789783
40
0.62315789473684535
40
0.62421052631579266
40
0.62526315789474018
40
0.62631578947368749
40
0.62736842105263502
40
0.62842105263158232
40
0.62947368421052985
40
0.63052631578947715
40
0.63157894736842468
40
0.6326315789473721
40
0.63368421052631951
40
0.63473684210526682
40
0.63578947368421435
40
0.63684210526316165
40
0.63789473684210918
40
0.63894736842105648
40
0.64000000000000401
40
0.64105263157895132
40
0.64210526315789884
40
0.64315789473684615
40
0.64421052631579356
40
0.64526315789474098
40
0.64631578947368851
40
0.64736842105263581
40
0.64842105263158334
40
0.64947368421053064
40
0.65052631578947806
40
0.65157894736842548
40
0.652631578947373
40
0.65368421052632031
40
0.65473684210526784
40
0.65578947368421514
40
0.65684210526316256
40
0.65789473684210997
40
0.6589473684210575
40
0.66000000000000481
40
0.66105263157895233
40
0.66210526315789964
40
0.66315789473684705
40
0.66421052631579447
40
0.665263157894742
40
0.6663157894736893
40
0.66736842105263683
40
0.66842105263158413
40
0.66947368421053155
40
0.67052631578947897
40
0.67157894736842649
40
0.6726315789473738
40
0.67368421052632133
40
0.67473684210526863
40
0.67578947368421605
40
0.67684210526316346
40
0.67789473684211088
40
0.67894736842105829
40
0.68000000000000582
40
0.68105263157895313
40
0.68210526315790065
40
0.68315789473684807
40
0.68421052631579549
40
0.68526315789474279
40
0.68631578947369032
40
0.68736842105263762
40
0.68842105263158515
40
0.68947368421053246
40
0.69052631578947987
40
0.69157894736842729
40
0.69263157894737482
40
0.69368421052632212
40
0.69473684210526965
40
0.69578947368421695
40
0.69684210526316448
40
0.69789473684211178
40
0.69894736842105931
40
0.70000000000000662
40
0.70105263157895414
40
0.70210526315790145
40
0.70315789473684887
40
0.70421052631579628
40
0.70526315789474381
40
0.70631578947369111
40
0.70736842105263864
40
0.70842105263158595
40
0.70947368421053336
40
0.71052631578948078
40
0.71157894736842831
40
0.71263157894737561
40
0.71368421052632314
40
0.71473684210527044
40
0.71578947368421786
40
0.71684210526316527
40
0.7178947368421128
40
0.71894736842106011
40
0.72000000000000763
40
0.72105263157895494
40
0.72210526315790236
40
0.72315789473684977
40
0.7242105263157973
40
0.7252631578947446
40
0.72631578947369213
40
0.72736842105263944
40
0.72842105263158685
40
0.72947368421053427
40
0.73052631578948179
40
0.7315789473684291
40
0.73263157894737663
40
0.73368421052632393
40
0.73473684210527135
40
0.73578947368421876
40
0.73684210526316629
40
0.7378947368421136
40
0.73894736842106112
40
0.74000000000000843
40
0.74105263157895584
40
0.74210526315790326
40
0.74315789473685079
40
0.74421052631579809
40
0.74526315789474562
40
0.74631578947369293
40
0.74736842105264045
40
0.74842105263158776
40
0.74947368421053528
40
0.75052631578948259
40
0.75157894736843012
40
0.75263157894737742
40
0.75368421052632495
40
0.75473684210527225
40
0.75578947368421978
40
0.75684210526316709
40
0.75789473684211461
40
0.75894736842106192
40
0.76000000000000945
40
0.76105263157895675
40
0.76210526315790428
40
0.76315789473685158
40
0.76421052631579911
40
0.76526315789474642
40
0.76631578947369394
40
0.76736842105264125
40
0.76842105263158866
40
0.76947368421053608
40
0.77052631578948361
40
0.77157894736843091
40
0.77263157894737844
40
0.77368421052632574
40
0.77473684210527316
40
0.77578947368422058
40
0.7768421052631681
40
0.77789473684211541
40
0.77894736842106294
40
0.78000000000001024
40
0.78105263157895766
40
0.78210526315790507
40
0.7831578947368526
40
0.78421052631579991
40
0.78526315789474743
40
0.78631578947369474
40
0.78736842105264215
40
0.78842105263158957
40
0.7894736842105371
40
0.7905263157894844
40
0.79157894736843193
40
0.79263157894737923
40
0.79368421052632665
40
0.79473684210527407
40
0.79578947368422159
40
0.7968421052631689
40
0.79789473684211643
40
0.79894736842106373
40
0.80000000000001115
40
0.80105263157895845
40
0.80210526315790598
40
0.80315789473685328
40
0.80421052631580081
40
0.80526315789474812
40
0.80631578947369564
40
0.80736842105264295
40
0.80842105263159048
40
0.80947368421053778
40
0.81052631578948531
40
0.81157894736843261
40
0.81263157894738014
40
0.81368421052632744
40
0.81473684210527508
40
0.81578947368422228
40
0.8168421052631698
40
0.81789473684211711
40
0.81894736842106464
40
0.82000000000001205
40
0.82105263157895947
40
0.82210526315790677
40
0.8231578947368543
40
0.82421052631580161
40
0.82526315789474913
40
0.82631578947369655
40
0.82736842105264408
40
0.82842105263159127
40
0.8294736842105388
40
0.8305263157894861
40
0.83157894736843363
40
0.83263157894738093
40
0.83368421052632846
40
0.83473684210527577
40
0.83578947368422329
40
0.8368421052631706
40
0.83789473684211813
40
0.83894736842106543
40
0.84000000000001296
40
0.84105263157896026
40
0.84210526315790779
40
0.8431578947368551
40
0.84421052631580262
40
0.84526315789474993
40
0.84631578947369746
40
0.84736842105264476
40
0.84842105263159229
40
0.84947368421053959
40
0.85052631578948712
40
0.85157894736843442
40
0.85263157894738195
40
0.85368421052632926
40
0.85473684210527678
40
0.85578947368422409
40
0.85684210526317162
40
0.85789473684211892
40
0.85894736842106645
40
0.86000000000001375
40
0.86105263157896128
40
0.86210526315790859
40
0.86315789473685611
40
0.86421052631580342
40
0.86526315789475094
40
0.86631578947369825
40
0.86736842105264578
40
0.86842105263159308
40
0.86947368421054061
40
0.87052631578948791
40
0.87157894736843544
40
0.87263157894738275
40
0.87368421052633027
40
0.87473684210527758
40
0.87578947368422511
40
0.87684210526317241
40
0.87789473684211994
40
0.87894736842106735
40
0.88000000000001477
40
0.88105263157896208
40
0.8821052631579096
40
0.88315789473685691
40
0.88421052631580443
40
0.88526315789475185
40
0.88631578947369927
40
0.88736842105264657
40
0.8884210526315941
40
0.8894736842105414
40
0.89052631578948893
40
0.89157894736843635
40
0.89263157894738376
40
0.89368421052633107
40
0.8947368421052786
40
0.8957894736842259
40
0.89684210526317343
40
0.89789473684212073
40
0.89894736842106826
40
0.90000000000001557
40
0.9010526315789632
40
0.9021052631579104
40
0.90315789473685804
40
0.90421052631580523
40
0.90526315789475276
40
0.90631578947369995
40
0.90736842105264759
40
0.90842105263159478
40
0.90947368421054242
40
0.91052631578948962
40
0.91157894736843725
40
0.91263157894738456
40
0.91368421052633197
40
0.91473684210527939
40
0.91578947368422681
40
0.91684210526317422
40
0.91789473684212164
40
0.91894736842106917
40
0.92000000000001658
40
0.921052631578964
40
0.92210526315791141
40
0.92315789473685883
40
0.92421052631580625
40
0.92526315789475355
40
0.92631578947370119
40
0.92736842105264838
40
0.92842105263159602
40
0.92947368421054322
40
0.93052631578949085
40
0.93157894736843805
40
0.93263157894738558
40
0.93368421052633277
40
0.93473684210528041
40
0.9357894736842276
40
0.93684210526317524
40
0.93789473684212255
40
0.93894736842106996
40
0.94000000000001738
40
0.94105263157896479
40
0.94210526315791221
40
0.94315789473685963
40
0.94421052631580715
40
0.94526315789475457
40
0.94631578947370198
40
0.9473684210526494
40
0.94842105263159682
40
0.94947368421054423
40
0.95052631578949165
40
0.95157894736843918
40
0.95263157894738637
40
0.95368421052633401
40
0.9547368421052812
40
0.95578947368422884
40
0.95684210526317603
40
0.95789473684212356
40
0.95894736842107076
40
0.96000000000001839
40
0.96105263157896559
40
0.96210526315791323
40
0.96315789473686042
40
0.96421052631580795
40
0.96526315789475536
40
0.96631578947370278
40
0.9673684210526502
40
0.96842105263159761
40
0.96947368421054503
40
0.97052631578949244
40
0.97157894736843997
40
0.97263157894738739
40
0.9736842105263348
40
0.97473684210528222
40
0.97578947368422964
40
0.97684210526317705
40
0.97789473684212436
40
0.978947368421072
40
0.98000000000001919
40
0.98105263157896683
40
0.98210526315791413
40
0.98315789473686155
40
0.98421052631580885
40
0.98526315789475638
40
0.98631578947370357
40
0.98736842105265121
40
0.98842105263159841
40
0.98947368421054582
40
0.99052631578949335
40
0.99157894736844077
40
0.99263157894738818
40
0.9936842105263356
40
0.99473684210528301
40
0.99578947368423043
40
0.99684210526317796
40
0.99789473684212537
40
0.99894736842107279
40
1
40
1
40
1
40
1
40
1
40
1
41
1
41
1
41
1
41
1
41
1
41
1
41
1
41
1
41
1
41
1
41
1
41
1
41
1
41
1
41
1
41
1
41
1
41
1
41
1
41
1
41
1
41
1
41
1
41
1
41
1
41
1
41
1
41
1
41
1
41
1
41
1
41
1
41
1
41
1
41
1
41
1
41
1
41
1
41
1
41
1
41
1
41
1
41
1
41
1
41
1
41
1
41
1
41
1
41
1
41
1
41
1
41
1
41
1
41
1
41
1
41
1
41
1
41
1
41
1
41
1
41
1
41
1
41
1
41
1
41
1
41
1
41
1
41
1
41
1
41
1
41
1
41
1
41
1
41
1
41
1
41
1
41
1
41
1
41
1
41
1
41
1
41
1
41
1
41
1
41
1
41
1
41
1
41
1
41
1
41
1
41
1
41
1
41
1
41
1
41
1
41
1
41
1
41
1
41
1
41
1
41
1
41
1
41
1
41
1
41
1
41
1
41
1
41
1
41
1
41
1
41
1
41
1
41
1
41
1
41
1
41
1
41
1
41
1
41
1
41
1
41
1
41
1
41
1
41
1
41
1
41
1
41
1
41
1
41
1
41
1
41
1
41
1
41
1
41
1
41
1
41
1
41
1
41
1
41
1
41
1
41
1
41
1
41
1
41
1
41
1
41
1
41
1
41
1
41
1
41
1
41
1
41
1
41
1
41
1
41
1
41
1
41
1
41
1
41
1
41
1
41
1
41
1
41
1
41
1
41
1
41
1
41
1
41
1
41
1
41
1
41
1
41
1
41
1
41
1
41
1
41
1
41
1
41
1
41
1
41
1
41
1
41
1
41
1
41
1
41
1
41
1
41
1
41
1
41
1
41
1
41
1
41
1
41
1
41
1
41
1
41
1
41
1
41
1
41
1
41
1
41
1
41
1
41
1
41
1
41
1
41
1
41
1
41
1
41
1
41
1
41
1
41
1
41
1
41
1
41
1
41
1
41
1
41
1
41
1
41
1
41
1
41
1
41
1
41
1
41
1
41
1
41
1
41
1
41
1
41
1
41
1
41
1
41
1
41
1
41
1
41
1
41
1
41
1
41
1
41
1
41
1
41
1
41
1
41
1
41
1
41
1
41
1
41
1
41
1
41
1
41
1
41
1
41
1
41
1
41
1
41
1
41
1
41
1
41
1
41
1
41
1
41
1
41
1
41
1
41
1
41
1
41
1
41
1
41
1
41
1
41
1
41
1
41
1
41
1
41
1
41
1
41
1
41
1
41
1
41
1
41
1
41
1
41
1
41
1
41
1
41
1
41
1
41
1
41
1
41
1
41
1
41
1
41
1
41
1
41
1
41
1
41
1
41
1
41
1
41
1
41
1
41
1
41
1
41
1
41
1
41
1
41
1
41
1
41
1
41
1
41
1
41
1
41
1
41
1
41
1
41
1
41
1
41
1
41
1
41
1
41
1
41
1
41
1
41
1
41
1
41
1
41
1
41
1
41
1
41
1
41
1
41
1
41
1
41
1
41
1
41
1
41
1
41
1
41
1
41
1
41
1
41
1
41
1
41
1
41
1
41
1
41
1
41
1
41
1
41
1
41
1
41
1
41
1
41
1
41
1
41
1
41
1
41
1
41
1
41
1
41
1
41
1
41
1
41
1
41
1
41
1
41
1
41
1
41
1
41
1
41
1
41
1
41
1
41
1
41
1
41
1
41
1
41
1
41
1
41
1
41
1
41
1
41
1
41
1
41
1
41
1
41
1
41
1
41
1
41
1
41
1
41
1
41
1
41
1
41
1
41
1
41
1
41
1
41
1
41
1
41
1
41
1
41
1
41
1
41
1
41
1
41
1
41
1
41
1
41
1
41
1
41
1
41
1
41
1
41
1
41
1
41
1
41
1
41
1
41
1
41
1
41
1
41
1
41
1
41
1
41
1
41
1
41
1
41
1
41
1
41
1
41
1
41
1
41
1
41
1
41
1
41
1
41
1
41
1
41
1
41
1
41
1
41
1
41
1
41
1
41
1
41
1
41
1
41
1
41
1
41
1
41
1
41
1
41
1
41
1
41
1
41
1
41
1
41
1
41
1
41
1
41
1
41
1
41
1
41
1
41
1
41
1
41
1
41
1
41
1
41
1
41
1
41
1
41
1
41
1
41
1
41
1
41
1
41
1
41
1
41
1
41
1
41
1
41
1
41
1
41
1
41
1
41
1
41
1
41
1
41
1
41
1
41
1
41
1
41
1
41
1
41
1
41
1
41
1
41
1
41
1
41
1
41
1
41
1
41
1
41
1
41
1
41
1
41
1
41
1
41
1
41
1
41
1
41
1
41
1
41
1
41
1
41
1
41
1
41
1
41
1
41
1
41
1
41
1
41
1
41
1
41
1
41
1
41
1
41
1
41
1
41
1
41
1
41
1
41
1
41
1
41
1
41
1
41
1
41
1
41
1
41
1
41
1
41
1
41
1
41
1
41
1
41
1
41
1
41
1
41
1
41
1
41
1
41
1
41
1
41
1
41
1
41
1
41
1
41
1
41
1
41
1
41
1
41
1
41
1
41
1
41
1
41
1
41
1
41
1
41
1
41
1
41
1
41
1
41
1
41
1
41
1
41
1
41
1
41
1
41
1
41
1
41
1
41
1
41
1
41
1
41
1
41
1
41
1
41
1
41
1
41
1
41
1
41
1
41
1
41
1
41
1
41
1
41
1
41
1
41
1
41
1
41
1
41
1
41
1
41
1
41
1
41
1
41
1
41
1
41
1
41
1
41
1
41
1
41
1
41
1
41
1
41
1
41
1
41
1
41
1
41
1
41
1
41
1
41
1
41
1
41
1
41
1
41
1
41
1
41
1
41
1
41
1
41
1
41
1
41
1
41
1
41
1
41
1
41
1
41
1
41
1
41
1
41
1
41
1
41
1
41
1
41
1
41
1
41
1
41
1
41
1
41
1
41
1
41
1
41
1
41
1
41
1
41
1
41
1
41
1
41
1
41
1
41
1
41
1
41
1
41
1
41
1
41
1
41
1
41
1
41
1
41
1
41
1
41
1
41
1
41
1
41
1
41
1
41
1
41
1
41
1
41
1
41
1
41
1
41
1
41
1
41
1
41
1
41
1
41
1
41
1
41
1
41
1
41
1
41
1
41
1
41
1
41
1
41
1
41
1
41
1
41
1
41
1
41
1
41
1
41
1
41
1
41
1
41
1
41
1
41
1
41
1
41
1
41
1
41
1
41
1
41
1
41
1
41
1
41
1
41
1
41
1
41
1
41
1
41
1
41
1
41
1
41
1
41
1
41
1
41
1
41
1
41
1
41
1
41
1
41
1
41
1
41
1
41
1
41
1
41
1
41
1
41
1
41
1
41
1
41
1
41
1
41
1
41
1
41
1
41
1
41
1
41
1
41
1
41
1
41
1
41
1
41
1
41
1
41
1
41
1
41
1
41
1
41
1
41
1
41
1
41
1
41
1
41
1
41
1
41
1
41
1
41
1
41
1
41
1
41
1
41
1
41
1
41
1
41
1
41
1
41
1
41
1
41
1
41
1
41
1
41
1
41
1
41
1
41
1
41
1
41
1
41
1
41
1
41
1
41
1
41
1
41
1
41
1
41
1
41
1
41
1
41
1
41
1
41
1
41
1
41
1
41
1
41
1
41
1
41
1
41
1
41
1
41
1
41
1
41
1
41
1
41
1
41
1
41
1
41
1
41
1
41
1
41
1
41
1
41
1
41
1
41
1
41
1
41
1
41
1
41
1
41
1
41
1
41
1
41
1
41
1
41
1
41
1
41
1
41
1
41
1
41
1
41
1
41
1
41
1
41
1
41
1
41
1
41
1
41
1
41
1
41
1
41
1
41
1
41
1
41
1
41
1
41
1
41
1
41
1
41
1
41
1
41
1
41
1
41
1
41
1
41
1
41
1
41
1
41
1
41
1
41
1
41
1
41
1
41
1
41
1
41
1
41
1
41
1
41
1
41
1
41
1
41
1
41
1
41
1
41
1
41
1
41
1
41
1
41
1
41
1
41
1
41
1
41
1
41
1
41
1
41
1
41
1
41
1
41
1
41
1
41
1
41
1
41
1
41
1
41
1
41
1
41
1
41
1
41
1
41
1
41
1
41
1
41
1
41
1
41
1
41
1
41
1
41
1
41
1
41
1
41
1
41
1
41
1
41
1
41
1
41
1
41
1
41
1
41
1
41
1
41
1
41
1
41
1
41
1
41
1
41
1
41
1
41
1
41
1
41
1
41
1
41
1
41
1
41
1
41
1
41
1
41
1
41
1
41
1
41
1
41
1
41
1
10
219.08798320048533
20
103.85852143256704
30
0
10
218.66187342813998
20
104.07958792534967
30
0
10
217.82235315708064
20
104.53479112713677
30
0
10
216.60117057811786
20
105.2568065885923
30
0
10
215.04912287380154
20
106.29791524186864
30
0
10
213.23584033575958
20
107.72964430041623
30
0
10
211.54868503322976
20
109.2906364214254
30
0
10
209.98635812568898
20
110.97873304348768
30
0
10
208.54668991390531
20
112.7903295400244
30
0
10
207.22643398408246
20
114.72003159067981
30
0
10
206.02102335155814
20
116.76025449091949
30
0
10
204.92443438116837
20
118.90098422899703
30
0
10
203.92981298845353
20
121.13067986736745
30
0
10
203.03001953033598
20
123.43705574203736
30
0
10
202.21821095359053
20
125.80791568140771
30
0
10
201.48839342795142
20
128.231951822995
30
0
10
200.83601938113705
20
130.69958944737016
30
0
10
200.25849089262553
20
133.20373963141401
30
0
10
199.7558979311373
20
135.74078048066923
30
0
10
199.33016343266118
20
138.30999190835496
30
0
10
198.98379846290675
20
140.91261311071986
30
0
10
198.71879363514461
20
143.55103007237852
30
0
10
198.53544591767366
20
146.22790538309189
30
0
10
198.43123044593185
20
148.94534016903808
30
0
10
198.39961279359699
20
151.70400513896735
30
0
10
198.42898152323104
20
154.50232514323406
30
0
10
198.50127582322278
20
157.33553315779585
30
0
10
198.59397500189488
20
160.19615200932634
30
0
10
198.6824953749603
20
163.07464825832241
30
0
10
198.7424318771034
20
165.96002158577721
30
0
10
198.75188851386088
20
168.84042873714208
30
0
10
198.69371654779508
20
171.70377552898358
30
0
10
198.5579181096941
20
174.53836227513645
30
0
10
198.34368534040732
20
177.33341362310938
30
0
10
198.06231085907936
20
180.07988369485386
30
0
10
197.73724707708851
20
182.77036049954785
30
0
10
197.39929778788155
20
185.39742820532285
30
0
10
197.08294429091919
20
187.95239430554125
30
0
10
196.82215782701149
20
190.42384014725056
30
0
10
196.64656347247299
20
192.79631550145416
30
0
10
196.57714667181563
20
195.04881197793932
30
0
10
196.62287597454088
20
197.15370566255982
30
0
10
196.77506319366276
20
199.07452513310773
30
0
10
197.01633348239466
20
200.77137573813488
30
0
10
197.33301735938193
20
202.20823323756019
30
0
10
197.72695798493748
20
203.35977065566908
30
0
10
198.22625671598698
20
204.21800137406814
30
0
10
198.89999839103746
20
204.80001228114006
30
0
10
199.82211743183197
20
205.14196675785516
30
0
10
201.02703483482432
20
205.29139263024985
30
0
10
202.47336915893271
20
205.30028957969495
30
0
10
204.07535845255984
20
205.2214424628954
30
0
10
205.73115449376564
20
205.10439739819054
30
0
10
207.35005727616115
20
204.99198577614283
30
0
10
208.88576598087454
20
204.91555034229847
30
0
10
210.33522035863936
20
204.89689743020219
30
0
10
211.72305580646474
20
204.95318123734947
30
0
10
213.09109197144747
20
205.10047183286287
30
0
10
214.48487371878463
20
205.3587197356502
30
0
10
215.94422538242355
20
205.75340522236775
30
0
10
217.50156295950501
20
206.30962958167461
30
0
10
219.17861474375093
20
207.04741190460209
30
0
10
220.98414913453641
20
207.97700462562463
30
0
10
222.91035828153699
20
209.09300814683874
30
0
10
224.9330424606689
20
210.37320634160454
30
0
10
227.01747853554068
20
211.78492187443572
30
0
10
229.12296555259704
20
213.28959898083298
30
0
10
231.2078858767872
20
214.8480836066818
30
0
10
233.23458583374202
20
216.42564660243463
30
0
10
235.17424108965901
20
217.99702141361067
30
0
10
237.0119496127071
20
219.55166401591381
30
0
10
238.75109466029383
20
221.09826379427494
30
0
10
240.40804309122296
20
222.65925932595511
30
0
10
242.0074619172195
20
224.26599478715218
30
0
10
243.57740682575303
20
225.95363928967834
30
0
10
245.14449300446199
20
227.75619350304362
30
0
10
246.72906444679103
20
229.70148997800089
30
0
10
248.34028356011794
20
231.80612208483421
30
0
10
249.97148040172669
20
234.07061156070969
30
0
10
251.60383959716648
20
236.48228985172548
30
0
10
253.20984816730461
20
239.01795466333922
30
0
10
254.75681826058891
20
241.64660390983909
30
0
10
256.21041120318188
20
244.33215212051823
30
0
10
257.53808422923862
20
247.03611879083138
30
0
10
258.71274874473966
20
249.72041136943096
30
0
10
259.71592157768885
20
252.34987476414008
30
0
10
260.54210756441364
20
254.89541081874853
30
0
10
261.19914262460821
20
257.33522413646489
30
0
10
261.70181027006561
20
259.65292776048346
30
0
10
262.06691501579257
20
261.8363530470258
30
0
10
262.30794081710303
20
263.87610496259066
30
0
10
262.42949455869586
20
265.76416051202119
30
0
10
262.42275931757354
20
267.49260230080898
30
0
10
262.25821031366291
20
269.05190856084744
30
0
10
261.89000741513252
20
270.43118117043582
30
0
10
261.26884177719489
20
271.61974527424388
30
0
10
260.35157296306477
20
272.6082859204484
30
0
10
259.11379104162734
20
273.39030284262407
30
0
10
257.55588685700178
20
273.96301383980278
30
0
10
255.69575280162405
20
274.32722581209657
30
0
10
253.56420849821905
20
274.48740028404586
30
0
10
251.19923500047233
20
274.45165934921499
30
0
10
248.64096861635741
20
274.23177655997915
30
0
10
245.92571224764811
20
273.84328023161828
30
0
10
243.0857313272079
20
273.30464295303528
30
0
10
240.15026979668318
20
272.63626630051652
30
0
10
237.14615174497277
20
271.85953461748903
30
0
10
234.09855298249266
20
270.99584326034534
30
0
10
231.03170837079728
20
270.0656298231757
30
0
10
227.96962649997423
20
269.08742262393997
30
0
10
224.93684840103359
20
268.07683861119511
30
0
10
221.95907621148208
20
267.04570454585019
30
0
10
219.0641498106456
20
266.00085825377164
30
0
10
216.28034607875091
20
264.94539807900713
30
0
10
213.63412224936394
20
263.88044079793252
30
0
10
211.14806947822586
20
262.80668603820772
30
0
10
208.83873762242354
20
261.72610171377221
30
0
10
206.71460881969813
20
260.64346561960701
30
0
10
204.77378961504047
20
259.56818244676458
30
0
10
203.00233445960825
20
258.51548120712897
30
0
10
201.37098411339196
20
257.50916496119356
30
0
10
199.84095556132513
20
256.57564656449006
30
0
10
198.37234146819227
20
255.73574242762385
30
0
10
196.93214694834535
20
254.99625256975753
30
0
10
195.50135081285444
20
254.34377188027386
30
0
10
194.08512598895305
20
253.73233665684995
30
0
10
192.71185376386225
20
253.09241813432948
30
0
10
191.41681004812034
20
252.36886312665828
30
0
10
190.22900876590842
20
251.55304853789676
30
0
10
189.15805906682235
20
250.71456584325074
30
0
10
188.17775321339411
20
250.04029051114256
30
0
10
187.2671658696004
20
249.73509301650489
30
0
10
186.44643734017396
20
249.93034476682715
30
0
10
185.83227014237519
20
250.5577381927547
30
0
10
185.58757167323151
20
251.40731116763959
30
0
10
185.79572207772907
20
252.30321103167137
30
0
10
186.41168652359951
20
253.18161647648111
30
0
10
187.32971519982408
20
254.03676300550202
30
0
10
188.43567378899854
20
254.88641481252924
30
0
10
189.6439310380629
20
255.74451648392528
30
0
10
190.89027748105423
20
256.62554091715691
30
0
10
192.13573750382579
20
257.54071458121609
30
0
10
193.36596500836885
20
258.49755861997619
30
0
10
194.5924906348267
20
259.49801875509286
30
0
10
195.84389216625806
20
260.53960528905418
30
0
10
197.15731712237212
20
261.61626135294875
30
0
10
198.56992937947609
20
262.71934412891289
30
0
10
200.11021449897993
20
263.83856552178787
30
0
10
201.7898372997218
20
264.96292734011377
30
0
10
203.607193589215
20
266.08109267602134
30
0
10
205.55046521652471
20
267.18178688717614
30
0
10
207.60082371865627
20
268.25418453250938
30
0
10
209.73565826163494
20
269.28830837187297
30
0
10
211.93158909659053
20
270.27540897320193
30
0
10
214.16808287284471
20
271.20838819866714
30
0
10
216.42857923122503
20
272.08204762238944
30
0
10
218.69976842392236
20
272.89320465703281
30
0
10
220.97140686764899
20
273.64085206263582
30
0
10
223.23591480289883
20
274.32628909060776
30
0
10
225.48805902058828
20
274.95328902898387
30
0
10
227.72461847463489
20
275.52819456235113
30
0
10
229.94400946253762
20
276.06018307455435
30
0
10
232.14610599632738
20
276.56094142926094
30
0
10
234.33230773009257
20
277.04362165088753
30
0
10
236.50555102501909
20
277.52197173022228
30
0
10
238.67032845762608
20
278.00941298898402
30
0
10
240.83273851822125
20
278.51809965409785
30
0
10
243.0004430818025
20
279.05808144133368
30
0
10
245.18286859522641
20
279.63617618317625
30
0
10
247.39002219259976
20
280.25651277727388
30
0
10
249.63085112304572
20
280.92163425509983
30
0
10
251.91173329340234
20
281.63342519206515
30
0
10
254.23495705810791
20
282.39409127907709
30
0
10
256.59710383803025
20
283.20716553223849
30
0
10
258.9877109890927
20
284.07838814922337
30
0
10
261.38720725438708
20
285.0169331071238
30
0
10
263.76840992244189
20
286.0349200220129
30
0
10
266.09965942703218
20
287.1461356648399
30
0
10
268.34744256341304
20
288.36500336450337
30
0
10
270.47920896389559
20
289.70545651154117
30
0
10
272.46614929712655
20
291.17983667097792
30
0
10
274.28588606345886
20
292.7978195789965
30
0
10
275.92545038932593
20
294.56523713596135
30
0
10
277.38339527930219
20
296.48321840191602
30
0
10
278.6670775015686
20
298.54911960009201
30
0
10
279.79053310308126
20
300.75723469828415
30
0
10
280.77211073150897
20
303.09959448653268
30
0
10
281.63223659627749
20
305.56671976722356
30
0
10
282.3910567378781
20
308.14841327314355
30
0
10
283.06628731736487
20
310.83449027902816
30
0
10
283.67057494576943
20
313.61565074085934
30
0
10
284.21164046816932
20
316.48355055776477
30
0
10
284.69332777477166
20
319.4306122867356
30
0
10
285.11635361912244
20
322.44992253492023
30
0
10
285.47918001198269
20
325.53509244411907
30
0
10
285.77883940194261
20
328.68013561756607
30
0
10
286.0117675750497
20
331.87933484073369
30
0
10
286.17466249127398
20
335.12712223334114
30
0
10
286.26526335161424
20
338.41793345142258
30
0
10
286.28333797364451
20
341.74612421715676
30
0
10
286.23068653937901
20
345.10559674192456
30
0
10
286.11064967781721
20
348.48927926934812
30
0
10
285.92777202851204
20
351.88865350844446
30
0
10
285.68740101660796
20
355.293258024289
30
0
10
285.39531400638214
20
358.69021150217247
30
0
10
285.05733190130991
20
362.06370522205646
30
0
10
284.67894170045673
20
365.39456037035933
30
0
10
284.26490794538336
20
368.65963745763827
30
0
10
283.81890593871157
20
371.83159048684956
30
0
10
283.34310259708587
20
374.87776142794786
30
0
10
282.83797479299812
20
377.76300668975301
30
0
10
282.30225329011353
20
380.45462164306082
30
0
10
281.73282890904375
20
382.92660820117169
30
0
10
281.12467164238137
20
385.16422717893369
30
0
10
280.47075042330511
20
387.1684001998301
30
0
10
279.76193813721869
20
388.96024243543582
30
0
10
278.98695702143874
20
390.58538352582531
30
0
10
278.1322166925612
20
392.11879802158796
30
0
10
277.18608933670362
20
393.64666796058282
30
0
10
276.1431388538914
20
395.24815416168025
30
0
10
275.0086285397831
20
396.97649083951808
30
0
10
273.80231847381759
20
398.84197496535171
30
0
10
272.56398963976653
20
400.79028521126452
30
0
10
271.35374737691643
20
402.69488913648331
30
0
10
270.23403398216652
20
404.39746839497241
30
0
10
269.25545088287356
20
405.73949355836692
30
0
10
268.43946315493622
20
406.59913411009001
30
0
10
267.76619047154816
20
406.92160221014831
30
0
10
267.14991766099354
20
406.76354981539077
30
0
10
266.5039704248058
20
406.24920513501053
30
0
10
265.85817993575654
20
405.49178420877854
30
0
10
265.31876048670136
20
404.57601504717218
30
0
10
264.99298996139555
20
403.55244530175838
30
0
10
264.92034041032304
20
402.42655615694508
30
0
10
265.08718324118951
20
401.17538624343024
30
0
10
265.44928595522794
20
399.7644986389538
30
0
10
265.95359833896134
20
398.16693477588956
30
0
10
266.55288176331106
20
396.37447808147192
30
0
10
267.20415655327668
20
394.39458668222642
30
0
10
267.87084435302853
20
392.25046036939614
30
0
10
268.52346301713266
20
389.97997488053215
30
0
10
269.1408421949219
20
387.6348113483424
30
0
10
269.71135047793996
20
385.28019410628355
30
0
10
270.23339884610272
20
382.99225135681831
30
0
10
270.71238252626637
20
380.84492833504066
30
0
10
271.15816268583637
20
378.89851218850811
30
0
10
271.58232397786605
20
377.18736924121231
30
0
10
271.99555646541972
20
375.70837802091836
30
0
10
272.40491578638046
20
374.40821095000376
30
0
10
272.81132920224911
20
373.17347999871333
30
0
10
273.21105512352102
20
371.86449948279682
30
0
10
273.59695511360951
20
370.34830719827136
30
0
10
273.95982305424593
20
368.5291072269298
30
0
10
274.28972374325076
20
366.38696052147759
30
0
10
274.57711939905676
20
363.97042219557352
30
0
10
274.81389063990429
20
361.37200272969847
30
0
10
274.9944195235858
20
358.70903341903266
30
0
10
275.11658684241479
20
356.10274973232094
30
0
10
275.18294444539316
20
353.65704831892202
30
0
10
275.20148910877708
20
351.43993620942058
30
0
10
275.18741395377447
20
349.45745476506181
30
0
10
275.16096597635334
20
347.65831569517042
30
0
10
275.14235662195762
20
345.96205820011909
30
0
10
275.14746572768394
20
344.28059240612652
30
0
10
275.18334882587277
20
342.54203251783167
30
0
10
275.24352202847058
20
340.71456704876317
30
0
10
275.30423597941251
20
338.82737606673203
30
0
10
275.33603322705216
20
336.94349394261383
30
0
10
275.31384736823736
20
335.13656223543023
30
0
10
275.22862030278804
20
333.46455902866046
30
0
10
275.09606174278878
20
331.94835398507405
30
0
10
274.97234062523466
20
330.53908787385365
30
0
10
274.93150065895895
20
329.14579493136
30
0
10
275.025424467498
20
327.68863868037965
30
0
10
275.25477718839124
20
326.13860756497962
30
0
10
275.52308403212328
20
324.574889621485
30
0
10
275.64003568188633
20
323.19408887442148
30
0
10
275.434745677303
20
322.21965887862473
30
0
10
274.83127607823343
20
321.83906121600228
30
0
10
273.97311176865173
20
322.11437522936075
30
0
10
273.1402484480447
20
322.98456160887127
30
0
10
272.54426165764482
20
324.30692241226205
30
0
10
272.22379334737457
20
325.88859737014593
30
0
10
272.11918467038316
20
327.52871539181007
30
0
10
272.11903251203347
20
329.05890739189653
30
0
10
272.11485911593576
20
330.38119615258233
30
0
10
272.05957135670531
20
331.51565059594748
30
0
10
271.9533778076227
20
332.56090749362983
30
0
10
271.81826417565111
20
333.64388318951353
30
0
10
271.67332264087145
20
334.86634820124027
30
0
10
271.52030983090538
20
336.27558109521726
30
0
10
271.35249665262165
20
337.88419271626827
30
0
10
271.15831523334606
20
339.67912711269378
30
0
10
270.92689379116587
20
341.6346218434154
30
0
10
270.65333093217697
20
343.72450066461118
30
0
10
270.33829858020886
20
345.92391141327852
30
0
10
269.98654954675646
20
348.20897874083948
30
0
10
269.60582545619525
20
350.55721829123712
30
0
10
269.20559141224123
20
352.94762759994143
30
0
10
268.79585455953918
20
355.3609190178704
30
0
10
268.38592413821215
20
357.77968419926111
30
0
10
267.98326115158216
20
360.18860907703061
30
0
10
267.59316515880982
20
362.57495182705634
30
0
10
267.21840212577706
20
364.92900596923158
30
0
10
266.85885489433741
20
367.24456834066086
30
0
10
266.51116323250267
20
369.51940631170635
30
0
10
266.16837018074443
20
371.75572240067828
30
0
10
265.81956134833877
20
373.96062695819626
30
0
10
265.44951813750328
20
376.14659012149252
30
0
10
265.04151107958995
20
378.32764361523505
30
0
10
264.58012226147525
20
380.51552687463789
30
0
10
264.05398761187502
20
382.71597994562921
30
0
10
263.45872992960216
20
384.92468901518754
30
0
10
262.79944560941925
20
387.12404398902231
30
0
10
262.09426347383931
20
389.27794477686166
30
0
10
261.37459003932833
20
391.33266161913264
30
0
10
260.67661132831705
20
393.23401928942701
30
0
10
260.0346718826292
20
394.94073194663719
30
0
10
259.47345011750804
20
396.44084530829821
30
0
10
259.00170381800842
20
397.76321621428758
30
0
10
258.60273788275498
20
399.00008801328192
30
0
10
258.23638897400377
20
400.29000785250525
30
0
10
257.85322611694073
20
401.75805125198457
30
0
10
257.40546650497441
20
403.46824288628255
30
0
10
256.85931187794341
20
405.3691630414383
30
0
10
256.20642467288172
20
407.24738536134782
30
0
10
255.46193577078225
20
408.8159022677097
30
0
10
254.66361297128176
20
409.80497218550175
30
0
10
253.86893357382314
20
410.03960225218066
30
0
10
253.15699642248171
20
409.55225166460832
30
0
10
252.6147738359974
20
408.57697933138439
30
0
10
252.30418743198169
20
407.38101426009445
30
0
10
252.22795611799359
20
406.11501975488056
30
0
10
252.34318182255669
20
404.82012670288373
30
0
10
252.58566633260568
20
403.47624315006152
30
0
10
252.89042428700549
20
402.03546447109693
30
0
10
253.21383069745903
20
400.46180610132183
30
0
10
253.52971461063009
20
398.73066617453139
30
0
10
253.82575436338618
20
396.82935051413301
30
0
10
254.09966910922481
20
394.75723880050782
30
0
10
254.35566702090429
20
392.52586820630518
30
0
10
254.60035910519315
20
390.15964832227394
30
0
10
254.8408607290261
20
387.69355943552262
30
0
10
255.0843009625936
20
385.16887532982014
30
0
10
255.3369011505543
20
382.62946007353366
30
0
10
255.60325119473941
20
380.11787312421154
30
0
10
255.88545542023201
20
377.67145174660078
30
0
10
256.18244086474868
20
375.31864745683606
30
0
10
256.48893925462221
20
373.07466402919709
30
0
10
256.79542950492004
20
370.93927827675742
30
0
10
257.0907233571524
20
368.90070442688369
30
0
10
257.36405155852123
20
366.9383464246439
30
0
10
257.60738009221461
20
365.02599679664718
30
0
10
257.81755383985785
20
363.13482977872462
30
0
10
257.99869125915302
20
361.23651879312291
30
0
10
258.16396198305603
20
359.30619724297105
30
0
10
258.33092333544505
20
357.32413897135177
30
0
10
258.51733968619919
20
355.27752529458377
30
0
10
258.73680928553995
20
353.16218685968033
30
0
10
258.99449321295299
20
350.98433943988283
30
0
10
259.28275253677515
20
348.76236184967718
30
0
10
259.5769524433415
20
346.52845245335413
30
0
10
259.84362451558309
20
344.32147693899628
30
0
10
260.04870167936849
20
342.17968605042665
30
0
10
260.16536417884697
20
340.13389735175235
30
0
10
260.18286902190647
20
338.19953972563962
30
0
10
260.1130444528614
20
336.37138350656448
30
0
10
260.00263011379803
20
334.61156388455919
30
0
10
259.9179958493126
20
332.86895758358577
30
0
10
259.9188636706395
20
331.11017034037678
30
0
10
260.03241400619811
20
329.35182111413542
30
0
10
260.23411707617521
20
327.68124163120967
30
0
10
260.40903761766708
20
326.30882159048889
30
0
10
260.37954736234872
20
325.51430584372986
30
0
10
260.00126379833057
20
325.48887111513267
30
0
10
259.27189139885201
20
326.14917325974886
30
0
10
258.32707274922006
20
327.15747079035293
30
0
10
257.32817374260389
20
328.13670037115992
30
0
10
256.3604222659518
20
328.86626228457737
30
0
10
255.39099930543159
20
329.3725662473218
30
0
10
254.36117459422834
20
329.78567139264567
30
0
10
253.24178238126638
20
330.25686342646304
30
0
10
252.11548710470797
20
330.83812995034737
30
0
10
251.12126475208834
20
331.52205844679338
30
0
10
250.38897766105012
20
332.29328449370496
30
0
10
249.96529286465656
20
333.18655707555644
30
0
10
249.7823971650671
20
334.30795051924997
30
0
10
249.7206706637827
20
335.77282280392831
30
0
10
249.64736500096947
20
337.66660838850373
30
0
10
249.47348557774603
20
339.98530646665995
30
0
10
249.16231785189774
20
342.63732097638785
30
0
10
248.71291465589223
20
345.47838483273557
30
0
10
248.15101525632915
20
348.336636284002
30
0
10
247.5169491021062
20
351.04157955620599
30
0
10
246.85471798990346
20
353.45179909990173
30
0
10
246.20083703056457
20
355.48223597527743
30
0
10
245.57264724282746
20
357.13396797770417
30
0
10
244.9586639375465
20
358.51633173045775
30
0
10
244.33122191272656
20
359.7907039221173
30
0
10
243.65776198764237
20
361.11787435796026
30
0
10
242.91200445122809
20
362.60857756773544
30
0
10
242.08666455923981
20
364.26198456128185
30
0
10
241.20055223181552
20
365.94435560669831
30
0
10
240.29221655277269
20
367.45638407530771
30
0
10
239.41695398259995
20
368.58496460890808
30
0
10
238.64114486413155
20
369.15599977830527
30
0
10
238.04105588177495
20
369.09934014381395
30
0
10
237.68462208296467
20
368.45957445710053
30
0
10
237.57937341503978
20
367.34255216475646
30
0
10
237.6782588852721
20
365.88896766127851
30
0
10
237.90882012462055
20
364.24567016077776
30
0
10
238.19445132098514
20
362.53964136364772
30
0
10
238.48106363574578
20
360.84781583522522
30
0
10
238.73680186437483
20
359.20331527023063
30
0
10
238.94876135653263
20
357.60648041555959
30
0
10
239.12082333658122
20
356.03418031634016
30
0
10
239.27079871245016
20
354.44992311832698
30
0
10
239.42845311605399
20
352.81343165198462
30
0
10
239.62432362882825
20
351.09237147335244
30
0
10
239.87841977496186
20
349.27355489029992
30
0
10
240.18783226759393
20
347.37553836335422
30
0
10
240.51737291171122
20
345.45790543931003
30
0
10
240.7823879735293
20
343.63888340966116
30
0
10
240.86925572626203
20
342.07336365197546
30
0
10
240.67882220344032
20
340.90778608823626
30
0
10
240.15692413767781
20
340.24672169136306
30
0
10
239.34350060990329
20
340.10429572495468
30
0
10
238.36980586516788
20
340.39652203525782
30
0
10
237.37007721386559
20
341.00268395682451
30
0
10
236.40066315594817
20
341.81752424951492
30
0
10
235.45112390724032
20
342.75756568858424
30
0
10
234.47717336087081
20
343.75517589426647
30
0
10
233.4255527613434
20
344.75712524512284
30
0
10
232.26281184625628
20
345.7212135760916
30
0
10
230.97452075443809
20
346.61706073846506
30
0
10
229.56484062604852
20
347.42677679286533
30
0
10
228.05530865727093
20
348.14538241092794
30
0
10
226.48540456765659
20
348.78207946430598
30
0
10
224.90759590056109
20
349.35865451560608
30
0
10
223.37298659800123
20
349.90233319882179
30
0
10
221.917502647063
20
350.43975029267978
30
0
10
220.5510367034461
20
350.99064983977769
30
0
10
219.2375783750046
20
351.5612757852187
30
0
10
217.91008326305814
20
352.13941255020234
30
0
10
216.52359241509885
20
352.6903442935137
30
0
10
215.09435981131395
20
353.15383752978357
30
0
10
213.75281147978694
20
353.43788871936823
30
0
10
212.7682069121494
20
353.42152481867629
30
0
10
212.39926771578467
20
353.01222001114701
30
0
10
212.73441370996272
20
352.20994041713254
30
0
10
213.60772336414388
20
351.13641194879614
30
0
10
214.75248566161986
20
349.95698790281887
30
0
10
215.90042349618261
20
348.82791047481862
30
0
10
216.92566031956602
20
347.82090253869904
30
0
10
217.83386312501506
20
346.93125036293424
30
0
10
218.69592930454803
20
346.11650210579614
30
0
10
219.60343111571245
20
345.32288435790736
30
0
10
220.60523438041542
20
344.52279918025408
30
0
10
221.7036787090569
20
343.7161029769577
30
0
10
222.87703409740686
20
342.91518828650533
30
0
10
224.09262971952865
20
342.13592341907253
30
0
10
225.32668300270586
20
341.38418188497434
30
0
10
226.56652332042756
20
340.65446960677832
30
0
10
227.80533754202315
20
339.933524016467
30
0
10
229.03951178907033
20
339.20260921159684
30
0
10
230.26417803987809
20
338.43984744467207
30
0
10
231.4719599073934
20
337.62422574011595
30
0
10
232.65682488433185
20
336.74335322540617
30
0
10
233.81686274748989
20
335.80042649191859
30
0
10
234.95747909468744
20
334.82139842754435
30
0
10
236.09450526741671
20
333.86244092915041
30
0
10
237.24045526555767
20
332.98604133399431
30
0
10
238.38807390895704
20
332.23359227018619
30
0
10
239.49909762730289
20
331.60420607462692
30
0
10
240.48048233148862
20
331.0187797438449
30
0
10
241.21824206420283
20
330.35249218861179
30
0
10
241.62964540179888
20
329.49136073737293
30
0
10
241.72376165201828
20
328.39397075230698
30
0
10
241.60740424457146
20
327.10490064047377
30
0
10
241.4180799464356
20
325.70218965031421
30
0
10
241.27946925213479
20
324.26473164277115
30
0
10
241.23923241636811
20
322.8250897862327
30
0
10
241.28343373216029
20
321.38161138596718
30
0
10
241.36715075280731
20
319.92347956215326
30
0
10
241.43752902317914
20
318.44851787377507
30
0
10
241.4650264197698
20
316.99096597679193
30
0
10
241.45199072603393
20
315.61798927794001
30
0
10
241.41644065436248
20
314.38741160784531
30
0
10
241.38297263703822
20
313.32164258520714
30
0
10
241.36913616559553
20
312.36105440030514
30
0
10
241.38017206207945
20
311.37874496983943
30
0
10
241.41152877527344
20
310.24883326358361
30
0
10
241.44837755793947
20
308.91266346669465
30
0
10
241.46959383552451
20
307.40636162027147
30
0
10
241.45747281294763
20
305.81233857327436
30
0
10
241.40613206834004
20
304.22900699887003
30
0
10
241.33054856360729
20
302.73299287332452
30
0
10
241.27504083914769
20
301.3449273124649
30
0
10
241.28583564707145
20
300.05240668199144
30
0
10
241.38326651938627
20
298.83347168073885
30
0
10
241.53522066514807
20
297.67923834260984
30
0
10
241.62719932057001
20
296.61849766880761
30
0
10
241.51780823112443
20
295.6925341495068
30
0
10
241.0936163693957
20
294.92990899333938
30
0
10
240.3323788663368
20
294.31742945894445
30
0
10
239.27677997382662
20
293.8132086750793
30
0
10
237.99659105975903
20
293.36524181799319
30
0
10
236.55178412836494
20
292.92942677192855
30
0
10
234.98955643601877
20
292.47261557946638
30
0
10
233.34721013863651
20
291.97309052946849
30
0
10
231.65289506576826
20
291.42189999064999
30
0
10
229.92726637064979
20
290.82401499979653
30
0
10
228.18471493871559
20
290.19902946863607
30
0
10
226.43429549913424
20
289.57466099209785
30
0
10
224.68063285209891
20
288.98095262729674
30
0
10
222.92480971383492
20
288.44392596633702
30
0
10
221.16533139035849
20
287.98010889051068
30
0
10
219.39888476769625
20
287.58908394715769
30
0
10
217.62195449323994
20
287.2541228885558
30
0
10
215.83298492579897
20
286.94831607736938
30
0
10
214.03444379647891
20
286.6390777844934
30
0
10
212.23478660518316
20
286.29331033548755
30
0
10
210.45079491510694
20
285.88231192968505
30
0
10
208.70876984788828
20
285.3867208421932
30
0
10
207.03878444713609
20
284.80101391751668
30
0
10
205.46978560334392
20
284.13799432506011
30
0
10
204.02427819889954
20
283.4334442703061
30
0
10
202.71339336305033
20
282.75033524814688
30
0
10
201.5312582090902
20
282.18419769567282
30
0
10
200.46492564670072
20
281.83883039971886
30
0
10
199.50361819707578
20
281.80294333189954
30
0
10
198.65054090276914
20
282.12273604480913
30
0
10
197.92643561321998
20
282.78793339070398
30
0
10
197.35463374475202
20
283.75127602319316
30
0
10
196.94750671883864
20
284.94152230342087
30
0
10
196.70029860422636
20
286.2792758149248
30
0
10
196.59365252667189
20
287.69353673927651
30
0
10
196.59414137929318
20
289.13587905646119
30
0
10
196.65445788309157
20
290.60109445162664
30
0
10
196.71906818966963
20
292.1198127528292
30
0
10
196.73365174656755
20
293.7337319687465
30
0
10
196.65361217805008
20
295.47546711994511
30
0
10
196.45244764386408
20
297.34787209975502
30
0
10
196.13156933275403
20
299.29994644763696
30
0
10
195.71274802148511
20
301.24775780809853
30
0
10
195.22853096713388
20
303.10043586863748
30
0
10
194.71301158447864
20
304.78583984811536
30
0
10
194.19328558512012
20
306.27301384631312
30
0
10
193.67859674116005
20
307.60410323417034
30
0
10
193.15718781568631
20
308.89538124058777
30
0
10
192.60845073731102
20
310.27822126822468
30
0
10
192.01235576979201
20
311.84948878140619
30
0
10
191.35884766037546
20
313.62524835456867
30
0
10
190.66010250709255
20
315.47507502378011
30
0
10
189.94373660477461
20
317.17716785717175
30
0
10
189.23928111546459
20
318.5155798127721
30
0
10
188.56695742002591
20
319.36333101851869
30
0
10
187.92535779412418
20
319.77169569420397
30
0
10
187.279494344147
20
320.05893025131371
30
0
10
186.60504977460451
20
320.52050954516437
30
0
10
185.95644403748321
20
320.99089417454718
30
0
10
185.44463942558596
20
320.96143432354938
30
0
10
185.13529294308762
20
320.18971313592328
30
0
10
185.02898409582468
20
318.79990746132677
30
0
10
185.09278336565069
20
317.06767259316388
30
0
10
185.28145388994989
20
315.26223691854767
30
0
10
185.55462656430916
20
313.53678073101105
30
0
10
185.87565201360343
20
311.9710410694168
30
0
10
186.21529413010518
20
310.5762920177624
30
0
10
186.55300863199218
20
309.31579260110186
30
0
10
186.8803400777303
20
308.11819783582177
30
0
10
187.19873806195699
20
306.89607531455624
30
0
10
187.51284920565408
20
305.56658951822277
30
0
10
187.82570667401617
20
304.06944539320773
30
0
10
188.13167016734727
20
302.39133246398012
30
0
10
188.41669299802604
20
300.56428844478603
30
0
10
188.66374886668962
20
298.64482910405252
30
0
10
188.85682803640023
20
296.69849895725184
30
0
10
188.98538933300489
20
294.78259076471488
30
0
10
189.04892987183783
20
292.92870334385776
30
0
10
189.06059282535017
20
291.12812231942382
30
0
10
189.03983338741148
20
289.35016891732369
30
0
10
189.00617485563134
20
287.55730637584708
30
0
10
188.97216146653446
20
285.72254054729456
30
0
10
188.93753811150776
20
283.84343100830688
30
0
10
188.88066807529799
20
281.96364754382773
30
0
10
188.76238729932351
20
280.16076200894355
30
0
10
188.5360613522131
20
278.51759079653328
30
0
10
188.15606969350864
20
277.09705523344383
30
0
10
187.58614155872831
20
275.91915630505366
30
0
10
186.80976114469505
20
274.92808185143764
30
0
10
185.83000573461703
20
274.00707859860307
30
0
10
184.66281891459599
20
273.02366782587006
30
0
10
183.33262695480383
20
271.86254227187317
30
0
10
181.86622382524882
20
270.47054570480202
30
0
10
180.28999580328764
20
268.87260832484367
30
0
10
178.63212230341844
20
267.14087553796043
30
0
10
176.92377126462037
20
265.37393155692791
30
0
10
175.20051311366288
20
263.67266786408783
30
0
10
173.50406244489872
20
262.11599733375419
30
0
10
171.88289432573316
20
260.74034894963023
30
0
10
170.39581641949323
20
259.5081937595773
30
0
10
169.10270033158383
20
258.32549827231855
30
0
10
168.04848101636895
20
257.08656117623769
30
0
10
167.24780949695452
20
255.71317983225885
30
0
10
166.67252959596459
20
254.19022400298505
30
0
10
166.23039844824987
20
252.61721345636448
30
0
10
165.77552724889017
20
251.1998821252898
30
0
10
165.17045956164026
20
250.14703529454522
30
0
10
164.32730867550504
20
249.60162987465654
30
0
10
163.27605500174982
20
249.53312488752454
30
0
10
162.15927465203168
20
249.72953254977563
30
0
10
161.11841818794429
20
249.94126442737195
30
0
10
160.18400863520245
20
250.00988551797701
30
0
10
159.22246484733506
20
249.94902664008868
30
0
10
158.07122492659889
20
249.84437650182133
30
0
10
156.65011645061304
20
249.78195330906055
30
0
10
155.0529642657911
20
249.77992407771239
30
0
10
153.45155523215647
20
249.82018251789373
30
0
10
152.0199440201406
20
249.86695231613533
30
0
10
150.85956305178939
20
249.8886423091736
30
0
10
149.90176353801053
20
249.88306598683195
30
0
10
148.97535463287025
20
249.86776910448287
30
0
10
147.9079132234852
20
249.86244996017768
30
0
10
146.63644445312354
20
249.87032255259783
30
0
10
145.20524916753294
20
249.87978107772616
30
0
10
143.7045609954107
20
249.87736489315355
30
0
10
142.23238250878757
20
249.85565806782418
30
0
10
140.83687370178563
20
249.82670203268253
30
0
10
139.51637005054411
20
249.81533263715278
30
0
10
138.24801709469619
20
249.84032686272002
30
0
10
137.00545409494799
20
249.90290186482991
30
0
10
135.78633733110655
20
249.96360769772335
30
0
10
134.61075215001409
20
249.96385427433404
30
0
10
133.50384610339626
20
249.87171268158829
30
0
10
132.4827101241726
20
249.72384048791281
30
0
10
131.54276362431949
20
249.65990296629974
30
0
10
130.66376273104166
20
249.84252358806489
30
0
10
129.81408375793433
20
250.37753832091687
30
0
10
128.95605668415448
20
251.2543524384044
30
0
10
128.05441252157536
20
252.3996824108666
30
0
10
127.08335333316106
20
253.71232833632268
30
0
10
126.03638990142571
20
255.11211844753234
30
0
10
124.9269008630163
20
256.55831202303995
30
0
10
123.77677663426087
20
258.03311988171316
30
0
10
122.60811370406114
20
259.53383265416829
30
0
10
121.4335426660044
20
261.06137459157264
30
0
10
120.24744258199276
20
262.61060800908865
30
0
10
119.01594803449424
20
264.15927977247941
30
0
10
117.69125848302363
20
265.6747279090082
30
0
10
116.22721074009654
20
267.12135154161246
30
0
10
114.59407881861009
20
268.46769973114016
30
0
10
112.79441073120327
20
269.6939704754916
30
0
10
110.87675344547714
20
270.79874828110792
30
0
10
108.95468300778791
20
271.80761632354631
30
0
10
107.17853241448475
20
272.76495287986518
30
0
10
105.70093589261856
20
273.72338266916393
30
0
10
104.6425489001254
20
274.73361779608433
30
0
10
104.06219465285244
20
275.83511349329177
30
0
10
103.91410610817988
20
277.04398370759134
30
0
10
104.05147855375235
20
278.35088513235655
30
0
10
104.29651600312896
20
279.73276808131703
30
0
10
104.48820591849292
20
281.16059884704163
30
0
10
104.5523765971017
20
282.6100507011322
30
0
10
104.50543321254726
20
284.06525255569807
30
0
10
104.40942442378625
20
285.51802827977491
30
0
10
104.34252770306735
20
286.96821431310065
30
0
10
104.35979474210609
20
288.42396388894747
30
0
10
104.46846960482851
20
289.90077126096685
30
0
10
104.64667693071304
20
291.41537244958823
30
0
10
104.85599867121479
20
292.98002553386925
30
0
10
105.05561353342682
20
294.59757860393029
30
0
10
105.21781159926327
20
296.25385898653207
30
0
10
105.33170582525911
20
297.92384061785214
30
0
10
105.40117464659204
20
299.58350641710194
30
0
10
105.44493790512773
20
301.22062016971881
30
0
10
105.49514616054674
20
302.84431514619644
30
0
10
105.59814102784668
20
304.49938702453346
30
0
10
105.80441162356733
20
306.2516119010001
30
0
10
106.15502160901855
20
308.16331863941178
30
0
10
106.66936500525979
20
310.27243384992056
30
0
10
107.33200014246675
20
312.56955086635526
30
0
10
108.08073902578114
20
314.97707622926788
30
0
10
108.79189285361754
20
317.32418205892532
30
0
10
109.3136398847726
20
319.39148804047642
30
0
10
109.50123081517913
20
320.95865765137057
30
0
10
109.25373672091929
20
321.8536102082428
30
0
10
108.54512271534715
20
321.99497725186717
30
0
10
107.47057556072934
20
321.45295134644363
30
0
10
106.21338374281157
20
320.41433226702731
30
0
10
104.97507620211009
20
319.1037260156167
30
0
10
103.92262740643673
20
317.72436549495973
30
0
10
103.11568749265
20
316.37723199962477
30
0
10
102.52046889998348
20
315.07158227952544
30
0
10
102.05436691945094
20
313.76766315583257
30
0
10
101.6189136027966
20
312.40720617364224
30
0
10
101.14144631358194
20
310.9530824853864
30
0
10
100.60105443018132
20
309.41240261310713
30
0
10
100.01064260475943
20
307.81392301925217
30
0
10
99.405999726609281
20
306.19223371388443
30
0
10
98.832589169791078
20
304.57084649781791
30
0
10
98.332199777570608
20
302.94204237657658
30
0
10
97.933319730602619
20
301.26041675453001
30
0
10
97.650787314828733
20
299.46797597999301
30
0
10
97.483623609027234
20
297.51213962775387
30
0
10
97.413295637625708
20
295.36773892395183
30
0
10
97.402483695868099
20
293.05461924021768
30
0
10
97.391871956237168
20
290.66400598146009
30
0
10
97.307928408582981
20
288.34158881135664
30
0
10
97.075271316135741
20
286.25311094513
30
0
10
96.627355648174472
20
284.55604124102507
30
0
10
95.918288078831353
20
283.36775511054947
30
0
10
94.933154906786882
20
282.73745421716688
30
0
10
93.701657892731888
20
282.61051816605078
30
0
10
92.28050820100448
20
282.86257934993574
30
0
10
90.731172383703722
20
283.34381864998528
30
0
10
89.099627510683646
20
283.91903679255933
30
0
10
87.39429046125862
20
284.51115431196263
30
0
10
85.596956600643153
20
285.08897357671879
30
0
10
83.67490596399854
20
285.65304124529189
30
0
10
81.592586921462825
20
286.22219180277671
30
0
10
79.323486003834006
20
286.81979510800005
30
0
10
76.861899093886805
20
287.46015243426081
30
0
10
74.234796689249123
20
288.13477027829197
30
0
10
71.494216307063354
20
288.82011669252705
30
0
10
68.70960958374647
20
289.48541453921837
30
0
10
65.960188937664284
20
290.10045984790258
30
0
10
63.327312911253827
20
290.64334307897104
30
0
10
60.886766048871635
20
291.10841225838908
30
0
10
58.701291014624353
20
291.51366640951238
30
0
10
56.812519261815844
20
291.9095025227515
30
0
10
55.234591663433307
20
292.38368913021793
30
0
10
53.960882922766928
20
293.03843738133435
30
0
10
52.969651907147423
20
293.96905988485787
30
0
10
52.229783688099545
20
295.24412382813421
30
0
10
51.707264828742311
20
296.8798884503131
30
0
10
51.368328290077855
20
298.83703620126926
30
0
10
51.178993615969723
20
301.04098096296354
30
0
10
51.105600438827814
20
303.39566592929316
30
0
10
51.114890777428116
20
305.80040245550788
30
0
10
51.174389259665425
20
308.16452332584208
30
0
10
51.252402717089858
20
310.42510448649267
30
0
10
51.318996308968003
20
312.55655684085468
30
0
10
51.349648660572136
20
314.55840704435042
30
0
10
51.328323469209337
20
316.44719106507097
30
0
10
51.250970708311634
20
318.24645067969442
30
0
10
51.128388406776523
20
319.97816170159081
30
0
10
50.990459028191779
20
321.65204699053913
30
0
10
50.886243006850563
20
323.26064325500789
30
0
10
50.87405061112689
20
324.78799615327171
30
0
10
51.01323766552413
20
326.21601730183698
30
0
10
51.355762217522987
20
327.53117238020928
30
0
10
51.936739113515188
20
328.73251590683458
30
0
10
52.770823247306886
20
329.83159676858156
30
0
10
53.851197537257335
20
330.84789650301019
30
0
10
55.148657363288919
20
331.80578195269669
30
0
10
56.608509028272671
20
332.73056723454886
30
0
10
58.156774754502969
20
333.64599586331656
30
0
10
59.71555586095711
20
334.57283978602311
30
0
10
61.216439869489946
20
335.52713772317225
30
0
10
62.613536524256105
20
336.51874258481212
30
0
10
63.899464376145346
20
337.54934879925776
30
0
10
65.111243354145415
20
338.61196706606648
30
0
10
66.307616530157375
20
339.69430713384872
30
0
10
67.550775299762307
20
340.78159783022011
30
0
10
68.887955465174315
20
341.85933636533633
30
0
10
70.329245755943901
20
342.91676588390578
30
0
10
71.83976732612372
20
343.9477284046543
30
0
10
73.362971765975942
20
344.94592172652233
30
0
10
74.837663704231318
20
345.9012356889167
30
0
10
76.217041378302085
20
346.79584596901236
30
0
10
77.488027089670496
20
347.59996606734654
30
0
10
78.687064173801531
20
348.26908826854742
30
0
10
79.84433553671704
20
348.77143320325911
30
0
10
80.935885718434903
20
349.11152821194526
30
0
10
81.825109538651972
20
349.35961188782221
30
0
10
82.230670526368087
20
349.66600625411297
30
0
10
81.944674376579414
20
350.1294201958666
30
0
10
81.021136293772827
20
350.68382192588894
30
0
10
79.66027067016563
20
351.18469108316776
30
0
10
78.077988569924315
20
351.50812315126404
30
0
10
76.430564263660301
20
351.60268070210998
30
0
10
74.833001823611738
20
351.46130498627849
30
0
10
73.35575877872148
20
351.11133740469097
30
0
10
72.030481050353416
20
350.59775988221327
30
0
10
70.851110982759309
20
349.96803390195731
30
0
10
69.782732809481999
20
349.26582312293556
30
0
10
68.771257068957908
20
348.52771052288472
30
0
10
67.75294884060375
20
347.7791910512554
30
0
10
66.663808206555359
20
347.03008465099941
30
0
10
65.453404964120665
20
346.27958888851367
30
0
10
64.101450776038149
20
345.52329461773627
30
0
10
62.629680356085359
20
344.75893327107156
30
0
10
61.124766230822125
20
343.99404737823369
30
0
10
59.714227723272479
20
343.24640992863414
30
0
10
58.508439028992392
20
342.53953412711439
30
0
10
57.557893699515304
20
341.90009898086419
30
0
10
56.792684783238499
20
341.35357119417387
30
0
10
56.002285752460438
20
340.9233990551723
30
0
10
54.995730205530542
20
340.64262827405832
30
0
10
53.767956721819431
20
340.56841950090762
30
0
10
52.590572010648074
20
340.78384580615193
30
0
10
51.792616749640707
20
341.35203478767272
30
0
10
51.582226735468396
20
342.27546741311272
30
0
10
51.873505032153489
20
343.45936102575786
30
0
10
52.435651654601529
20
344.77332750217795
30
0
10
53.005298455500792
20
346.09975552985964
30
0
10
53.437438494364585
20
347.40022938112463
30
0
10
53.714532966846811
20
348.70718023908893
30
0
10
53.889184533084418
20
350.07803951885353
30
0
10
54.050032401053087
20
351.56503358292969
30
0
10
54.272152747333671
20
353.1693674722253
30
0
10
54.597422889886062
20
354.83801920193912
30
0
10
55.039258449244613
20
356.49765027367255
30
0
10
55.580348146120159
20
358.08052031664351
30
0
10
56.174520589408736
20
359.54926210203047
30
0
10
56.743645215122186
20
360.93310736579235
30
0
10
57.191582758797814
20
362.30824093660038
30
0
10
57.429773560673638
20
363.73807855350952
30
0
10
57.397806271004455
20
365.22977360375472
30
0
10
57.089603464407119
20
366.67450816007687
30
0
10
56.566386674748031
20
367.82382303971485
30
0
10
55.914717577528549
20
368.41546591393262
30
0
10
55.2142691411388
20
368.27126302351121
30
0
10
54.497518917369447
20
367.42118582517838
30
0
10
53.76333191524823
20
366.03732770417241
30
0
10
52.995627668640267
20
364.3501610313682
30
0
10
52.18209593763207
20
362.5630190652405
30
0
10
51.327368781324409
20
360.79155724666316
30
0
10
50.44606741469677
20
359.09103366286337
30
0
10
49.559518752571428
20
357.46784269205449
30
0
10
48.690848040733179
20
355.8976149352136
30
0
10
47.861159333520959
20
354.3397373153706
30
0
10
47.084255051446988
20
352.75536968974762
30
0
10
46.366749072905307
20
351.1145233491319
30
0
10
45.71116274208012
20
349.39720557774911
30
0
10
45.118190465219101
20
347.59643726046653
30
0
10
44.589142302165932
20
345.72030907483912
30
0
10
44.128705798108598
20
343.79489429874388
30
0
10
43.746381790835443
20
341.86548615581034
30
0
10
43.448132612409857
20
339.98826870723371
30
0
10
43.229643860802234
20
338.22292755763931
30
0
10
43.067897261523058
20
336.62509742948578
30
0
10
42.915910483643927
20
335.23842687550143
30
0
10
42.689910979035758
20
334.08790619497563
30
0
10
42.294176774642295
20
333.16818392563118
30
0
10
41.656309967653861
20
332.43422428955591
30
0
10
40.766514349063947
20
331.78346100879929
30
0
10
39.69085782258044
20
331.06748271498611
30
0
10
38.531678638254057
20
330.16437343122243
30
0
10
37.402183835152385
20
329.02898257395361
30
0
10
36.390246189895123
20
327.77138152268714
30
0
10
35.546345730656313
20
326.64861256201334
30
0
10
34.894403225389333
20
325.96297595582627
30
0
10
34.436479301277167
20
325.99093034879587
30
0
10
34.16041174361024
20
326.88539333959403
30
0
10
34.043492710073593
20
328.67538489247397
30
0
10
34.055561930652097
20
331.29679956407693
30
0
10
34.16223506041802
20
334.61306680234708
30
0
10
34.328103895347006
20
338.44015616956722
30
0
10
34.519888916753871
20
342.56940827021538
30
0
10
34.709750830735253
20
346.7920197784361
30
0
10
34.878210283661872
20
350.92113812390562
30
0
10
35.018030326257652
20
354.81910547122453
30
0
10
35.13473658424968
20
358.40718776255181
30
0
10
35.242922291665614
20
361.65344461543248
30
0
10
35.363617255855068
20
364.56612915633207
30
0
10
35.521234201409754
20
367.18485361543617
30
0
10
35.740674744718113
20
369.5726879071791
30
0
10
36.044416029870419
20
371.80791131128467
30
0
10
36.449490983155457
20
373.97578725177414
30
0
10
36.964783373653873
20
376.1606246903537
30
0
10
37.587500672254151
20
378.43695936308001
30
0
10
38.303814533939487
20
380.86532083511037
30
0
10
39.091287609249648
20
383.48998322782955
30
0
10
39.920727731845034
20
386.33606512816118
30
0
10
40.758278760989057
20
389.40693024131451
30
0
10
41.567413691501969
20
392.68138981006882
30
0
10
42.310960853828959
20
396.11115038541703
30
0
10
42.953136671360141
20
399.61778320277944
30
0
10
43.461526643034091
20
403.09077604077777
30
0
10
43.809216662462461
20
406.3828159950433
30
0
10
43.975803304001921
20
409.32574215141506
30
0
10
43.948186319928659
20
411.75107343375532
30
0
10
43.721398021731247
20
413.50861786372707
30
0
10
43.299502730716277
20
414.4866526649904
30
0
10
42.696267831442881
20
414.62965461333431
30
0
10
41.936412418364441
20
413.96137320811738
30
0
10
41.055047823032815
20
412.59166813748044
30
0
10
40.092546109327927
20
410.68279152461565
30
0
10
39.090376152022124
20
408.42396656806523
30
0
10
38.086378426521037
20
406.00168752844689
30
0
10
37.110688290522091
20
403.57412067016185
30
0
10
36.180340779706377
20
401.23795913799154
30
0
10
35.300067942653129
20
399.02981653397171
30
0
10
34.465854598603073
20
396.94293291191025
30
0
10
33.667630041463283
20
394.93907631828455
30
0
10
32.892289253628313
20
392.96230404652044
30
0
10
32.126641427987309
20
390.95224382930257
30
0
10
31.360228224455895
20
388.8568339809309
30
0
10
30.588621406163217
20
386.64725526593764
30
0
10
29.813019978055983
20
384.31575628080742
30
0
10
29.03903465511398
20
381.86972225825463
30
0
10
28.275752049715205
20
379.32702336089426
30
0
10
27.534682045013486
20
376.71085967232102
30
0
10
26.828753966587826
20
374.0447441696906
30
0
10
26.171295001688254
20
371.34760842391597
30
0
10
25.575008519572684
20
368.62842046256435
30
0
10
25.050975614616746
20
365.88230319463344
30
0
10
24.607825962436472
20
363.0956090479076
30
0
10
24.250884160132387
20
360.24995785930082
30
0
10
23.981334260216229
20
357.32666125972867
30
0
10
23.795356698767055
20
354.31101435411688
30
0
10
23.683323009202638
20
351.19657077591808
30
0
10
23.628858877386353
20
347.98959619683831
30
0
10
23.608212785870176
20
344.71304570076268
30
0
10
23.588890200547738
20
341.41171300098063
30
0
10
23.530595846393037
20
338.15368978283163
30
0
10
23.391384320711705
20
335.0236092324385
30
0
10
23.132686938739884
20
332.11753683609356
30
0
10
22.724927179498028
20
329.53724787062686
30
0
10
22.15256269096864
20
327.38466844534901
30
0
10
21.420121367047553
20
325.75647458632119
30
0
10
20.556064562821224
20
324.73809030609107
30
0
10
19.621866088972808
20
324.39924234015064
30
0
10
18.702954910469252
20
324.78425351548276
30
0
10
17.881592943277703
20
325.89864594880555
30
0
10
17.210367404032787
20
327.69311120423674
30
0
10
16.711139976926717
20
330.07113193270061
30
0
10
16.383163793355259
20
332.90411766737975
30
0
10
16.208032021346042
20
336.0439642244794
30
0
10
16.155988473163351
20
339.33677886719602
30
0
10
16.1915795896596
20
342.63590443549822
30
0
10
16.279760840595657
20
345.81571098272042
30
0
10
16.391405897421549
20
348.78396317933294
30
0
10
16.51011081789294
20
351.49762824990671
30
0
10
16.631593949875022
20
353.95855618764574
30
0
10
16.760810450512725
20
356.20292683479238
30
0
10
16.909817292171937
20
358.29273298463164
30
0
10
17.09534778743658
20
360.30650351829399
30
0
10
17.336457107625698
20
362.33014212174447
30
0
10
17.652263451840877
20
364.44821126676715
30
0
10
18.059321793429177
20
366.73374486448006
30
0
10
18.571319849481796
20
369.2471823166062
30
0
10
19.199499193065531
20
372.03814117624233
30
0
10
19.952833999314148
20
375.14624158368167
30
0
10
20.838311161712365
20
378.60232726108444
30
0
10
21.861166872663734
20
382.42951618930783
30
0
10
23.025141930023914
20
386.64432453625307
30
0
10
24.33272896826637
20
391.25775899021727
30
0
10
25.785423157504212
20
396.27642265619147
30
0
10
27.064261750299593
20
400.61817658382404
30
0
10
28.089136831244225
20
404.05882428791784
30
0
10
28.801607335726839
20
406.43451471724779
30
0
10
29.165147700700199
20
407.6428412556312
30
0
0
SPLINE
5
115
100
AcDbEntity
8
0
100
AcDbSpline
70
4
71
5
72
136
73
130
74
0
42
0.000000001
43
0.0000000001
44
0.0000000001
40
0
40
0
40
0
40
0
40
0
40
0
40
0.0080000000000000002
40
0.016
40
0.024
40
0.032000000000000001
40
0.040000000000000001
40
0.048000000000000001
40
0.055999999999999994
40
0.064000000000000001
40
0.072000000000000008
40
0.080000000000000002
40
0.088000000000000009
40
0.096000000000000099
40
0.10400000000000001
40
0.11199999999999999
40
0.12000000000000011
40
0.12800000000000011
40
0.13600000000000009
40
0.1440000000000001
40
0.15200000000000011
40
0.16000000000000009
40
0.16800000000000009
40
0.1760000000000001
40
0.18400000000000011
40
0.19200000000000009
40
0.20000000000000009
40
0.2080000000000001
40
0.21600000000000011
40
0.22400000000000009
40
0.23200000000000021
40
0.24000000000000021
40
0.24800000000000019
40
0.25600000000000023
40
0.26400000000000018
40
0.27200000000000019
40
0.28000000000000019
40
0.2880000000000002
40
0.29600000000000021
40
0.30400000000000021
40
0.31200000000000022
40
0.32000000000000017
40
0.32800000000000018
40
0.33600000000000019
40
0.34400000000000031
40
0.35200000000000031
40
0.36000000000000032
40
0.36800000000000033
40
0.37600000000000028
40
0.38400000000000029
40
0.39200000000000029
40
0.4000000000000003
40
0.40800000000000031
40
0.41600000000000031
40
0.42400000000000032
40
0.43200000000000027
40
0.44000000000000028
40
0.44800000000000029
40
0.45600000000000041
40
0.46400000000000041
40
0.47200000000000042
40
0.48000000000000043
40
0.48800000000000038
40
0.49600000000000039
40
0.50400000000000045
40
0.51200000000000045
40
0.52000000000000035
40
0.52800000000000036
40
0.53600000000000037
40
0.54400000000000037
40
0.55200000000000038
40
0.56000000000000039
40
0.5680000000000005
40
0.57600000000000051
40
0.58400000000000052
40
0.59200000000000053
40
0.60000000000000053
40
0.60800000000000054
40
0.61600000000000055
40
0.62400000000000055
40
0.63200000000000045
40
0.64000000000000046
40
0.64800000000000046
40
0.65600000000000047
40
0.66400000000000048
40
0.67200000000000049
40
0.6800000000000006
40
0.68800000000000061
40
0.69600000000000062
40
0.70400000000000063
40
0.71200000000000063
40
0.72000000000000064
40
0.72800000000000065
40
0.73600000000000065
40
0.74400000000000055
40
0.75200000000000056
40
0.76000000000000056
40
0.76800000000000057
40
0.77600000000000058
40
0.78400000000000059
40
0.7920000000000007
40
0.80000000000000049
40
0.8080000000000005
40
0.8160000000000005
40
0.82400000000000051
40
0.83200000000000052
40
0.84000000000000052
40
0.84800000000000053
40
0.85600000000000054
40
0.86400000000000055
40
0.87200000000000055
40
0.88000000000000056
40
0.88800000000000057
40
0.89600000000000057
40
0.90400000000000058
40
0.91200000000000059
40
0.9200000000000006
40
0.9280000000000006
40
0.93600000000000061
40
0.94400000000000062
40
0.95200000000000062
40
0.96000000000000063
40
0.96800000000000064
40
0.97600000000000064
40
0.98400000000000065
40
0.99200000000000077
40
1
40
1
40
1
40
1
40
1
40
1
41
1
41
1
41
1
41
1
41
1
41
1
41
1
41
1
41
1
41
1
41
1
41
1
41
1
41
1
41
1
41
1
41
1
41
1
41
1
41
1
41
1
41
1
41
1
41
1
41
1
41
1
41
1
41
1
41
1
41
1
41
1
41
1
41
1
41
1
41
1
41
1
41
1
41
1
41
1
41
1
41
1
41
1
41
1
41
1
41
1
41
1
41
1
41
1
41
1
41
1
41
1
41
1
41
1
41
1
41
1
41
1
41
1
41
1
41
1
41
1
41
1
41
1
41
1
41
1
41
1
41
1
41
1
41
1
41
1
41
1
41
1
41
1
41
1
41
1
41
1
41
1
41
1
41
1
41
1
41
1
41
1
41
1
41
1
41
1
41
1
41
1
41
1
41
1
41
1
41
1
41
1
41
1
41
1
41
1
41
1
41
1
41
1
41
1
41
1
41
1
41
1
41
1
41
1
41
1
41
1
41
1
41
1
41
1
41
1
41
1
41
1
41
1
41
1
41
1
41
1
41
1
41
1
41
1
41
1
41
1
41
1
41
1
41
1
41
1
41
1
41
1
41
1
41
1
41
1
41
1
10
42.144221267426481
20
259.21090223794982
30
0
10
42.228556003896955
20
259.18296386115668
30
0
10
42.405235498036966
20
259.11789782453423
30
0
10
42.698812088703598
20
258.99161486279792
30
0
10
43.152228076793413
20
258.7588983220877
30
0
10
43.789598582996632
20
258.33994054109644
30
0
10
44.440670448143386
20
257.7778000867267
30
0
10
45.045239985397593
20
257.07215336558318
30
0
10
45.560717212887639
20
256.24666003523765
30
0
10
45.982683255652994
20
255.35787693794532
30
0
10
46.33448986143528
20
254.48100850827672
30
0
10
46.657392999172885
20
253.69622022731215
30
0
10
47.000316669572115
20
253.07427648701204
30
0
10
47.410184996413165
20
252.66352837777271
30
0
10
47.921031634945884
20
252.47375095095734
30
0
10
48.546786764839808
20
252.46950562412198
30
0
10
49.28411037438395
20
252.58840204450422
30
0
10
50.113093531709637
20
252.75524423561063
30
0
10
50.99933679916429
20
252.89667970484248
30
0
10
51.894111859463301
20
252.95837957965279
30
0
10
52.740918100589539
20
252.90937400318364
30
0
10
53.48644809717257
20
252.7360375567855
30
0
10
54.090920844240188
20
252.43897992330528
30
0
10
54.537297157368755
20
252.02898220953503
30
0
10
54.844318951835817
20
251.52278037401521
30
0
10
55.066354843251553
20
250.94088059856261
30
0
10
55.271310278570439
20
250.3091653362236
30
0
10
55.523258159205312
20
249.6597020241754
30
0
10
55.863876185097126
20
249.03168111169336
30
0
10
56.292480139683278
20
248.47284047612564
30
0
10
56.781452185746666
20
248.02985416187752
30
0
10
57.295995017579671
20
247.73696255418912
30
0
10
57.81008165538509
20
247.60675433873044
30
0
10
58.3293679988642
20
247.61638144005013
30
0
10
58.889555164280765
20
247.71040348086061
30
0
10
59.53060307322918
20
247.81997909928623
30
0
10
60.278972343556575
20
247.87678683655741
30
0
10
61.123397100900192
20
247.83086350197547
30
0
10
62.003308979278401
20
247.66128947585207
30
0
10
62.833424069417859
20
247.36693355133582
30
0
10
63.522176270181916
20
246.96054857726284
30
0
10
63.992784182587442
20
246.46149511176566
30
0
10
64.202680854622997
20
245.88920416487977
30
0
10
64.165069841837209
20
245.25591219164582
30
0
10
63.935019049125344
20
244.57009715724323
30
0
10
63.593554386450592
20
243.84059390094143
30
0
10
63.232747227631179
20
243.08020389349332
30
0
10
62.939786963420019
20
242.31012549897378
30
0
10
62.783318432248159
20
241.56223759626269
30
0
10
62.811175710262873
20
240.8713735351796
30
0
10
63.046080272936834
20
240.26856128915091
30
0
10
63.483270789944584
20
239.7745777252307
30
0
10
64.084524743849229
20
239.39170354402575
30
0
10
64.783969039881683
20
239.10245300754463
30
0
10
65.507137998200747
20
238.87685171847309
30
0
10
66.187801322238457
20
238.67757448842531
30
0
10
66.783176360448081
20
238.46581194811819
30
0
10
67.296085667760153
20
238.20716038276259
30
0
10
67.766483272373023
20
237.87610888569859
30
0
10
68.238736631475319
20
237.45963910835147
30
0
10
68.738098529036478
20
236.96057588532346
30
0
10
69.238653005190514
20
236.40222914601168
30
0
10
69.649554394478059
20
235.82882694088912
30
0
10
69.859603898599374
20
235.29115073653406
30
0
10
69.771668362033381
20
234.83484209060902
30
0
10
69.342603977775923
20
234.48716190442826
30
0
10
68.616549447468287
20
234.24580810373487
30
0
10
67.692011278395299
20
234.08937664782627
30
0
10
66.693716114399592
20
233.98625552619418
30
0
10
65.741252224410104
20
233.90455470965048
30
0
10
64.922352115721154
20
233.82056335224598
30
0
10
64.255981428568305
20
233.73042080661793
30
0
10
63.696652963593138
20
233.64879425598662
30
0
10
63.167706090195601
20
233.5983899548491
30
0
10
62.58516858291987
20
233.60250402980455
30
0
10
61.887396324720427
20
233.67558409333057
30
0
10
61.056588884393292
20
233.81683051790205
30
0
10
60.107341562799391
20
234.01654036296196
30
0
10
59.079249426450616
20
234.26092322253362
30
0
10
58.027979724711983
20
234.53739304168889
30
0
10
57.016966622908818
20
234.83990954460691
30
0
10
56.108931840162896
20
235.17370763767633
30
0
10
55.357241211673944
20
235.56186078120595
30
0
10
54.800086250002629
20
236.03492571312836
30
0
10
54.455331519028967
20
236.61825005244032
30
0
10
54.314740278626857
20
237.31958340536667
30
0
10
54.339309865607163
20
238.11773116004048
30
0
10
54.451844025866393
20
238.94763706241048
30
0
10
54.554486033489709
20
239.71942604589691
30
0
10
54.550622501714457
20
240.34333940312342
30
0
10
54.364489349957296
20
240.75175832233529
30
0
10
53.963506099008868
20
240.92439006204813
30
0
10
53.374350875922772
20
240.90649628946971
30
0
10
52.657276341097528
20
240.78107309685242
30
0
10
51.884148287563576
20
240.64519414071839
30
0
10
51.116106766212766
20
240.58577736897379
30
0
10
50.378672252941271
20
240.65296232341603
30
0
10
49.66930193000772
20
240.86507963413942
30
0
10
48.96920179675363
20
241.21789154776116
30
0
10
48.25405439867631
20
241.69252647137955
30
0
10
47.504205616654531
20
242.26344333345654
30
0
10
46.71756875013611
20
242.90766143223647
30
0
10
45.909992884624742
20
243.60756792158807
30
0
10
45.107325955306365
20
244.34938254015972
30
0
10
44.339897330176001
20
245.12292930266054
30
0
10
43.63616967117369
20
245.92087006909824
30
0
10
43.016364080068151
20
246.73816931119495
30
0
10
42.486990008590404
20
247.57146250851858
30
0
10
42.032721418762044
20
248.4184616664088
30
0
10
41.620266567693889
20
249.27737059424436
30
0
10
41.209258675841525
20
250.14632537215124
30
0
10
40.76101957059776
20
251.02282484487193
30
0
10
40.248149676743388
20
251.9031679406493
30
0
10
39.663891674469156
20
252.78188100292658
30
0
10
39.031306280919821
20
253.65116426956899
30
0
10
38.413335868965184
20
254.50028668005348
30
0
10
37.894586841927492
20
255.31654739606898
30
0
10
37.562426197110426
20
256.08628533870507
30
0
10
37.487749500694491
20
256.79588160321561
30
0
10
37.707203664056877
20
257.43273999913532
30
0
10
38.201619376896502
20
257.98633670666044
30
0
10
38.885604096484407
20
258.44905773233972
30
0
10
39.643504714767957
20
258.81605965356641
30
0
10
40.359550813410763
20
259.08532458688251
30
0
10
40.948456201690185
20
259.25753258042778
30
0
10
41.390078584456262
20
259.33626681850609
30
0
10
41.677740679507089
20
259.32910749958177
30
0
10
41.899227079214263
20
259.28552808529287
30
0
10
42.059886530956028
20
259.23884061474291
30
0
10
42.144221267426481
20
259.21090223794982
30
0
0
SPLINE
5
116
100
AcDbEntity
8
0
100
AcDbSpline
70
4
71
5
72
71
73
65
74
0
42
0.000000001
43
0.0000000001
44
0.0000000001
40
0
40
0
40
0
40
0
40
0
40
0
40
0.016666666666666701
40
0.033333333333333298
40
0.050000000000000003
40
0.066666666666666693
40
0.083333333333333301
40
0.10000000000000001
40
0.1166666666666666
40
0.1333333333333333
40
0.14999999999999999
40
0.1666666666666666
40
0.18333333333333329
40
0.20000000000000001
40
0.21666666666666659
40
0.23333333333333331
40
0.25
40
0.26666666666666661
40
0.28333333333333333
40
0.29999999999999999
40
0.3166666666666666
40
0.33333333333333331
40
0.34999999999999998
40
0.36666666666666659
40
0.3833333333333333
40
0.40000000000000002
40
0.41666666666666657
40
0.43333333333333329
40
0.45000000000000001
40
0.46666666666666662
40
0.48333333333333328
40
0.5
40
0.51666666666666661
40
0.53333333333333333
40
0.55000000000000004
40
0.56666666666666676
40
0.58333333333333348
40
0.6000000000000002
40
0.61666666666666703
40
0.63333333333333375
40
0.65000000000000036
40
0.66666666666666707
40
0.68333333333333379
40
0.70000000000000062
40
0.71666666666666734
40
0.73333333333333417
40
0.75000000000000067
40
0.76666666666666738
40
0.7833333333333341
40
0.80000000000000082
40
0.81666666666666743
40
0.83333333333333415
40
0.85000000000000109
40
0.86666666666666758
40
0.88333333333333441
40
0.90000000000000102
40
0.91666666666666785
40
0.93333333333333457
40
0.95000000000000118
40
0.9666666666666679
40
0.98333333333333461
40
1
40
1
40
1
40
1
40
1
40
1
41
1
41
1
41
1
41
1
41
1
41
1
41
1
41
1
41
1
41
1
41
1
41
1
41
1
41
1
41
1
41
1
41
1
41
1
41
1
41
1
41
1
41
1
41
1
41
1
41
1
41
1
41
1
41
1
41
1
41
1
41
1
41
1
41
1
41
1
41
1
41
1
41
1
41
1
41
1
41
1
41
1
41
1
41
1
41
1
41
1
41
1
41
1
41
1
41
1
41
1
41
1
41
1
41
1
41
1
41
1
41
1
41
1
41
1
41
1
41
1
41
1
41
1
41
1
41
1
41
1
10
215.80364866895738
20
256.26683041704041
30
0
10
215.81578760107516
20
256.41128457486525
30
0
10
215.89303452004299
20
256.6910159483561
30
0
10
216.16884453979284
20
257.08255055929715
30
0
10
216.84099045506369
20
257.55188228924874
30
0
10
218.08171294550857
20
258.07763879559286
30
0
10
219.57736300072429
20
258.57881290461921
30
0
10
221.17383490269464
20
259.09170078739692
30
0
10
222.73636077533169
20
259.64400332683658
30
0
10
224.18329226790911
20
260.24423922732848
30
0
10
225.50119515215312
20
260.87749589350739
30
0
10
226.72115339182824
20
261.5143425004245
30
0
10
227.90331023907265
20
262.11694660603007
30
0
10
229.11813679134144
20
262.64630923571366
30
0
10
230.42923774228538
20
263.06896846028474
30
0
10
231.8752378489072
20
263.36405184968703
30
0
10
233.45273860637977
20
263.52988519267427
30
0
10
235.12703635510843
20
263.57838436239831
30
0
10
236.84209331451601
20
263.52977190031856
30
0
10
238.53068435669442
20
263.40723472336958
30
0
10
240.12456568338627
20
263.23152188181319
30
0
10
241.56433740446607
20
263.01578821964449
30
0
10
242.8101347597505
20
262.75979870484736
30
0
10
243.85008622990688
20
262.44584203740641
30
0
10
244.68634112453441
20
262.05159233317539
30
0
10
245.3211875193013
20
261.56298467289668
30
0
10
245.74616269735407
20
260.98467217913355
30
0
10
245.92259789636191
20
260.35740053313242
30
0
10
245.79492745961466
20
259.74879510092001
30
0
10
245.32660523747776
20
259.22457431670597
30
0
10
244.53827657275812
20
258.82025481737924
30
0
10
243.51555443746366
20
258.52996382754196
30
0
10
242.37234458804062
20
258.32199739813478
30
0
10
241.22451452124452
20
258.14760537452611
30
0
10
240.16168166997198
20
257.9521599603288
30
0
10
239.21384608780497
20
257.68614373335532
30
0
10
238.36219571675235
20
257.31030474161224
30
0
10
237.56332179515053
20
256.79903082590823
30
0
10
236.76788996112447
20
256.14401182104541
30
0
10
235.94376291456922
20
255.35863579524192
30
0
10
235.09062993930905
20
254.47958474705106
30
0
10
234.22591210276636
20
253.55723096120613
30
0
10
233.37523430012493
20
252.64790746233103
30
0
10
232.56077647843409
20
251.8052584499647
30
0
10
231.79135918693018
20
251.07244733650003
30
0
10
231.04955439348601
20
250.47275115818945
30
0
10
230.30223248274689
20
250.01266688035017
30
0
10
229.51614670421566
20
249.68724242231386
30
0
10
228.66985213416828
20
249.48444923793161
30
0
10
227.77175338411178
20
249.39031807363813
30
0
10
226.85646225527265
20
249.39223756915439
30
0
10
225.9611882600986
20
249.48111786561861
30
0
10
225.10989107095219
20
249.65344929600292
30
0
10
224.28934476315146
20
249.91436370215493
30
0
10
223.44472135095305
20
250.27715439823939
30
0
10
222.51095345838132
20
250.75584438776772
30
0
10
221.43818032906381
20
251.35881459829756
30
0
10
220.21614737499721
20
252.08289823924343
30
0
10
218.90750000014225
20
252.90505351708305
30
0
10
217.6426967604034
20
253.78415185891203
30
0
10
216.58100386007686
20
254.6716595122339
30
0
10
216.02111240006411
20
255.35016391093734
30
0
10
215.82020092733654
20
255.82429100140735
30
0
10
215.79150973683971
20
256.12237625921568
30
0
10
215.80364866895738
20
256.26683041704041
30
0
0
SPLINE
5
117
100
AcDbEntity
8
0
100
AcDbSpline
70
4
71
5
72
41
73
35
74
0
42
0.000000001
43
0.0000000001
44
0.0000000001
40
0
40
0
40
0
40
0
40
0
40
0
40
0.033333333333333298
40
0.066666666666666693
40
0.10000000000000001
40
0.1333333333333333
40
0.1666666666666666
40
0.20000000000000001
40
0.23333333333333331
40
0.26666666666666661
40
0.29999999999999999
40
0.33333333333333331
40
0.36666666666666659
40
0.40000000000000002
40
0.43333333333333329
40
0.46666666666666662
40
0.5
40
0.53333333333333333
40
0.56666666666666665
40
0.59999999999999998
40
0.6333333333333333
40
0.66666666666666663
40
0.69999999999999996
40
0.73333333333333328
40
0.76666666666666661
40
0.80000000000000004
40
0.83333333333333315
40
0.86666666666666659
40
0.90000000000000002
40
0.93333333333333324
40
0.96666666666666656
40
1
40
1
40
1
40
1
40
1
40
1
41
1
41
1
41
1
41
1
41
1
41
1
41
1
41
1
41
1
41
1
41
1
41
1
41
1
41
1
41
1
41
1
41
1
41
1
41
1
41
1
41
1
41
1
41
1
41
1
41
1
41
1
41
1
41
1
41
1
41
1
41
1
41
1
41
1
41
1
41
1
10
117.96374108681256
20
211.72089581849008
30
0
10
118.05424092049196
20
211.71118853271491
30
0
10
118.23772821545217
20
211.68158211074251
30
0
10
118.51952519070593
20
211.60713876857341
30
0
10
118.90118817423453
20
211.44984055173421
30
0
10
119.35886884931452
20
211.16271627163169
30
0
10
119.76326597361022
20
210.79436804491996
30
0
10
120.08266608308213
20
210.35909108482852
30
0
10
120.29405047652646
20
209.87804492291843
30
0
10
120.39040427301784
20
209.38159759666098
30
0
10
120.3761160958169
20
208.90411875647442
30
0
10
120.26142191026361
20
208.4780748350563
30
0
10
120.05752621897172
20
208.1286595736139
30
0
10
119.77088932706431
20
207.86747988930904
30
0
10
119.39960406204636
20
207.68850601708209
30
0
10
118.94047478737338
20
207.57622709170423
30
0
10
118.39514088284744
20
207.51253390799258
30
0
10
117.77592205551568
20
207.48346250183275
30
0
10
117.11350496085281
20
207.48738241776488
30
0
10
116.4586128207314
20
207.53809926769895
30
0
10
115.86966915199764
20
207.65610148859298
30
0
10
115.40338030234538
20
207.86226724424313
30
0
10
115.10410888794769
20
208.17056673130637
30
0
10
114.99376847267426
20
208.58120228612066
30
0
10
115.06104327623811
20
209.07327681258269
30
0
10
115.27230407104354
20
209.61168314576784
30
0
10
115.58245616698588
20
210.15397191490166
30
0
10
115.94601764068699
20
210.65732853612329
30
0
10
116.32726574001424
20
211.08507219710407
30
0
10
116.71286433414562
20
211.41446900104083
30
0
10
117.10613900050521
20
211.63495556630545
30
0
10
117.43532088653623
20
211.72254251376398
30
0
10
117.69472921337582
20
211.73982582539378
30
0
10
117.87324125313313
20
211.73060310426533
30
0
10
117.96374108681256
20
211.72089581849008
30
0
0
SPLINE
5
118
100
AcDbEntity
8
0
100
AcDbSpline
70
4
71
5
72
71
73
65
74
0
42
0.000000001
43
0.0000000001
44
0.0000000001
40
0
40
0
40
0
40
0
40
0
40
0
40
0.016666666666666701
40
0.033333333333333298
40
0.050000000000000003
40
0.066666666666666693
40
0.083333333333333301
40
0.10000000000000001
40
0.1166666666666666
40
0.1333333333333333
40
0.14999999999999999
40
0.1666666666666666
40
0.18333333333333329
40
0.20000000000000001
40
0.21666666666666659
40
0.23333333333333331
40
0.25
40
0.26666666666666661
40
0.28333333333333333
40
0.29999999999999999
40
0.3166666666666666
40
0.33333333333333331
40
0.34999999999999998
40
0.36666666666666659
40
0.3833333333333333
40
0.40000000000000002
40
0.41666666666666657
40
0.43333333333333329
40
0.45000000000000001
40
0.46666666666666662
40
0.48333333333333328
40
0.5
40
0.51666666666666661
40
0.53333333333333333
40
0.55000000000000004
40
0.56666666666666676
40
0.58333333333333348
40
0.6000000000000002
40
0.61666666666666703
40
0.63333333333333375
40
0.65000000000000036
40
0.66666666666666707
40
0.68333333333333379
40
0.70000000000000062
40
0.71666666666666734
40
0.73333333333333417
40
0.75000000000000067
40
0.76666666666666738
40
0.7833333333333341
40
0.80000000000000082
40
0.81666666666666743
40
0.83333333333333415
40
0.85000000000000109
40
0.86666666666666758
40
0.88333333333333441
40
0.90000000000000102
40
0.91666666666666785
40
0.93333333333333457
40
0.95000000000000118
40
0.9666666666666679
40
0.98333333333333461
40
1
40
1
40
1
40
1
40
1
40
1
41
1
41
1
41
1
41
1
41
1
41
1
41
1
41
1
41
1
41
1
41
1
41
1
41
1
41
1
41
1
41
1
41
1
41
1
41
1
41
1
41
1
41
1
41
1
41
1
41
1
41
1
41
1
41
1
41
1
41
1
41
1
41
1
41
1
41
1
41
1
41
1
41
1
41
1
41
1
41
1
41
1
41
1
41
1
41
1
41
1
41
1
41
1
41
1
41
1
41
1
41
1
41
1
41
1
41
1
41
1
41
1
41
1
41
1
41
1
41
1
41
1
41
1
41
1
41
1
41
1
10
48.090791534994317
20
264.34255010349324
30
0
10
48.343652480994706
20
264.40850589569146
30
0
10
48.883676835227241
20
264.52784886370159
30
0
10
49.789057928781858
20
264.66697892607795
30
0
10
51.157394267929277
20
264.76690505461858
30
0
10
53.066970297360783
20
264.7466890891223
30
0
10
55.111923829076432
20
264.5885909582496
30
0
10
57.235217274792035
20
264.30722522141286
30
0
10
59.387728896304957
20
263.92226160654252
30
0
10
61.529405214341537
20
263.45609958845125
30
0
10
63.630420074678895
20
262.93156206398942
30
0
10
65.672396319544376
20
262.36956591382955
30
0
10
67.649490960557614
20
261.78685186349861
30
0
10
69.562483440921724
20
261.19615247135704
30
0
10
71.413085199338425
20
260.60631235673793
30
0
10
73.198065113058277
20
260.0223956523713
30
0
10
74.903689516726104
20
259.44584462501774
30
0
10
76.499450721042706
20
258.87448617923445
30
0
10
77.93337959844709
20
258.30288346842821
30
0
10
79.123482641493922
20
257.72183672283802
30
0
10
79.961068846959222
20
257.12056360984866
30
0
10
80.349218457495311
20
256.49770196151843
30
0
10
80.232032985981277
20
255.8691824823444
30
0
10
79.633546853934533
20
255.28064881180984
30
0
10
78.674303327198743
20
254.80788115728015
30
0
10
77.520984871576744
20
254.52050312214465
30
0
10
76.347208195156057
20
254.45149040187624
30
0
10
75.290418995463881
20
254.56523455970364
30
0
10
74.409202079127269
20
254.72380581978678
30
0
10
73.703411100121883
20
254.75048635295701
30
0
10
73.135332084357643
20
254.49143606895606
30
0
10
72.651638428740853
20
253.88637468781161
30
0
10
72.20112557031085
20
253.01047036363016
30
0
10
71.736545039021863
20
252.01200017455025
30
0
10
71.218966894489157
20
251.0674486039523
30
0
10
70.621285467163403
20
250.3286572989231
30
0
10
69.93176328938543
20
249.87666260850921
30
0
10
69.150621135034683
20
249.73757859650027
30
0
10
68.287153924825532
20
249.89527738273833
30
0
10
67.356528963297606
20
250.30567817763765
30
0
10
66.377197298109309
20
250.90847676258775
30
0
10
65.369108358180753
20
251.63551619470294
30
0
10
64.351739422112075
20
252.42028237879742
30
0
10
63.342212632543365
20
253.20610700790749
30
0
10
62.353339308216604
20
253.95697105926362
30
0
10
61.39184522195972
20
254.65949431491902
30
0
10
60.457009677636563
20
255.31513953152893
30
0
10
59.53886464129571
20
255.93481262707832
30
0
10
58.617250909321825
20
256.53291414002518
30
0
10
57.658800904772676
20
257.12065319016978
30
0
10
56.621026604343889
20
257.70330679833455
30
0
10
55.46557636162067
20
258.28286508743474
30
0
10
54.169078012735703
20
258.85928287272429
30
0
10
52.735218771580307
20
259.43232737856891
30
0
10
51.205798535903725
20
260.00308950893589
30
0
10
49.67375888709411
20
260.57585506891689
30
0
10
48.263317178544661
20
261.15532445789705
30
0
10
47.108736793952353
20
261.74371277788816
30
0
10
46.332664586171106
20
262.33763568158048
30
0
10
46.026798268662368
20
262.92565002717117
30
0
10
46.226222423866005
20
263.48409821773237
30
0
10
46.769852225890432
20
263.8798665005491
30
0
10
47.366511159224849
20
264.13211411051248
30
0
10
47.837930588993885
20
264.27659431129501
30
0
10
48.090791534994317
20
264.34255010349324
30
0
0
SPLINE
5
119
100
AcDbEntity
8
0
100
AcDbSpline
70
4
71
5
72
96
73
90
74
0
42
0.000000001
43
0.0000000001
44
0.0000000001
40
0
40
0
40
0
40
0
40
0
40
0
40
0.011764705882353
40
0.023529411764705899
40
0.035294117647058802
40
0.047058823529411799
40
0.058823529411764698
40
0.070588235294117702
40
0.082352941176470601
40
0.094117647058823597
40
0.1058823529411765
40
0.1176470588235294
40
0.12941176470588231
40
0.14117647058823529
40
0.15294117647058819
40
0.1647058823529412
40
0.17647058823529421
40
0.18823529411764711
40
0.20000000000000009
40
0.21176470588235299
40
0.22352941176470603
40
0.2352941176470589
40
0.24705882352941189
40
0.25882352941176479
40
0.2705882352941178
40
0.2823529411764707
40
0.29411764705882371
40
0.30588235294117672
40
0.31764705882352962
40
0.32941176470588263
40
0.34117647058823553
40
0.35294117647058848
40
0.36470588235294138
40
0.37647058823529439
40
0.3882352941176474
40
0.4000000000000003
40
0.41176470588235331
40
0.42352941176470632
40
0.43529411764705922
40
0.44705882352941217
40
0.45882352941176507
40
0.47058823529411808
40
0.48235294117647104
40
0.49411764705882388
40
0.50588235294117689
40
0.51764705882352979
40
0.52941176470588269
40
0.54117647058823559
40
0.55294117647058849
40
0.56470588235294139
40
0.57647058823529429
40
0.58823529411764719
40
0.60000000000000009
40
0.61176470588235299
40
0.62352941176470589
40
0.63529411764705879
40
0.64705882352941169
40
0.65882352941176459
40
0.67058823529411749
40
0.68235294117647038
40
0.69411764705882328
40
0.70588235294117618
40
0.71764705882352908
40
0.72941176470588209
40
0.74117647058823488
40
0.75294117647058778
40
0.76470588235294068
40
0.77647058823529358
40
0.78823529411764648
40
0.79999999999999938
40
0.81176470588235206
40
0.82352941176470484
40
0.83529411764705785
40
0.84705882352941075
40
0.85882352941176365
40
0.87058823529411655
40
0.88235294117646945
40
0.89411764705882235
40
0.90588235294117525
40
0.91764705882352815
40
0.92941176470588116
40
0.94117647058823406
40
0.95294117647058685
40
0.96470588235293975
40
0.97647058823529276
40
0.98823529411764555
40
1
40
1
40
1
40
1
40
1
40
1
41
1
41
1
41
1
41
1
41
1
41
1
41
1
41
1
41
1
41
1
41
1
41
1
41
1
41
1
41
1
41
1
41
1
41
1
41
1
41
1
41
1
41
1
41
1
41
1
41
1
41
1
41
1
41
1
41
1
41
1
41
1
41
1
41
1
41
1
41
1
41
1
41
1
41
1
41
1
41
1
41
1
41
1
41
1
41
1
41
1
41
1
41
1
41
1
41
1
41
1
41
1
41
1
41
1
41
1
41
1
41
1
41
1
41
1
41
1
41
1
41
1
41
1
41
1
41
1
41
1
41
1
41
1
41
1
41
1
41
1
41
1
41
1
41
1
41
1
41
1
41
1
41
1
41
1
41
1
41
1
41
1
41
1
41
1
41
1
41
1
41
1
41
1
41
1
41
1
41
1
10
211.28998525319713
20
210.06764931150605
30
0
10
211.33125050279006
20
210.14987663935202
30
0
10
211.4204059294953
20
210.33484542856144
30
0
10
211.58455024056266
20
210.67644743750404
30
0
10
211.89269316728519
20
211.25751227496667
30
0
10
212.44298513599978
20
212.13944112348574
30
0
10
213.13681480826062
20
213.09687083791761
30
0
10
213.93065321573806
20
214.04385563462367
30
0
10
214.77427625128084
20
214.90731575036054
30
0
10
215.62901723726111
20
215.65109518217554
30
0
10
216.47315638218188
20
216.27830383131493
30
0
10
217.29690634423051
20
216.8161909195845
30
0
10
218.10041169468533
20
217.30617275441588
30
0
10
218.89049694891906
20
217.79150967975573
30
0
10
219.67800999341534
20
218.30657552659616
30
0
10
220.4747768969963
20
218.86390253117486
30
0
10
221.29217444226259
20
219.458096661073
30
0
10
222.13991487854526
20
220.07223456581374
30
0
10
223.02472524296732
20
220.68346050915744
30
0
10
223.94914234327589
20
221.2687368857186
30
0
10
224.91007805574981
20
221.81094428957783
30
0
10
225.89800378687846
20
222.30359226815526
30
0
10
226.89974300597171
20
222.74702152325946
30
0
10
227.90079229908471
20
223.14568579231494
30
0
10
228.88790833350467
20
223.50490313603032
30
0
10
229.85138658899621
20
223.82810321846691
30
0
10
230.78794310586915
20
224.1132189079928
30
0
10
231.70191298126463
20
224.35140126635358
30
0
10
232.599680181667
20
224.53498461841809
30
0
10
233.4850986324779
20
224.66412317684598
30
0
10
234.35454732872617
20
224.75387764014471
30
0
10
235.1920843908633
20
224.84129371720624
30
0
10
235.96468095964426
20
224.99207393614324
30
0
10
236.63076648067346
20
225.27636138129282
30
0
10
237.14897550245851
20
225.7432470309505
30
0
10
237.48618856427098
20
226.3987566282176
30
0
10
237.62746661238211
20
227.17468233245631
30
0
10
237.57444431526383
20
227.95427320535219
30
0
10
237.34024871561894
20
228.6171970739735
30
0
10
236.94565751820028
20
229.07390053871291
30
0
10
236.41459124749758
20
229.3145605652438
30
0
10
235.77077571169443
20
229.39414760032773
30
0
10
235.03467997724192
20
229.39239374546619
30
0
10
234.22041382584524
20
229.38209459806163
30
0
10
233.33253208152794
20
229.39332822270276
30
0
10
232.3697728026556
20
229.42423227200268
30
0
10
231.32881576838881
20
229.45168913975783
30
0
10
230.20821408526837
20
229.44240971969461
30
0
10
229.0118365313779
20
229.36304155269943
30
0
10
227.75354726105769
20
229.19263624825925
30
0
10
226.4574795612138
20
228.92673086433302
30
0
10
225.1532725004927
20
228.57182499667474
30
0
10
223.87258645055192
20
228.14233841852084
30
0
10
222.64518492372756
20
227.65663541742759
30
0
10
221.49500835371219
20
227.1332982150972
30
0
10
220.43669693850063
20
226.58765793659899
30
0
10
219.47080600685666
20
226.0273204367677
30
0
10
218.58369722341624
20
225.45144854196991
30
0
10
217.75333319558848
20
224.85482892056149
30
0
10
216.953476986254
20
224.23063493954061
30
0
10
216.1587166350518
20
223.57389100239715
30
0
10
215.34871363048131
20
222.88423505647921
30
0
10
214.51384150518072
20
222.16999065355105
30
0
10
213.65567100846178
20
221.447321330275
30
0
10
212.78357169975661
20
220.73563036096206
30
0
10
211.9124751551924
20
220.0541402348772
30
0
10
211.06009774293014
20
219.41779072842607
30
0
10
210.24455740232895
20
218.83388215053526
30
0
10
209.48142720766512
20
218.29725946051852
30
0
10
208.78267055488166
20
217.7907867700641
30
0
10
208.15722359750396
20
217.29038194600446
30
0
10
207.61103468599589
20
216.7687815496221
30
0
10
207.14749937355271
20
216.19978900834695
30
0
10
206.76727157361782
20
215.56239475534784
30
0
10
206.4710912849871
20
214.84467399850612
30
0
10
206.26424966665414
20
214.04790638059151
30
0
10
206.15979389108389
20
213.18997543458204
30
0
10
206.18394560607047
20
212.31060223605647
30
0
10
206.37545024462813
20
211.47116069431934
30
0
10
206.76664686430939
20
210.73752017531771
30
0
10
207.36602637687366
20
210.16466291849974
30
0
10
208.14339107876765
20
209.78278393632775
30
0
10
209.0058100340209
20
209.57723898700678
30
0
10
209.82212587354439
20
209.50150824580462
30
0
10
210.47399497373652
20
209.50812469653428
30
0
10
210.89178170006167
20
209.56952530810324
30
0
10
211.06829446840379
20
209.68450665415901
30
0
10
211.17281443193792
20
209.84148146148556
30
0
10
211.24872000360423
20
209.98542198365999
30
0
10
211.28998525319713
20
210.06764931150605
30
0
0
SPLINE
5
120
100
AcDbEntity
8
0
100
AcDbSpline
70
4
71
5
72
51
73
45
74
0
42
0.000000001
43
0.0000000001
44
0.0000000001
40
0
40
0
40
0
40
0
40
0
40
0
40
0.025000000000000001
40
0.050000000000000003
40
0.074999999999999997
40
0.10000000000000001
40
0.125
40
0.14999999999999999
40
0.17499999999999999
40
0.20000000000000001
40
0.22500000000000001
40
0.25
40
0.27500000000000002
40
0.29999999999999999
40
0.32500000000000001
40
0.34999999999999998
40
0.375
40
0.40000000000000008
40
0.4250000000000001
40
0.45000000000000012
40
0.4750000000000002
40
0.50000000000000011
40
0.52500000000000024
40
0.55000000000000016
40
0.57500000000000018
40
0.6000000000000002
40
0.62500000000000022
40
0.65000000000000036
40
0.67500000000000027
40
0.70000000000000029
40
0.72500000000000042
40
0.75000000000000044
40
0.77500000000000036
40
0.80000000000000027
40
0.82500000000000029
40
0.85000000000000031
40
0.87500000000000033
40
0.90000000000000047
40
0.92500000000000038
40
0.9500000000000004
40
0.97500000000000042
40
1
40
1
40
1
40
1
40
1
40
1
41
1
41
1
41
1
41
1
41
1
41
1
41
1
41
1
41
1
41
1
41
1
41
1
41
1
41
1
41
1
41
1
41
1
41
1
41
1
41
1
41
1
41
1
41
1
41
1
41
1
41
1
41
1
41
1
41
1
41
1
41
1
41
1
41
1
41
1
41
1
41
1
41
1
41
1
41
1
41
1
41
1
41
1
41
1
41
1
41
1
10
199.55217039142954
20
225.92836224297645
30
0
10
199.68594637272491
20
225.93800377285919
30
0
10
199.96829923643358
20
225.94685793852622
30
0
10
200.43948247058267
20
225.93383907681712
30
0
10
201.17241401616099
20
225.88451322691569
30
0
10
202.26867098269352
20
225.81888359415032
30
0
10
203.53263039354408
20
225.79049777836542
30
0
10
204.93375131558597
20
225.82652421374544
30
0
10
206.42329516790508
20
225.93450951895488
30
0
10
207.93366693544044
20
226.09565636328585
30
0
10
209.37936038779637
20
226.26117164153203
30
0
10
210.66845307990988
20
226.3685043380913
30
0
10
211.71266431057597
20
226.35483515835941
30
0
10
212.43841444579144
20
226.17249649896013
30
0
10
212.79652968836498
20
225.80160186411518
30
0
10
212.77506249383282
20
225.26892754321406
30
0
10
212.40237508097184
20
224.64652451072109
30
0
10
211.73551351055369
20
224.01715938891672
30
0
10
210.85210354689224
20
223.45073937042372
30
0
10
209.84118164269546
20
222.96933368200709
30
0
10
208.79361909587487
20
222.54477336572972
30
0
10
207.79137996081721
20
222.12430117633446
30
0
10
206.89703429849388
20
221.6485013334906
30
0
10
206.14328038993108
20
221.07213516278108
30
0
10
205.52190057153905
20
220.38423684198159
30
0
10
204.97401550090404
20
219.62734583888502
30
0
10
204.41544415521639
20
218.87798256213583
30
0
10
203.76107151679912
20
218.22854691079817
30
0
10
202.94886299487288
20
217.76910211600176
30
0
10
201.96571382562939
20
217.56843282127687
30
0
10
200.86801157613277
20
217.65760170420015
30
0
10
199.75316839589925
20
218.03657580724229
30
0
10
198.73616685432526
20
218.6787379682269
30
0
10
197.92319069908419
20
219.53597825758848
30
0
10
197.38901466609201
20
220.54363282545779
30
0
10
197.14620061345417
20
221.62485312289402
30
0
10
197.15547217471976
20
222.6982253354534
30
0
10
197.35089257932643
20
223.68641164164637
30
0
10
197.66111865109437
20
224.52490909448531
30
0
10
198.0298892204739
20
225.16981051272009
30
0
10
198.44270713618843
20
225.60857309438001
30
0
10
198.82766822455056
20
225.80816757403846
30
0
10
199.16564334866149
20
225.88900875922974
30
0
10
199.41839441013428
20
225.91872071309368
30
0
10
199.55217039142954
20
225.92836224297645
30
0
0
SPLINE
5
121
100
AcDbEntity
8
0
100
AcDbSpline
70
4
71
5
72
76
73
70
74
0
42
0.000000001
43
0.0000000001
44
0.0000000001
40
0
40
0
40
0
40
0
40
0
40
0
40
0.015384615384615399
40
0.030769230769230799
40
0.046153846153846198
40
0.061538461538461597
40
0.0769230769230769
40
0.092307692307692299
40
0.1076923076923077
40
0.1230769230769231
40
0.1384615384615385
40
0.15384615384615391
40
0.16923076923076921
40
0.1846153846153846
40
0.20000000000000001
40
0.2153846153846154
40
0.23076923076923081
40
0.2461538461538462
40
0.2615384615384615
40
0.27692307692307688
40
0.29230769230769232
40
0.30769230769230771
40
0.32307692307692309
40
0.33846153846153848
40
0.35384615384615392
40
0.3692307692307692
40
0.38461538461538458
40
0.40000000000000002
40
0.41538461538461552
40
0.4307692307692309
40
0.44615384615384618
40
0.46153846153846162
40
0.47692307692307701
40
0.49230769230769239
40
0.50769230769230766
40
0.52307692307692299
40
0.53846153846153844
40
0.55384615384615365
40
0.5692307692307691
40
0.58461538461538443
40
0.59999999999999964
40
0.61538461538461497
40
0.6307692307692303
40
0.64615384615384575
40
0.66153846153846108
40
0.67692307692307629
40
0.69230769230769174
40
0.70769230769230695
40
0.72307692307692228
40
0.73846153846153773
40
0.75384615384615306
40
0.76923076923076827
40
0.7846153846153836
40
0.79999999999999893
40
0.81538461538461415
40
0.83076923076922948
40
0.84615384615384492
40
0.86153846153846025
40
0.87692307692307547
40
0.89230769230769091
40
0.90769230769230624
40
0.92307692307692157
40
0.93846153846153679
40
0.95384615384615223
40
0.96923076923076756
40
0.98461538461538278
40
1
40
1
40
1
40
1
40
1
40
1
41
1
41
1
41
1
41
1
41
1
41
1
41
1
41
1
41
1
41
1
41
1
41
1
41
1
41
1
41
1
41
1
41
1
41
1
41
1
41
1
41
1
41
1
41
1
41
1
41
1
41
1
41
1
41
1
41
1
41
1
41
1
41
1
41
1
41
1
41
1
41
1
41
1
41
1
41
1
41
1
41
1
41
1
41
1
41
1
41
1
41
1
41
1
41
1
41
1
41
1
41
1
41
1
41
1
41
1
41
1
41
1
41
1
41
1
41
1
41
1
41
1
41
1
41
1
41
1
41
1
41
1
41
1
41
1
41
1
41
1
10
183.99158064690951
20
165.12607219645548
30
0
10
183.93805043676483
20
165.50512532205494
30
0
10
183.81805977695348
20
166.25348597425682
30
0
10
183.60268004482913
20
167.34069920592538
30
0
10
183.25927380617662
20
168.70054687609436
30
0
10
182.77381172584455
20
170.22648838718465
30
0
10
182.26706856471597
20
171.57516920976474
30
0
10
181.76774650647727
20
172.76135625882796
30
0
10
181.29443865587999
20
173.81542547843236
30
0
10
180.85233522173328
20
174.7805263556539
30
0
10
180.42831331063371
20
175.71057289655471
30
0
10
180.00274560777345
20
176.65939977803748
30
0
10
179.56474279712981
20
177.66783510967093
30
0
10
179.12428241789002
20
178.75299496246322
30
0
10
178.73012700056313
20
179.89310822588681
30
0
10
178.47103767538471
20
181.02544248796585
30
0
10
178.43735026860577
20
182.07562306836067
30
0
10
178.68876965109877
20
182.98181370270811
30
0
10
179.22270615427098
20
183.71894786376299
30
0
10
179.93434436905133
20
184.32819848426027
30
0
10
180.66009392880932
20
184.89203124040375
30
0
10
181.23557942312843
20
185.49988901322592
30
0
10
181.54752262419689
20
186.21752961492126
30
0
10
181.5907427601403
20
187.05392111052237
30
0
10
181.42273269291076
20
187.97288642817824
30
0
10
181.11926175236445
20
188.90562628944477
30
0
10
180.72329722240593
20
189.76275593311561
30
0
10
180.21636417537798
20
190.44697232197817
30
0
10
179.56213713471075
20
190.86889087420477
30
0
10
178.73378342357285
20
190.96078755109443
30
0
10
177.75568264467015
20
190.69473738729013
30
0
10
176.70065559991093
20
190.08181708120676
30
0
10
175.66497258334147
20
189.16095897442958
30
0
10
174.74960315774513
20
187.99096221340733
30
0
10
174.04012263740654
20
186.64141443966801
30
0
10
173.58401933625157
20
185.18364190164539
30
0
10
173.39317447468491
20
183.68519152438239
30
0
10
173.45283385692295
20
182.20533369244495
30
0
10
173.72829596522087
20
180.79020888064485
30
0
10
174.17252938201358
20
179.46807889930184
30
0
10
174.73334312369801
20
178.24456668403519
30
0
10
175.36079521729954
20
177.09770112493115
30
0
10
176.00841522045653
20
175.98699078768388
30
0
10
176.63438057267552
20
174.86248775533906
30
0
10
177.20272901405252
20
173.67415613555821
30
0
10
177.68453202263225
20
172.38037773027261
30
0
10
178.05917835280101
20
170.95864801691374
30
0
10
178.31527498744916
20
169.40770512390861
30
0
10
178.45122781784772
20
167.7426960863431
30
0
10
178.47594948606024
20
165.99235217878419
30
0
10
178.40948850213874
20
164.19537709803598
30
0
10
178.28381371502391
20
162.39716005267434
30
0
10
178.14331089394503
20
160.64643667384061
30
0
10
178.04606963402918
20
158.99178081781659
30
0
10
178.05412694581608
20
157.48146832925113
30
0
10
178.22305763691452
20
156.16355067843284
30
0
10
178.5913384720368
20
155.08599709157056
30
0
10
179.17081074953836
20
154.29647467394489
30
0
10
179.93415887190179
20
153.84308020570711
30
0
10
180.81159225469071
20
153.77202987999058
30
0
10
181.71465372453372
20
154.11557884039371
30
0
10
182.55352624142259
20
154.88302431525906
30
0
10
183.26031615344985
20
156.04746544721661
30
0
10
183.79339487483776
20
157.54867362175014
30
0
10
184.13190133779781
20
159.30474027284546
30
0
10
184.27326173901719
20
161.22100019189745
30
0
10
184.23824861415963
20
162.80424359806699
30
0
10
184.13924103782193
20
163.97916722065997
30
0
10
184.04511085705437
20
164.747019070856
30
0
10
183.99158064690951
20
165.12607219645548
30
0
0
LINE
5
122
100
AcDbEntity
8
0
100
AcDbLine
10
219.08798320048533
20
103.85852143256704
30
0
11
267.7785712004852
21
103.8585214325671
31
0
0
SPLINE
5
123
100
AcDbEntity
8
0
100
AcDbSpline
70
4
71
5
72
76
73
70
74
0
42
0.000000001
43
0.0000000001
44
0.0000000001
40
0
40
0
40
0
40
0
40
0
40
0
40
0.015384615384615399
40
0.030769230769230799
40
0.046153846153846198
40
0.061538461538461597
40
0.0769230769230769
40
0.092307692307692299
40
0.1076923076923077
40
0.1230769230769231
40
0.1384615384615385
40
0.15384615384615391
40
0.16923076923076921
40
0.1846153846153846
40
0.20000000000000001
40
0.2153846153846154
40
0.23076923076923081
40
0.2461538461538462
40
0.2615384615384615
40
0.27692307692307688
40
0.29230769230769232
40
0.30769230769230771
40
0.32307692307692309
40
0.33846153846153848
40
0.35384615384615392
40
0.3692307692307692
40
0.38461538461538458
40
0.40000000000000002
40
0.41538461538461552
40
0.4307692307692309
40
0.44615384615384618
40
0.46153846153846162
40
0.47692307692307701
40
0.49230769230769239
40
0.50769230769230766
40
0.52307692307692299
40
0.53846153846153844
40
0.55384615384615365
40
0.5692307692307691
40
0.58461538461538443
40
0.59999999999999964
40
0.61538461538461497
40
0.6307692307692303
40
0.64615384615384575
40
0.66153846153846108
40
0.67692307692307629
40
0.69230769230769174
40
0.70769230769230695
40
0.72307692307692228
40
0.73846153846153773
40
0.75384615384615306
40
0.76923076923076827
40
0.7846153846153836
40
0.79999999999999893
40
0.81538461538461415
40
0.83076923076922948
40
0.84615384615384492
40
0.86153846153846025
40
0.87692307692307547
40
0.89230769230769091
40
0.90769230769230624
40
0.92307692307692157
40
0.93846153846153679
40
0.95384615384615223
40
0.96923076923076756
40
0.98461538461538278
40
1
40
1
40
1
40
1
40
1
40
1
41
1
41
1
41
1
41
1
41
1
41
1
41
1
41
1
41
1
41
1
41
1
41
1
41
1
41
1
41
1
41
1
41
1
41
1
41
1
41
1
41
1
41
1
41
1
41
1
41
1
41
1
41
1
41
1
41
1
41
1
41
1
41
1
41
1
41
1
41
1
41
1
41
1
41
1
41
1
41
1
41
1
41
1
41
1
41
1
41
1
41
1
41
1
41
1
41
1
41
1
41
1
41
1
41
1
41
1
41
1
41
1
41
1
41
1
41
1
41
1
41
1
41
1
41
1
41
1
41
1
41
1
41
1
41
1
41
1
41
1
10
252.16552501468789
20
320.92135965943669
30
0
10
252.27916377605837
20
320.8861836593872
30
0
10
252.50812127845558
20
320.79354523936308
30
0
10
252.85553234662547
20
320.58791519988944
30
0
10
253.32478490659241
20
320.18826857350359
30
0
10
253.92420076695143
20
319.52360518222338
30
0
10
254.54278684499781
20
318.75134672103292
30
0
10
255.1861627275558
20
317.93116364607431
30
0
10
255.85544336058305
20
317.11454673999913
30
0
10
256.54235788477814
20
316.33203372437407
30
0
10
257.23078060917123
20
315.59489369652124
30
0
10
257.90019243221928
20
314.90115768919594
30
0
10
258.52848278811456
20
314.24016333441728
30
0
10
259.09503681195969
20
313.5977262717704
30
0
10
259.58367029318623
20
312.96098182537497
30
0
10
259.98572381356576
20
312.32351454673625
30
0
10
260.29872277444622
20
311.68292166610144
30
0
10
260.52484932136804
20
311.03803802246631
30
0
10
260.66964507879538
20
310.38657742881219
30
0
10
260.74025856516141
20
309.72190690913834
30
0
10
260.74520123328045
20
309.03267740668781
30
0
10
260.69611484607043
20
308.30637094595323
30
0
10
260.60913503763243
20
307.53191408005478
30
0
10
260.50624253898565
20
306.70260977387215
30
0
10
260.41711095613897
20
305.81910270468057
30
0
10
260.37202573038502
20
304.88905046366568
30
0
10
260.39446504720399
20
303.92651033888598
30
0
10
260.4932127500897
20
302.9514904141779
30
0
10
260.65596733957318
20
301.98933177696813
30
0
10
260.83907783142888
20
301.07043874696075
30
0
10
260.96991601925987
20
300.22894694568731
30
0
10
260.96954357747114
20
299.49966201019197
30
0
10
260.7718116866626
20
298.91535102780654
30
0
10
260.34155100106994
20
298.50398317040543
30
0
10
259.6991149896578
20
298.2857493198224
30
0
10
258.91082775856188
20
298.27136424989806
30
0
10
258.06250768213107
20
298.46088917114662
30
0
10
257.23921738176466
20
298.84254801855485
30
0
10
256.50058077071162
20
299.39112192429502
30
0
10
255.86351380160406
20
300.06771213354682
30
0
10
255.31712546807296
20
300.82674573602128
30
0
10
254.83327661935348
20
301.62188784351588
30
0
10
254.37925341846238
20
302.41264799357742
30
0
10
253.92844542434247
20
303.17006591563813
30
0
10
253.47463866083157
20
303.88441672147195
30
0
10
253.02935299976656
20
304.56304656077322
30
0
10
252.61244170552777
20
305.22420719670549
30
0
10
252.24453411691826
20
305.89208066715656
30
0
10
251.93947095037544
20
306.59158183746109
30
0
10
251.69481448900765
20
307.34259494647398
30
0
10
251.49430205696163
20
308.15834194933615
30
0
10
251.31496512549407
20
309.04547698374404
30
0
10
251.1329129152698
20
310.00353686319283
30
0
10
250.9292200434794
20
311.02479938426723
30
0
10
250.69685866722867
20
312.09358870382914
30
0
10
250.44348817623012
20
313.18705695909534
30
0
10
250.18650239747589
20
314.27855763286453
30
0
10
249.94983181711888
20
315.34041582804002
30
0
10
249.76003805253956
20
316.34698841510897
30
0
10
249.6427511047639
20
317.27748514898309
30
0
10
249.61887775517005
20
318.11917698291006
30
0
10
249.70114052954676
20
318.86967841302913
30
0
10
249.89438400443262
20
319.52999661096885
30
0
10
250.19546599577853
20
320.09757111492513
30
0
10
250.59360858977371
20
320.56060796144266
30
0
10
251.06976175053251
20
320.88867439999632
30
0
10
251.49399745874149
20
321.00965349954367
30
0
10
251.82628871023255
20
321.00460123965991
30
0
10
252.05188625331741
20
320.95653565948601
30
0
10
252.16552501468789
20
320.92135965943669
30
0
0
SPLINE
5
124
100
AcDbEntity
8
0
100
AcDbSpline
70
4
71
5
72
151
73
145
74
0
42
0.000000001
43
0.0000000001
44
0.0000000001
40
0
40
0
40
0
40
0
40
0
40
0
40
0.0071428571428571001
40
0.014285714285714299
40
0.021428571428571401
40
0.028571428571428598
40
0.035714285714285698
40
0.042857142857142899
40
0.050000000000000003
40
0.057142857142857197
40
0.064285714285714293
40
0.071428571428571494
40
0.078571428571428598
40
0.085714285714285798
40
0.092857142857142902
40
0.10000000000000001
40
0.10714285714285721
40
0.1142857142857143
40
0.1214285714285715
40
0.12857142857142859
40
0.1357142857142857
40
0.1428571428571429
40
0.14999999999999999
40
0.1571428571428572
40
0.16428571428571431
40
0.17142857142857151
40
0.1785714285714286
40
0.18571428571428569
40
0.19285714285714289
40
0.20000000000000001
40
0.20714285714285721
40
0.2142857142857143
40
0.2214285714285715
40
0.22857142857142859
40
0.23571428571428579
40
0.24285714285714291
40
0.25
40
0.25714285714285717
40
0.26428571428571429
40
0.27142857142857141
40
0.27857142857142853
40
0.28571428571428559
40
0.2928571428571427
40
0.29999999999999988
40
0.307142857142857
40
0.31428571428571411
40
0.32142857142857117
40
0.32857142857142829
40
0.33571428571428541
40
0.34285714285714258
40
0.3499999999999997
40
0.35714285714285682
40
0.36428571428571388
40
0.37142857142857105
40
0.37857142857142823
40
0.38571428571428529
40
0.39285714285714241
40
0.39999999999999952
40
0.4071428571428567
40
0.41428571428571381
40
0.42142857142857088
40
0.4285714285714281
40
0.43571428571428522
40
0.44285714285714228
40
0.4499999999999994
40
0.45714285714285652
40
0.46428571428571369
40
0.47142857142857081
40
0.47857142857142793
40
0.48571428571428499
40
0.49285714285714211
40
0.49999999999999922
40
0.50714285714285645
40
0.51428571428571346
40
0.52142857142857058
40
0.52857142857142769
40
0.53571428571428481
40
0.54285714285714193
40
0.54999999999999905
40
0.55714285714285616
40
0.56428571428571328
40
0.5714285714285704
40
0.57857142857142752
40
0.58571428571428463
40
0.59285714285714175
40
0.59999999999999887
40
0.60714285714285599
40
0.6142857142857131
40
0.62142857142857022
40
0.62857142857142745
40
0.63571428571428445
40
0.64285714285714157
40
0.64999999999999869
40
0.65714285714285581
40
0.66428571428571292
40
0.67142857142857015
40
0.67857142857142716
40
0.68571428571428428
40
0.69285714285714139
40
0.69999999999999851
40
0.70714285714285563
40
0.71428571428571275
40
0.72142857142856986
40
0.72857142857142698
40
0.7357142857142841
40
0.74285714285714122
40
0.74999999999999845
40
0.75714285714285545
40
0.76428571428571257
40
0.77142857142856969
40
0.7785714285714268
40
0.78571428571428392
40
0.79285714285714115
40
0.79999999999999816
40
0.80714285714285527
40
0.81428571428571239
40
0.82142857142856951
40
0.82857142857142663
40
0.83571428571428386
40
0.84285714285714086
40
0.84999999999999787
40
0.8571428571428551
40
0.86428571428571221
40
0.87142857142856933
40
0.87857142857142645
40
0.88571428571428357
40
0.89285714285714068
40
0.8999999999999978
40
0.90714285714285481
40
0.91428571428571204
40
0.92142857142856915
40
0.92857142857142638
40
0.93571428571428339
40
0.9428571428571404
40
0.94999999999999762
40
0.95714285714285485
40
0.96428571428571197
40
0.97142857142856909
40
0.97857142857142598
40
0.98571428571428321
40
0.99285714285714044
40
1
40
1
40
1
40
1
40
1
40
1
41
1
41
1
41
1
41
1
41
1
41
1
41
1
41
1
41
1
41
1
41
1
41
1
41
1
41
1
41
1
41
1
41
1
41
1
41
1
41
1
41
1
41
1
41
1
41
1
41
1
41
1
41
1
41
1
41
1
41
1
41
1
41
1
41
1
41
1
41
1
41
1
41
1
41
1
41
1
41
1
41
1
41
1
41
1
41
1
41
1
41
1
41
1
41
1
41
1
41
1
41
1
41
1
41
1
41
1
41
1
41
1
41
1
41
1
41
1
41
1
41
1
41
1
41
1
41
1
41
1
41
1
41
1
41
1
41
1
41
1
41
1
41
1
41
1
41
1
41
1
41
1
41
1
41
1
41
1
41
1
41
1
41
1
41
1
41
1
41
1
41
1
41
1
41
1
41
1
41
1
41
1
41
1
41
1
41
1
41
1
41
1
41
1
41
1
41
1
41
1
41
1
41
1
41
1
41
1
41
1
41
1
41
1
41
1
41
1
41
1
41
1
41
1
41
1
41
1
41
1
41
1
41
1
41
1
41
1
41
1
41
1
41
1
41
1
41
1
41
1
41
1
41
1
41
1
41
1
41
1
41
1
41
1
41
1
41
1
41
1
41
1
41
1
41
1
41
1
41
1
41
1
41
1
41
1
41
1
41
1
10
187.79662440317969
20
147.47913790158918
30
0
10
187.87522059618254
20
147.57715234010146
30
0
10
188.02949928247182
20
147.77152471733967
30
0
10
188.25049199430657
20
148.06086001270384
30
0
10
188.5161335685317
20
148.45601460656238
30
0
10
188.7845471853943
20
149.00041608567511
30
0
10
188.99019494337466
20
149.61739543611426
30
0
10
189.16415154360553
20
150.30117518581619
30
0
10
189.37284566098785
20
151.00932767485858
30
0
10
189.6889133449105
20
151.67908520103506
30
0
10
190.16671733203998
20
152.24000897817601
30
0
10
190.81711971647084
20
152.62776539583197
30
0
10
191.57966197439288
20
152.79825857059961
30
0
10
192.35071579637457
20
152.72689557883598
30
0
10
193.01742319534256
20
152.4066185428475
30
0
10
193.48716979961091
20
151.8462735417643
30
0
10
193.72486664570783
20
151.06914968379601
30
0
10
193.74738768972156
20
150.10939566931003
30
0
10
193.60517137461798
20
149.00771624112946
30
0
10
193.36819958480388
20
147.80733863726095
30
0
10
193.1099577305709
20
146.5498156639843
30
0
10
192.8927265922041
20
145.27101995024847
30
0
10
192.75105526158023
20
143.9967283736604
30
0
10
192.69611649714676
20
142.74365610672174
30
0
10
192.72182396088385
20
141.5209669340297
30
0
10
192.81033807393285
20
140.33161222850265
30
0
10
192.93777116342082
20
139.17373475216931
30
0
10
193.07992865688288
20
138.04205458921388
30
0
10
193.21774093371567
20
136.92923345615722
30
0
10
193.34360583103057
20
135.82732128302945
30
0
10
193.45946307251896
20
134.72842425844033
30
0
10
193.57350235412699
20
133.62524939950032
30
0
10
193.69739256662166
20
132.5116847647088
30
0
10
193.84320448420044
20
131.38338264410584
30
0
10
194.0206716246627
20
130.2383011469189
30
0
10
194.23380807898997
20
129.07736313016542
30
0
10
194.47939908371899
20
127.90474768401829
30
0
10
194.75029635346712
20
126.72721304904178
30
0
10
195.03784145338005
20
125.55360766269456
30
0
10
195.33456460698287
20
124.39429761759686
30
0
10
195.63692457823231
20
123.26065277929493
30
0
10
195.94766271224051
20
122.16445593416923
30
0
10
196.27922372878282
20
121.11747236817662
30
0
10
196.65362287340162
20
120.13050763039493
30
0
10
197.09593078830554
20
119.21150643596958
30
0
10
197.6292935293672
20
118.36393860290659
30
0
10
198.26911981209602
20
117.58491298917518
30
0
10
199.01811897685673
20
116.86376295968498
30
0
10
199.85976737616326
20
116.17956230491788
30
0
10
200.75641789311175
20
115.50195368568399
30
0
10
201.65742650960115
20
114.79917240259566
30
0
10
202.50524029783969
20
114.04462494189966
30
0
10
203.24226700924558
20
113.22398399713862
30
0
10
203.8174743716641
20
112.34220628983761
30
0
10
204.19295566188939
20
111.43025858979274
30
0
10
204.35092755118313
20
110.55291068306335
30
0
10
204.29044821828413
20
109.78957319909199
30
0
10
204.02349181530798
20
109.21231634296333
30
0
10
203.57137187002476
20
108.86741509283843
30
0
10
202.96075741540778
20
108.74935837556093
30
0
10
202.22096083538361
20
108.8033791323018
30
0
10
201.38220827806794
20
108.95209015242635
30
0
10
200.47367974619539
20
109.11468162677667
30
0
10
199.52154177871446
20
109.23050728831129
30
0
10
198.54728017163632
20
109.2768756448294
30
0
10
197.56832239999753
20
109.25738012147474
30
0
10
196.59839427289566
20
109.19345363907163
30
0
10
195.64799327619451
20
109.11437184135087
30
0
10
194.72477627673356
20
109.04866629688541
30
0
10
193.83406834542365
20
109.01309426876986
30
0
10
192.97899274923836
20
109.00980551573431
30
0
10
192.160255022424
20
109.03192844271112
30
0
10
191.37596014443193
20
109.06700692600786
30
0
10
190.62154161041343
20
109.10110068689769
30
0
10
189.88933264559074
20
109.12311532260728
30
0
10
189.16950888611791
20
109.12703134546692
30
0
10
188.45251315169332
20
109.11178851972161
30
0
10
187.73100320036696
20
109.08171080502555
30
0
10
187.0021680621449
20
109.04693814148516
30
0
10
186.26940557315748
20
109.02323565408557
30
0
10
185.53871528425458
20
109.02547654833157
30
0
10
184.81517357376129
20
109.06098575016875
30
0
10
184.09999637911721
20
109.12421430338287
30
0
10
183.38580133080367
20
109.18763432427853
30
0
10
182.66150902870169
20
109.21259800133478
30
0
10
181.92195871828315
20
109.16989272136023
30
0
10
181.17499767438275
20
109.05517032650178
30
0
10
180.45196001575547
20
108.91115550421846
30
0
10
179.8090508314331
20
108.83177657177964
30
0
10
179.30458569586375
20
108.91858033012184
30
0
10
178.98301302453066
20
109.25034566899436
30
0
10
178.85133217871009
20
109.83821737486767
30
0
10
178.88105885614664
20
110.62897942492415
30
0
10
179.02641567586753
20
111.53880594930483
30
0
10
179.23711849936237
20
112.47689172647951
30
0
10
179.47470830543838
20
113.37567153937775
30
0
10
179.72338627765362
20
114.21091991401973
30
0
10
179.98164251312522
20
114.98656977465645
30
0
10
180.25644183304956
20
115.72427481536874
30
0
10
180.55665882842442
20
116.45147207905453
30
0
10
180.88627849787088
20
117.18930856606261
30
0
10
181.23934040793529
20
117.94293597192528
30
0
10
181.60547217562168
20
118.70700977511275
30
0
10
181.9742836128884
20
119.4693462424609
30
0
10
182.33985933577671
20
120.21519854402567
30
0
10
182.70601615048494
20
120.93148796725509
30
0
10
183.08880209768446
20
121.61037564824206
30
0
10
183.50787770238387
20
122.2493357202421
30
0
10
183.97908190318205
20
122.85191513509204
30
0
10
184.50749960482892
20
123.42790728685273
30
0
10
185.07796148397352
20
123.99455383653532
30
0
10
185.65623537472612
20
124.57416073999366
30
0
10
186.19962893320985
20
125.18876670547522
30
0
10
186.66529346612307
20
125.85536049891745
30
0
10
187.01871512817928
20
126.58147186266902
30
0
10
187.24404092552365
20
127.35907912420143
30
0
10
187.34258178960988
20
128.16800486533526
30
0
10
187.32648014522539
20
128.98310170419089
30
0
10
187.21393338648508
20
129.78024104142006
30
0
10
187.0238278656181
20
130.54271733953865
30
0
10
186.77046908480423
20
131.26770531796944
30
0
10
186.46541664110143
20
131.96267266442945
30
0
10
186.1197000736193
20
132.64135017056839
30
0
10
185.74568485867741
20
133.32004713648081
30
0
10
185.3595737940567
20
134.01340213476573
30
0
10
184.98199356353325
20
134.7318004639219
30
0
10
184.63511256702205
20
135.48188103063512
30
0
10
184.34043461053727
20
136.26633655489204
30
0
10
184.11649798652229
20
137.08406222010046
30
0
10
183.97618536222512
20
137.92999195629324
30
0
10
183.92586054697398
20
138.79569119398184
30
0
10
183.96655182667729
20
139.67066037201309
30
0
10
184.09457590769927
20
140.54348724557047
30
0
10
184.30240904257028
20
141.40298416183467
30
0
10
184.57940156628837
20
142.23951467342386
30
0
10
184.91272288943554
20
143.04561373992385
30
0
10
185.28855982733799
20
143.815414738941
30
0
10
185.69332870262417
20
144.54427986998863
30
0
10
186.11473667682446
20
145.22849513444373
30
0
10
186.54325369637684
20
145.86458994260894
30
0
10
186.97228001340193
20
146.44995535743138
30
0
10
187.31070611486487
20
146.87919429309019
30
0
10
187.5579221244553
20
147.18343808626602
30
0
10
187.71802821017701
20
147.38112346307688
30
0
10
187.79662440317969
20
147.47913790158918
30
0
0
SPLINE
5
125
100
AcDbEntity
8
0
100
AcDbSpline
70
4
71
5
72
201
73
195
74
0
42
0.000000001
43
0.0000000001
44
0.0000000001
40
0
40
0
40
0
40
0
40
0
40
0
40
0.0052631578947368004
40
0.0105263157894737
40
0.015789473684210499
40
0.021052631578947399
40
0.026315789473684199
40
0.031578947368421102
40
0.036842105263157898
40
0.042105263157894798
40
0.047368421052631601
40
0.052631578947368397
40
0.057894736842105297
40
0.063157894736842093
40
0.068421052631579007
40
0.073684210526315796
40
0.078947368421052697
40
0.0842105263157895
40
0.0894736842105264
40
0.094736842105263203
40
0.10000000000000001
40
0.10526315789473691
40
0.11052631578947369
40
0.11578947368421059
40
0.1210526315789474
40
0.12631578947368419
40
0.1315789473684211
40
0.1368421052631579
40
0.14210526315789471
40
0.14736842105263159
40
0.1526315789473684
40
0.1578947368421052
40
0.16315789473684211
40
0.16842105263157889
40
0.17368421052631569
40
0.17894736842105249
40
0.18421052631578941
40
0.18947368421052621
40
0.19473684210526299
40
0.1999999999999999
40
0.2052631578947367
40
0.21052631578947351
40
0.21578947368421031
40
0.2210526315789472
40
0.22631578947368397
40
0.2315789473684208
40
0.23684210526315769
40
0.24210526315789449
40
0.24736842105263129
40
0.25263157894736821
40
0.25789473684210501
40
0.26315789473684192
40
0.26842105263157878
40
0.2736842105263157
40
0.2789473684210525
40
0.28421052631578941
40
0.28947368421052622
40
0.29473684210526307
40
0.29999999999999988
40
0.30526315789473679
40
0.31052631578947359
40
0.31578947368421051
40
0.32105263157894731
40
0.32631578947368423
40
0.33157894736842108
40
0.336842105263158
40
0.3421052631578948
40
0.34736842105263172
40
0.35263157894736852
40
0.35789473684210538
40
0.36315789473684218
40
0.36842105263157909
40
0.3736842105263159
40
0.37894736842105281
40
0.38421052631578961
40
0.38947368421052653
40
0.39473684210526327
40
0.4000000000000003
40
0.4052631578947371
40
0.41052631578947402
40
0.41578947368421082
40
0.42105263157894768
40
0.42631578947368459
40
0.43157894736842151
40
0.43684210526315831
40
0.44210526315789522
40
0.44736842105263203
40
0.45263157894736888
40
0.45789473684210569
40
0.4631578947368426
40
0.4684210526315794
40
0.47368421052631632
40
0.47894736842105312
40
0.48421052631578998
40
0.48947368421052689
40
0.49473684210526381
40
0.50000000000000056
40
0.50526315789473752
40
0.51052631578947427
40
0.51578947368421124
40
0.52105263157894799
40
0.52631578947368485
40
0.53157894736842171
40
0.53684210526315856
40
0.54210526315789542
40
0.54736842105263228
40
0.55263157894736925
40
0.55789473684210611
40
0.56315789473684286
40
0.56842105263157983
40
0.57368421052631657
40
0.57894736842105354
40
0.58421052631579029
40
0.58947368421052715
40
0.59473684210526412
40
0.60000000000000087
40
0.60526315789473772
40
0.61052631578947458
40
0.61578947368421155
40
0.62105263157894841
40
0.62631578947368516
40
0.63157894736842213
40
0.63684210526315888
40
0.64210526315789584
40
0.64736842105263259
40
0.65263157894736945
40
0.65789473684210631
40
0.66315789473684317
40
0.66842105263157992
40
0.67368421052631688
40
0.67894736842105385
40
0.68421052631579071
40
0.68947368421052746
40
0.69473684210526443
40
0.70000000000000118
40
0.70526315789473815
40
0.71052631578947489
40
0.71578947368421175
40
0.72105263157894861
40
0.72631578947368547
40
0.73157894736842233
40
0.73684210526315919
40
0.74210526315789604
40
0.7473684210526329
40
0.75263157894736976
40
0.75789473684210673
40
0.76315789473684348
40
0.76842105263158045
40
0.7736842105263172
40
0.77894736842105405
40
0.78421052631579091
40
0.78947368421052777
40
0.79473684210526463
40
0.80000000000000138
40
0.80526315789473835
40
0.8105263157894752
40
0.81578947368421195
40
0.82105263157894881
40
0.82631578947368578
40
0.83157894736842264
40
0.83684210526315939
40
0.84210526315789624
40
0.84736842105263321
40
0.85263157894737007
40
0.85789473684210693
40
0.86315789473684368
40
0.86842105263158065
40
0.87368421052631751
40
0.87894736842105425
40
0.88421052631579111
40
0.88947368421052808
40
0.89473684210526494
40
0.90000000000000169
40
0.90526315789473843
40
0.91052631578947563
40
0.91578947368421237
40
0.92105263157894923
40
0.92631578947368587
40
0.93157894736842306
40
0.93684210526315981
40
0.94210526315789656
40
0.94736842105263341
40
0.95263157894737038
40
0.95789473684210724
40
0.9631578947368441
40
0.96842105263158085
40
0.97368421052631782
40
0.97894736842105456
40
0.98421052631579165
40
0.98947368421052839
40
0.99473684210526525
40
1
40
1
40
1
40
1
40
1
40
1
41
1
41
1
41
1
41
1
41
1
41
1
41
1
41
1
41
1
41
1
41
1
41
1
41
1
41
1
41
1
41
1
41
1
41
1
41
1
41
1
41
1
41
1
41
1
41
1
41
1
41
1
41
1
41
1
41
1
41
1
41
1
41
1
41
1
41
1
41
1
41
1
41
1
41
1
41
1
41
1
41
1
41
1
41
1
41
1
41
1
41
1
41
1
41
1
41
1
41
1
41
1
41
1
41
1
41
1
41
1
41
1
41
1
41
1
41
1
41
1
41
1
41
1
41
1
41
1
41
1
41
1
41
1
41
1
41
1
41
1
41
1
41
1
41
1
41
1
41
1
41
1
41
1
41
1
41
1
41
1
41
1
41
1
41
1
41
1
41
1
41
1
41
1
41
1
41
1
41
1
41
1
41
1
41
1
41
1
41
1
41
1
41
1
41
1
41
1
41
1
41
1
41
1
41
1
41
1
41
1
41
1
41
1
41
1
41
1
41
1
41
1
41
1
41
1
41
1
41
1
41
1
41
1
41
1
41
1
41
1
41
1
41
1
41
1
41
1
41
1
41
1
41
1
41
1
41
1
41
1
41
1
41
1
41
1
41
1
41
1
41
1
41
1
41
1
41
1
41
1
41
1
41
1
41
1
41
1
41
1
41
1
41
1
41
1
41
1
41
1
41
1
41
1
41
1
41
1
41
1
41
1
41
1
41
1
41
1
41
1
41
1
41
1
41
1
41
1
41
1
41
1
41
1
41
1
41
1
41
1
41
1
41
1
41
1
41
1
41
1
41
1
41
1
41
1
41
1
41
1
41
1
41
1
41
1
41
1
41
1
41
1
41
1
41
1
41
1
41
1
41
1
41
1
41
1
41
1
41
1
10
29.165147700700199
20
407.6428412556312
30
0
10
28.937659959876608
20
407.54123190248231
30
0
10
28.474669867783831
20
407.31558482858509
30
0
10
27.75614248372079
20
406.9098232509549
30
0
10
26.750005555598445
20
406.23427069027997
30
0
10
25.414850044911461
20
405.15979870127779
30
0
10
24.010021872869423
20
403.83890626443758
30
0
10
22.551683390289124
20
402.23693440322762
30
0
10
21.062770565307495
20
400.31078697736126
30
0
10
19.570109412037404
20
398.02321990949963
30
0
10
18.101898424178771
20
395.35645790395046
30
0
10
16.685203119490637
20
392.32425021890253
30
0
10
15.343038914595182
20
388.98914907737804
30
0
10
14.093274636000622
20
385.45918242006059
30
0
10
12.949276431854235
20
381.86534695089813
30
0
10
11.920065856506131
20
378.34420849549031
30
0
10
11.010680141381313
20
375.01885823336897
30
0
10
10.222435899178656
20
371.97954664443336
30
0
10
9.5532549686847155
20
369.26684135381117
30
0
10
8.9979106718960704
20
366.84785382254393
30
0
10
8.5484938421816814
20
364.61611706931512
30
0
10
8.1952002095567984
20
362.4262306109589
30
0
10
7.9270346992065992
20
360.12118080026477
30
0
10
7.7325631616431973
20
357.56049428221735
30
0
10
7.6006092461823087
20
354.65317692308957
30
0
10
7.52110276883037
20
351.36960864703241
30
0
10
7.4861166033036159
20
347.72557047315013
30
0
10
7.4908498997442408
20
343.77338078555601
30
0
10
7.5346483792334285
20
339.59009852346742
30
0
10
7.6219755495461561
20
335.26710830220856
30
0
10
7.7634848075433975
20
330.89883306628747
30
0
10
7.9768640410918978
20
326.57248421774142
30
0
10
8.288258648681019
20
322.35565516312295
30
0
10
8.730236294282852
20
318.296291750774
30
0
10
9.3387021966465618
20
314.42638680455417
30
0
10
10.15016675214429
20
310.76442830721845
30
0
10
11.198863956362448
20
307.31836741789067
30
0
10
12.513938352021681
20
304.08835803604666
30
0
10
14.116590532203199
20
301.06960009660128
30
0
10
16.017265336117653
20
298.25512027060529
30
0
10
18.212747443884474
20
295.63862518593857
30
0
10
20.688097116904729
20
293.21425414477437
30
0
10
23.418672964236741
20
290.97627794655517
30
0
10
26.372122186206376
20
288.9188164640878
30
0
10
29.510379788986604
20
287.03555028781716
30
0
10
32.791670010247181
20
285.31943011180601
30
0
10
36.172488704532711
20
283.76239803338541
30
0
10
39.609638876683377
20
282.35507440541505
30
0
10
43.061847684681275
20
281.08670696459251
30
0
10
46.491284156573627
20
279.94517547137855
30
0
10
49.865133290342513
20
278.91697555852619
30
0
10
53.157099160244513
20
277.98721407997226
30
0
10
56.349051137849401
20
277.13959217969938
30
0
10
59.432349344488941
20
276.35640985929462
30
0
10
62.409960894733686
20
275.61851996038808
30
0
10
65.295402253292195
20
274.90547832792947
30
0
10
68.109302450058294
20
274.19582299529122
30
0
10
70.876660379601347
20
273.46734285627116
30
0
10
73.623815510633221
20
272.69729109005675
30
0
10
76.375546152659055
20
271.86275979578272
30
0
10
79.15210230708152
20
270.94064545833214
30
0
10
81.966302145889856
20
269.90912440894414
30
0
10
84.820633127025715
20
268.75068866006825
30
0
10
87.70439074857633
20
267.4547540424785
30
0
10
90.590715072176792
20
266.02046287037081
30
0
10
93.433862528321683
20
264.45936206926365
30
0
10
96.165911318733464
20
262.79823723837802
30
0
10
98.695024460084426
20
261.08164076829712
30
0
10
100.90965064887328
20
259.37475386074959
30
0
10
102.68337880046144
20
257.76495112983042
30
0
10
103.87663752190684
20
256.36644675479863
30
0
10
104.34640214185566
20
255.31771015554281
30
0
10
103.93545205367714
20
254.79716069325417
30
0
10
102.60304933060878
20
254.90962074714173
30
0
10
100.54417834800331
20
255.57869125551039
30
0
10
98.073844928680046
20
256.62691419124235
30
0
10
95.534107816472002
20
257.83661426648405
30
0
10
93.201119092256533
20
259.01290412622552
30
0
10
91.169908487120907
20
260.0592617670888
30
0
10
89.374011800463435
20
260.97179932804829
30
0
10
87.66513181472348
20
261.79720341469192
30
0
10
85.870344173654999
20
262.6039102986561
30
0
10
83.865595119302171
20
263.44442268497619
30
0
10
81.620614680726135
20
264.33184363663474
30
0
10
79.163919162104136
20
265.25477447500975
30
0
10
76.560826117797319
20
266.18600766104197
30
0
10
73.886553972560989
20
267.09357688074675
30
0
10
71.201014527456792
20
267.95095711872767
30
0
10
68.524022342979464
20
268.7471913219124
30
0
10
65.848744417608856
20
269.48262039321088
30
0
10
63.153522342456171
20
270.16518755673667
30
0
10
60.414667016999637
20
270.80649801878167
30
0
10
57.618030540730096
20
271.41804333208381
30
0
10
54.773048227815444
20
272.00721230496572
30
0
10
51.919536338230401
20
272.57383188382187
30
0
10
49.113157063828147
20
273.10794275337906
30
0
10
46.415055707871538
20
273.5875948185452
30
0
10
43.879075400177989
20
273.97613188609444
30
0
10
41.541793414999375
20
274.22084478665511
30
0
10
39.406856609201924
20
274.24814006741855
30
0
10
37.452188491753915
20
273.97342605096873
30
0
10
35.654810200408235
20
273.32261869548682
30
0
10
34.007856465262812
20
272.24823927457379
30
0
10
32.546851419410771
20
270.75232143351468
30
0
10
31.350194649955043
20
268.88988049449318
30
0
10
30.506088296178746
20
266.74698833467249
30
0
10
30.087842734066037
20
264.42513057502356
30
0
10
30.125455524363005
20
262.02292203363561
30
0
10
30.57970022588367
20
259.61924142468672
30
0
10
31.365736352928568
20
257.27263631370556
30
0
10
32.376152741098217
20
255.02052960932505
30
0
10
33.503847871201231
20
252.87860402518194
30
0
10
34.665798088159939
20
250.83983202058164
30
0
10
35.824123369301894
20
248.87442543012642
30
0
10
36.972538250051208
20
246.94050143717206
30
0
10
38.12467024703772
20
244.99445301350897
30
0
10
39.302388743973403
20
243.00064805751177
30
0
10
40.5224413571447
20
240.94326559285537
30
0
10
41.789416014545509
20
238.83108729317632
30
0
10
43.102338522857863
20
236.68742851489409
30
0
10
44.458547625218941
20
234.54300964647251
30
0
10
45.85838435839306
20
232.42798804926116
30
0
10
47.310179717996739
20
230.36356118705666
30
0
10
48.833120804699554
20
228.35618418614234
30
0
10
50.451510329077429
20
226.40223947399426
30
0
10
52.190430622427044
20
224.49102676364527
30
0
10
54.070810558295577
20
222.60841816370484
30
0
10
56.104851916507705
20
220.74021354643202
30
0
10
58.291015139725616
20
218.87566341723212
30
0
10
60.615303643454787
20
217.01035793522206
30
0
10
63.052893040174631
20
215.1492010834298
30
0
10
65.56968691170178
20
213.3091661303568
30
0
10
68.123783391123808
20
211.52256925977582
30
0
10
70.667255270754964
20
209.83913175451482
30
0
10
73.147077767880944
20
208.33113957883853
30
0
10
75.511791183320213
20
207.07764570437496
30
0
10
77.719050381814128
20
206.14498001269553
30
0
10
79.743652319350645
20
205.56650657857827
30
0
10
81.583609668943581
20
205.32722600985812
30
0
10
83.271442273079202
20
205.33500651346793
30
0
10
84.863515853013581
20
205.44803045693232
30
0
10
86.415545054504591
20
205.53629828905318
30
0
10
87.960904785011692
20
205.53863321064824
30
0
10
89.491433795807808
20
205.50589081223737
30
0
10
90.97158927860437
20
205.50351314262127
30
0
10
92.34873184541668
20
205.52953072635597
30
0
10
93.565549789080706
20
205.42341353360879
30
0
10
94.575987231388879
20
204.98495869385783
30
0
10
95.367656904119599
20
204.13613924701184
30
0
10
95.965755845113151
20
202.97630796392895
30
0
10
96.402431161915388
20
201.6368570250921
30
0
10
96.687542012175868
20
200.15251224532375
30
0
10
96.815430848580888
20
198.48274646649142
30
0
10
96.781577405388802
20
196.57802986937304
30
0
10
96.599080291272244
20
194.44304028327596
30
0
10
96.30355000735716
20
192.15579214841944
30
0
10
95.940640299673191
20
189.81899325524711
30
0
10
95.55782711564018
20
187.5277778533821
30
0
10
95.195036548430096
20
185.33362664774211
30
0
10
94.874258642398217
20
183.20246257224153
30
0
10
94.602672761228035
20
181.04002924701899
30
0
10
94.378750637030052
20
178.73197407569054
30
0
10
94.197254525926667
20
176.17830352216146
30
0
10
94.054838897294658
20
173.33132517937071
30
0
10
93.954997416707926
20
170.22893873275814
30
0
10
93.905480397787656
20
166.96811491557824
30
0
10
93.916082815198209
20
163.68123294128335
30
0
10
93.996289515855779
20
160.51167508727008
30
0
10
94.152992876791885
20
157.5890143615797
30
0
10
94.388150307328061
20
155.00607571983753
30
0
10
94.69656113748627
20
152.79077448358674
30
0
10
95.062087383574465
20
150.91183381624467
30
0
10
95.452238248590916
20
149.29296817939158
30
0
10
95.815501340711577
20
147.8251916402655
30
0
10
96.072275956175517
20
146.37752930605072
30
0
10
96.130962494332351
20
144.81822768267821
30
0
10
95.919000503705263
20
143.04136165150041
30
0
10
95.414299790655576
20
140.99621108966457
30
0
10
94.662179753980297
20
138.70236054568781
30
0
10
93.745490876232722
20
136.22227173939979
30
0
10
92.763117322398074
20
133.64138901820542
30
0
10
91.805934527167935
20
131.0459263365303
30
0
10
90.932021995277154
20
128.50009070897849
30
0
10
90.147651101129313
20
126.02817916960828
30
0
10
89.423588150593275
20
123.62664348209607
30
0
10
88.706884835112277
20
121.27233612308999
30
0
10
87.934591622597566
20
118.93235553890712
30
0
10
87.046242450381811
20
116.57292905673962
30
0
10
85.997956171567694
20
114.16945455274443
30
0
10
84.760725627831135
20
111.70568956310845
30
0
10
83.317086105689825
20
109.17183977890386
30
0
10
81.990106452456445
20
107.08479907236554
30
0
10
80.89678520134035
20
105.48505985591511
30
0
10
80.124313012796023
20
104.40325322772065
30
0
10
79.727179040425469
20
103.8585214325669
30
0
0
SPLINE
5
126
100
AcDbEntity
8
0
100
AcDbSpline
70
4
71
5
72
51
73
45
74
0
42
0.000000001
43
0.0000000001
44
0.0000000001
40
0
40
0
40
0
40
0
40
0
40
0
40
0.025000000000000001
40
0.050000000000000003
40
0.074999999999999997
40
0.10000000000000001
40
0.125
40
0.14999999999999999
40
0.17499999999999999
40
0.20000000000000001
40
0.22500000000000001
40
0.25
40
0.27500000000000002
40
0.29999999999999999
40
0.32500000000000001
40
0.34999999999999998
40
0.375
40
0.40000000000000008
40
0.4250000000000001
40
0.45000000000000012
40
0.4750000000000002
40
0.50000000000000011
40
0.52500000000000024
40
0.55000000000000016
40
0.57500000000000018
40
0.6000000000000002
40
0.62500000000000022
40
0.65000000000000036
40
0.67500000000000027
40
0.70000000000000029
40
0.72500000000000042
40
0.75000000000000044
40
0.77500000000000036
40
0.80000000000000027
40
0.82500000000000029
40
0.85000000000000031
40
0.87500000000000033
40
0.90000000000000047
40
0.92500000000000038
40
0.9500000000000004
40
0.97500000000000042
40
1
40
1
40
1
40
1
40
1
40
1
41
1
41
1
41
1
41
1
41
1
41
1
41
1
41
1
41
1
41
1
41
1
41
1
41
1
41
1
41
1
41
1
41
1
41
1
41
1
41
1
41
1
41
1
41
1
41
1
41
1
41
1
41
1
41
1
41
1
41
1
41
1
41
1
41
1
41
1
41
1
41
1
41
1
41
1
41
1
41
1
41
1
41
1
41
1
41
1
41
1
10
96.908319297589088
20
225.94225779075944
30
0
10
96.958811683887362
20
225.84088080279756
30
0
10
97.054738664133396
20
225.59632670502629
30
0
10
97.187084486837705
20
225.10089931576124
30
0
10
97.34584818707701
20
224.19382291123696
30
0
10
97.495514382070212
20
222.76080281352699
30
0
10
97.556687120009599
20
221.19357905799464
30
0
10
97.48149215152695
20
219.67926287366424
30
0
10
97.226650597554482
20
218.39468960813917
30
0
10
96.764823612071993
20
217.47732517531063
30
0
10
96.099570147719007
20
216.98782461226531
30
0
10
95.268816570727523
20
216.89911252912779
30
0
10
94.328606294003606
20
217.13124856887367
30
0
10
93.340817027076071
20
217.57670483425329
30
0
10
92.360528969374499
20
218.12726882917676
30
0
10
91.420622498812037
20
218.70519428606374
30
0
10
90.528725074810268
20
219.27334345332795
30
0
10
89.678237231503715
20
219.82121861838459
30
0
10
88.855369890917743
20
220.3576494096757
30
0
10
88.048141970156891
20
220.90062330278474
30
0
10
87.253661664106744
20
221.46893459435142
30
0
10
86.48839796064118
20
222.07168045190204
30
0
10
85.784515646543383
20
222.70670035115631
30
0
10
85.181082450090258
20
223.36247071198733
30
0
10
84.716500228978589
20
224.0186647701272
30
0
10
84.421466632999852
20
224.64763502019025
30
0
10
84.309092441755212
20
225.21445457791796
30
0
10
84.377687850121674
20
225.68204093674177
30
0
10
84.621641683173067
20
226.01933626959848
30
0
10
85.040867203467144
20
226.20909956891387
30
0
10
85.648036659883346
20
226.2545339477598
30
0
10
86.456067061161605
20
226.17545391139521
30
0
10
87.467320109943344
20
226.00594059426922
30
0
10
88.663405936552266
20
225.79109175432893
30
0
10
89.991316093264174
20
225.58522630855336
30
0
10
91.371387629560559
20
225.44321597261296
30
0
10
92.713270117707538
20
225.40919742240538
30
0
10
93.92890842097728
20
225.50651766570974
30
0
10
94.947394738970729
20
225.72616741858621
30
0
10
95.72762405725193
20
226.01784583215652
30
0
10
96.275521638135316
20
226.2746272881173
30
0
10
96.573918392501454
20
226.32381492542089
30
0
10
96.75178434634384
20
226.20458863279751
30
0
10
96.8578269112908
20
226.04363477872127
30
0
10
96.908319297589088
20
225.94225779075944
30
0
0
SPLINE
5
127
100
AcDbEntity
8
0
100
AcDbSpline
70
4
71
5
72
76
73
70
74
0
42
0.000000001
43
0.0000000001
44
0.0000000001
40
0
40
0
40
0
40
0
40
0
40
0
40
0.015384615384615399
40
0.030769230769230799
40
0.046153846153846198
40
0.061538461538461597
40
0.0769230769230769
40
0.092307692307692299
40
0.1076923076923077
40
0.1230769230769231
40
0.1384615384615385
40
0.15384615384615391
40
0.16923076923076921
40
0.1846153846153846
40
0.20000000000000001
40
0.2153846153846154
40
0.23076923076923081
40
0.2461538461538462
40
0.2615384615384615
40
0.27692307692307688
40
0.29230769230769232
40
0.30769230769230771
40
0.32307692307692309
40
0.33846153846153848
40
0.35384615384615392
40
0.3692307692307692
40
0.38461538461538458
40
0.40000000000000002
40
0.41538461538461552
40
0.4307692307692309
40
0.44615384615384618
40
0.46153846153846162
40
0.47692307692307701
40
0.49230769230769239
40
0.50769230769230766
40
0.52307692307692299
40
0.53846153846153844
40
0.55384615384615365
40
0.5692307692307691
40
0.58461538461538443
40
0.59999999999999964
40
0.61538461538461497
40
0.6307692307692303
40
0.64615384615384575
40
0.66153846153846108
40
0.67692307692307629
40
0.69230769230769174
40
0.70769230769230695
40
0.72307692307692228
40
0.73846153846153773
40
0.75384615384615306
40
0.76923076923076827
40
0.7846153846153836
40
0.79999999999999893
40
0.81538461538461415
40
0.83076923076922948
40
0.84615384615384492
40
0.86153846153846025
40
0.87692307692307547
40
0.89230769230769091
40
0.90769230769230624
40
0.92307692307692157
40
0.93846153846153679
40
0.95384615384615223
40
0.96923076923076756
40
0.98461538461538278
40
1
40
1
40
1
40
1
40
1
40
1
41
1
41
1
41
1
41
1
41
1
41
1
41
1
41
1
41
1
41
1
41
1
41
1
41
1
41
1
41
1
41
1
41
1
41
1
41
1
41
1
41
1
41
1
41
1
41
1
41
1
41
1
41
1
41
1
41
1
41
1
41
1
41
1
41
1
41
1
41
1
41
1
41
1
41
1
41
1
41
1
41
1
41
1
41
1
41
1
41
1
41
1
41
1
41
1
41
1
41
1
41
1
41
1
41
1
41
1
41
1
41
1
41
1
41
1
41
1
41
1
41
1
41
1
41
1
41
1
41
1
41
1
41
1
41
1
41
1
41
1
10
41.493839501183032
20
321.09993928103478
30
0
10
41.612795057270844
20
321.12706682303747
30
0
10
41.844252002663083
20
321.1563587874258
30
0
10
42.17046612388507
20
321.12513874016497
30
0
10
42.55530789320246
20
320.9408973457343
30
0
10
42.93062262631328
20
320.51775304845052
30
0
10
43.182308582710995
20
319.95558803818034
30
0
10
43.304709479958746
20
319.2966614437554
30
0
10
43.305209410819081
20
318.56687877036632
30
0
10
43.199700909183562
20
317.78283877287561
30
0
10
43.0096692900172
20
316.9553079839057
30
0
10
42.758514677172876
20
316.09440987703528
30
0
10
42.468521906299877
20
315.21333320319656
30
0
10
42.160264573255944
20
314.32615388825991
30
0
10
41.851809908990532
20
313.44622281809666
30
0
10
41.557961499221861
20
312.58425990314959
30
0
10
41.289556855179697
20
311.74675561276797
30
0
10
41.052540113007041
20
310.93375498630991
30
0
10
40.848377113570173
20
310.13997370065806
30
0
10
40.674899569529231
20
309.35695520719037
30
0
10
40.527012881896034
20
308.57491779379814
30
0
10
40.39742728828881
20
307.78463642057892
30
0
10
40.277447776924518
20
306.97954731633229
30
0
10
40.157171272505224
20
306.1558891472464
30
0
10
40.025557892562979
20
305.31239541364175
30
0
10
39.87050897442127
20
304.45011009566724
30
0
10
39.679019521682697
20
303.57223595874154
30
0
10
39.437093164806612
20
302.68376600565938
30
0
10
39.131259731417039
20
301.79268672302874
30
0
10
38.750471681415284
20
300.91149563056433
30
0
10
38.287932035221843
20
300.05879014561572
30
0
10
37.742830688072672
20
299.26045042768777
30
0
10
37.122435800589962
20
298.55193258565794
30
0
10
36.443042708629669
20
297.97712161170398
30
0
10
35.728018061318714
20
297.57931412030138
30
0
10
35.006533181738099
20
297.39324348101917
30
0
10
34.311802901888406
20
297.43773381865765
30
0
10
33.680107623658692
20
297.70549269304593
30
0
10
33.147206365829504
20
298.16419588956546
30
0
10
32.741625442667164
20
298.77002652682063
30
0
10
32.479427681009987
20
299.47712164730461
30
0
10
32.356876290739763
20
300.25032036097696
30
0
10
32.348900704712491
20
301.07104388403559
30
0
10
32.418441168396647
20
301.93119088801603
30
0
10
32.523643606525205
20
302.82947351355318
30
0
10
32.625482420481092
20
303.76700283217292
30
0
10
32.696203272502522
20
304.74269724533656
30
0
10
32.724117627711628
20
305.75042606652119
30
0
10
32.709979020574799
20
306.7804055060252
30
0
10
32.665107607619433
20
307.81972538076297
30
0
10
32.608859694633139
20
308.85316371376234
30
0
10
32.566334793326092
20
309.86399895349416
30
0
10
32.566130858498099
20
310.83451468976637
30
0
10
32.637578976135295
20
311.74775351917117
30
0
10
32.807323953943602
20
312.59074255292973
30
0
10
33.095949166753435
20
313.35752843523431
30
0
10
33.514838831286397
20
314.05191140785905
30
0
10
34.06229317401192
20
314.69125074965058
30
0
10
34.721945769221271
20
315.30688041678229
30
0
10
35.468118392731512
20
315.93414946649966
30
0
10
36.269834985811123
20
316.60458594046133
30
0
10
37.095550154231958
20
317.33665152926926
30
0
10
37.917117007908104
20
318.12838764130913
30
0
10
38.715212447349067
20
318.94595660786644
30
0
10
39.47921344834991
20
319.72817565839051
30
0
10
40.203010048348766
20
320.40282375333283
30
0
10
40.746217044059485
20
320.80014550585065
30
0
10
41.13051866613614
20
320.99359353540933
30
0
10
41.374883945095242
20
321.07281173903198
30
0
10
41.493839501183032
20
321.09993928103478
30
0
0
SPLINE
5
128
100
AcDbEntity
8
0
100
AcDbSpline
70
4
71
5
72
66
73
60
74
0
42
0.000000001
43
0.0000000001
44
0.0000000001
40
0
40
0
40
0
40
0
40
0
40
0
40
0.018181818181818198
40
0.036363636363636397
40
0.054545454545454598
40
0.072727272727272696
40
0.090909090909090898
40
0.1090909090909091
40
0.12727272727272729
40
0.1454545454545455
40
0.16363636363636369
40
0.18181818181818191
40
0.20000000000000001
40
0.2181818181818182
40
0.23636363636363639
40
0.25454545454545457
40
0.27272727272727271
40
0.29090909090909101
40
0.30909090909090908
40
0.32727272727272733
40
0.34545454545454551
40
0.3636363636363637
40
0.38181818181818189
40
0.40000000000000008
40
0.41818181818181832
40
0.43636363636363651
40
0.4545454545454547
40
0.47272727272727288
40
0.49090909090909102
40
0.50909090909090915
40
0.52727272727272745
40
0.54545454545454553
40
0.56363636363636371
40
0.58181818181818201
40
0.60000000000000009
40
0.61818181818181828
40
0.63636363636363646
40
0.65454545454545465
40
0.67272727272727295
40
0.69090909090909114
40
0.70909090909090922
40
0.72727272727272751
40
0.74545454545454559
40
0.76363636363636378
40
0.78181818181818208
40
0.80000000000000016
40
0.81818181818181834
40
0.83636363636363653
40
0.85454545454545461
40
0.8727272727272728
40
0.89090909090909098
40
0.90909090909090917
40
0.92727272727272758
40
0.94545454545454555
40
0.96363636363636385
40
0.98181818181818203
40
1
40
1
40
1
40
1
40
1
40
1
41
1
41
1
41
1
41
1
41
1
41
1
41
1
41
1
41
1
41
1
41
1
41
1
41
1
41
1
41
1
41
1
41
1
41
1
41
1
41
1
41
1
41
1
41
1
41
1
41
1
41
1
41
1
41
1
41
1
41
1
41
1
41
1
41
1
41
1
41
1
41
1
41
1
41
1
41
1
41
1
41
1
41
1
41
1
41
1
41
1
41
1
41
1
41
1
41
1
41
1
41
1
41
1
41
1
41
1
41
1
41
1
41
1
41
1
41
1
41
1
10
194.33497694066284
20
159.40419339565582
30
0
10
194.01146176425939
20
159.32126305094047
30
0
10
193.38786688017927
20
159.18374432784424
30
0
10
192.52278097276545
20
159.06249214965874
30
0
10
191.51002152013751
20
159.07096586610828
30
0
10
190.47695473743872
20
159.36389308082963
30
0
10
189.67121049077792
20
159.9345207591351
30
0
10
189.08108955825583
20
160.77288038849309
30
0
10
188.68654780118311
20
161.86171019990655
30
0
10
188.4570098652168
20
163.17450518773217
30
0
10
188.34906727828616
20
164.67348234467761
30
0
10
188.31159061855229
20
166.31268013951913
30
0
10
188.29092509484508
20
168.04111016966968
30
0
10
188.23604761417533
20
169.80587489353235
30
0
10
188.10373638957492
20
171.55528858391835
30
0
10
187.86376299698634
20
173.24200252822499
30
0
10
187.50407203715727
20
174.82612224778947
30
0
10
187.03607698663387
20
176.27837665495079
30
0
10
186.49979179810603
20
177.58321202268391
30
0
10
185.96955410387864
20
178.74216023353796
30
0
10
185.53552962012895
20
179.76611110736056
30
0
10
185.28477542960732
20
180.66739422093667
30
0
10
185.28228769684887
20
181.45184626141179
30
0
10
185.5524243812693
20
182.11109244336296
30
0
10
186.05910664462218
20
182.6141972196601
30
0
10
186.68932672272578
20
182.90110849467297
30
0
10
187.30696316764838
20
182.91694682745361
30
0
10
187.79875362853832
20
182.64107145737188
30
0
10
188.13172456592457
20
182.12455674067871
30
0
10
188.3794291703623
20
181.50431567858294
30
0
10
188.65198178686052
20
180.94463662070109
30
0
10
189.04825747773131
20
180.59558717161028
30
0
10
189.58808702646354
20
180.53597688572921
30
0
10
190.1908182884352
20
180.75229343123544
30
0
10
190.7385612643352
20
181.1826088167048
30
0
10
191.11659493525568
20
181.7439071398417
30
0
10
191.27328280194561
20
182.37165874992613
30
0
10
191.21976732623892
20
183.02582017250057
30
0
10
190.99985887731603
20
183.68111414233789
30
0
10
190.67096784939068
20
184.32269019798557
30
0
10
190.27615962148127
20
184.93822466271143
30
0
10
189.83888242474964
20
185.51748587570836
30
0
10
189.37281704596364
20
186.05659606705456
30
0
10
188.88727002567805
20
186.56082129910584
30
0
10
188.39466022615767
20
187.04835510698689
30
0
10
187.9163298857394
20
187.55267043822542
30
0
10
187.47822182693628
20
188.11201712990569
30
0
10
187.1069700716223
20
188.75920830996435
30
0
10
186.82619520371105
20
189.5124409432845
30
0
10
186.65184598988481
20
190.36283471504692
30
0
10
186.59186391810746
20
191.27614310699551
30
0
10
186.64868889284352
20
192.20362339675921
30
0
10
186.82094523652773
20
193.09041725158693
30
0
10
187.10535095010439
20
193.88430106060883
30
0
10
187.49877334001849
20
194.54582353079584
30
0
10
187.99933624023498
20
195.05241906483587
30
0
10
188.48460570843901
20
195.32465779974373
30
0
10
188.8960583359773
20
195.45243263172918
30
0
10
189.19145906279039
20
195.5036705596049
30
0
10
189.34443422844438
20
195.5208035542407
30
0
0
LINE
5
129
100
AcDbEntity
8
0
100
AcDbLine
10
79.727179040425469
20
103.8585214325669
30
0
11
31.03659104042567
21
103.85852143256685
31
0
0
SPLINE
5
130
100
AcDbEntity
8
0
100
AcDbSpline
70
4
71
5
72
116
73
110
74
0
42
0.000000001
43
0.0000000001
44
0.0000000001
40
0
40
0
40
0
40
0
40
0
40
0
40
0.0095238095238095004
40
0.019047619047619101
40
0.028571428571428598
40
0.038095238095238099
40
0.047619047619047603
40
0.057142857142857197
40
0.066666666666666693
40
0.076190476190476197
40
0.085714285714285798
40
0.095238095238095302
40
0.1047619047619047
40
0.1142857142857143
40
0.1238095238095238
40
0.1333333333333333
40
0.14285714285714279
40
0.15238095238095231
40
0.16190476190476191
40
0.1714285714285714
40
0.18095238095238089
40
0.19047619047619041
40
0.1999999999999999
40
0.20952380952380939
40
0.21904761904761899
40
0.22857142857142851
40
0.23809523809523803
40
0.24761904761904749
40
0.25714285714285712
40
0.26666666666666661
40
0.2761904761904761
40
0.2857142857142857
40
0.29523809523809519
40
0.30476190476190479
40
0.31428571428571428
40
0.32380952380952388
40
0.33333333333333343
40
0.34285714285714297
40
0.35238095238095252
40
0.36190476190476201
40
0.37142857142857161
40
0.3809523809523811
40
0.3904761904761907
40
0.4000000000000003
40
0.40952380952380979
40
0.41904761904761939
40
0.42857142857142894
40
0.43809523809523843
40
0.44761904761904797
40
0.45714285714285752
40
0.46666666666666712
40
0.47619047619047672
40
0.48571428571428621
40
0.4952380952380957
40
0.50476190476190519
40
0.51428571428571468
40
0.52380952380952417
40
0.53333333333333366
40
0.54285714285714315
40
0.55238095238095275
40
0.56190476190476224
40
0.57142857142857173
40
0.58095238095238111
40
0.5904761904761906
40
0.60000000000000009
40
0.60952380952380958
40
0.61904761904761907
40
0.62857142857142856
40
0.63809523809523805
40
0.64761904761904765
40
0.65714285714285714
40
0.66666666666666663
40
0.67619047619047612
40
0.6857142857142855
40
0.69523809523809488
40
0.70476190476190448
40
0.71428571428571419
40
0.72380952380952346
40
0.73333333333333295
40
0.74285714285714255
40
0.75238095238095204
40
0.76190476190476153
40
0.77142857142857091
40
0.7809523809523804
40
0.79047619047618989
40
0.79999999999999938
40
0.80952380952380865
40
0.81904761904761825
40
0.82857142857142774
40
0.83809523809523723
40
0.84761904761904672
40
0.85714285714285621
40
0.8666666666666657
40
0.87619047619047519
40
0.88571428571428457
40
0.89523809523809406
40
0.90476190476190355
40
0.91428571428571315
40
0.92380952380952264
40
0.93333333333333202
40
0.94285714285714162
40
0.95238095238095122
40
0.9619047619047606
40
0.97142857142856998
40
0.98095238095237958
40
0.99047619047618907
40
1
40
1
40
1
40
1
40
1
40
1
41
1
41
1
41
1
41
1
41
1
41
1
41
1
41
1
41
1
41
1
41
1
41
1
41
1
41
1
41
1
41
1
41
1
41
1
41
1
41
1
41
1
41
1
41
1
41
1
41
1
41
1
41
1
41
1
41
1
41
1
41
1
41
1
41
1
41
1
41
1
41
1
41
1
41
1
41
1
41
1
41
1
41
1
41
1
41
1
41
1
41
1
41
1
41
1
41
1
41
1
41
1
41
1
41
1
41
1
41
1
41
1
41
1
41
1
41
1
41
1
41
1
41
1
41
1
41
1
41
1
41
1
41
1
41
1
41
1
41
1
41
1
41
1
41
1
41
1
41
1
41
1
41
1
41
1
41
1
41
1
41
1
41
1
41
1
41
1
41
1
41
1
41
1
41
1
41
1
41
1
41
1
41
1
41
1
41
1
41
1
41
1
41
1
41
1
41
1
41
1
41
1
41
1
41
1
41
1
41
1
41
1
41
1
41
1
41
1
41
1
10
124.56774602404913
20
162.92777759963627
30
0
10
124.59153922503531
20
163.31174493474845
30
0
10
124.66190582767268
20
164.11331776243057
30
0
10
124.83610661609704
20
165.40829004685429
30
0
10
125.20319567860362
20
167.28464721491542
30
0
10
125.86573979466516
20
169.78455802631433
30
0
10
126.69992670788533
20
172.34267202342056
30
0
10
127.66647426067037
20
174.86667499162021
30
0
10
128.72265747414252
20
177.27337587430816
30
0
10
129.82605356601886
20
179.49378310300619
30
0
10
130.93840777992756
20
181.47842596895831
30
0
10
132.02921811301087
20
183.20212566769698
30
0
10
133.08005306392471
20
184.67022068844074
30
0
10
134.08300737186875
20
185.91313621780586
30
0
10
135.03810764869743
20
186.97880361343096
30
0
10
135.95102460965728
20
187.92582853161048
30
0
10
136.83080363402973
20
188.81637667596564
30
0
10
137.6872413135722
20
189.70912520227071
30
0
10
138.52967880113934
20
190.65242120931828
30
0
10
139.36775847330972
20
191.67798847700951
30
0
10
140.2117302509873
20
192.79427374242482
30
0
10
141.07286358825132
20
193.98038862269141
30
0
10
141.96402204258459
20
195.17854463583402
30
0
10
142.89667881496487
20
196.30717307492034
30
0
10
143.87750613138081
20
197.27603890223628
30
0
10
144.90528058600009
20
198.00034933328152
30
0
10
145.96726998054731
20
198.41593680237264
30
0
10
147.03698585738181
20
198.49212109242461
30
0
10
148.08508338871451
20
198.22747878213033
30
0
10
149.08792468769826
20
197.6468281408491
30
0
10
150.03942249367728
20
196.7985393576634
30
0
10
150.95311441973269
20
195.74901423124007
30
0
10
151.85131843160147
20
194.5729361542036
30
0
10
152.75692579613468
20
193.3443158564848
30
0
10
153.68523493081352
20
192.12778754173829
30
0
10
154.63300603462571
20
190.96836309597634
30
0
10
155.58233736679017
20
189.88899239459585
30
0
10
156.51245270568796
20
188.89249328569173
30
0
10
157.40949977665508
20
187.96195386252697
30
0
10
158.27610929269056
20
187.06210595226565
30
0
10
159.14383232188828
20
186.13936292886333
30
0
10
160.0621178815197
20
185.12968577364046
30
0
10
161.0823728095431
20
183.96795131448502
30
0
10
162.24300291976147
20
182.59709789753504
30
0
10
163.55565647447347
20
180.97671065771064
30
0
10
164.98683618896865
20
179.09351951970433
30
0
10
166.46336952086767
20
176.96222884014355
30
0
10
167.88913293240807
20
174.62184481255181
30
0
10
169.15809564663957
20
172.13341271175833
30
0
10
170.16908005954599
20
169.57726055434111
30
0
10
170.839336872708
20
167.05028739426047
30
0
10
171.11968287803793
20
164.66366177454179
30
0
10
171.00654894390769
20
162.53937619692462
30
0
10
170.56135683900902
20
160.80970089877039
30
0
10
169.90496581561428
20
159.60651945624576
30
0
10
169.17536975451836
20
159.03480895928851
30
0
10
168.49685255546513
20
159.15216451299071
30
0
10
167.93900044445382
20
159.94098060200312
30
0
10
167.49788674771398
20
161.29953656448808
30
0
10
167.12390728610589
20
163.07467411568749
30
0
10
166.74032931618729
20
165.08610459911907
30
0
10
166.26560758960602
20
167.15413907067762
30
0
10
165.63385452650974
20
169.12568213627111
30
0
10
164.81674094445052
20
170.90172253871896
30
0
10
163.8162203664229
20
172.43060609232234
30
0
10
162.65659764758041
20
173.70048738295861
30
0
10
161.37682302213904
20
174.73211620988965
30
0
10
160.02275276954657
20
175.57147159409305
30
0
10
158.63931033877202
20
176.28255841994516
30
0
10
157.26303033182407
20
176.93991508923105
30
0
10
155.92223651184582
20
177.61502509463747
30
0
10
154.63687951039205
20
178.36321723440761
30
0
10
153.41846574083124
20
179.20994782952204
30
0
10
152.2700161524229
20
180.13831170663047
30
0
10
151.18580410186485
20
181.07334086283376
30
0
10
150.15437033756254
20
181.90704801741339
30
0
10
149.16211738565343
20
182.52930425511207
30
0
10
148.19627043850468
20
182.8538273001036
30
0
10
147.2491102830389
20
182.8528745831575
30
0
10
146.31802525615481
20
182.56420987061634
30
0
10
145.3999330143543
20
182.06083697128722
30
0
10
144.4870538174012
20
181.42984831054179
30
0
10
143.56222436981619
20
180.74776607464739
30
0
10
142.60440233262477
20
180.0768093012816
30
0
10
141.5939761507278
20
179.46026383152292
30
0
10
140.51813053370975
20
178.9182376341607
30
0
10
139.37624730748141
20
178.44317979649841
30
0
10
138.17886894654833
20
178.00552085500797
30
0
10
136.946825614033
20
177.55921779493013
30
0
10
135.70992196417367
20
177.04753304818797
30
0
10
134.50676137945575
20
176.40819948375506
30
0
10
133.37964772289106
20
175.58118933425129
30
0
10
132.36680454670011
20
174.51777722782896
30
0
10
131.49504091957942
20
173.1896138430055
30
0
10
130.77304917074503
20
171.59691810980877
30
0
10
130.18230720989493
20
169.77934603706706
30
0
10
129.68326598297713
20
167.81037978951855
30
0
10
129.2262951778599
20
165.78670356270896
30
0
10
128.76084080672584
20
163.81932257907917
30
0
10
128.24574380715694
20
162.02385262313675
30
0
10
127.65810122221133
20
160.51142762428682
30
0
10
127.00509922403333
20
159.37871704876355
30
0
10
126.32675422540444
20
158.70039055824668
30
0
10
125.68006405452368
20
158.52627472984261
30
0
10
125.12730724017496
20
158.87769108602816
30
0
10
124.72216028462555
20
159.74365767109276
30
0
10
124.54996763935245
20
160.81728488451841
30
0
10
124.51914662175575
20
161.80951375175738
30
0
10
124.54395282306297
20
162.54381026452398
30
0
10
124.56774602404913
20
162.92777759963627
30
0
0
SPLINE
5
131
100
AcDbEntity
8
0
100
AcDbSpline
70
4
71
5
72
96
73
90
74
0
42
0.000000001
43
0.0000000001
44
0.0000000001
40
0
40
0
40
0
40
0
40
0
40
0
40
0.011764705882353
40
0.023529411764705899
40
0.035294117647058802
40
0.047058823529411799
40
0.058823529411764698
40
0.070588235294117702
40
0.082352941176470601
40
0.094117647058823597
40
0.1058823529411765
40
0.1176470588235294
40
0.12941176470588231
40
0.14117647058823529
40
0.15294117647058819
40
0.1647058823529412
40
0.17647058823529421
40
0.18823529411764711
40
0.20000000000000009
40
0.21176470588235299
40
0.22352941176470603
40
0.2352941176470589
40
0.24705882352941189
40
0.25882352941176479
40
0.2705882352941178
40
0.2823529411764707
40
0.29411764705882371
40
0.30588235294117672
40
0.31764705882352962
40
0.32941176470588263
40
0.34117647058823553
40
0.35294117647058848
40
0.36470588235294138
40
0.37647058823529439
40
0.3882352941176474
40
0.4000000000000003
40
0.41176470588235331
40
0.42352941176470632
40
0.43529411764705922
40
0.44705882352941217
40
0.45882352941176507
40
0.47058823529411808
40
0.48235294117647104
40
0.49411764705882388
40
0.50588235294117689
40
0.51764705882352979
40
0.52941176470588269
40
0.54117647058823559
40
0.55294117647058849
40
0.56470588235294139
40
0.57647058823529429
40
0.58823529411764719
40
0.60000000000000009
40
0.61176470588235299
40
0.62352941176470589
40
0.63529411764705879
40
0.64705882352941169
40
0.65882352941176459
40
0.67058823529411749
40
0.68235294117647038
40
0.69411764705882328
40
0.70588235294117618
40
0.71764705882352908
40
0.72941176470588209
40
0.74117647058823488
40
0.75294117647058778
40
0.76470588235294068
40
0.77647058823529358
40
0.78823529411764648
40
0.79999999999999938
40
0.81176470588235206
40
0.82352941176470484
40
0.83529411764705785
40
0.84705882352941075
40
0.85882352941176365
40
0.87058823529411655
40
0.88235294117646945
40
0.89411764705882235
40
0.90588235294117525
40
0.91764705882352815
40
0.92941176470588116
40
0.94117647058823406
40
0.95294117647058685
40
0.96470588235293975
40
0.97647058823529276
40
0.98823529411764555
40
1
40
1
40
1
40
1
40
1
40
1
41
1
41
1
41
1
41
1
41
1
41
1
41
1
41
1
41
1
41
1
41
1
41
1
41
1
41
1
41
1
41
1
41
1
41
1
41
1
41
1
41
1
41
1
41
1
41
1
41
1
41
1
41
1
41
1
41
1
41
1
41
1
41
1
41
1
41
1
41
1
41
1
41
1
41
1
41
1
41
1
41
1
41
1
41
1
41
1
41
1
41
1
41
1
41
1
41
1
41
1
41
1
41
1
41
1
41
1
41
1
41
1
41
1
41
1
41
1
41
1
41
1
41
1
41
1
41
1
41
1
41
1
41
1
41
1
41
1
41
1
41
1
41
1
41
1
41
1
41
1
41
1
41
1
41
1
41
1
41
1
41
1
41
1
41
1
41
1
41
1
41
1
41
1
41
1
41
1
41
1
10
129.41342033422168
20
144.91942640626417
30
0
10
129.24937738979912
20
144.94924301765846
30
0
10
128.91635666782895
20
145.00592628289752
30
0
10
128.40484401983187
20
145.07793391715691
30
0
10
127.72242522084144
20
145.1258492451868
30
0
10
126.96091594819434
20
145.04200972466367
30
0
10
126.38798310119182
20
144.76116459058784
30
0
10
126.07771803983441
20
144.2586674454335
30
0
10
126.05204994588522
20
143.55791494801815
30
0
10
126.29414903261868
20
142.71414537399448
30
0
10
126.7633943586649
20
141.79682708223791
30
0
10
127.40944403064334
20
140.87302229985039
30
0
10
128.18745230418142
20
139.98918615804183
30
0
10
129.05933076522638
20
139.17352559893436
30
0
10
129.99391819478336
20
138.43999284271038
30
0
10
130.96754567089101
20
137.79167750621414
30
0
10
131.96444392966507
20
137.22444239322033
30
0
10
132.97722074516517
20
136.73044249035502
30
0
10
134.00732977331924
20
136.30169986133274
30
0
10
135.06220718276771
20
135.93051595977553
30
0
10
136.15240646071908
20
135.60987640823473
30
0
10
137.28871078098206
20
135.33386421221601
30
0
10
138.4793168980359
20
135.09805698975563
30
0
10
139.72684152021051
20
134.89996353757422
30
0
10
141.02581747875763
20
134.73935489728487
30
0
10
142.36500741923641
20
134.6175632013971
30
0
10
143.72934339982334
20
134.53685790834584
30
0
10
145.10197505531099
20
134.49980557653259
30
0
10
146.46633695814876
20
134.50860941582221
30
0
10
147.80804977778718
20
134.56452131364753
30
0
10
149.11727583095296
20
134.66706670021372
30
0
10
150.38962748658156
20
134.81385885555824
30
0
10
151.62381399937556
20
135.00173874278283
30
0
10
152.81994833082223
20
135.2276475721178
30
0
10
153.97760007509848
20
135.48960144219632
30
0
10
155.09394056651345
20
135.78763246830854
30
0
10
156.16188522692352
20
136.12472365987972
30
0
10
157.16813354204572
20
136.50780696663534
30
0
10
158.09769517066357
20
136.94483962812939
30
0
10
158.93828279888996
20
137.44194470507142
30
0
10
159.6851832448574
20
138.00030165408174
30
0
10
160.34495648495954
20
138.61365251163821
30
0
10
160.94214301098594
20
139.26422344380512
30
0
10
161.51004766747565
20
139.92702222361589
30
0
10
162.07506527253187
20
140.57751730246304
30
0
10
162.64352646796988
20
141.19801820126139
30
0
10
163.18650854342931
20
141.78505657684508
30
0
10
163.62836717604918
20
142.35497473662801
30
0
10
163.88061360876043
20
142.92621751704158
30
0
10
163.86960532814069
20
143.50534674281892
30
0
10
163.57283379429023
20
144.06727343533728
30
0
10
163.03054384233309
20
144.55272704384529
30
0
10
162.31285342893059
20
144.89800183847987
30
0
10
161.49859085770058
20
145.0550951524794
30
0
10
160.64523394115088
20
145.02136781402334
30
0
10
159.7857204544602
20
144.83408052210871
30
0
10
158.93535998686934
20
144.5506601048466
30
0
10
158.09553000067024
20
144.23393014673093
30
0
10
157.25877453309124
20
143.93433523766373
30
0
10
156.4130463489588
20
143.67622322715715
30
0
10
155.54407658957837
20
143.46591407243335
30
0
10
154.63793520301948
20
143.29776092047024
30
0
10
153.68336778440556
20
143.16061512112225
30
0
10
152.67459690983225
20
143.04494049440822
30
0
10
151.61269397011569
20
142.94686172855504
30
0
10
150.5041844112674
20
142.86582966372291
30
0
10
149.36023001885846
20
142.80369684577363
30
0
10
148.19563072866418
20
142.76318408749671
30
0
10
147.02780191032247
20
142.7467152154839
30
0
10
145.8760327831169
20
142.75482235630338
30
0
10
144.75920943887525
20
142.78618497094999
30
0
10
143.69285916764613
20
142.83837683732986
30
0
10
142.68633161916665
20
142.90839677314213
30
0
10
141.74008862422406
20
142.9932714264915
30
0
10
140.84253582770648
20
143.09066700170717
30
0
10
139.96819741177302
20
143.1993824632552
30
0
10
139.08675013939276
20
143.31874383532528
30
0
10
138.17147755344854
20
143.44806597025527
30
0
10
137.20715159452601
20
143.58615569756745
30
0
10
136.20004208828277
20
143.73063869045606
30
0
10
135.18106670921253
20
143.87786007352599
30
0
10
134.19059266760991
20
144.02425170649533
30
0
10
133.26618645844326
20
144.16753682321539
30
0
10
132.43016640494594
20
144.30777016894692
30
0
10
131.67494105786747
20
144.44899234232918
30
0
10
130.95623520389461
20
144.59897353386577
30
0
10
130.36771348425486
20
144.72846936241297
30
0
10
129.90061433436441
20
144.82702661453169
30
0
10
129.57746327864425
20
144.88960979486993
30
0
10
129.41342033422168
20
144.91942640626417
30
0
0
LWPOLYLINE
5
132
100
AcDbEntity
8
0
100
AcDbPolyline
90
2
70
1
43
0.0
10
111.66138679298875
20
239.80179547689909
0
SPLINE
5
133
100
AcDbEntity
8
0
100
AcDbSpline
70
4
71
5
72
101
73
95
74
0
42
0.000000001
43
0.0000000001
44
0.0000000001
40
0
40
0
40
0
40
0
40
0
40
0
40
0.011111111111111099
40
0.022222222222222199
40
0.033333333333333298
40
0.044444444444444502
40
0.055555555555555601
40
0.066666666666666693
40
0.077777777777777807
40
0.088888888888888906
40
0.10000000000000001
40
0.1111111111111111
40
0.1222222222222222
40
0.1333333333333333
40
0.1444444444444444
40
0.1555555555555555
40
0.1666666666666666
40
0.1777777777777777
40
0.1888888888888888
40
0.1999999999999999
40
0.211111111111111
40
0.2222222222222221
40
0.2333333333333332
40
0.2444444444444443
40
0.25555555555555542
40
0.26666666666666661
40
0.27777777777777768
40
0.28888888888888881
40
0.29999999999999988
40
0.31111111111111112
40
0.32222222222222219
40
0.33333333333333331
40
0.3444444444444445
40
0.35555555555555562
40
0.3666666666666667
40
0.37777777777777782
40
0.3888888888888889
40
0.40000000000000008
40
0.41111111111111132
40
0.42222222222222239
40
0.43333333333333351
40
0.44444444444444459
40
0.45555555555555582
40
0.4666666666666669
40
0.47777777777777797
40
0.48888888888888909
40
0.50000000000000022
40
0.51111111111111129
40
0.52222222222222237
40
0.53333333333333344
40
0.54444444444444451
40
0.55555555555555558
40
0.56666666666666665
40
0.57777777777777772
40
0.5888888888888888
40
0.59999999999999987
40
0.61111111111111094
40
0.62222222222222201
40
0.63333333333333308
40
0.64444444444444415
40
0.65555555555555522
40
0.6666666666666663
40
0.67777777777777737
40
0.68888888888888844
40
0.69999999999999951
40
0.71111111111111058
40
0.72222222222222165
40
0.73333333333333273
40
0.7444444444444438
40
0.75555555555555487
40
0.76666666666666594
40
0.77777777777777701
40
0.78888888888888808
40
0.79999999999999916
40
0.81111111111111012
40
0.82222222222222119
40
0.83333333333333226
40
0.84444444444444333
40
0.8555555555555544
40
0.86666666666666548
40
0.87777777777777655
40
0.88888888888888762
40
0.89999999999999869
40
0.91111111111110976
40
0.92222222222222083
40
0.93333333333333202
40
0.94444444444444298
40
0.95555555555555405
40
0.96666666666666523
40
0.97777777777777619
40
0.98888888888888715
40
1
40
1
40
1
40
1
40
1
40
1
41
1
41
1
41
1
41
1
41
1
41
1
41
1
41
1
41
1
41
1
41
1
41
1
41
1
41
1
41
1
41
1
41
1
41
1
41
1
41
1
41
1
41
1
41
1
41
1
41
1
41
1
41
1
41
1
41
1
41
1
41
1
41
1
41
1
41
1
41
1
41
1
41
1
41
1
41
1
41
1
41
1
41
1
41
1
41
1
41
1
41
1
41
1
41
1
41
1
41
1
41
1
41
1
41
1
41
1
41
1
41
1
41
1
41
1
41
1
41
1
41
1
41
1
41
1
41
1
41
1
41
1
41
1
41
1
41
1
41
1
41
1
41
1
41
1
41
1
41
1
41
1
41
1
41
1
41
1
41
1
41
1
41
1
41
1
41
1
41
1
41
1
41
1
41
1
41
1
41
1
41
1
41
1
41
1
41
1
41
1
10
211.28998525319713
20
249.86755421281205
30
0
10
211.44223430419481
20
249.8736850523176
30
0
10
211.75064018601825
20
249.8889582345181
30
0
10
212.22560397860559
20
249.92037553950522
30
0
10
212.88295944964017
20
249.97347560202689
30
0
10
213.73146360609883
20
250.03091064243546
30
0
10
214.58580026887486
20
250.04400100877746
30
0
10
215.42153884860829
20
249.97496820041249
30
0
10
216.21458134323075
20
249.78887634695892
30
0
10
216.94599968297587
20
249.45931461020703
30
0
10
217.60295110482573
20
248.972347774708
30
0
10
218.17583749200924
20
248.32878680183765
30
0
10
218.65649134726439
20
247.54696306064449
30
0
10
219.03595631086131
20
246.66524173496211
30
0
10
219.30241187697095
20
245.74482517981752
30
0
10
219.43911364080105
20
244.87203608045579
30
0
10
219.42838710465421
20
244.1378136861648
30
0
10
219.25563891830518
20
243.61635222245269
30
0
10
218.91315851357902
20
243.34627138380438
30
0
10
218.40450057906324
20
243.3054489832148
30
0
10
217.74699529446121
20
243.4058368724356
30
0
10
216.97013494488783
20
243.52896728935968
30
0
10
216.11504044455836
20
243.55424023003152
30
0
10
215.23306206047755
20
243.38729482697522
30
0
10
214.38586745664836
20
242.99531950849737
30
0
10
213.63937215381054
20
242.40447811057084
30
0
10
213.05462064435315
20
241.67694898985485
30
0
10
212.67939569378083
20
240.89415991432989
30
0
10
212.53999111250943
20
240.13794246016897
30
0
10
212.63177117041582
20
239.47146938402358
30
0
10
212.91357354034869
20
238.92357636447366
30
0
10
213.32605396948787
20
238.49652665866446
30
0
10
213.80703623436619
20
238.1710124905446
30
0
10
214.30846407326808
20
237.91216887425466
30
0
10
214.81142486453825
20
237.67524928293375
30
0
10
215.31223315697372
20
237.41405540410489
30
0
10
215.80978776406874
20
237.08915050209359
30
0
10
216.2923831564365
20
236.67619413416281
30
0
10
216.72493211065165
20
236.17415638703616
30
0
10
217.06085760935611
20
235.59893780260694
30
0
10
217.25456907465218
20
234.97686055246604
30
0
10
217.27242451404794
20
234.33859689020494
30
0
10
217.10753168894982
20
233.71198412524382
30
0
10
216.77673439471522
20
233.12003370786169
30
0
10
216.30815380791569
20
232.58163356694823
30
0
10
215.73203235969862
20
232.11140922711041
30
0
10
215.06942922445012
20
231.7199250630546
30
0
10
214.32414134674679
20
231.41375043213606
30
0
10
213.49074267141242
20
231.1956635757065
30
0
10
212.56072072608458
20
231.0648330221147
30
0
10
211.5295550851547
20
231.01697207962818
30
0
10
210.40290529334069
20
231.0445780642344
30
0
10
209.20437032728069
20
231.13694823706049
30
0
10
207.97885657341396
20
231.28086533758093
30
0
10
206.78306919551181
20
231.46321232767306
30
0
10
205.67819281873497
20
231.67332330675194
30
0
10
204.7218762386855
20
231.90528190971423
30
0
10
203.96014263266736
20
232.16060659886904
30
0
10
203.42018679383017
20
232.44993315448869
30
0
10
203.10065523320367
20
232.79720718937509
30
0
10
202.97090524386169
20
233.23500687936951
30
0
10
202.98136008581577
20
233.7884699439897
30
0
10
203.07099620047455
20
234.46279604604644
30
0
10
203.17603290187907
20
235.22760784082868
30
0
10
203.23705809812864
20
236.03081874823121
30
0
10
203.20618547214437
20
236.81452293524831
30
0
10
203.05437388355742
20
237.53044531307282
30
0
10
202.77828049697195
20
238.15493615110194
30
0
10
202.40845363537159
20
238.7059212448479
30
0
10
201.99735246197696
20
239.22880998292396
30
0
10
201.60524556136394
20
239.77925871571921
30
0
10
201.28766868873413
20
240.40800496526833
30
0
10
201.08038710114204
20
241.14266605695292
30
0
10
200.99128577320101
20
241.97772941946761
30
0
10
201.0108721628884
20
242.8863593933909
30
0
10
201.11915362974528
20
243.82801464806943
30
0
10
201.29432008684685
20
244.75803931498672
30
0
10
201.51977328957673
20
245.63564564717234
30
0
10
201.79406895337777
20
246.43449235273224
30
0
10
202.12962393491327
20
247.14349044177476
30
0
10
202.54431422139771
20
247.76138049638905
30
0
10
203.05487200781238
20
248.29301893071636
30
0
10
203.67025121802155
20
248.74530018551593
30
0
10
204.38328082374866
20
249.12242737999932
30
0
10
205.16914097264092
20
249.42433587871813
30
0
10
205.99455207277487
20
249.65019703112279
30
0
10
206.82438012226558
20
249.80069232189896
30
0
10
207.62932489963265
20
249.88080939467847
30
0
10
208.39304844420582
20
249.90236195863963
30
0
10
209.11982687575824
20
249.88678780159742
30
0
10
209.82745125540913
20
249.85964177538278
30
0
10
210.39735210571988
20
249.84785942105506
30
0
10
210.83714588003201
20
249.85217319748506
30
0
10
211.13773620219939
20
249.86142337330654
30
0
10
211.28998525319713
20
249.86755421281205
30
0
0
LINE
5
134
100
AcDbEntity
8
0
100
AcDbLine
10
209.40437246472919
20
67.488182392303017
30
0
11
267.77857120048526
21
67.488182392303059
31
0
0
LINE
5
135
100
AcDbEntity
8
0
100
AcDbLine
10
267.7785712004852
20
103.8585214325671
30
0
11
267.77857120048526
21
67.488182392303059
31
0
0
LWPOLYLINE
5
136
100
AcDbEntity
8
0
100
AcDbPolyline
90
2
70
1
43
0.0
10
111.66138579298875
20
239.80179547689909
10
111.66138679298875
20
239.80179547689909
0
LINE
5
137
100
AcDbEntity
8
0
100
AcDbLine
10
31.03659104042567
20
103.85852143256685
30
0
11
31.036591040425733
21
67.488182392302832
31
0
0
SPLINE
5
138
100
AcDbEntity
8
0
100
AcDbSpline
70
4
71
5
72
81
73
75
74
0
42
0.000000001
43
0.0000000001
44
0.0000000001
40
0
40
0
40
0
40
0
40
0
40
0
40
0.014285714285714299
40
0.028571428571428598
40
0.042857142857142899
40
0.057142857142857099
40
0.071428571428571397
40
0.085714285714285798
40
0.10000000000000001
40
0.1142857142857143
40
0.12857142857142859
40
0.1428571428571429
40
0.1571428571428572
40
0.17142857142857151
40
0.18571428571428569
40
0.20000000000000001
40
0.2142857142857143
40
0.22857142857142859
40
0.24285714285714291
40
0.25714285714285717
40
0.27142857142857141
40
0.28571428571428581
40
0.29999999999999999
40
0.31428571428571428
40
0.32857142857142863
40
0.34285714285714292
40
0.35714285714285721
40
0.3714285714285715
40
0.38571428571428579
40
0.40000000000000008
40
0.41428571428571448
40
0.42857142857142871
40
0.44285714285714289
40
0.45714285714285718
40
0.47142857142857159
40
0.48571428571428588
40
0.50000000000000011
40
0.51428571428571435
40
0.52857142857142858
40
0.54285714285714282
40
0.55714285714285705
40
0.57142857142857129
40
0.58571428571428552
40
0.59999999999999976
40
0.61428571428571399
40
0.62857142857142823
40
0.64285714285714246
40
0.6571428571428567
40
0.67142857142857093
40
0.68571428571428517
40
0.6999999999999994
40
0.71428571428571375
40
0.72857142857142787
40
0.74285714285714211
40
0.75714285714285645
40
0.77142857142857058
40
0.78571428571428481
40
0.79999999999999905
40
0.81428571428571328
40
0.82857142857142752
40
0.84285714285714175
40
0.85714285714285599
40
0.87142857142857022
40
0.88571428571428445
40
0.89999999999999869
40
0.91428571428571281
40
0.92857142857142716
40
0.94285714285714139
40
0.95714285714285563
40
0.97142857142856998
40
0.98571428571428399
40
1
40
1
40
1
40
1
40
1
40
1
41
1
41
1
41
1
41
1
41
1
41
1
41
1
41
1
41
1
41
1
41
1
41
1
41
1
41
1
41
1
41
1
41
1
41
1
41
1
41
1
41
1
41
1
41
1
41
1
41
1
41
1
41
1
41
1
41
1
41
1
41
1
41
1
41
1
41
1
41
1
41
1
41
1
41
1
41
1
41
1
41
1
41
1
41
1
41
1
41
1
41
1
41
1
41
1
41
1
41
1
41
1
41
1
41
1
41
1
41
1
41
1
41
1
41
1
41
1
41
1
41
1
41
1
41
1
41
1
41
1
41
1
41
1
41
1
41
1
41
1
41
1
41
1
41
1
41
1
41
1
10
82.910287454108257
20
67.488182392302903
30
0
10
82.835200549584883
20
67.179916946791337
30
0
10
82.719694531946288
20
66.540674148859381
30
0
10
82.650440452237632
20
65.513672300437889
30
0
10
82.7661670588341
20
64.008032650880097
30
0
10
83.254055319870176
20
61.90317390689701
30
0
10
84.07358555291637
20
59.589368459904634
30
0
10
85.201500411937374
20
57.094141873488383
30
0
10
86.59745240926523
20
54.465047611738122
30
0
10
88.207980381639572
20
51.764487479685329
30
0
10
89.974135716587327
20
49.060031442664837
30
0
10
91.837780994488867
20
46.416397066640052
30
0
10
93.748723133409214
20
43.886329178204939
30
0
10
95.670837716698713
20
41.502882813477882
30
0
10
97.590254722812489
20
39.268764710581863
30
0
10
99.516845316620945
20
37.155293033562444
30
0
10
101.4764770864919
20
35.114685377069108
30
0
10
103.50559357002213
20
33.088918624690216
30
0
10
105.64478265740428
20
31.020245768582413
30
0
10
107.93298707045665
20
28.860335033736142
30
0
10
110.40094682247366
20
26.581633605099046
30
0
10
113.06671226478716
20
24.182000094159129
30
0
10
115.93399258658377
20
21.679697629910926
30
0
10
118.98988217500897
20
19.110700435637344
30
0
10
122.20265882019038
20
16.525144284946283
30
0
10
125.51988044445837
20
13.984047167037218
30
0
10
128.86549595724807
20
11.556205185335386
30
0
10
132.13928495596343
20
9.3143828920021754
30
0
10
135.21038533015374
20
7.3334270882769736
30
0
10
137.93640348528675
20
5.6800030362871334
30
0
10
140.19715742776566
20
4.3978073819607921
30
0
10
141.92495487828236
20
3.4933496701385858
30
0
10
143.13423291125696
20
2.9231706927855639
30
0
10
143.95658803200135
20
2.5763448958433699
30
0
10
144.66004599555686
20
2.2697907706711273
30
0
10
145.47275780109854
20
1.892290593034609
30
0
10
146.3948941469888
20
1.5610962383761251
30
0
10
147.33147564160458
20
1.4841824906183465
30
0
10
148.31153162304315
20
1.7445935084132635
30
0
10
149.46403341042739
20
2.3009481202644144
30
0
10
150.88651655139154
20
3.077641986872619
30
0
10
152.57710663502445
20
4.0125483982519716
30
0
10
154.47935376277101
20
5.0557327293061993
30
0
10
156.51210789495678
20
6.1726820397898541
30
0
10
158.60659241196456
20
7.346240326034299
30
0
10
160.73585823448869
20
8.5783264879330101
30
0
10
162.90043342303494
20
9.8836056838402087
30
0
10
165.11778997029282
20
11.284064729741194
30
0
10
167.41013185750657
20
12.80313080607506
30
0
10
169.79351750305523
20
14.460256230038713
30
0
10
172.26479763062738
20
16.264593942757692
30
0
10
174.80468878873782
20
18.215718180888611
30
0
10
177.38367115770035
20
20.305579224310666
30
0
10
179.96683958415883
20
22.520012810100098
30
0
10
182.51929636276347
20
24.840435787748536
30
0
10
185.01104963736239
20
27.245432090899833
30
0
10
187.42275101741961
20
29.712432443259544
30
0
10
189.74918560483448
20
32.219190804067424
30
0
10
191.99390395690278
20
34.744502054231781
30
0
10
194.16513632582058
20
37.269041989760282
30
0
10
196.27130420938772
20
39.77614044222932
30
0
10
198.31650226187091
20
42.252634863357123
30
0
10
200.29646460815309
20
44.689580845805949
30
0
10
202.19314848952794
20
47.083307357866659
30
0
10
203.97413863084591
20
49.435320809827658
30
0
10
205.59872846526193
20
51.750623052606954
30
0
10
207.02225724815744
20
54.036446749094495
30
0
10
208.20133147464736
20
56.300779501417679
30
0
10
209.09824230400756
20
58.551087191226969
30
0
10
209.68681954604199
20
60.792680296634813
30
0
10
209.95197802396828
20
63.028661180374534
30
0
10
209.89943884769895
20
64.8142237108204
30
0
10
209.71016933215361
20
66.151816432367951
30
0
10
209.51740251315712
20
67.042843927792703
30
0
10
209.40437246472919
20
67.488182392303017
30
0
0
LINE
5
139
100
AcDbEntity
8
0
100
AcDbLine
10
82.910287454108257
20
67.488182392302903
30
0
11
31.036591040425733
21
67.488182392302832
31
0
0
LINE
5
140
100
AcDbEntity
8
0
100
AcDbLine
10
117.11822321279004
20
205.21141181349822
30
0
11
117.11822321279004
21
205.21141181349822
31
0
0
LINE
5
141
100
AcDbEntity
8
0
100
AcDbLine
10
111.07040142058116
20
207.59648761873478
30
0
11
111.21728375956059
21
207.59648761873478
31
0
0
ARC
5
142
100
AcDbEntity
8
0
100
AcDbCircle
10
111.21728375956059
20
207.17714636657115
30
0
40
0.41934125216365226
210
0
220
-0
230
1
100
AcDbArc
50
56.618287394075821
51
90
0
SPLINE
5
143
100
AcDbEntity
8
0
100
AcDbSpline
70
4
71
5
72
22
73
16
74
0
42
0.000000001
43
0.0000000001
44
0.0000000001
40
0
40
0
40
0
40
0
40
0
40
0
40
0.033333333333333298
40
0.066666666666666693
40
0.10000000000000001
40
0.1333333333333333
40
0.1666666666666666
40
0.20000000000000001
40
0.23333333333333331
40
0.26666666666666661
40
0.29999999999999999
40
0.33333333333333331
40
0.36374918717219695
40
0.36374918717219695
40
0.36374918717219695
40
0.36374918717219695
40
0.36374918717219695
40
0.36374918717219695
41
1
41
1
41
1
41
1
41
1
41
1
41
1
41
1
41
1
41
1
41
1
41
1
41
1
41
1
41
1
41
1
10
110.19340250840494
20
242.00074758083878
30
0
10
110.07227563376915
20
241.9869446392369
30
0
10
109.83498603455958
20
241.92522402131644
30
0
10
109.49585125511135
20
241.72968565255985
30
0
10
109.08654592507753
20
241.26556332841247
30
0
10
108.67334939222415
20
240.37605682364574
30
0
10
108.38506215199408
20
239.22876163083939
30
0
10
108.24308858217432
20
237.89628192021922
30
0
10
108.25971700398675
20
236.47055995464012
30
0
10
108.43258150681521
20
235.06378580220564
30
0
10
108.74696009880256
20
233.79555489125036
30
0
10
109.17312481106917
20
232.79312771625118
30
0
10
109.58433483777674
20
232.2481596417598
30
0
10
109.9200638983075
20
231.99932812421577
30
0
10
110.15097392850423
20
231.90152069879773
30
0
10
110.26332464571455
20
231.86912254752255
30
0
0
SPLINE
5
144
100
AcDbEntity
8
0
100
AcDbSpline
70
4
71
5
72
22
73
16
74
0
42
0.000000001
43
0.0000000001
44
0.0000000001
40
0.6343608978660763
40
0.6343608978660763
40
0.6343608978660763
40
0.6343608978660763
40
0.6343608978660763
40
0.6343608978660763
40
0.66666666666666663
40
0.69999999999999996
40
0.73333333333333328
40
0.76666666666666661
40
0.80000000000000004
40
0.83333333333333315
40
0.86666666666666659
40
0.90000000000000002
40
0.93333333333333324
40
0.96666666666666656
40
1
40
1
40
1
40
1
40
1
40
1
41
1
41
1
41
1
41
1
41
1
41
1
41
1
41
1
41
1
41
1
41
1
41
1
41
1
41
1
41
1
41
1
10
115.39904630085813
20
233.62261791486108
30
0
10
115.45087833117873
20
233.6786427149176
30
0
10
115.53539913279393
20
233.80986344113575
30
0
10
115.5964393049239
20
234.06873921597116
30
0
10
115.53957101463035
20
234.55871017299154
30
0
10
115.25613062305914
20
235.40693768828118
30
0
10
114.79565828094813
20
236.4506099986578
30
0
10
114.21048714964131
20
237.60701795982885
30
0
10
113.55202315963766
20
238.78359108825481
30
0
10
112.86129147030842
20
239.88716476151757
30
0
10
112.1640837161676
20
240.83409031422732
30
0
10
111.47729726480796
20
241.55184278921013
30
0
10
110.94555941238249
20
241.89654742723468
30
0
10
110.56174728237426
20
242.00804167092832
30
0
10
110.31452938304072
20
242.0145505224408
30
0
10
110.19340250840494
20
242.00074758083878
30
0
0
LINE
5
145
100
AcDbEntity
8
0
100
AcDbLine
10
110.26332464571459
20
231.86912254752255
30
0
11
111.52099833650064
21
231.29592649237844
31
0
0
LINE
5
146
100
AcDbEntity
8
0
100
AcDbLine
10
115.39904630085813
20
233.62261791486108
30
0
11
115.12473103790876
21
233.32611288381895
31
0
0
ARC
5
147
100
AcDbEntity
8
0
100
AcDbCircle
10
115.51138488725405
20
232.9683953368999
30
0
40
0.52674760805086107
210
0
220
0
230
1
100
AcDbArc
50
137.22616511612136
51
220.69125779499186
0
ARC
5
148
100
AcDbEntity
8
0
100
AcDbCircle
10
115.89275862717741
20
233.29632727576899
30
0
40
1.0297240349672752
210
0
220
0
230
1
100
AcDbArc
50
220.69125779499231
51
273.00396273699698
0
ARC
5
149
100
AcDbEntity
8
0
100
AcDbCircle
10
108.98565200519728
20
189.67931093160618
30
0
40
43.153846533714955
210
0
220
-0
230
1
100
AcDbArc
50
56.714250647270781
51
80.717162985076683
0
ARC
5
150
100
AcDbEntity
8
0
100
AcDbCircle
10
131.93314883797689
20
224.63247838103669
30
0
40
1.3410312058951701
210
0
220
0
230
1
100
AcDbArc
50
-99.234405311548898
51
56.714250647270511
0
ARC
5
151
100
AcDbEntity
8
0
100
AcDbCircle
10
157.97115879195721
20
384.78659811123401
30
0
40
163.59798800256985
210
0
220
0
230
1
100
AcDbArc
50
259.38126077757948
51
260.76559468845102
0
ARC
5
152
100
AcDbEntity
8
0
100
AcDbCircle
10
130.42994439082744
20
237.88715483394785
30
0
40
14.139080854599605
210
0
220
0
230
1
100
AcDbArc
50
245.89328483354862
51
259.38126077757948
0
ARC
5
153
100
AcDbEntity
8
0
100
AcDbCircle
10
233.19901778326715
20
467.55807559017535
30
0
40
265.75429161689431
210
0
220
0
230
1
100
AcDbArc
50
242.75095513079978
51
245.89328483354856
0
LINE
5
154
100
AcDbEntity
8
0
100
AcDbLine
10
183.76487007465732
20
232.6499476905187
30
0
11
182.53891874561526
21
232.01171562539815
31
0
0
ARC
5
155
100
AcDbEntity
8
0
100
AcDbCircle
10
48.662649298586878
20
461.58194015755259
30
0
40
265.75429161689402
210
-0
220
0
230
1
100
AcDbArc
50
297.10671516645141
51
300.24904486920019
0
ARC
5
156
100
AcDbEntity
8
0
100
AcDbCircle
10
163.31092850661196
20
237.60429314430132
30
0
40
14.139080854599584
210
-0
220
0
230
1
100
AcDbArc
50
283.61873922242034
51
297.10671516645129
0
ARC
5
157
100
AcDbEntity
8
0
100
AcDbCircle
10
128.11933554716296
20
382.8610200482284
30
0
40
163.59798800256982
210
-0
220
0
230
1
100
AcDbArc
50
282.23440531154898
51
283.61873922242046
0
ARC
5
158
100
AcDbEntity
8
0
100
AcDbCircle
10
162.50348031576806
20
224.28911012263802
30
0
40
1.3410312058951877
210
0
220
0
230
1
100
AcDbArc
50
126.28574935273012
51
282.23440531154807
0
ARC
5
159
100
AcDbEntity
8
0
100
AcDbCircle
10
187.24883584385441
20
190.58482396454002
30
0
40
43.153846533714884
210
0
220
0
230
1
100
AcDbArc
50
102.28283701492333
51
126.28574935272921
0
ARC
5
160
100
AcDbEntity
8
0
100
AcDbCircle
10
178.06845691261032
20
233.78057467376064
30
0
40
1.0297240349672792
210
0
220
0
230
1
100
AcDbArc
50
269.99603726300143
51
322.30874220500755
0
ARC
5
161
100
AcDbEntity
8
0
100
AcDbCircle
10
178.46647062468094
20
233.47305171358144
30
0
40
0.52674760805081489
210
-0
220
0
230
1
100
AcDbArc
50
-37.69125779499079
51
45.773834883881861
0
LINE
5
162
100
AcDbEntity
8
0
100
AcDbLine
10
178.54441589073508
20
234.13225704957878
30
0
11
178.8338730884808
21
233.8505149199753
31
0
0
SPLINE
5
163
100
AcDbEntity
8
0
100
AcDbSpline
70
4
71
5
72
22
73
16
74
0
42
0.000000001
43
0.0000000001
44
0.0000000001
40
0.6343608978660763
40
0.6343608978660763
40
0.6343608978660763
40
0.6343608978660763
40
0.6343608978660763
40
0.6343608978660763
40
0.66666666666666663
40
0.69999999999999996
40
0.73333333333333328
40
0.76666666666666661
40
0.80000000000000004
40
0.83333333333333315
40
0.86666666666666659
40
0.90000000000000002
40
0.93333333333333324
40
0.96666666666666656
40
1
40
1
40
1
40
1
40
1
40
1
41
1
41
1
41
1
41
1
41
1
41
1
41
1
41
1
41
1
41
1
41
1
41
1
41
1
41
1
41
1
41
1
10
178.54441589073508
20
234.13225704957878
30
0
10
178.48972278292644
20
234.18549239072308
30
0
10
178.39845025194683
20
234.31210980652153
30
0
10
178.32394522202716
20
234.567436205327
30
0
10
178.35509247773837
20
235.05971193053193
30
0
10
178.59375162597956
20
235.92161110342238
30
0
10
178.99897131838139
20
236.98795235751786
30
0
10
179.52281877653525
20
238.17340099249128
30
0
10
180.11880328475934
20
239.38282301090439
30
0
10
180.75083176683964
20
240.52103437827057
30
0
10
181.39752576769268
20
241.50315123693329
30
0
10
182.04580673996571
20
242.25586368276086
30
0
10
182.55877541729237
20
242.62792492403636
30
0
10
182.93622638825639
20
242.75935354358555
30
0
10
183.18276483708289
20
242.77879186010526
30
0
10
183.30444810169439
20
242.77134712576577
30
0
0
LWPOLYLINE
5
164
100
AcDbEntity
8
0
100
AcDbPolyline
90
1
70
1
43
0.0
0
SPLINE
5
165
100
AcDbEntity
8
0
100
AcDbSpline
70
4
71
5
72
41
73
35
74
0
42
0.000000001
43
0.0000000001
44
0.0000000001
40
0
40
0
40
0
40
0
40
0
40
0
40
0.033333333333333298
40
0.066666666666666693
40
0.10000000000000001
40
0.1333333333333333
40
0.1666666666666666
40
0.20000000000000001
40
0.23333333333333331
40
0.26666666666666661
40
0.29999999999999999
40
0.33333333333333331
40
0.36666666666666659
40
0.40000000000000002
40
0.43333333333333329
40
0.46666666666666662
40
0.5
40
0.53333333333333333
40
0.56666666666666665
40
0.59999999999999998
40
0.6333333333333333
40
0.66666666666666663
40
0.69999999999999996
40
0.73333333333333328
40
0.76666666666666661
40
0.80000000000000004
40
0.83333333333333315
40
0.86666666666666659
40
0.90000000000000002
40
0.93333333333333324
40
0.96666666666666656
40
1
40
1
40
1
40
1
40
1
40
1
41
1
41
1
41
1
41
1
41
1
41
1
41
1
41
1
41
1
41
1
41
1
41
1
41
1
41
1
41
1
41
1
41
1
41
1
41
1
41
1
41
1
41
1
41
1
41
1
41
1
41
1
41
1
41
1
41
1
41
1
41
1
41
1
41
1
41
1
41
1
10
175.31901390301925
20
211.79399193523352
30
0
10
175.40951373669867
20
211.78428464945836
30
0
10
175.59300103165884
20
211.75467822748595
30
0
10
175.87479800691258
20
211.68023488531685
30
0
10
176.25646099044118
20
211.52293666847766
30
0
10
176.7141416655212
20
211.23581238837514
30
0
10
177.11853878981688
20
210.86746416166341
30
0
10
177.43793889928878
20
210.43218720157199
30
0
10
177.6493232927331
20
209.95114103966191
30
0
10
177.74567708922447
20
209.45469371340448
30
0
10
177.73138891202353
20
208.97721487321789
30
0
10
177.61669472647026
20
208.55117095179978
30
0
10
177.41279903517835
20
208.20175569035737
30
0
10
177.12616214327096
20
207.94057600605257
30
0
10
176.75487687825301
20
207.76160213382559
30
0
10
176.29574760358003
20
207.64932320844775
30
0
10
175.75041369905409
20
207.58563002473608
30
0
10
175.13119487172236
20
207.55655861857628
30
0
10
174.4687777770595
20
207.56047853450838
30
0
10
173.8138856369381
20
207.61119538444248
30
0
10
173.22494196820435
20
207.72919760533651
30
0
10
172.7586531185521
20
207.93536336098666
30
0
10
172.45938170415442
20
208.24366284804984
30
0
10
172.34904128888098
20
208.65429840286413
30
0
10
172.41631609244482
20
209.14637292932616
30
0
10
172.62757688725026
20
209.68477926251131
30
0
10
172.93772898319261
20
210.22706803164513
30
0
10
173.3012904568937
20
210.73042465286673
30
0
10
173.68253855622095
20
211.15816831384751
30
0
10
174.06813715035236
20
211.48756511778427
30
0
10
174.46141181671192
20
211.70805168304889
30
0
10
174.79059370274291
20
211.79563863050743
30
0
10
175.05000202958252
20
211.81292194213722
30
0
10
175.22851406933981
20
211.80369922100877
30
0
10
175.31901390301925
20
211.79399193523352
30
0
0
CIRCLE
5
166
100
AcDbEntity
8
0
100
AcDbCircle
10
146.44041191338485
20
14.128802117313839
30
0
40
3.5000000000000004
210
0
220
0
230
1
0
CIRCLE
5
167
100
AcDbEntity
8
0
100
AcDbCircle
10
146.44041191338485
20
238.0116794830422
30
0
40
3.5000000000000142
210
0
220
0
230
1
0
LWPOLYLINE
5
168
100
AcDbEntity
8
0
100
AcDbPolyline
90
12
70
1
43
0.0
10
177.39575664288373
20
220.19572057495867
42
0.41925218312685009
10
165.73888900723628
20
214.79699015674191
42
0.31692337145433458
10
167.33413052621273
20
203.39177554318314
42
0.36571544529332967
10
181.54980340899209
20
204.07623386716867
42
0.44549104065607514
10
182.02365917175166
20
206.08893961159933
42
0.49299614062641606
10
178.96992203396934
20
206.23491011973903
42
-0.35976624295575232
10
170.75642214614106
20
204.76069219115456
42
-0.31741206389476484
10
168.54410946452197
20
209.42373047793262
42
-0.13557610465322714
10
170.75642214614112
20
214.10803608990673
42
-0.38439128457080468
10
175.102533018212
20
214.65901256879357
42
0.093673919052470175
10
179.18052459519572
20
212.83274273266306
42
0.52656796256575134
10
181.54980340899229
20
214.9749164106332
42
0.2759190416533675
0
LWPOLYLINE
5
169
100
AcDbEntity
8
0
100
AcDbPolyline
90
12
70
1
43
0.0
10
110.85716465501807
20
206.08893961159936
42
0.44549104065608142
10
111.33102041777764
20
204.07623386716867
42
0.36571544529332844
10
125.546693300557
20
203.39177554318314
42
0.31692337145433458
10
127.14193481953345
20
214.79699015674191
42
0.41925218312685009
10
115.48506718388597
20
220.19572057495867
42
0.23909483438910278
10
111.51178407814567
20
215.85436663709115
42
0.4938305956264703
10
113.76596659075798
20
213.76144138744883
42
0.066971895292699868
10
116.19548576903141
20
215.85667927241803
42
-0.42287143801712657
10
120.85871696619506
20
215.33380039490939
42
-0.18206845028080038
10
124.33671436224779
20
209.42373047793262
42
-0.31741206389476695
10
122.12440168062861
20
204.76069219115456
42
-0.35976624295575083
10
113.91090179280039
20
206.23491011973903
42
0.49299614062641134
0
LWPOLYLINE
5
170
100
AcDbEntity
8
0
100
AcDbPolyline
90
15
70
1
43
0.0
10
104.37895804721836
20
100.66470332799993
10
104.37895804721836
20
70.664703327999931
10
97.307529748268166
20
70.664703327999931
10
97.307529748268166
20
89.864704090939384
10
92.678957284278908
20
74.993273693905692
10
92.721815408058205
20
74.950415570126395
10
85.564673245735207
20
74.950415570126395
10
80.850386918373147
20
90.293275791989188
10
80.850386918373147
20
70.664703327999931
10
74.164672196693459
20
70.664703327999931
10
74.164672196693459
20
100.66470332799993
10
83.59324485141758
20
100.66470332799993
10
89.293241799659768
20
81.421844441281181
10
95.293245614357033
20
100.62184520422063
10
95.250387490577737
20
100.66470332799993
0
SPLINE
5
171
100
AcDbEntity
8
0
100
AcDbSpline
70
0
71
2
72
6
73
3
74
0
42
0.000000001
43
0.0000000001
44
0.0000000001
40
0
40
0
40
0
40
1
40
1
40
1
10
130.91466742832188
20
99.82898898778997
30
0
10
133.85038215000156
20
98.307561356411796
30
0
10
135.32895881015781
20
95.543274361477714
30
0
0
SPLINE
5
172
100
AcDbEntity
8
0
100
AcDbSpline
70
0
71
2
72
6
73
3
74
0
42
0.000000001
43
0.0000000001
44
0.0000000001
40
0
40
0
40
0
40
1
40
1
40
1
10
135.32895881015781
20
95.543274361477714
30
0
10
136.80753547031406
20
92.778989750729423
30
0
10
136.80753547031406
20
89.093272168026786
30
0
0
LINE
5
173
100
AcDbEntity
8
0
100
AcDbLine
10
136.80753547031406
20
89.093272168026786
30
0
11
136.80753547031406
21
82.193273980007987
31
0
0
SPLINE
5
174
100
AcDbEntity
8
0
100
AcDbSpline
70
0
71
2
72
6
73
3
74
0
42
0.000000001
43
0.0000000001
44
0.0000000001
40
0
40
0
40
0
40
1
40
1
40
1
10
136.80753547031406
20
82.193273980007987
30
0
10
136.80753547031406
20
78.550416905270438
30
0
10
135.32895881015781
20
75.786132294522147
30
0
0
SPLINE
5
175
100
AcDbEntity
8
0
100
AcDbSpline
70
0
71
2
72
6
73
3
74
0
42
0.000000001
43
0.0000000001
44
0.0000000001
40
0
40
0
40
0
40
1
40
1
40
1
10
135.32895881015781
20
75.786132294522147
30
0
10
133.85038215000156
20
73.021847683773856
30
0
10
130.91466742832188
20
71.500417668209892
30
0
0
SPLINE
5
176
100
AcDbEntity
8
0
100
AcDbSpline
70
0
71
2
72
6
73
3
74
0
42
0.000000001
43
0.0000000001
44
0.0000000001
40
0
40
0
40
0
40
1
40
1
40
1
10
115.79324466068272
20
71.500417668209892
30
0
10
112.87895900089268
20
73.021847683773856
30
0
10
111.37895804721836
20
75.786132294522147
30
0
0
SPLINE
5
177
100
AcDbEntity
8
0
100
AcDbSpline
70
0
71
2
72
6
73
3
74
0
42
0.000000001
43
0.0000000001
44
0.0000000001
40
0
40
0
40
0
40
1
40
1
40
1
10
111.37895804721836
20
75.786132294522147
30
0
10
109.87896186191563
20
78.550416905270438
30
0
10
109.87896186191563
20
82.193273980007987
30
0
0
LINE
5
178
100
AcDbEntity
8
0
100
AcDbLine
10
109.87896186191563
20
82.193273980007973
30
0
11
109.87896186191563
21
89.093272168026786
31
0
0
SPLINE
5
179
100
AcDbEntity
8
0
100
AcDbSpline
70
0
71
2
72
6
73
3
74
0
42
0.000000001
43
0.0000000001
44
0.0000000001
40
0
40
0
40
0
40
1
40
1
40
1
10
109.87896186191563
20
89.093272168026786
30
0
10
109.87896186191563
20
92.778989750729423
30
0
10
111.37895804721836
20
95.543274361477714
30
0
0
SPLINE
5
180
100
AcDbEntity
8
0
100
AcDbSpline
70
0
71
2
72
6
73
3
74
0
42
0.000000001
43
0.0000000001
44
0.0000000001
40
0
40
0
40
0
40
1
40
1
40
1
10
111.37895804721836
20
95.543274361477714
30
0
10
112.87895900089268
20
98.307561356411796
30
0
10
115.79324466068272
20
99.82898898778997
30
0
0
SPLINE
5
181
100
AcDbEntity
8
0
100
AcDbSpline
70
0
71
2
72
6
73
3
74
0
42
0.000000001
43
0.0000000001
44
0.0000000001
40
0
40
0
40
0
40
1
40
1
40
1
10
118.75038844425205
20
94.257561642514091
30
0
10
117.37895709354405
20
92.521845776425224
30
0
10
117.37895709354405
20
89.136130291806083
30
0
0
LINE
5
182
100
AcDbEntity
8
0
100
AcDbLine
10
117.37895709354405
20
89.136130291806083
30
0
11
117.37895709354405
21
82.236129719601493
31
0
0
SPLINE
5
183
100
AcDbEntity
8
0
100
AcDbSpline
70
0
71
2
72
6
73
3
74
0
42
0.000000001
43
0.0000000001
44
0.0000000001
40
0
40
0
40
0
40
1
40
1
40
1
10
117.37895709354405
20
82.236129719601493
30
0
10
117.37895709354405
20
78.807560879574638
30
0
10
118.75038844425205
20
77.07184501348577
30
0
0
SPLINE
5
184
100
AcDbEntity
8
0
100
AcDbSpline
70
0
71
2
72
6
73
3
74
0
42
0.000000001
43
0.0000000001
44
0.0000000001
40
0
40
0
40
0
40
1
40
1
40
1
10
127.89324599582677
20
77.07184501348577
30
0
10
129.26467734653477
20
78.807560879574638
30
0
10
129.26467734653477
20
82.236129719601493
30
0
0
LINE
5
185
100
AcDbEntity
8
0
100
AcDbLine
10
129.26467734653477
20
82.236129719601493
30
0
11
129.26467734653477
21
89.136130291806083
31
0
0
SPLINE
5
186
100
AcDbEntity
8
0
100
AcDbSpline
70
0
71
2
72
6
73
3
74
0
42
0.000000001
43
0.0000000001
44
0.0000000001
40
0
40
0
40
0
40
1
40
1
40
1
10
129.26467734653477
20
89.136130291806083
30
0
10
129.26467734653477
20
92.521845776425224
30
0
10
127.89324599582677
20
94.257561642514091
30
0
0
SPLINE
5
187
100
AcDbEntity
8
0
100
AcDbSpline
70
0
71
2
72
6
73
3
74
0
42
0.000000001
43
0.0000000001
44
0.0000000001
40
0
40
0
40
0
40
1
40
1
40
1
10
151.43609076816563
20
69.978987652645927
30
0
10
143.7646678097916
20
69.978987652645927
30
0
10
139.26466971714024
20
74.093276936398368
30
0
0
LINE
5
188
100
AcDbEntity
8
0
100
AcDbLine
10
139.26466971714024
20
74.093276936398368
30
0
11
142.65038520175938
21
78.207561451779227
31
0
0
SPLINE
5
189
100
AcDbEntity
8
0
100
AcDbSpline
70
0
71
2
72
6
73
3
74
0
42
0.000000001
43
0.0000000001
44
0.0000000001
40
0
40
0
40
0
40
1
40
1
40
1
10
142.65038520175938
20
78.207561451779227
30
0
10
144.83609229404453
20
76.707560498104911
30
0
10
146.50752097446446
20
76.064702946530204
30
0
0
SPLINE
5
190
100
AcDbEntity
8
0
100
AcDbSpline
70
0
71
2
72
6
73
3
74
0
42
0.000000001
43
0.0000000001
44
0.0000000001
40
0
40
0
40
0
40
1
40
1
40
1
10
146.50752097446446
20
76.064702946530204
30
0
10
148.17894965488438
20
75.421845394955497
30
0
10
150.70752173740391
20
75.421845394955497
30
0
0
SPLINE
5
191
100
AcDbEntity
8
0
100
AcDbSpline
70
0
71
2
72
6
73
3
74
0
42
0.000000001
43
0.0000000001
44
0.0000000001
40
0
40
0
40
0
40
1
40
1
40
1
10
150.70752173740391
20
75.421845394955497
30
0
10
153.23609381992344
20
75.421845394955497
30
0
10
154.60753470737461
20
76.407560784207206
30
0
0
SPLINE
5
192
100
AcDbEntity
8
0
100
AcDbSpline
70
0
71
2
72
6
73
3
74
0
42
0.000000001
43
0.0000000001
44
0.0000000001
40
0
40
0
40
0
40
1
40
1
40
1
10
154.60753470737461
20
76.407560784207206
30
0
10
155.97895652133946
20
77.393273789273124
30
0
10
155.97895652133946
20
78.807560879574638
30
0
0
LINE
5
193
100
AcDbEntity
8
0
100
AcDbLine
10
155.97895652133946
20
78.807560879574638
30
0
11
155.97895652133946
21
79.321846443997245
31
0
0
SPLINE
5
194
100
AcDbEntity
8
0
100
AcDbSpline
70
0
71
2
72
6
73
3
74
0
42
0.000000001
43
0.0000000001
44
0.0000000001
40
0
40
0
40
0
40
1
40
1
40
1
10
155.97895652133946
20
79.321846443997245
30
0
10
155.97895652133946
20
80.607559162960868
30
0
10
155.14323264438633
20
81.400415379391532
30
0
0
SPLINE
5
195
100
AcDbEntity
8
0
100
AcDbSpline
70
0
71
2
72
6
73
3
74
0
42
0.000000001
43
0.0000000001
44
0.0000000001
40
0
40
0
40
0
40
1
40
1
40
1
10
155.14323264438633
20
81.400415379391532
30
0
10
154.30752784091953
20
82.193273980007987
30
0
10
151.99324637729649
20
82.964703518734794
30
0
0
LINE
5
196
100
AcDbEntity
8
0
100
AcDbLine
10
151.99324637729649
20
82.96470351873478
30
0
11
147.92181044895176
21
84.33613010107122
31
0
0
SPLINE
5
197
100
AcDbEntity
8
0
100
AcDbSpline
70
0
71
2
72
6
73
3
74
0
42
0.000000001
43
0.0000000001
44
0.0000000001
40
0
40
0
40
0
40
1
40
1
40
1
10
147.92181044895176
20
84.33613010107122
30
0
10
140.55038482028965
20
86.778988320217948
30
0
10
140.55038482028965
20
92.093274075375419
30
0
0
LINE
5
198
100
AcDbEntity
8
0
100
AcDbLine
10
140.55038482028965
20
92.093274075375419
30
0
11
140.55038482028965
21
93.207561451779227
31
0
0
SPLINE
5
199
100
AcDbEntity
8
0
100
AcDbSpline
70
0
71
2
72
6
73
3
74
0
42
0.000000001
43
0.0000000001
44
0.0000000001
40
0
40
0
40
0
40
1
40
1
40
1
10
140.55038482028965
20
93.207561451779227
30
0
10
140.55038482028965
20
95.564703423367362
30
0
10
141.94323569614414
20
97.428988892422538
30
0
0
SPLINE
5
200
100
AcDbEntity
8
0
100
AcDbSpline
70
0
71
2
72
6
73
3
74
0
42
0.000000001
43
0.0000000001
44
0.0000000001
40
0
40
0
40
0
40
1
40
1
40
1
10
141.94323569614414
20
97.428988892422538
30
0
10
143.3360961087418
20
99.293274361477714
30
0
10
145.90752631504063
20
100.32184549032293
30
0
0
SPLINE
5
201
100
AcDbEntity
8
0
100
AcDbSpline
70
0
71
2
72
6
73
3
74
0
42
0.000000001
43
0.0000000001
44
0.0000000001
40
0
40
0
40
0
40
1
40
1
40
1
10
145.90752631504063
20
100.32184549032293
30
0
10
148.47895652133946
20
101.35041661916814
30
0
10
151.90753012973789
20
101.35041661916814
30
0
0
SPLINE
5
202
100
AcDbEntity
8
0
100
AcDbSpline
70
0
71
2
72
6
73
3
74
0
42
0.000000001
43
0.0000000001
44
0.0000000001
40
0
40
0
40
0
40
1
40
1
40
1
10
151.90753012973789
20
101.35041661916814
30
0
10
158.46467048007969
20
101.35041661916814
30
0
10
162.96467810947422
20
97.40755983053289
30
0
0
LINE
5
203
100
AcDbEntity
8
0
100
AcDbLine
10
162.96467810947422
20
97.40755983053289
30
0
11
159.57896262485508
21
93.507561165676933
31
0
0
SPLINE
5
204
100
AcDbEntity
8
0
100
AcDbSpline
70
0
71
2
72
6
73
3
74
0
42
0.000000001
43
0.0000000001
44
0.0000000001
40
0
40
0
40
0
40
1
40
1
40
1
10
159.57896262485508
20
93.507561165676933
30
0
10
157.56466895420078
20
94.964703995571952
30
0
10
155.97895652133946
20
95.543274361477714
30
0
0
SPLINE
5
205
100
AcDbEntity
8
0
100
AcDbSpline
70
0
71
2
72
6
73
3
74
0
42
0.000000001
43
0.0000000001
44
0.0000000001
40
0
40
0
40
0
40
1
40
1
40
1
10
155.97895652133946
20
95.543274361477714
30
0
10
154.39324408847813
20
96.121847111569267
30
0
10
152.55038291294102
20
96.121847111569267
30
0
0
SPLINE
5
206
100
AcDbEntity
8
0
100
AcDbSpline
70
0
71
2
72
6
73
3
74
0
42
0.000000001
43
0.0000000001
44
0.0000000001
40
0
40
0
40
0
40
1
40
1
40
1
10
152.55038291294102
20
96.121847111569267
30
0
10
150.40753394443516
20
96.121847111569267
30
0
10
149.20752555210117
20
95.35041757284246
30
0
0
SPLINE
5
207
100
AcDbEntity
8
0
100
AcDbSpline
70
0
71
2
72
6
73
3
74
0
42
0.000000001
43
0.0000000001
44
0.0000000001
40
0
40
0
40
0
40
1
40
1
40
1
10
149.20752555210117
20
95.35041757284246
30
0
10
148.00752669651035
20
94.578988034115653
30
0
10
148.00752669651035
20
93.464703041897636
30
0
0
LINE
5
208
100
AcDbEntity
8
0
100
AcDbLine
10
148.00752669651035
20
93.464703041897636
30
0
11
148.00752669651035
21
92.907561737881522
31
0
0
SPLINE
5
209
100
AcDbEntity
8
0
100
AcDbSpline
70
0
71
2
72
6
73
3
74
0
42
0.000000001
43
0.0000000001
44
0.0000000001
40
0
40
0
40
0
40
1
40
1
40
1
10
148.00752669651035
20
92.907561737881522
30
0
10
148.00752669651035
20
91.96470447240911
30
0
10
148.95037680942539
20
91.278988797055106
30
0
0
SPLINE
5
210
100
AcDbEntity
8
0
100
AcDbSpline
70
0
71
2
72
6
73
3
74
0
42
0.000000001
43
0.0000000001
44
0.0000000001
40
0
40
0
40
0
40
1
40
1
40
1
10
148.95037680942539
20
91.278988797055106
30
0
10
149.8932364590836
20
90.593273121701102
30
0
10
152.29323417026524
20
89.77898784338079
30
0
0
LINE
5
211
100
AcDbEntity
8
0
100
AcDbLine
10
152.29323417026524
20
89.77898784338079
30
0
11
156.3646605618668
21
88.407561261044364
31
0
0
SPLINE
5
212
100
AcDbEntity
8
0
100
AcDbSpline
70
0
71
2
72
6
73
3
74
0
42
0.000000001
43
0.0000000001
44
0.0000000001
40
0
40
0
40
0
40
1
40
1
40
1
10
156.3646605618668
20
88.407561261044364
30
0
10
163.35038215000156
20
86.050416905270438
30
0
10
163.35038215000156
20
80.136131722317558
30
0
0
LINE
5
213
100
AcDbEntity
8
0
100
AcDbLine
10
163.35038215000156
20
80.136131722317558
30
0
11
163.35038215000156
21
78.850416619168143
31
0
0
SPLINE
5
214
100
AcDbEntity
8
0
100
AcDbSpline
70
0
71
2
72
6
73
3
74
0
42
0.000000001
43
0.0000000001
44
0.0000000001
40
0
40
0
40
0
40
1
40
1
40
1
10
163.35038215000156
20
78.850416619168143
30
0
10
163.35038215000156
20
76.150416809903007
30
0
10
161.78608924228672
20
74.136130291806083
30
0
0
SPLINE
5
215
100
AcDbEntity
8
0
100
AcDbSpline
70
0
71
2
72
6
73
3
74
0
42
0.000000001
43
0.0000000001
44
0.0000000001
40
0
40
0
40
0
40
1
40
1
40
1
10
161.78608924228672
20
74.136130291806083
30
0
10
160.22181540805821
20
72.12184615789495
30
0
10
157.500391305275
20
71.050416905270438
30
0
0
SPLINE
5
216
100
AcDbEntity
8
0
100
AcDbSpline
70
0
71
2
72
6
73
3
74
0
42
0.000000001
43
0.0000000001
44
0.0000000001
40
0
40
0
40
0
40
1
40
1
40
1
10
157.500391305275
20
71.050416905270438
30
0
10
154.77894812900547
20
69.978987652645927
30
0
10
151.43609076816563
20
69.978987652645927
30
0
0
LWPOLYLINE
5
217
100
AcDbEntity
8
0
100
AcDbPolyline
90
12
70
1
43
0.0
10
176.16467505771641
20
95.264701325283866
10
176.16467505771641
20
88.536130864010673
10
186.45037680942539
20
88.536130864010673
10
186.45037680942539
20
83.178989369259696
10
176.16467505771641
20
83.178989369259696
10
176.16467505771641
20
76.193274933682304
10
187.3503783353043
20
76.193274933682304
10
187.3503783353043
20
70.664703327999931
10
168.66467505771641
20
70.664703327999931
10
168.66467505771641
20
100.66470332799993
10
187.3503783353043
20
100.66470332799993
10
187.3503783353043
20
95.264701325283866
0
LWPOLYLINE
5
218
100
AcDbEntity
8
0
100
AcDbPolyline
90
10
70
1
43
0.0
10
200.43609839756016
20
81.850416142330985
10
200.43609839756016
20
70.664703327999931
10
192.93609839756016
20
70.664703327999931
10
192.93609839756016
20
100.66470332799993
10
201.35126875412513
20
100.66470332799993
10
201.35126875412513
20
95.650417286740165
10
200.43609839756016
20
95.650417286740165
10
200.43609839756016
20
86.864702183590751
10
201.35126875412513
20
86.864702183590751
10
201.35126875412513
20
81.850416142330985
0
SPLINE
5
219
100
AcDbEntity
8
0
100
AcDbSpline
70
0
71
2
72
6
73
3
74
0
42
0.000000001
43
0.0000000001
44
0.0000000001
40
0
40
0
40
0
40
1
40
1
40
1
10
205.79323417026526
20
100.66470332799993
30
0
10
209.05037528354651
20
100.66470332799993
30
0
10
211.51466971714026
20
99.678987938748222
30
0
0
SPLINE
5
220
100
AcDbEntity
8
0
100
AcDbSpline
70
0
71
2
72
6
73
3
74
0
42
0.000000001
43
0.0000000001
44
0.0000000001
40
0
40
0
40
0
40
1
40
1
40
1
10
211.51466971714026
20
99.678987938748222
30
0
10
213.97894507724769
20
98.693272549496513
30
0
10
215.35038596469886
20
96.871845204220634
30
0
0
SPLINE
5
221
100
AcDbEntity
8
0
100
AcDbSpline
70
0
71
2
72
6
73
3
74
0
42
0.000000001
43
0.0000000001
44
0.0000000001
40
0
40
0
40
0
40
1
40
1
40
1
10
215.35038596469886
20
96.871845204220634
30
0
10
216.7218077786637
20
95.050417858944755
30
0
10
216.7218077786637
20
92.564701516018729
30
0
0
LINE
5
222
100
AcDbEntity
8
0
100
AcDbLine
10
216.7218077786637
20
92.564701516018715
30
0
11
216.7218077786637
21
90.121845681057792
31
0
0
SPLINE
5
223
100
AcDbEntity
8
0
100
AcDbSpline
70
0
71
2
72
6
73
3
74
0
42
0.000000001
43
0.0000000001
44
0.0000000001
40
0
40
0
40
0
40
1
40
1
40
1
10
216.7218077786637
20
90.121845681057792
30
0
10
216.7218077786637
20
87.850415188656669
30
0
10
215.41466361362464
20
86.114704090939384
30
0
0
SPLINE
5
224
100
AcDbEntity
8
0
100
AcDbSpline
70
0
71
2
72
6
73
3
74
0
42
0.000000001
43
0.0000000001
44
0.0000000001
40
0
40
0
40
0
40
1
40
1
40
1
10
215.41466361362464
20
86.114704090939384
30
0
10
214.10751944858558
20
84.378988224850517
30
0
10
211.70752173740394
20
83.307558972226005
30
0
0
LINE
5
225
100
AcDbEntity
8
0
100
AcDbLine
10
211.70752173740391
20
83.307558972226005
30
0
11
218.39323645908362
21
70.664703327999931
31
0
0
LINE
5
226
100
AcDbEntity
8
0
100
AcDbLine
10
218.39323645908362
20
70.664703327999931
30
0
11
210.2932417996598
21
70.664703327999931
31
0
0
LINE
5
227
100
AcDbEntity
8
0
100
AcDbLine
10
210.2932417996598
20
70.664703327999931
30
0
11
204.76465827304847
21
81.850416142330985
31
0
0
SPLINE
5
228
100
AcDbEntity
8
0
100
AcDbSpline
70
0
71
2
72
6
73
3
74
0
42
0.000000001
43
0.0000000001
44
0.0000000001
40
0
40
0
40
0
40
1
40
1
40
1
10
205.23609763462073
20
86.864702183590751
30
0
10
207.07895881015784
20
86.864702183590751
30
0
10
208.15037375766761
20
87.743274647580009
30
0
0
SPLINE
5
229
100
AcDbEntity
8
0
100
AcDbSpline
70
0
71
2
72
6
73
3
74
0
42
0.000000001
43
0.0000000001
44
0.0000000001
40
0
40
0
40
0
40
1
40
1
40
1
10
208.15037375766761
20
87.743274647580009
30
0
10
209.2218077786637
20
88.621847111569267
30
0
10
209.2218077786637
20
90.207559544430595
30
0
0
LINE
5
230
100
AcDbEntity
8
0
100
AcDbLine
10
209.2218077786637
20
90.207559544430595
30
0
11
209.2218077786637
21
92.093274075375419
31
0
0
SPLINE
5
231
100
AcDbEntity
8
0
100
AcDbSpline
70
0
71
2
72
6
73
3
74
0
42
0.000000001
43
0.0000000001
44
0.0000000001
40
0
40
0
40
0
40
1
40
1
40
1
10
209.2218077786637
20
92.093274075375419
30
0
10
209.2218077786637
20
93.850416619168143
30
0
10
208.17181235630042
20
94.750415760861259
30
0
0
SPLINE
5
232
100
AcDbEntity
8
0
100
AcDbSpline
70
0
71
2
72
6
73
3
74
0
42
0.000000001
43
0.0000000001
44
0.0000000001
40
0
40
0
40
0
40
1
40
1
40
1
10
208.17181235630042
20
94.750415760861259
30
0
10
207.12181693393714
20
95.650417286740165
30
0
10
205.27895575840003
20
95.650417286740165
30
0
0
SPLINE
5
233
100
AcDbEntity
8
0
100
AcDbSpline
70
0
71
2
72
6
73
3
74
0
42
0.000000001
43
0.0000000001
44
0.0000000001
40
0
40
0
40
0
40
0.86296092434828209
40
0.86296092434828209
40
0.86296092434828209
10
130.91466742832188
20
71.500417668209892
30
0
10
128.38126033847831
20
70.187483015647587
30
0
10
124.93825752779613
20
70.007559664469341
30
0
0
SPLINE
5
234
100
AcDbEntity
8
0
100
AcDbSpline
70
0
71
2
72
6
73
3
74
0
42
0.000000001
43
0.0000000001
44
0.0000000001
40
0.12041740185377735
40
0.12041740185377735
40
0.12041740185377735
40
1
40
1
40
1
10
121.84835233640355
20
70.001048921390264
30
0
10
118.35659961306112
20
70.162194302222488
30
0
10
115.79324466068272
20
71.500417668209892
30
0
0
SPLINE
5
235
100
AcDbEntity
8
0
100
AcDbSpline
70
0
71
2
72
6
73
3
74
0
42
0.000000001
43
0.0000000001
44
0.0000000001
40
0.21849410996505403
40
0.21849410996505403
40
0.21849410996505403
40
1
40
1
40
1
10
124.93825751844192
20
75.41899620135834
30
0
10
126.82146431746989
20
75.715376567220702
30
0
10
127.89324599582677
20
77.07184501348577
30
0
0
SPLINE
5
236
100
AcDbEntity
8
0
100
AcDbSpline
70
0
71
2
72
6
73
3
74
0
42
0.000000001
43
0.0000000001
44
0.0000000001
40
0
40
0
40
0
40
0.81093455747742471
40
0.81093455747742471
40
0.81093455747742471
10
118.75038844425205
20
77.07184501348577
30
0
10
119.86252565291181
20
75.664296902549751
30
0
10
121.8483523535628
20
75.398178196083819
30
0
0
SPLINE
5
237
100
AcDbEntity
8
0
100
AcDbSpline
70
0
71
2
72
6
73
3
74
0
42
0.000000001
43
0.0000000001
44
0.0000000001
40
0
40
0
40
0
40
0.78150589003595328
40
0.78150589003595328
40
0.78150589003595328
10
127.89324599582677
20
94.257561642514091
30
0
10
126.82146431746851
20
95.614031952036157
30
0
10
124.93825751843704
20
95.910412725007831
30
0
0
SPLINE
5
238
100
AcDbEntity
8
0
100
AcDbSpline
70
0
71
2
72
6
73
3
74
0
42
0.000000001
43
0.0000000001
44
0.0000000001
40
0.18906544252356447
40
0.18906544252356447
40
0.18906544252356447
40
1
40
1
40
1
10
121.84835235355794
20
95.931230758876694
30
0
10
119.86252565291046
20
95.665111686867036
30
0
10
118.75038844425205
20
94.257561642514091
30
0
0
SPLINE
5
239
100
AcDbEntity
8
0
100
AcDbSpline
70
0
71
2
72
6
73
3
74
0
42
0.000000001
43
0.0000000001
44
0.0000000001
40
0.13703907565271797
40
0.13703907565271797
40
0.13703907565271797
40
1
40
1
40
1
10
124.9382575278041
20
101.32184465211859
30
0
10
128.38126033848127
20
101.14192158289157
30
0
10
130.91466742832188
20
99.82898898778997
30
0
0
SPLINE
5
240
100
AcDbEntity
8
0
100
AcDbSpline
70
0
71
2
72
6
73
3
74
0
42
0.000000001
43
0.0000000001
44
0.0000000001
40
0
40
0
40
0
40
0.87958259814722273
40
0.87958259814722273
40
0.87958259814722273
10
115.79324466068272
20
99.82898898778997
30
0
10
118.35659961306403
20
101.16721025669057
30
0
10
121.84835233641151
20
101.32835538499569
30
0
0
LINE
5
241
100
AcDbEntity
8
0
100
AcDbLine
10
124.9382575278041
20
101.32184465211859
30
0
11
124.93825751843704
21
95.910412725007831
31
0
0
LINE
5
242
100
AcDbEntity
8
0
100
AcDbLine
10
124.93825751844192
20
75.41899620135834
30
0
11
124.93825752779613
21
70.007559664469341
31
0
0
LINE
5
243
100
AcDbEntity
8
0
100
AcDbLine
10
121.84835233640355
20
70.001048921390264
30
0
11
121.8483523535628
21
75.398178196083819
31
0
0
LINE
5
244
100
AcDbEntity
8
0
100
AcDbLine
10
121.84835235355794
20
95.931230758876694
30
0
11
121.84835233641151
21
101.32835538499569
31
0
0
LINE
5
245
100
AcDbEntity
8
0
100
AcDbLine
10
204.76465827304847
20
81.850416142330985
30
0
11
203.85126875412516
21
81.850416142330985
31
0
0
LINE
5
246
100
AcDbEntity
8
0
100
AcDbLine
10
203.85126875412516
20
86.864702183590751
30
0
11
205.23609763462073
21
86.864702183590751
31
0
0
LINE
5
247
100
AcDbEntity
8
0
100
AcDbLine
10
205.2789557584
20
95.650417286740165
30
0
11
203.85126875412516
21
95.650417286740165
31
0
0
LINE
5
248
100
AcDbEntity
8
0
100
AcDbLine
10
203.85126875412516
20
100.66470332799993
30
0
11
205.79323417026526
21
100.66470332799993
31
0
0
LINE
5
249
100
AcDbEntity
8
0
100
AcDbLine
10
203.85126875412516
20
81.850416142330985
30
0
11
203.85126875412516
21
86.864702183590751
31
0
0
LINE
5
250
100
AcDbEntity
8
0
100
AcDbLine
10
203.85126875412516
20
95.650417286740165
30
0
11
203.85126875412516
21
100.66470332799993
31
0
0
ENDSEC
0
SECTION
2
OBJECTS
0
DICTIONARY
5
C
100
AcDbDictionary
3
ACAD_GROUP
350
D
3
ACAD_MLINESTYLE
350
17
0
DICTIONARY
5
D
100
AcDbDictionary
0
DICTIONARY
5
1A
330
C
100
AcDbDictionary
0
DICTIONARY
5
17
100
AcDbDictionary
0
ENDSEC
0
EOF
