0
SECTION
2
HEADER
9
$INSUNITS
70
1
9
$ACADVER
1
AC1014
9
$HANDSEED
5
FFFF
0
ENDSEC
0
SECTION
2
TABLES
0
TABLE
2
VPORT
5
8
100
AcDbSymbolTable
0
ENDTAB
0
TABLE
2
LTYPE
5
5
100
AcDbSymbolTable
0
LTYPE
5
14
100
AcDbSymbolTableRecord
100
AcDbLinetypeTableRecord
2
BYBLOCK
70
0
0
LTYPE
5
15
100
AcDbSymbolTableRecord
100
AcDbLinetypeTableRecord
2
BYLAYER
70
0
0
ENDTAB
0
TABLE
2
LAYER
5
2
100
AcDbSymbolTable
70
2
0
LAYER
5
50
100
AcDbSymbolTableRecord
100
AcDbLayerTableRecord
2
0
70
0
6
CONTINUOUS
0
ENDTAB
0
TABLE
2
STYLE
5
3
100
AcDbSymbolTable
70
1
0
STYLE
5
11
100
AcDbSymbolTableRecord
100
AcDbTextStyleTableRecord
2
STANDARD
70
0
0
ENDTAB
0
TABLE
2
VIEW
5
6
100
AcDbSymbolTable
70
0
0
ENDTAB
0
TABLE
2
UCS
5
7
100
AcDbSymbolTable
70
0
0
ENDTAB
0
TABLE
2
APPID
5
9
100
AcDbSymbolTable
70
2
0
APPID
5
12
100
AcDbSymbolTableRecord
100
AcDbRegAppTableRecord
2
ACAD
70
0
0
ENDTAB
0
TABLE
2
DIMSTYLE
5
A
100
AcDbSymbolTable
70
1
0
ENDTAB
0
TABLE
2
BLOCK_RECORD
5
1
100
AcDbSymbolTable
70
1
0
BLOCK_RECORD
5
1F
100
AcDbSymbolTableRecord
100
AcDbBlockTableRecord
2
*MODEL_SPACE
0
BLOCK_RECORD
5
1B
100
AcDbSymbolTableRecord
100
AcDbBlockTableRecord
2
*PAPER_SPACE
0
ENDTAB
0
ENDSEC
0
SECTION
2
BLOCKS
0
BLOCK
5
20
100
AcDbEntity
100
AcDbBlockBegin
2
*MODEL_SPACE
0
ENDBLK
5
21
100
AcDbEntity
100
AcDbBlockEnd
0
BLOCK
5
1C
100
AcDbEntity
100
AcDbBlockBegin
2
*PAPER_SPACE
0
ENDBLK
5
1D
100
AcDbEntity
100
AcDbBlockEnd
0
ENDSEC
0
SECTION
2
ENTITIES
0
SPLINE
5
100
100
AcDbEntity
8
0
100
AcDbSpline
70
2
71
5
72
53
73
47
74
0
42
0.000000001
43
0.0000000001
44
0.0000000001
40
-1
40
-1
40
-1
40
-1
40
-1
40
-1
40
-0.96795387279951717
40
-0.94648368543596084
40
-0.92071881443119963
40
-0.89685583894420262
40
-0.87491759332657759
40
-0.85519780634977705
40
-0.83615254525705551
40
-0.81711589394770112
40
-0.7977758053601024
40
-0.77863332551204112
40
-0.75894549914124243
40
-0.73943137919122137
40
-0.72073315671784821
40
-0.69898051582644982
40
-0.67479723466899266
40
-0.64809301984240175
40
-0.61902623694382708
40
-0.58796475475938326
40
-0.55842139559217618
40
-0.53168313242087295
40
-0.50726621455029641
40
-0.48466684075717181
40
-0.46308869708274891
40
-0.44181629371306891
40
-0.41708125632902332
40
-0.39125653557071483
40
-0.36505277211709009
40
-0.33786280757773279
40
-0.30986653950441517
40
-0.28285794779945239
40
-0.25567467217483009
40
-0.22823366036478121
40
-0.2014544797027307
40
-0.17616342916017039
40
-0.15161082087389879
40
-0.1283891233325376
40
-0.10476927489826092
40
-0.0817769947367641
40
-0.058656219920405997
40
-0.037528827352456801
40
-0.020675419006746999
40
0
40
0
40
0
40
0
40
0
40
0
10
-3.4564192334103065
20
5.3119552537493036
30
0
10
-3.4356258905409716
20
5.3387566026007907
30
0
10
-3.3613641071632521
20
5.3767132290609609
30
0
10
-3.180248665817369
20
5.3880261436263099
30
0
10
-3.1195860123342758
20
5.5443239195763612
30
0
10
-2.8513414272818833
20
5.5897369288451717
30
0
10
-2.809718501555178
20
5.8635068310074532
30
0
10
-2.6790065160321226
20
5.8237357027219856
30
0
10
-2.604380502117988
20
6.1014689851310449
30
0
10
-2.5301847329442331
20
5.7573353687222006
30
0
10
-2.4666335745683745
20
6.0339216913587448
30
0
10
-2.3166754159994003
20
6.0141835970990405
30
0
10
-2.2494300658987809
20
6.0657455640651712
30
0
10
-2.1111495615759965
20
6.2822632177873636
30
0
10
-2.1620827737666577
20
6.0227097933359248
30
0
10
-2.1746294584803549
20
6.0020910082912016
30
0
10
-2.2040867545491456
20
5.6921774249549566
30
0
10
-1.9867824770774158
20
5.9343316924889029
30
0
10
-1.8229264612842957
20
6.1315555465925584
30
0
10
-1.7073167289823143
20
6.2983215788064681
30
0
10
-1.5820944135040254
20
6.6248858668943233
30
0
10
-1.2754367100177488
20
6.7181575525695036
30
0
10
-1.1794744124147445
20
6.9801846792678948
30
0
10
-0.97692849404174353
20
6.9690253665715778
30
0
10
-0.86496820646465022
20
7.2350443782846119
30
0
10
-0.88595683359939226
20
6.8696490348719719
30
0
10
-0.97224473743469231
20
6.80494323422338
30
0
10
-1.1189427200356201
20
6.6792319804540492
30
0
10
-1.2343508529969838
20
6.6152540417890799
30
0
10
-1.367455371729646
20
6.2643258740342755
30
0
10
-1.4841003920016067
20
6.1647903595274034
30
0
10
-1.374655542614053
20
5.8065360337393859
30
0
10
-1.7459376139720613
20
5.8800684119522932
30
0
10
-1.8955780207425197
20
5.7535306733742164
30
0
10
-2.1384279784200246
20
5.6918947162373037
30
0
10
-2.2355020493269167
20
5.4620963459708509
30
0
10
-2.4088106491276653
20
5.3434633314455464
30
0
10
-2.5214281479273883
20
5.1706302600756615
30
0
10
-2.613974685601836
20
5.101390087627343
30
0
10
-2.8597669022662933
20
5.1394686240487371
30
0
10
-2.9007586871839224
20
5.1453090110994362
30
0
10
-3.2164875593868323
20
5.217709305524731
30
0
10
-3.2521200740608958
20
5.2560562855489072
30
0
10
-3.4267076816053814
20
5.2070080807691443
30
0
10
-3.476297301082373
20
5.2601998808430519
30
0
10
-3.4698346166073031
20
5.294663644252033
30
0
10
-3.4564192334103065
20
5.3119552537493036
30
0
0
LINE
5
101
100
AcDbEntity
8
0
100
AcDbLine
10
3.4098665383467881
20
1.996132230699436
30
0
11
-4.3084881594287161
21
1.9961321740661384
31
0
0
SPLINE
5
102
100
AcDbEntity
8
0
100
AcDbSpline
70
0
71
4
72
80
73
75
74
0
42
0.000000001
43
0.0000000001
44
0.0000000001
40
-0.39349350738362093
40
-0.39349350738362093
40
-0.39349350738362093
40
-0.39349350738362093
40
-0.39349350738362093
40
-0.39040727225164329
40
-0.38290402802186208
40
-0.37607249204104992
40
-0.37011105298214397
40
-0.36485232225103648
40
-0.3608303472114307
40
-0.35753545443671791
40
-0.35398835882350133
40
-0.34971886894630388
40
-0.34486885376534809
40
-0.3396312259996136
40
-0.33439817484831469
40
-0.32941360868038572
40
-0.32468161146165242
40
-0.32011777887375548
40
-0.31570105850755381
40
-0.31127497586954533
40
-0.30657192035212227
40
-0.301111622472235
40
-0.29517596470701069
40
-0.2893039721331192
40
-0.28401701215696173
40
-0.27945455136743907
40
-0.27568149579383783
40
-0.27116159645198962
40
-0.26549791013066248
40
-0.25888251665197848
40
-0.25190183724679088
40
-0.2457475335284425
40
-0.24051072891011241
40
-0.23594903624741856
40
-0.23116186979084216
40
-0.22626101075635249
40
-0.2212241165064206
40
-0.21611328387684359
40
-0.2110265635470536
40
-0.20560135135984048
40
-0.19972522959760969
40
-0.19372515208686816
40
-0.1875216457554498
40
-0.1811689934460792
40
-0.1746266391923583
40
-0.16807472578151034
40
-0.16236145471508887
40
-0.15699413853555999
40
-0.15188509908369541
40
-0.1468021844322189
40
-0.1413024089149075
40
-0.1363212828338265
40
-0.1321036177291334
40
-0.12802832348576507
40
-0.12398427976281259
40
-0.1197947887864013
40
-0.1153681634923676
40
-0.11111745330381979
40
-0.1066045003342477
40
-0.10164724816389741
40
-0.096254934868253997
40
-0.09039770037316687
40
-0.084512681074006002
40
-0.0788110891525165
40
-0.073313881695280192
40
-0.068543280322436895
40
-0.063485401858525803
40
-0.057805684616028703
40
-0.051515203371192496
40
-0.044269353108128094
40
-0.037300828818531508
40
-0.031170774708085495
40
-0.025953831501888101
40
-0.024207797472230418
40
-0.024207797472230418
40
-0.024207797472230418
40
-0.024207797472230418
40
-0.024207797472230418
10
-4.308488159428717
20
1.9961321740661384
30
0
10
-4.2737443389637519
20
2.0174986417637748
30
0
10
-4.1557937481336973
20
2.0895887871978025
30
0
10
-3.9811958666177034
20
2.1924527008750241
30
0
10
-3.9189098528013235
20
2.2821014496726382
30
0
10
-3.5606087400512778
20
2.47847221360689
30
0
10
-3.5059963986217095
20
2.5908110534174305
30
0
10
-3.2889451988147047
20
2.6531001905644547
30
0
10
-3.3596094742403806
20
2.7186475555867062
30
0
10
-3.4144467223122388
20
2.763401975486651
30
0
10
-3.3433825037720646
20
2.8233654121645166
30
0
10
-3.1704829113171376
20
2.8700722005892554
30
0
10
-3.0440216237824376
20
2.8500223418601718
30
0
10
-2.7749898001665119
20
2.9887754640239952
30
0
10
-2.919335124676425
20
2.7958517342798239
30
0
10
-2.9701454269345318
20
2.6760990771228061
30
0
10
-3.0565805999076261
20
2.5720683028630247
30
0
10
-3.1497066363947068
20
2.4714381360846081
30
0
10
-3.1014802942766502
20
2.4182444984200826
30
0
10
-3.1812329122456591
20
2.154571832930134
30
0
10
-2.9877463698529234
20
2.4452644116891782
30
0
10
-2.9076559546075438
20
2.4359437977791871
30
0
10
-2.6894360323423623
20
2.612650071524143
30
0
10
-2.4925182708198346
20
2.6987195362202043
30
0
10
-2.3877790932044318
20
2.8230062740635677
30
0
10
-2.345063978714236
20
2.8867639541503975
30
0
10
-2.4766767934802316
20
2.9728096350472764
30
0
10
-2.3810997396308387
20
3.0784395749293818
30
0
10
-2.0299394412211864
20
3.207805152695125
30
0
10
-1.8506151391810028
20
3.2763152889171865
30
0
10
-1.5538848247154411
20
3.4854850390985046
30
0
10
-1.4323326509344272
20
3.5561117269865319
30
0
10
-1.3235556159286237
20
3.6434209401278994
30
0
10
-1.2336556324469428
20
3.7103554414415871
30
0
10
-1.1059947969586319
20
3.5903621290283585
30
0
10
-0.96391183952530446
20
3.4886222500810886
30
0
10
-0.82530214598175156
20
3.4361321819435342
30
0
10
-0.76484730624289621
20
3.3288559990203441
30
0
10
-0.57907779093493672
20
3.2951874797114846
30
0
10
-0.39823160965153104
20
3.2873574842692315
30
0
10
-0.20571007998465893
20
3.1778324979229042
30
0
10
-0.0099485886970757751
20
3.0535385219739899
30
0
10
0.047373250139972276
20
2.8664258990755185
30
0
10
0.23008795329093776
20
2.6750061417047717
30
0
10
0.45931176854601391
20
2.5468509051960266
30
0
10
0.67815293753056405
20
2.5418509336781536
30
0
10
0.90525447464773301
20
2.3150262169924094
30
0
10
0.97004115815209535
20
2.4875819828223698
30
0
10
0.75689002156735252
20
2.5760940892272521
30
0
10
0.74612892342548121
20
2.772226183660186
30
0
10
0.60913137614487078
20
2.8738010882181046
30
0
10
0.54012695396590116
20
3.0097016855233067
30
0
10
0.43690848848056757
20
3.0385403562804401
30
0
10
0.48101815332760456
20
3.1437515431105942
30
0
10
0.65121290525036368
20
3.0557830026798625
30
0
10
0.75208046926867289
20
3.1546293164179229
30
0
10
0.82243711066419345
20
3.180304747981721
30
0
10
0.93676579473055865
20
3.2733687434436143
30
0
10
0.96927240932368786
20
3.0828018505006254
30
0
10
1.091531340051799
20
2.961613245131141
30
0
10
1.218660856171403
20
2.8238341264339435
30
0
10
1.3411204323490251
20
2.705840649716388
30
0
10
1.5528094027604633
20
2.6459266304837006
30
0
10
1.7438168247879722
20
2.5683258923362748
30
0
10
1.8417544194732447
20
2.4864597358229954
30
0
10
2.007857311507554
20
2.3991225280923887
30
0
10
1.9370091347006093
20
2.2682659443824571
30
0
10
2.3949645847010959
20
2.397749951956329
30
0
10
2.5869137686106938
20
2.2747867099719237
30
0
10
2.8683347980716882
20
2.2461802225350569
30
0
10
3.1465123308662868
20
2.1943832702782404
30
0
10
3.2910522261955948
20
2.0736511425948878
30
0
10
3.3833391932061261
20
2.038485362909134
30
0
10
3.4057615432928903
20
2.0052402393537703
30
0
10
3.4098665383763387
20
1.9961322306338671
30
0
0
SPLINE
5
103
100
AcDbEntity
8
0
100
AcDbSpline
70
2
71
5
72
98
73
92
74
0
42
0.000000001
43
0.0000000001
44
0.0000000001
40
0
40
0
40
0
40
0
40
0
40
0
40
0.012997484055210701
40
0.022307392865597301
40
0.034431667103728997
40
0.047227996158410002
40
0.060658697557487803
40
0.074896863218214982
40
0.089099533110199594
40
0.1023259464200359
40
0.11464490683646721
40
0.12642183380022887
40
0.13679482595446474
40
0.14645291789412479
40
0.156248565021335
40
0.16613117285959039
40
0.17606404448214999
40
0.18658864117425608
40
0.1977586073197275
40
0.20953928231743696
40
0.22170788743675526
40
0.2329232556631993
40
0.24325336160087571
40
0.252978104289596
40
0.26192228509593168
40
0.2697356859845656
40
0.2780437147227795
40
0.28656489055693768
40
0.29502338789164512
40
0.30326640254117332
40
0.31190131889447981
40
0.32055053661020411
40
0.32962681460197107
40
0.33916524304597651
40
0.35023588365791869
40
0.36183614797415808
40
0.37325228249582176
40
0.38400477597565968
40
0.39460103238648792
40
0.40367045799733375
40
0.4122150905293448
40
0.42124372364009888
40
0.43027228477845852
40
0.43924608066452497
40
0.44870150900333572
40
0.45875565305780241
40
0.46896349601869519
40
0.4795179236191322
40
0.48943792549893073
40
0.49963340798812778
40
0.51018924641541175
40
0.52113222956977245
40
0.53223703046046578
40
0.54367054160381501
40
0.55530237210263445
40
0.56707465363453213
40
0.57887884106104115
40
0.59149279924117359
40
0.60548530332999528
40
0.61941316565861138
40
0.63269239444531011
40
0.64608072877045108
40
0.65929096930141617
40
0.67241660096473765
40
0.68476692841427955
40
0.69701006815521216
40
0.7085270982657873
40
0.72055694090402445
40
0.7330367539478867
40
0.74754590236770113
40
0.76400095829791415
40
0.78193831012680781
40
0.79956386398873824
40
0.81618379544265873
40
0.83201756087839296
40
0.84644960448036211
40
0.86020422675967101
40
0.8739519709286383
40
0.88782038691512144
40
0.90092661578604005
40
0.91372847771116483
40
0.92617152333694364
40
0.93812789648296124
40
0.94983659532559483
40
0.96073761324574236
40
0.97144753346500401
40
0.98154631310978635
40
0.98905823201766718
40
1
40
1
40
1
40
1
40
1
40
1
10
-9.6717155244251494
20
3.5407304877619126
30
0
10
-9.6550430817230808
20
3.5588392690726707
30
0
10
-9.5935652341513986
20
3.5600003864085581
30
0
10
-9.3993297447663462
20
3.4799772006810761
30
0
10
-9.3812482268170392
20
3.5727377588462184
30
0
10
-9.0226334545445734
20
3.636371188518785
30
0
10
-8.8938003853753234
20
3.7107463965674179
30
0
10
-8.6198321863859544
20
3.8958182635702485
30
0
10
-8.3809783422000503
20
4.0744782980050935
30
0
10
-8.2966197241643336
20
4.1862689976145324
30
0
10
-7.7845056365430141
20
4.5336643528099039
30
0
10
-7.7107083319181173
20
4.3051863620126403
30
0
10
-7.3366709266617267
20
4.6057646830821142
30
0
10
-7.5118338816808601
20
4.2751968511733169
30
0
10
-7.5113792534752921
20
4.247788441602383
30
0
10
-7.5392259433558309
20
3.8656418004160575
30
0
10
-7.3849932681877331
20
4.1394959967458052
30
0
10
-7.2908822532054707
20
4.1659351457739202
30
0
10
-7.2129836903236759
20
4.330698966744932
30
0
10
-7.0628365897537524
20
4.4221100213846398
30
0
10
-6.8479923394080267
20
4.5825189334593111
30
0
10
-6.7415368911314273
20
4.7237144928394219
30
0
10
-6.4959837102711937
20
4.7549508550465731
30
0
10
-6.4588370056856084
20
5.0873712039541523
30
0
10
-6.259659255917815
20
5.0034111142223852
30
0
10
-6.379998543640661
20
4.8610638787135052
30
0
10
-6.4059472672995392
20
4.7752417526622732
30
0
10
-6.4471600497850643
20
4.6471868162430008
30
0
10
-6.383644290110551
20
4.5294259475371446
30
0
10
-6.2941471176714519
20
4.7286037562472787
30
0
10
-6.1940317424624149
20
4.7572668882308244
30
0
10
-6.2029148601157633
20
4.951199331210403
30
0
10
-6.0016022939077276
20
4.85482588626666
30
0
10
-6.0599185654331453
20
5.06659040903258
30
0
10
-5.9745188323719569
20
5.1083500357705764
30
0
10
-5.9726353754936348
20
5.4260568692067181
30
0
10
-5.8792132126630747
20
5.4279261776575041
30
0
10
-5.678496504748856
20
5.808023690457472
30
0
10
-5.6809685606779903
20
5.910749010193209
30
0
10
-5.4727531075844364
20
6.0295773241077564
30
0
10
-5.4665809812410409
20
5.8483019527403597
30
0
10
-5.2945711499752939
20
5.7908743660946334
30
0
10
-5.1899303049125267
20
5.7782012517206942
30
0
10
-5.1672988853174449
20
5.6620600859489896
30
0
10
-5.2316834522280402
20
5.4844943968166655
30
0
10
-5.2467912918903163
20
5.4005503140636657
30
0
10
-5.1578668596198769
20
5.2261229411419929
30
0
10
-5.0596928843836713
20
5.1590964403707487
30
0
10
-4.8356131994438281
20
5.0548059830397598
30
0
10
-4.9586901041929243
20
4.8958482870510975
30
0
10
-4.7291566632102544
20
4.6252060253662677
30
0
10
-4.6861102553894574
20
4.8583559218354733
30
0
10
-4.8475673326198372
20
5.0048365824881582
30
0
10
-4.7621327450395023
20
5.281252001522641
30
0
10
-4.8681559704989965
20
5.3616704989521526
30
0
10
-4.9160723132324762
20
5.8726828817932688
30
0
10
-4.7563133698493196
20
5.4905275437087049
30
0
10
-4.7757178597430858
20
5.3371739710231179
30
0
10
-4.5475039474675052
20
5.092271822105837
30
0
10
-4.4705494315735672
20
4.8903005487647695
30
0
10
-4.0576721986277891
20
4.804178248343181
30
0
10
-3.9901351544695611
20
4.4982897454894406
30
0
10
-3.3193109087114334
20
4.7304820994551644
30
0
10
-3.7779110892755159
20
4.4147120423194224
30
0
10
-4.0083036353724397
20
4.5460254803881188
30
0
10
-4.174394243314647
20
4.4616213709032371
30
0
10
-4.7249885371218356
20
4.5444789455046566
30
0
10
-4.5564522561013687
20
4.2330178640887155
30
0
10
-4.9465985301501867
20
4.3769010704628322
30
0
10
-4.8373018190803325
20
4.0308164827878734
30
0
10
-5.3686501955614983
20
3.7941199811952657
30
0
10
-5.5190734710162817
20
3.5364112317864693
30
0
10
-6.0969305744888844
20
3.481953078362551
30
0
10
-6.5896948591580955
20
3.4777680735181211
30
0
10
-6.9740721808088848
20
3.4823147809329762
30
0
10
-7.3942316514380195
20
3.9453923635271115
30
0
10
-7.5172040776113862
20
3.6676532084551576
30
0
10
-7.8768948331388664
20
3.48778023434748
30
0
10
-8.0005920456728532
20
3.3580783353624235
30
0
10
-8.3007919730065751
20
3.2575616388805417
30
0
10
-8.5589743279730079
20
2.9992332010350569
30
0
10
-8.7228324403386406
20
2.9139442714969768
30
0
10
-8.9561603421217555
20
2.7186874246408546
30
0
10
-9.0716524583100835
20
2.9319695325040134
30
0
10
-9.31380575978568
20
2.988614112044369
30
0
10
-9.4555887973701402
20
3.0758452317782443
30
0
10
-9.7280599477099425
20
3.1634327913333062
30
0
10
-9.7195557363635725
20
3.2598764028619938
30
0
10
-9.635125118691807
20
3.3540276765511341
30
0
10
-9.6865362480494372
20
3.4789396090743194
30
0
10
-9.6857510099829529
20
3.5254858386664822
30
0
10
-9.6717155244251494
20
3.5407304877619126
30
0
0
LINE
5
104
100
AcDbEntity
8
0
100
AcDbLine
10
-4.9494834242432351
20
1.9961321693628364
30
0
11
-11.367498033468124
21
1.9961321222733055
31
0
0
SPLINE
5
105
100
AcDbEntity
8
0
100
AcDbSpline
70
0
71
4
72
66
73
61
74
0
42
0.000000001
43
0.0000000001
44
0.0000000001
40
-0.76502397401768829
40
-0.76502397401768829
40
-0.76502397401768829
40
-0.76502397401768829
40
-0.76502397401768829
40
-0.76192268024272936
40
-0.75462762594651889
40
-0.74787157799849624
40
-0.74163543453446945
40
-0.73644242494792944
40
-0.7320830506219026
40
-0.72807105998635102
40
-0.72406310476918745
40
-0.71959548060900658
40
-0.71523614161564775
40
-0.71087305439234194
40
-0.70659665877760247
40
-0.70273306089300525
40
-0.69885809243728603
40
-0.6947250898356121
40
-0.69017332750078875
40
-0.68521003268020575
40
-0.67989172175456924
40
-0.67448084555403842
40
-0.66909326194456853
40
-0.663585982718923
40
-0.65802827106604656
40
-0.65225317914939085
40
-0.64639092112746532
40
-0.64051219108879298
40
-0.63435645030127408
40
-0.62821522827635734
40
-0.62233072119337607
40
-0.61674347475730285
40
-0.61161891377775057
40
-0.60669315217969255
40
-0.60176543250613601
40
-0.59649415651329751
40
-0.59100921975724607
40
-0.58568460903176356
40
-0.58032977199091729
40
-0.57521439796178075
40
-0.56995705826448184
40
-0.56435684891203963
40
-0.55875583145791896
40
-0.55343442352375449
40
-0.54867324913230131
40
-0.54412693784718558
40
-0.5395436888235019
40
-0.53465815436059261
40
-0.52970899133331273
40
-0.52523805057813022
40
-0.52076130976923718
40
-0.5162237174368941
40
-0.51092519976717665
40
-0.504785233934962
40
-0.49835501078972572
40
-0.49190034716927222
40
-0.48615541023245462
40
-0.48134209344576789
40
-0.47654993334165591
40
-0.47572915389841353
40
-0.47572915389841353
40
-0.47572915389841353
40
-0.47572915389841353
40
-0.47572915389841353
10
-11.367498033468124
20
1.9961321222733053
30
0
10
-11.340100279053431
20
2.0077460983795357
30
0
10
-11.252141123342021
20
2.0464826805628635
30
0
10
-11.12555260859892
20
2.1104751235375998
30
0
10
-10.898841602825863
20
2.2847071271633559
30
0
10
-10.582411164671097
20
2.3671376920162173
30
0
10
-10.491119612519343
20
2.5451117753658083
30
0
10
-10.438221303930915
20
2.6098288952836857
30
0
10
-10.32633071889467
20
2.7386865139619254
30
0
10
-10.325183791063948
20
2.5464561455792043
30
0
10
-10.200222640360487
20
2.5451890600968698
30
0
10
-10.141527158034227
20
2.6125375400746096
30
0
10
-10.012741901428274
20
2.7687925167551097
30
0
10
-9.932499195814831
20
2.7100325565881462
30
0
10
-9.8458356244772478
20
2.6692011025891174
30
0
10
-9.7574656848771877
20
2.7106734699518884
30
0
10
-9.6802848383558384
20
2.804361400502537
30
0
10
-9.6098799644370239
20
2.6800615245581549
30
0
10
-9.4778293482024036
20
2.6604250377485257
30
0
10
-9.3613993933532171
20
2.5102301118490886
30
0
10
-9.2130782908773057
20
2.4437543915996267
30
0
10
-9.0881388237947345
20
2.3431246602072204
30
0
10
-8.923503790052516
20
2.2746580393572517
30
0
10
-8.7570900157048328
20
2.361351491240602
30
0
10
-8.5728440753708988
20
2.4561410012728424
30
0
10
-8.4704604180328751
20
2.5886744546043792
30
0
10
-8.2431015552643423
20
2.6509299630595864
30
0
10
-8.1116090550863209
20
2.8068193157065724
30
0
10
-7.8907716171608646
20
2.8405467995087079
30
0
10
-7.7669001613149069
20
3.0545782804982138
30
0
10
-7.5635812133419487
20
3.1588147163395486
30
0
10
-7.4791252465360136
20
3.2280225478945583
30
0
10
-7.3815913226710803
20
3.4322068195463582
30
0
10
-7.2617569110623208
20
3.2644858658860643
30
0
10
-7.1534113042238383
20
3.1675479751679769
30
0
10
-7.0597901564688055
20
3.079863960839242
30
0
10
-6.8701511472432548
20
2.9673693007871806
30
0
10
-6.7777990709406284
20
2.8061741630993882
30
0
10
-6.7325930517656953
20
2.7008709582691286
30
0
10
-6.6848544385943995
20
2.5320004196874173
30
0
10
-6.5370244656442447
20
2.4580489524493272
30
0
10
-6.3547120666905874
20
2.3838093407432903
30
0
10
-6.1800591496132187
20
2.2734423536478072
30
0
10
-6.0757812546576275
20
2.2320256034651318
30
0
10
-5.9285731299078632
20
2.1082266467935926
30
0
10
-5.9238641105879113
20
2.2920090166780627
30
0
10
-6.0162382462240975
20
2.3901621211469535
30
0
10
-6.0632829972126494
20
2.5283693119923631
30
0
10
-6.0912002857038621
20
2.663807484561413
30
0
10
-6.1628953493177203
20
2.8044831486835524
30
0
10
-6.0100430191842333
20
2.8339309252659453
30
0
10
-5.9903008424609965
20
2.5967937951213806
30
0
10
-5.8409187134344807
20
2.5432625805856248
30
0
10
-5.659032098402327
20
2.285059823951189
30
0
10
-5.4620985762711802
20
2.205922277909619
30
0
10
-5.2511742371517354
20
2.1117015482827175
30
0
10
-5.105368926326638
20
2.0262958693342328
30
0
10
-4.9450398948998524
20
2.0696111729199997
30
0
10
-4.9304815176331269
20
2.0268253007328121
30
0
10
-4.9466251018667453
20
2.0000800590884253
30
0
10
-4.9494834242432351
20
1.9961321693628364
30
0
0
LINE
5
106
100
AcDbEntity
8
0
100
AcDbLine
10
-12.291167668486354
20
1.9961321256923512
30
0
11
-12.584608891421585
21
1.9961321133430472
31
0
0
SPLINE
5
107
100
AcDbEntity
8
0
100
AcDbSpline
70
0
71
4
72
42
73
37
74
0
42
0.000000001
43
0.0000000001
44
0.0000000001
40
-0.97691897284023155
40
-0.97691897284023155
40
-0.97691897284023155
40
-0.97691897284023155
40
-0.97691897284023155
40
-0.97484608439215437
40
-0.96770767149428383
40
-0.95999208660707436
40
-0.95176201863670284
40
-0.94392618676459938
40
-0.9370239115288852
40
-0.93117611365696284
40
-0.92618428890956483
40
-0.92173253543077005
40
-0.91718638439898881
40
-0.9121376859916176
40
-0.90722832212337723
40
-0.9024082132877016
40
-0.89803244961931983
40
-0.89414007174695365
40
-0.89045885071078335
40
-0.8867252577342597
40
-0.88280632665980485
40
-0.87889532048338515
40
-0.8751001259916471
40
-0.8712405091664891
40
-0.8672153902976445
40
-0.86316826375935896
40
-0.85828674005384642
40
-0.85297012913264214
40
-0.84716901598772243
40
-0.84055637868960775
40
-0.83360631657025175
40
-0.82645056606305145
40
-0.81915965828385329
40
-0.81184896180962896
40
-0.80504477870480695
40
-0.80190508803410721
40
-0.80190508803410721
40
-0.80190508803410721
40
-0.80190508803410721
40
-0.80190508803410721
10
-12.584608891421585
20
1.9961321133430472
30
0
10
-12.570703214809418
20
2.0052848694226779
30
0
10
-12.509410774502328
20
2.0508538934835561
30
0
10
-12.395111171748646
20
2.1723155652630903
30
0
10
-12.122143737320698
20
2.3697911071702893
30
0
10
-11.819246467651025
20
2.6076149216519875
30
0
10
-11.567266021088493
20
2.8036309057804334
30
0
10
-11.283278829476517
20
3.0226733514543933
30
0
10
-11.09383001084541
20
3.2241480748483866
30
0
10
-10.912503112216699
20
3.247084128781736
30
0
10
-10.908487001435818
20
3.4163615816967141
30
0
10
-10.743096724383648
20
3.2836442576588967
30
0
10
-10.626640524553398
20
3.2983360143726039
30
0
10
-10.520559063656505
20
3.4187265711160859
30
0
10
-10.312116431027903
20
3.3725429969447962
30
0
10
-10.251153074740648
20
3.430031196054439
30
0
10
-10.142710938249666
20
3.5083934772892817
30
0
10
-10.083792702735327
20
3.4895156079665344
30
0
10
-10.012885555348566
20
3.6409800146351592
30
0
10
-10.009206940505948
20
3.4940391748819244
30
0
10
-9.9326669556262992
20
3.4322388327794298
30
0
10
-9.8977533015819112
20
3.3543754225995124
30
0
10
-9.8525760879536648
20
3.2500812705158646
30
0
10
-9.929894776598406
20
3.2259225160998937
30
0
10
-10.054999471494451
20
3.2721264816857585
30
0
10
-10.183752335157436
20
3.3209284498153697
30
0
10
-10.25958722573106
20
3.3296632269991364
30
0
10
-10.476350772511966
20
3.1583190347899537
30
0
10
-10.62064368545134
20
3.0325623338595062
30
0
10
-10.853142123187979
20
2.8803792355720135
30
0
10
-11.033508603951027
20
2.6809293030101351
30
0
10
-11.288687965442341
20
2.4775478732413849
30
0
10
-11.519941720132325
20
2.294030751933092
30
0
10
-11.722503986350803
20
2.1624722845861784
30
0
10
-11.897867060516544
20
2.0568724704746715
30
0
10
-11.979945254744045
20
2.0098723626143369
30
0
10
-12.004139419921954
20
1.9961321176021019
30
0
0
LINE
5
108
100
AcDbEntity
8
0
100
AcDbLine
10
-12.004139419921954
20
1.9961321176021019
30
0
11
-12.291167668486354
21
1.9961321256923512
31
0
0
ARC
5
109
100
AcDbEntity
8
0
100
AcDbCircle
10
-5.5381905559106555
20
3.0735118198590734
30
0
40
0.037999312341208694
210
0
220
0
230
1
100
AcDbArc
50
114.30621721101606
51
248.98382032618687
0
LINE
5
110
100
AcDbEntity
8
0
100
AcDbLine
10
-5.5538315764859441
20
3.1081428206209365
30
0
11
-5.4238784645558287
21
3.1668358775007772
31
0
0
SPLINE
5
111
100
AcDbEntity
8
0
100
AcDbSpline
70
0
71
4
72
56
73
51
74
0
42
0.000000001
43
0.0000000001
44
0.0000000001
40
0
40
0
40
0
40
0
40
0
40
0.059158422560793802
40
0.079452949605616302
40
0.098625433881955299
40
0.11491565286672541
40
0.1319214826296746
40
0.14977142882300659
40
0.1673406761379502
40
0.18436916496704001
40
0.2016192055154471
40
0.21990437762289233
40
0.23874521488324829
40
0.25884153959034267
40
0.27652078233354282
40
0.2934185913764506
40
0.31069717059704305
40
0.32929760718189272
40
0.35180873130770213
40
0.37420498618357079
40
0.39679345281460249
40
0.41905615318566736
40
0.44059624111912121
40
0.46381497486519302
40
0.4876558495943486
40
0.51211565174530105
40
0.53581229694340216
40
0.55857899865498151
40
0.58001186050893216
40
0.59978934359728442
40
0.61847165100050905
40
0.63544919364793317
40
0.65225381351368517
40
0.66961193579006917
40
0.68796413509067078
40
0.70815792382024834
40
0.72932529602715424
40
0.7514369166919258
40
0.77271563218564865
40
0.79301976546854214
40
0.8124169690101275
40
0.83079084749322207
40
0.84990858746277065
40
0.86980021840379196
40
0.8909838155212626
40
0.91216517823818044
40
0.93250240241100157
40
0.95240820627974243
40
1
40
1
40
1
40
1
40
1
10
-5.4238784645558287
20
3.1668358775007772
30
0
10
-5.0945035375005725
20
3.2258662293216136
30
0
10
-5.2437939837783487
20
3.4159853245367833
30
0
10
-4.7291311309720436
20
3.5273664847298765
30
0
10
-4.6375874086111812
20
3.8805320749149645
30
0
10
-4.5079155418401191
20
3.8188766861556469
30
0
10
-4.3057995569093004
20
3.8445469022972407
30
0
10
-4.3272362838152354
20
4.0108538902069499
30
0
10
-4.0469511589875715
20
3.9877568167837953
30
0
10
-3.9266778046132105
20
4.0308952620900049
30
0
10
-3.7732774354521919
20
4.13326612772949
30
0
10
-3.6698926329483372
20
3.9707358849106571
30
0
10
-3.9481376973507909
20
3.8352206244110914
30
0
10
-4.0931508970518804
20
3.6978670976387402
30
0
10
-4.2020252270537775
20
3.5754037396653207
30
0
10
-4.3331985125063763
20
3.4943768163536642
30
0
10
-4.4562206485903397
20
3.3520492280257606
30
0
10
-4.1073560376390335
20
3.4226136452228526
30
0
10
-3.9924903194196451
20
3.3442077393313565
30
0
10
-3.7528697616270708
20
3.5391822254588958
30
0
10
-3.5091128383572636
20
3.8128314324470436
30
0
10
-3.3298175758764468
20
3.8899331618855473
30
0
10
-3.3438664218227041
20
4.1726277078804479
30
0
10
-3.1405369440126969
20
4.333624209431461
30
0
10
-2.9091256297698163
20
4.5136231626176286
30
0
10
-2.6044611312509169
20
4.6508471756695089
30
0
10
-2.3911550026258936
20
4.7546572460905772
30
0
10
-2.1591862375601174
20
4.968722576865491
30
0
10
-2.0538031654473263
20
5.1831786449518358
30
0
10
-1.8519588666078095
20
5.282041212920336
30
0
10
-1.7398495745445537
20
5.5339354332236397
30
0
10
-1.6077902300069806
20
5.3022247037535362
30
0
10
-1.5636507106783797
20
5.2187321718626762
30
0
10
-1.5078153436716015
20
4.9806944828342914
30
0
10
-1.3892701393564937
20
5.2497187529526279
30
0
10
-1.2530344467373946
20
5.3130376679111455
30
0
10
-1.123413914518353
20
5.5326250793948848
30
0
10
-1.1143487148474909
20
5.7896932081705694
30
0
10
-1.1105769264212144
20
5.9748257212770026
30
0
10
-0.95322954726167153
20
6.2416417346008153
30
0
10
-0.83686053078208889
20
6.345286972593235
30
0
10
-0.76180344172175374
20
6.5026722742451755
30
0
10
-0.61744053100125684
20
6.68235507708492
30
0
10
-0.46699341768365199
20
6.4352001633633975
30
0
10
-0.31204369322268061
20
6.3285874404355269
30
0
10
-0.1160787412896767
20
6.2057582078855091
30
0
10
0.077599217968286671
20
6.0662916219885172
30
0
10
0.34892681529542602
20
5.9802742561891042
30
0
10
0.35876414726464573
20
5.7230804568679225
30
0
10
0.24949324140071971
20
5.5524633707474793
30
0
10
0.34594944132488742
20
5.4553759651110996
30
0
0
ARC
5
112
100
AcDbEntity
8
0
100
AcDbCircle
10
0.5545745130970029
20
5.4985050721691886
30
0
40
0.21303647680044946
210
0
220
0
230
1
100
AcDbArc
50
191.68022998898851
51
250.10798549106366
0
SPLINE
5
113
100
AcDbEntity
8
0
100
AcDbSpline
70
0
71
4
72
59
73
54
74
0
42
0.000000001
43
0.0000000001
44
0.0000000001
40
0
40
0
40
0
40
0
40
0
40
0.038879983005014697
40
0.054488177767421694
40
0.071212504707041296
40
0.088681430976851203
40
0.1072006275247309
40
0.1277828463596857
40
0.14759638199007979
40
0.1670968289774569
40
0.18543240840050554
40
0.20287004335415648
40
0.22012025354317166
40
0.23660152268220039
40
0.25352488524262268
40
0.27034726567342671
40
0.28714424772492869
40
0.30421928426410472
40
0.32065040478375723
40
0.33660462409312808
40
0.35177679259263961
40
0.36777625227629113
40
0.3851717822734928
40
0.40391216622705439
40
0.42394985837623761
40
0.44476362896290211
40
0.46689986885604862
40
0.4901020103077538
40
0.51518080239949793
40
0.53931022678756624
40
0.56112718151441332
40
0.58083229945726478
40
0.59918910114898627
40
0.61793888997838653
40
0.63764870474022617
40
0.65884633168090212
40
0.68139216027165372
40
0.70460662841940147
40
0.72789580560495892
40
0.7511275460786786
40
0.77247179834680446
40
0.79173844479758371
40
0.81019946876217575
40
0.82791072595553383
40
0.84588188170594381
40
0.86364018703657142
40
0.88023178551438719
40
0.89759662739859891
40
0.9160884712796924
40
0.93527898522327202
40
0.95557844417891558
40
1
40
1
40
1
40
1
40
1
10
0.48208917226704573
20
5.2981792979604849
30
0
10
0.61563478150419437
20
5.128665923045455
30
0
10
0.62828565942371717
20
5.3035943350319101
30
0
10
0.5877954540277911
20
5.5468530620020369
30
0
10
0.61177614535348646
20
5.7594963771978982
30
0
10
0.68318776921020075
20
6.0127752489238944
30
0
10
0.71957407962334707
20
5.5115840373149565
30
0
10
0.87176640786096604
20
5.3975682069762891
30
0
10
0.93286562797377304
20
5.0914232532981156
30
0
10
1.1569346805315923
20
4.8870113013672647
30
0
10
1.3761495298776061
20
4.9169309735228559
30
0
10
1.4100835710629596
20
4.5736821500594766
30
0
10
1.6291226423916942
20
4.5182375700119213
30
0
10
1.5652572121217592
20
4.2837903369816912
30
0
10
1.645873471173348
20
4.1365465018875263
30
0
10
1.7745232457535245
20
4.0028130984848405
30
0
10
1.8652038506514566
20
3.800668030845566
30
0
10
2.0759207513138973
20
3.728559752923216
30
0
10
2.0170002369165156
20
3.5446649811068078
30
0
10
2.049307398712898
20
3.3288068220906704
30
0
10
1.9765224672332167
20
3.1996971457931278
30
0
10
2.0844890198397032
20
2.9739086953182547
30
0
10
1.8466284548899718
20
3.0354549029097497
30
0
10
1.6617952975999892
20
3.2321203154468874
30
0
10
1.4494916628871477
20
3.3979793475983016
30
0
10
1.1920375496136606
20
3.5055121569722436
30
0
10
1.0972447736152169
20
3.7564757114679241
30
0
10
0.62213331004921846
20
3.6134116446763134
30
0
10
0.20179481662691853
20
3.6513184734938755
30
0
10
-0.098769953198405841
20
3.7734394476976729
30
0
10
-0.53309679098063933
20
3.838416810277308
30
0
10
-0.72240171532678754
20
4.0802189109505225
30
0
10
-0.94719370074807796
20
4.1198893763882118
30
0
10
-1.0394308779628523
20
4.394208633379562
30
0
10
-1.3019223329270342
20
4.0732016327758345
30
0
10
-1.5520030495272992
20
3.9905501393054625
30
0
10
-1.7753188348408031
20
3.7523402313798404
30
0
10
-2.0175783094800286
20
3.5979795606486995
30
0
10
-2.3830502373667608
20
3.4174613304247661
30
0
10
-2.7475545987042356
20
3.2730301808071527
30
0
10
-3.0022314460079507
20
3.1626905145827329
30
0
10
-3.3045039583285569
20
3.0654914418409231
30
0
10
-3.496023022085915
20
2.9832595901524814
30
0
10
-3.7293692604986135
20
3.0933349488574438
30
0
10
-3.8341848147247775
20
2.8158546847692874
30
0
10
-3.9286126971986026
20
2.6666669441687021
30
0
10
-4.1209165871499858
20
2.5191821909899144
30
0
10
-4.2586548221250462
20
2.4163072977578093
30
0
10
-4.3944318328757568
20
2.3291334958700176
30
0
10
-4.6573287346760894
20
2.5670309133101408
30
0
10
-5.0441028695507679
20
2.6927295684308912
30
0
10
-5.1672089471192368
20
2.8661146794804684
30
0
10
-5.3961749375082002
20
2.933474111916337
30
0
10
-5.4734727547696824
20
2.9739151913596955
30
0
0
LINE
5
114
100
AcDbEntity
8
0
100
AcDbLine
10
-5.4734727547696815
20
2.9739151913596955
30
0
11
-5.5518183088672561
21
3.0380402525444108
31
0
0
SPLINE
5
115
100
AcDbEntity
8
0
100
AcDbSpline
70
2
71
5
72
56
73
50
74
0
42
0.000000001
43
0.0000000001
44
0.0000000001
40
-1
40
-1
40
-1
40
-1
40
-1
40
-1
40
-0.96526663286671943
40
-0.94497622898997435
40
-0.92013916356682324
40
-0.89977082319932511
40
-0.88136401025024835
40
-0.86119725597456931
40
-0.84136670525166424
40
-0.8221147954016822
40
-0.80180204974219649
40
-0.78169820126853651
40
-0.76372147338444218
40
-0.74650200311349391
40
-0.72968457663781072
40
-0.71137334756662496
40
-0.6924621642629698
40
-0.67219225182195685
40
-0.65165660038605755
40
-0.63165033875369136
40
-0.61349159161066802
40
-0.59344196403296556
40
-0.57135537912756817
40
-0.54779315174752363
40
-0.5214363129101186
40
-0.49278660879170388
40
-0.46686939890419588
40
-0.44466229728333362
40
-0.42281861695826278
40
-0.40049167892727722
40
-0.3777923097686321
40
-0.35240880932271973
40
-0.32412408617218119
40
-0.29585293786631978
40
-0.26968482933970839
40
-0.24489444305798269
40
-0.2222247778580157
40
-0.20086192853716434
40
-0.1796742924403876
40
-0.15798676322425106
40
-0.1358030486622967
40
-0.1133990800480804
40
-0.090374330322938304
40
-0.067054661078972899
40
-0.044506739071294092
40
-0.0265212328123751
40
0
40
0
40
0
40
0
40
0
40
0
10
2.9675064489170038
20
4.1280973893203603
30
0
10
2.9623455030819885
20
4.1715911147595577
30
0
10
3.0408765491537464
20
4.2728084118868752
30
0
10
3.3931349323315163
20
4.5097232519401684
30
0
10
3.5695564232885566
20
4.4985912061828799
30
0
10
3.7841559223133165
20
4.7818600991080897
30
0
10
3.7836367033323932
20
4.4869545577609697
30
0
10
3.8637698697638614
20
4.1587058821104774
30
0
10
3.9626636298137097
20
4.2414554617834836
30
0
10
4.0001432927057072
20
4.4475615088172091
30
0
10
4.0712975151859068
20
4.6431191216331307
30
0
10
4.1612305742037767
20
4.8627844207990281
30
0
10
4.269833564413922
20
4.8339995533765201
30
0
10
4.520436240569583
20
5.0284282681896766
30
0
10
4.3724386310568386
20
4.7594943195095434
30
0
10
4.4664226134524885
20
4.6135881787937452
30
0
10
4.6152973357518725
20
4.8407208896874341
30
0
10
4.7403698628493771
20
4.658977927763698
30
0
10
4.8924859112075945
20
4.5549600308634002
30
0
10
4.9590295095613488
20
4.3244877655414031
30
0
10
5.1891405411831997
20
4.3904922779942819
30
0
10
5.1684234265650852
20
3.9438754630709107
30
0
10
5.3725459035714147
20
4.3395587787622789
30
0
10
5.3963303685248993
20
3.9774134692596168
30
0
10
5.7142334228855258
20
3.7658422528828077
30
0
10
5.8737444644304171
20
3.4118305928033568
30
0
10
6.0624441715282371
20
3.3301788046771961
30
0
10
6.3684489273143097
20
3.0604878935929798
30
0
10
6.4409663411594948
20
2.8510497752812602
30
0
10
6.8305766611864698
20
2.7916448494691846
30
0
10
6.5413451781089416
20
2.6195509183896326
30
0
10
6.3312397746488385
20
2.8676243387659213
30
0
10
5.9346049843935953
20
2.9979505807852336
30
0
10
5.7144034734214229
20
2.9774702473894221
30
0
10
5.3628398827670285
20
3.280929560525085
30
0
10
5.1036626075179674
20
3.3639654954265645
30
0
10
4.9636065060183929
20
3.667505656533228
30
0
10
4.7412116207874684
20
3.6546044099305446
30
0
10
4.8170601549207275
20
4.1171722393909054
30
0
10
4.5175583568198254
20
3.7814629961592341
30
0
10
4.3864212258712065
20
3.9296706759161473
30
0
10
4.1624737986352303
20
3.6615511059520727
30
0
10
3.9687303375554506
20
3.7330765000522375
30
0
10
3.6672848511163791
20
3.6087633251558118
30
0
10
3.6285547213787508
20
3.9087566555687432
30
0
10
3.3004100234796803
20
3.8479981978328026
30
0
10
3.2374736602673995
20
4.0475338953232143
30
0
10
3.0316123427544093
20
4.0591137165117512
30
0
10
2.9714471738544295
20
4.0948870410744149
30
0
10
2.9675064489170038
20
4.1280973893203603
30
0
0
LINE
5
116
100
AcDbEntity
8
0
100
AcDbLine
10
8.1233278011237022
20
1.9961322652843665
30
0
11
8.0059766686909111
21
2.1747772977839368
31
0
0
SPLINE
5
117
100
AcDbEntity
8
0
100
AcDbSpline
70
0
71
4
72
46
73
41
74
0
42
0.000000001
43
0.0000000001
44
0.0000000001
40
-0.74033532690392501
40
-0.74033532690392501
40
-0.74033532690392501
40
-0.74033532690392501
40
-0.74033532690392501
40
-0.73918052789167232
40
-0.73479637481617233
40
-0.72985977061109342
40
-0.72493832826322213
40
-0.72053407878868703
40
-0.71657849278302377
40
-0.71272119521798205
40
-0.7086677050258392
40
-0.70409593403186399
40
-0.69903511195758905
40
-0.69422270863162372
40
-0.68990238886242095
40
-0.68593361222925353
40
-0.68232272744507405
40
-0.67879000644292686
40
-0.67488080098425485
40
-0.67087403912413035
40
-0.66683618887088358
40
-0.66242839793808816
40
-0.65776552831581658
40
-0.65255558087599408
40
-0.64693411093752495
40
-0.64140423981033945
40
-0.63611394537136745
40
-0.63164343287712565
40
-0.62795512180740665
40
-0.62461119499669437
40
-0.62160947277963918
40
-0.61835927920658118
40
-0.61469587607317011
40
-0.61067908663660975
40
-0.60620123008821902
40
-0.60148226089764045
40
-0.59677956105996133
40
-0.59240055867413366
40
-0.58833215507763525
40
-0.58625190849854025
40
-0.58625190849854025
40
-0.58625190849854025
40
-0.58625190849854025
40
-0.58625190849854025
10
8.0059766686909111
20
2.1747772977839368
30
0
10
8.0006928374555883
20
2.1814639062866132
30
0
10
7.9647947656157436
20
2.2155847631318974
30
0
10
7.8112275063387848
20
2.2943851623226275
30
0
10
7.6892475957095705
20
2.3546473496448321
30
0
10
7.4361496639707214
20
2.5068858907287406
30
0
10
7.1490518429741368
20
2.5154769868146754
30
0
10
7.0637144678189205
20
2.7604049268675102
30
0
10
7.2610525310253466
20
2.7768783192886048
30
0
10
7.0846886163463791
20
2.9771853112219082
30
0
10
6.9145619820425397
20
3.0906328765306883
30
0
10
6.7783668330156281
20
3.2101536698202193
30
0
10
6.5808837333564636
20
3.3735966090874321
30
0
10
6.5090971089153316
20
3.6051548397207722
30
0
10
6.2737327699428604
20
3.834872114886489
30
0
10
6.4282024857643378
20
3.812904768553
30
0
10
6.5434075710678172
20
3.8127659930585129
30
0
10
6.7447415290479764
20
3.8222643988941774
30
0
10
6.8502540747593068
20
3.796319626783383
30
0
10
7.0364482529941776
20
3.7843073284426318
30
0
10
7.1433017473981746
20
3.6482999516472461
30
0
10
7.3048227681388784
20
3.530192947933648
30
0
10
7.5079226579376446
20
3.3360636966442074
30
0
10
7.660034852241032
20
3.1792371562641453
30
0
10
7.9996578341857658
20
3.0194114960945528
30
0
10
8.2958841111877923
20
2.8729024749897745
30
0
10
8.5202653860634054
20
2.7831704106574611
30
0
10
8.64629959331908
20
2.7164683367567051
30
0
10
8.8188486851864631
20
2.6746713036693581
30
0
10
8.7654917786835984
20
2.7991393493565528
30
0
10
8.6237718298400452
20
2.9290329332530542
30
0
10
8.8139218031149582
20
2.8808980618395803
30
0
10
8.8734736636741403
20
2.766219374320253
30
0
10
9.0598346803754914
20
2.6437887099058681
30
0
10
9.2305102640425112
20
2.5124876820842914
30
0
10
9.3890767919271649
20
2.4145691487888801
30
0
10
9.5866339831091167
20
2.2985913972107581
30
0
10
9.7204007904628718
20
2.1797600751596149
30
0
10
9.7971089813395782
20
2.1015778873343018
30
0
10
9.8431887624966024
20
2.0870461185073217
30
0
10
9.8590001489861105
20
2.0852626304139896
30
0
0
LINE
5
118
100
AcDbEntity
8
0
100
AcDbLine
10
9.8590001489861123
20
2.0852626304139896
30
0
11
9.8590001496400816
21
1.9961322780176245
31
0
0
LINE
5
119
100
AcDbEntity
8
0
100
AcDbLine
10
9.8590001496400816
20
1.9961322780176245
30
0
11
8.1233278011237022
21
1.9961322652843665
31
0
0
SPLINE
5
120
100
AcDbEntity
8
0
100
AcDbSpline
70
2
71
5
72
40
73
34
74
0
42
0.000000001
43
0.0000000001
44
0.0000000001
40
0
40
0
40
0
40
0
40
0
40
0
40
0.024339228815999599
40
0.044234273775540602
40
0.070608140595925697
40
0.10174825093347881
40
0.13646697877734401
40
0.17208577222476859
40
0.20783934975544521
40
0.2436534971735182
40
0.27942846385079667
40
0.31584253120531008
40
0.3531773319387192
40
0.39184366449389291
40
0.43086949166808403
40
0.46778028118835968
40
0.5011791220833276
40
0.53271218327569259
40
0.56126103231274016
40
0.58865065771445557
40
0.61717301871911057
40
0.64850700626641533
40
0.68266923425008397
40
0.7169639681756097
40
0.75158317458548995
40
0.78664137930374367
40
0.82373242302207383
40
0.8627393739441731
40
0.90558083593620842
40
0.9423581627119636
40
1
40
1
40
1
40
1
40
1
40
1
10
-5.7030923771003579
20
6.2070685272836359
30
0
10
-5.6872299333775231
20
6.2146435559365898
30
0
10
-5.6630693242459156
20
6.2195717558690573
30
0
10
-5.6424684837856445
20
6.1986639949419278
30
0
10
-5.6806831906889492
20
6.1003561803506887
30
0
10
-5.7707584991133087
20
6.0806068290809705
30
0
10
-5.8271485838127566
20
5.8997811623781198
30
0
10
-5.8813546078898291
20
5.845936010305266
30
0
10
-5.9745509990736831
20
5.6023084886272008
30
0
10
-6.1525384290275289
20
5.5361322053828017
30
0
10
-6.2413014568917919
20
5.4262180733738408
30
0
10
-6.2552817592705292
20
5.2151618901693633
30
0
10
-6.4235768528933423
20
5.1930408294110437
30
0
10
-6.5863327421405096
20
5.045283178755696
30
0
10
-6.8210977503400008
20
4.973168488410515
30
0
10
-6.9031050044152966
20
4.9178044805619603
30
0
10
-7.1795139664719274
20
4.756618214712419
30
0
10
-7.2172134924213651
20
4.854991087052988
30
0
10
-7.5121998547268083
20
4.6877615914964332
30
0
10
-7.4075315505360297
20
4.8870314947989399
30
0
10
-7.2943615482457078
20
4.8689969413812193
30
0
10
-7.2599242104260515
20
4.9967358326748021
30
0
10
-7.1790699323890665
20
5.0530714831479182
30
0
10
-7.052006091441716
20
5.2084140925840927
30
0
10
-6.9210421040256032
20
5.2384625853196383
30
0
10
-6.7896138834532529
20
5.5037035388836246
30
0
10
-6.7137969870610323
20
5.5350432976835595
30
0
10
-6.5051921179647376
20
5.4355261342525676
30
0
10
-6.4426709748331676
20
5.7414758578295375
30
0
10
-6.1660020272443612
20
5.8384974016852169
30
0
10
-5.9622708635118276
20
5.9317821073334276
30
0
10
-5.825790918942511
20
6.1150622126626892
30
0
10
-5.7406589083563047
20
6.1891288229336467
30
0
10
-5.7030923771003579
20
6.2070685272836359
30
0
0
LWPOLYLINE
5
121
100
AcDbEntity
8
0
100
AcDbPolyline
90
3
70
1
43
0.0
10
7.4587600286771334
20
2.0596972968780101
10
7.5357699923237327
20
1.9961322609731715
0
LWPOLYLINE
5
122
100
AcDbEntity
8
0
100
AcDbPolyline
90
4
70
1
43
0.0
10
-12.584060887299803
20
1.289025344505804
10
9.6669811646434649
20
1.289025344505804
10
9.6669811646434649
20
-3.2367610931210997
10
-12.584060887299803
20
-3.2367610931210997
0
LWPOLYLINE
5
123
100
AcDbEntity
8
0
100
AcDbPolyline
90
5
70
1
43
0.0
10
-13.291167668486352
20
1.9961321256923508
10
-13.291167668486347
20
-3.9438678743076485
10
10.374087945830013
20
-3.9438678743076485
10
10.374087945830011
20
1.9961322817992813
0
ENDSEC
0
SECTION
2
OBJECTS
0
DICTIONARY
5
C
100
AcDbDictionary
3
ACAD_GROUP
350
D
3
ACAD_MLINESTYLE
350
17
0
DICTIONARY
5
D
100
AcDbDictionary
0
DICTIONARY
5
1A
330
C
100
AcDbDictionary
0
DICTIONARY
5
17
100
AcDbDictionary
0
ENDSEC
0
EOF
