0
SECTION
2
HEADER
9
$INSUNITS
70
1
9
$ACADVER
1
AC1014
9
$HANDSEED
5
FFFF
0
ENDSEC
0
SECTION
2
TABLES
0
TABLE
2
VPORT
5
8
100
AcDbSymbolTable
0
ENDTAB
0
TABLE
2
LTYPE
5
5
100
AcDbSymbolTable
0
LTYPE
5
14
100
AcDbSymbolTableRecord
100
AcDbLinetypeTableRecord
2
BYBLOCK
70
0
0
LTYPE
5
15
100
AcDbSymbolTableRecord
100
AcDbLinetypeTableRecord
2
BYLAYER
70
0
0
ENDTAB
0
TABLE
2
LAYER
5
2
100
AcDbSymbolTable
70
2
0
LAYER
5
50
100
AcDbSymbolTableRecord
100
AcDbLayerTableRecord
2
0
70
0
6
CONTINUOUS
0
ENDTAB
0
TABLE
2
STYLE
5
3
100
AcDbSymbolTable
70
1
0
STYLE
5
11
100
AcDbSymbolTableRecord
100
AcDbTextStyleTableRecord
2
STANDARD
70
0
0
ENDTAB
0
TABLE
2
VIEW
5
6
100
AcDbSymbolTable
70
0
0
ENDTAB
0
TABLE
2
UCS
5
7
100
AcDbSymbolTable
70
0
0
ENDTAB
0
TABLE
2
APPID
5
9
100
AcDbSymbolTable
70
2
0
APPID
5
12
100
AcDbSymbolTableRecord
100
AcDbRegAppTableRecord
2
ACAD
70
0
0
ENDTAB
0
TABLE
2
DIMSTYLE
5
A
100
AcDbSymbolTable
70
1
0
ENDTAB
0
TABLE
2
BLOCK_RECORD
5
1
100
AcDbSymbolTable
70
1
0
BLOCK_RECORD
5
1F
100
AcDbSymbolTableRecord
100
AcDbBlockTableRecord
2
*MODEL_SPACE
0
BLOCK_RECORD
5
1B
100
AcDbSymbolTableRecord
100
AcDbBlockTableRecord
2
*PAPER_SPACE
0
ENDTAB
0
ENDSEC
0
SECTION
2
BLOCKS
0
BLOCK
5
20
100
AcDbEntity
100
AcDbBlockBegin
2
*MODEL_SPACE
0
ENDBLK
5
21
100
AcDbEntity
100
AcDbBlockEnd
0
BLOCK
5
1C
100
AcDbEntity
100
AcDbBlockBegin
2
*PAPER_SPACE
0
ENDBLK
5
1D
100
AcDbEntity
100
AcDbBlockEnd
0
ENDSEC
0
SECTION
2
ENTITIES
0
LWPOLYLINE
5
100
100
AcDbEntity
8
0
100
AcDbPolyline
90
9
70
1
43
0.0
10
17.624999999999996
20
-41.499999999999993
10
-17.624999999999989
20
-41.5
42
-0.41421356237308848
10
-17.75
20
-41.375000000000007
10
-17.75
20
41.375
42
-0.41421356237308193
10
-17.624999999999996
20
41.5
10
17.624999999999996
20
41.499999999999993
42
-0.41421356237308193
10
17.75
20
41.375
10
17.75
20
-33.5
10
17.749999999999996
20
-41.375
42
-0.41421356237308193
0
LWPOLYLINE
5
101
100
AcDbEntity
8
0
100
AcDbPolyline
90
8
70
1
43
0.0
10
14.75
20
38.375
10
14.75
20
-33.374999999999986
42
-0.41421356237308848
10
14.624999999999998
20
-33.5
10
-14.625000000000005
20
-33.5
42
-0.41421356237305573
10
-14.750000000000004
20
-33.375
10
-14.75
20
38.374999999999993
42
-0.41421356237308848
10
-14.624999999999998
20
38.5
10
14.624999999999998
20
38.5
42
-0.41421356237307538
0
LINE
5
102
100
AcDbEntity
8
0
100
AcDbLine
10
-17.624999999999996
20
41.5
30
0
11
-14.75
21
41.5
31
0
0
CIRCLE
5
103
100
AcDbEntity
8
0
100
AcDbCircle
10
17.25
20
41
30
0
40
0.057500000000000002
210
0
220
0
230
1
0
CIRCLE
5
104
100
AcDbEntity
8
0
100
AcDbCircle
10
17.25
20
27.333999999999996
30
0
40
0.057500000000000002
210
0
220
0
230
1
0
CIRCLE
5
105
100
AcDbEntity
8
0
100
AcDbCircle
10
17.25
20
13.668000000000003
30
0
40
0.057499999999999572
210
0
220
0
230
1
0
CIRCLE
5
106
100
AcDbEntity
8
0
100
AcDbCircle
10
17.25
20
0.0020000000000026121
30
0
40
0.057500000000000162
210
0
220
0
230
1
0
CIRCLE
5
107
100
AcDbEntity
8
0
100
AcDbCircle
10
17.25
20
-13.663999999999998
30
0
40
0.057500000000000676
210
0
220
0
230
1
0
CIRCLE
5
108
100
AcDbEntity
8
0
100
AcDbCircle
10
17.25
20
-27.329999999999998
30
0
40
0.057500000000000807
210
0
220
0
230
1
0
CIRCLE
5
109
100
AcDbEntity
8
0
100
AcDbCircle
10
15.250000000000002
20
-27.329999999999998
30
0
40
0.057500000000000162
210
0
220
0
230
1
0
CIRCLE
5
110
100
AcDbEntity
8
0
100
AcDbCircle
10
15.249999999999998
20
-13.663999999999998
30
0
40
0.05749999999999917
210
0
220
0
230
1
0
CIRCLE
5
111
100
AcDbEntity
8
0
100
AcDbCircle
10
15.249999999999996
20
0.0020000000000026121
30
0
40
0.057499999999999565
210
0
220
0
230
1
0
CIRCLE
5
112
100
AcDbEntity
8
0
100
AcDbCircle
10
15.249999999999993
20
13.668000000000003
30
0
40
0.057500000000000447
210
0
220
0
230
1
0
CIRCLE
5
113
100
AcDbEntity
8
0
100
AcDbCircle
10
15.249999999999989
20
27.334000000000003
30
0
40
0.057500000000000162
210
0
220
0
230
1
0
CIRCLE
5
114
100
AcDbEntity
8
0
100
AcDbCircle
10
8.6249999999999964
20
41
30
0
40
0.057500000000001661
210
0
220
0
230
1
0
CIRCLE
5
115
100
AcDbEntity
8
0
100
AcDbCircle
10
-2.7949824815125685e-15
20
41
30
0
40
0.057500000000000134
210
0
220
0
230
1
0
CIRCLE
5
116
100
AcDbEntity
8
0
100
AcDbCircle
10
-17.25
20
41
30
0
40
0.05749999999999926
210
0
220
0
230
1
0
CIRCLE
5
117
100
AcDbEntity
8
0
100
AcDbCircle
10
-17.25
20
41
30
0
40
0.057500000000000002
210
0
220
0
230
1
0
CIRCLE
5
118
100
AcDbEntity
8
0
100
AcDbCircle
10
-15.249999999999998
20
-13.663999999999998
30
0
40
0.05749999999999917
210
0
220
0
230
1
0
CIRCLE
5
119
100
AcDbEntity
8
0
100
AcDbCircle
10
-17.25
20
-27.329999999999991
30
0
40
0.057500000000000807
210
0
220
0
230
1
0
CIRCLE
5
120
100
AcDbEntity
8
0
100
AcDbCircle
10
-17.25
20
-13.663999999999998
30
0
40
0.057500000000000676
210
0
220
0
230
1
0
CIRCLE
5
121
100
AcDbEntity
8
0
100
AcDbCircle
10
-15.249999999999989
20
27.334000000000003
30
0
40
0.057499999999999683
210
0
220
0
230
1
0
CIRCLE
5
122
100
AcDbEntity
8
0
100
AcDbCircle
10
-17.25
20
27.333999999999996
30
0
40
0.057499999999999642
210
0
220
0
230
1
0
CIRCLE
5
123
100
AcDbEntity
8
0
100
AcDbCircle
10
-15.249999999999993
20
13.668000000000003
30
0
40
0.0575000000000013
210
0
220
0
230
1
0
CIRCLE
5
124
100
AcDbEntity
8
0
100
AcDbCircle
10
-17.25
20
13.668000000000003
30
0
40
0.05750000000000096
210
0
220
0
230
1
0
CIRCLE
5
125
100
AcDbEntity
8
0
100
AcDbCircle
10
-15.249999999999996
20
0.0020000000000026121
30
0
40
0.057499999999999434
210
0
220
0
230
1
0
CIRCLE
5
126
100
AcDbEntity
8
0
100
AcDbCircle
10
-17.25
20
0.0020000000000026121
30
0
40
0.057499999999999926
210
0
220
0
230
1
0
CIRCLE
5
127
100
AcDbEntity
8
0
100
AcDbCircle
10
-15.249999999999998
20
-13.663999999999998
30
0
40
0.057499999999999857
210
0
220
0
230
1
0
CIRCLE
5
128
100
AcDbEntity
8
0
100
AcDbCircle
10
17.25
20
-40.995999999999988
30
0
40
0.057500000000000002
210
0
220
0
230
1
0
CIRCLE
5
129
100
AcDbEntity
8
0
100
AcDbCircle
10
-2.7974123455122052e-15
20
-40.995999999999995
30
0
40
0.057500000000000134
210
0
220
0
230
1
0
CIRCLE
5
130
100
AcDbEntity
8
0
100
AcDbCircle
10
-17.25
20
-40.995999999999995
30
0
40
0.05749999999999926
210
0
220
0
230
1
0
CIRCLE
5
131
100
AcDbEntity
8
0
100
AcDbCircle
10
15.247401416353968
20
-34.000099999999996
30
0
40
0.057499999999998601
210
0
220
0
230
1
0
CIRCLE
5
132
100
AcDbEntity
8
0
100
AcDbCircle
10
5.087401416353968
20
-34.000099999999982
30
0
40
0.057499999999998788
210
0
220
0
230
1
0
CIRCLE
5
133
100
AcDbEntity
8
0
100
AcDbCircle
10
-5.090000000000007
20
-34.000099999999982
30
0
40
0.057499999999999933
210
0
220
0
230
1
0
CIRCLE
5
134
100
AcDbEntity
8
0
100
AcDbCircle
10
-15.250000000000007
20
-34.000099999999975
30
0
40
0.05750000000000071
210
0
220
0
230
1
0
LINE
5
135
100
AcDbEntity
8
0
100
AcDbLine
10
15.192500736405403
20
38.50607603282694
30
0
11
15.249999999999989
21
38.506367041555798
31
0
0
CIRCLE
5
136
100
AcDbEntity
8
0
100
AcDbCircle
10
-15.250000000000007
20
-34.000099999999975
30
0
40
0.057500000000000731
210
0
220
0
230
1
0
CIRCLE
5
137
100
AcDbEntity
8
0
100
AcDbCircle
10
8.6249999999999964
20
-40.995999999999995
30
0
40
0.057499999999999385
210
0
220
0
230
1
0
CIRCLE
5
138
100
AcDbEntity
8
0
100
AcDbCircle
10
-8.6249999999999964
20
-40.995999999999995
30
0
40
0.057499999999999385
210
0
220
0
230
1
0
CIRCLE
5
139
100
AcDbEntity
8
0
100
AcDbCircle
10
-8.6249999999999964
20
-40.995999999999995
30
0
40
0.077499999999998917
210
0
220
0
230
1
0
CIRCLE
5
140
100
AcDbEntity
8
0
100
AcDbCircle
10
-2.7974123455122052e-15
20
-40.995999999999995
30
0
40
0.057499999999998747
210
0
220
0
230
1
0
CIRCLE
5
141
100
AcDbEntity
8
0
100
AcDbCircle
10
-8.6249999999999964
20
41
30
0
40
0.057500000000001446
210
0
220
0
230
1
0
CIRCLE
5
142
100
AcDbEntity
8
0
100
AcDbCircle
10
-15.250000000000004
20
-27.329999999999991
30
0
40
0.057499999999998483
210
0
220
0
230
1
0
LINE
5
143
100
AcDbEntity
8
0
100
AcDbLine
10
-17.192499999999999
20
0.0020000000000026121
30
0
11
-17.25
21
0.0020000000000026121
31
0
0
LINE
5
144
100
AcDbEntity
8
0
100
AcDbLine
10
-15.192499999999997
20
0.0020000000000026121
30
0
11
-15.307499999999994
21
0.0020000000000026121
31
0
0
LINE
5
145
100
AcDbEntity
8
0
100
AcDbLine
10
18.999999714648627
20
38.999999414278761
30
0
11
19.357918247010996
21
38.999999414278761
31
0
0
CIRCLE
5
146
100
AcDbEntity
8
0
100
AcDbCircle
10
-15.247999999999999
20
38.999999414278761
30
0
40
0.057500000000000002
210
0
220
0
230
1
0
CIRCLE
5
147
100
AcDbEntity
8
0
100
AcDbCircle
10
15.250000000000002
20
38.999999414278761
30
0
40
0.05750000000000096
210
0
220
0
230
1
0
CIRCLE
5
148
100
AcDbEntity
8
0
100
AcDbCircle
10
-5.081999999999999
20
38.999999414278761
30
0
40
0.057499999999997435
210
0
220
0
230
1
0
CIRCLE
5
149
100
AcDbEntity
8
0
100
AcDbCircle
10
5.0840000000000014
20
38.999999414278761
30
0
40
0.05750000000000105
210
0
220
0
230
1
0
LINE
5
150
100
AcDbEntity
8
0
100
AcDbLine
10
15.250000000000002
20
-27.329999999999998
30
0
11
15.307500000000003
21
-27.329999999999998
31
0
0
LINE
5
151
100
AcDbEntity
8
0
100
AcDbLine
10
17.192499999999999
20
-27.329999999999998
30
0
11
17.25
21
-27.329999999999998
31
0
0
LINE
5
152
100
AcDbEntity
8
0
100
AcDbLine
10
15.249999999999998
20
-13.663999999999998
30
0
11
15.307499999999997
21
-13.663999999999998
31
0
0
LINE
5
153
100
AcDbEntity
8
0
100
AcDbLine
10
17.192499999999999
20
-13.663999999999998
30
0
11
17.25
21
-13.663999999999998
31
0
0
ENDSEC
0
SECTION
2
OBJECTS
0
DICTIONARY
5
C
100
AcDbDictionary
3
ACAD_GROUP
350
D
3
ACAD_MLINESTYLE
350
17
0
DICTIONARY
5
D
100
AcDbDictionary
0
DICTIONARY
5
1A
330
C
100
AcDbDictionary
0
DICTIONARY
5
17
100
AcDbDictionary
0
ENDSEC
0
EOF
