0
SECTION
2
HEADER
9
$INSUNITS
70
1
9
$ACADVER
1
AC1014
9
$HANDSEED
5
FFFF
0
ENDSEC
0
SECTION
2
TABLES
0
TABLE
2
VPORT
5
8
100
AcDbSymbolTable
0
ENDTAB
0
TABLE
2
LTYPE
5
5
100
AcDbSymbolTable
0
LTYPE
5
14
100
AcDbSymbolTableRecord
100
AcDbLinetypeTableRecord
2
BYBLOCK
70
0
0
LTYPE
5
15
100
AcDbSymbolTableRecord
100
AcDbLinetypeTableRecord
2
BYLAYER
70
0
0
ENDTAB
0
TABLE
2
LAYER
5
2
100
AcDbSymbolTable
70
2
0
LAYER
5
50
100
AcDbSymbolTableRecord
100
AcDbLayerTableRecord
2
0
70
0
6
CONTINUOUS
0
ENDTAB
0
TABLE
2
STYLE
5
3
100
AcDbSymbolTable
70
1
0
STYLE
5
11
100
AcDbSymbolTableRecord
100
AcDbTextStyleTableRecord
2
STANDARD
70
0
0
ENDTAB
0
TABLE
2
VIEW
5
6
100
AcDbSymbolTable
70
0
0
ENDTAB
0
TABLE
2
UCS
5
7
100
AcDbSymbolTable
70
0
0
ENDTAB
0
TABLE
2
APPID
5
9
100
AcDbSymbolTable
70
2
0
APPID
5
12
100
AcDbSymbolTableRecord
100
AcDbRegAppTableRecord
2
ACAD
70
0
0
ENDTAB
0
TABLE
2
DIMSTYLE
5
A
100
AcDbSymbolTable
70
1
0
ENDTAB
0
TABLE
2
BLOCK_RECORD
5
1
100
AcDbSymbolTable
70
1
0
BLOCK_RECORD
5
1F
100
AcDbSymbolTableRecord
100
AcDbBlockTableRecord
2
*MODEL_SPACE
0
BLOCK_RECORD
5
1B
100
AcDbSymbolTableRecord
100
AcDbBlockTableRecord
2
*PAPER_SPACE
0
ENDTAB
0
ENDSEC
0
SECTION
2
BLOCKS
0
BLOCK
5
20
100
AcDbEntity
100
AcDbBlockBegin
2
*MODEL_SPACE
0
ENDBLK
5
21
100
AcDbEntity
100
AcDbBlockEnd
0
BLOCK
5
1C
100
AcDbEntity
100
AcDbBlockBegin
2
*PAPER_SPACE
0
ENDBLK
5
1D
100
AcDbEntity
100
AcDbBlockEnd
0
ENDSEC
0
SECTION
2
ENTITIES
0
SPLINE
5
100
100
AcDbEntity
8
0
100
AcDbSpline
70
4
71
3
72
8
73
4
74
0
42
0.000000001
43
0.0000000001
44
0.0000000001
40
-1
40
-1
40
-1
40
-1
40
0
40
0
40
0
40
0
41
1
41
1
41
1
41
1
10
5.2299887339274092
20
-0.42818665504455572
30
0
10
5.2212743759155282
20
-0.4692226648330689
30
0
10
5.2281239827473955
20
-0.51203246911366784
30
0
10
5.2492062250773115
20
-0.54830121994018544
30
0
0
SPLINE
5
101
100
AcDbEntity
8
0
100
AcDbSpline
70
4
71
3
72
8
73
4
74
0
42
0.000000001
43
0.0000000001
44
0.0000000001
40
-1
40
-1
40
-1
40
-1
40
0
40
0
40
0
40
0
41
1
41
1
41
1
41
1
10
5.2492062250773115
20
-0.54830121994018544
30
0
10
5.5580069224039717
20
-1.0013165473937988
30
0
10
5.8659006754557295
20
-1.4549498558044431
30
0
10
6.1728865305582685
20
-1.909197489420573
30
0
0
SPLINE
5
102
100
AcDbEntity
8
0
100
AcDbSpline
70
4
71
3
72
8
73
4
74
0
42
0.000000001
43
0.0000000001
44
0.0000000001
40
-1
40
-1
40
-1
40
-1
40
0
40
0
40
0
40
0
41
1
41
1
41
1
41
1
10
6.1728865305582685
20
-1.909197489420573
30
0
10
6.1337254842122393
20
-1.9567255973815918
30
0
10
6.0815442403157558
20
-1.9917909304300947
30
0
10
6.0227432250976554
20
-2.0100940068562827
30
0
0
SPLINE
5
103
100
AcDbEntity
8
0
100
AcDbSpline
70
4
71
3
72
8
73
4
74
0
42
0.000000001
43
0.0000000001
44
0.0000000001
40
-1
40
-1
40
-1
40
-1
40
0
40
0
40
0
40
0
41
1
41
1
41
1
41
1
10
6.0227432250976554
20
-2.0100940068562827
30
0
10
5.7378260294596357
20
-1.5885950724283855
30
0
10
5.4495429992675772
20
-1.1693822542826335
30
0
10
5.1579192479451503
20
-0.75249592463175452
30
0
0
SPLINE
5
104
100
AcDbEntity
8
0
100
AcDbSpline
70
4
71
3
72
8
73
4
74
0
42
0.000000001
43
0.0000000001
44
0.0000000001
40
-1
40
-1
40
-1
40
-1
40
0
40
0
40
0
40
0
41
1
41
1
41
1
41
1
10
5.1579192479451503
20
-0.75249592463175452
30
0
10
5.1007401148478193
20
-0.68279687563578295
30
0
10
5.0207509994506845
20
-0.63556897640228283
30
0
10
4.9321041107177725
20
-0.6191687583923341
30
0
0
SPLINE
5
105
100
AcDbEntity
8
0
100
AcDbSpline
70
4
71
3
72
8
73
4
74
0
42
0.000000001
43
0.0000000001
44
0.0000000001
40
-1
40
-1
40
-1
40
-1
40
0
40
0
40
0
40
0
41
1
41
1
41
1
41
1
10
4.9321041107177725
20
-0.6191687583923341
30
0
10
4.7102686564127607
20
-0.62463688850402821
30
0
10
4.5029659271240234
20
-0.73071893056233717
30
0
10
4.3687671025594081
20
-0.90744312604268396
30
0
0
SPLINE
5
106
100
AcDbEntity
8
0
100
AcDbSpline
70
4
71
3
72
8
73
4
74
0
42
0.000000001
43
0.0000000001
44
0.0000000001
40
-1
40
-1
40
-1
40
-1
40
0
40
0
40
0
40
0
41
1
41
1
41
1
41
1
10
4.3687671025594081
20
-0.90744312604268396
30
0
10
4.2572555541992188
20
-1.0710873603820803
30
0
10
4.2031764984130859
20
-1.2671021620432537
30
0
10
4.2150208155314131
20
-1.4647744496663413
30
0
0
LINE
5
107
100
AcDbEntity
8
0
100
AcDbLine
10
4.2150208155314131
20
-1.4647744496663413
30
0
11
4.2162167231241865
21
-1.4839916229248047
31
0
0
SPLINE
5
108
100
AcDbEntity
8
0
100
AcDbSpline
70
4
71
3
72
8
73
4
74
0
42
0.000000001
43
0.0000000001
44
0.0000000001
40
-1
40
-1
40
-1
40
-1
40
0
40
0
40
0
40
0
41
1
41
1
41
1
41
1
10
4.2162167231241865
20
-1.4839916229248047
30
0
10
4.222096125284831
20
-1.5719291369120281
30
0
10
4.2143983840942374
20
-1.6602465311686199
30
0
10
4.1933949788411455
20
-1.7458413441975913
30
0
0
SPLINE
5
109
100
AcDbEntity
8
0
100
AcDbSpline
70
4
71
3
72
8
73
4
74
0
42
0.000000001
43
0.0000000001
44
0.0000000001
40
-1
40
-1
40
-1
40
-1
40
0
40
0
40
0
40
0
41
1
41
1
41
1
41
1
10
4.1933949788411455
20
-1.7458413441975913
30
0
10
4.1560049057006845
20
-1.9165919621785483
30
0
10
4.0695927937825518
20
-2.0727175076802573
30
0
10
3.944757779439291
20
-2.195069313049316
30
0
0
SPLINE
5
110
100
AcDbEntity
8
0
100
AcDbSpline
70
4
71
3
72
8
73
4
74
0
42
0.000000001
43
0.0000000001
44
0.0000000001
40
-1
40
-1
40
-1
40
-1
40
0
40
0
40
0
40
0
41
1
41
1
41
1
41
1
10
3.944757779439291
20
-2.195069313049316
30
0
10
3.9120521545410156
20
-2.2236121495564776
30
0
10
3.8946943283081055
20
-2.2658890088399253
30
0
10
3.897912979125977
20
-2.309178352355957
30
0
0
SPLINE
5
111
100
AcDbEntity
8
0
100
AcDbSpline
70
4
71
3
72
8
73
4
74
0
42
0.000000001
43
0.0000000001
44
0.0000000001
40
-1
40
-1
40
-1
40
-1
40
0
40
0
40
0
40
0
41
1
41
1
41
1
41
1
10
3.897912979125977
20
-2.309178352355957
30
0
10
3.900855064392089
20
-2.3511667251586914
30
0
10
3.900855064392089
20
-2.3933100700378418
30
0
10
3.897912979125977
20
-2.4352984428405766
30
0
0
SPLINE
5
112
100
AcDbEntity
8
0
100
AcDbSpline
70
4
71
3
72
8
73
4
74
0
42
0.000000001
43
0.0000000001
44
0.0000000001
40
-1
40
-1
40
-1
40
-1
40
0
40
0
40
0
40
0
41
1
41
1
41
1
41
1
10
3.897912979125977
20
-2.4352984428405766
30
0
10
3.9003753662109371
20
-2.4619024594624834
30
0
10
3.9060208002726231
20
-2.4881153106689453
30
0
10
3.9147303899129224
20
-2.5133727391560874
30
0
0
LINE
5
113
100
AcDbEntity
8
0
100
AcDbLine
10
3.9147303899129224
20
-2.5133727391560874
30
0
11
4.0468565622965498
21
-2.9385776519775386
31
0
0
SPLINE
5
114
100
AcDbEntity
8
0
100
AcDbSpline
70
4
71
3
72
8
73
4
74
0
42
0.000000001
43
0.0000000001
44
0.0000000001
40
-1
40
-1
40
-1
40
-1
40
0
40
0
40
0
40
0
41
1
41
1
41
1
41
1
10
4.0468565622965498
20
-2.9385776519775386
30
0
10
4.0922005971272783
20
-3.001033465067545
30
0
10
4.1631882985432931
20
-3.0398346583048501
30
0
10
4.2402404149373378
20
-3.0442784627278643
30
0
0
SPLINE
5
115
100
AcDbEntity
8
0
100
AcDbSpline
70
4
71
3
72
8
73
4
74
0
42
0.000000001
43
0.0000000001
44
0.0000000001
40
-1
40
-1
40
-1
40
-1
40
0
40
0
40
0
40
0
41
1
41
1
41
1
41
1
10
4.2402404149373378
20
-3.0442784627278643
30
0
10
4.760625521341959
20
-2.9111038843790689
30
0
10
5.2799367904663077
20
-2.773768424987793
30
0
10
5.7981249491373692
20
-2.6322857538859048
30
0
0
SPLINE
5
116
100
AcDbEntity
8
0
100
AcDbSpline
70
4
71
3
72
8
73
4
74
0
42
0.000000001
43
0.0000000001
44
0.0000000001
40
-1
40
-1
40
-1
40
-1
40
0
40
0
40
0
40
0
41
1
41
1
41
1
41
1
10
5.7981249491373692
20
-2.6322857538859048
30
0
10
5.8330911000569658
20
-2.6759859720865888
30
0
10
5.8498694101969404
20
-2.731480916341146
30
0
10
5.8449694315592451
20
-2.7872333526611328
30
0
0
SPLINE
5
117
100
AcDbEntity
8
0
100
AcDbSpline
70
4
71
3
72
8
73
4
74
0
42
0.000000001
43
0.0000000001
44
0.0000000001
40
-1
40
-1
40
-1
40
-1
40
0
40
0
40
0
40
0
41
1
41
1
41
1
41
1
10
5.8449694315592451
20
-2.7872333526611328
30
0
10
5.328510920206706
20
-2.9447186787923174
30
0
10
4.810801188151042
20
-3.0980695088704424
30
0
10
4.291889826456706
20
-3.2472718556721998
30
0
0
SPLINE
5
118
100
AcDbEntity
8
0
100
AcDbSpline
70
4
71
3
72
8
73
4
74
0
42
0.000000001
43
0.0000000001
44
0.0000000001
40
-1
40
-1
40
-1
40
-1
40
0
40
0
40
0
40
0
41
1
41
1
41
1
41
1
10
4.291889826456706
20
-3.2472718556721998
30
0
10
4.2403856913248701
20
-3.2637058893839517
30
0
10
4.1975758870442705
20
-3.3000272115071616
30
0
10
4.1729764938354492
20
-3.3481683731079102
30
0
0
SPLINE
5
119
100
AcDbEntity
8
0
100
AcDbSpline
70
4
71
3
72
8
73
4
74
0
42
0.000000001
43
0.0000000001
44
0.0000000001
40
-1
40
-1
40
-1
40
-1
40
0
40
0
40
0
40
0
41
1
41
1
41
1
41
1
10
4.1729764938354492
20
-3.3481683731079102
30
0
10
4.1483147939046221
20
-3.3965342839558925
30
0
10
4.1439905166625985
20
-3.4527476628621416
30
0
10
4.1609649658203116
20
-3.5043163299560551
30
0
0
LINE
5
120
100
AcDbEntity
8
0
100
AcDbLine
10
4.1609649658203116
20
-3.5043163299560542
30
0
11
4.1681690216064462
21
-3.523534456888834
31
0
0
SPLINE
5
121
100
AcDbEntity
8
0
100
AcDbSpline
70
4
71
3
72
8
73
4
74
0
42
0.000000001
43
0.0000000001
44
0.0000000001
40
-1
40
-1
40
-1
40
-1
40
0
40
0
40
0
40
0
41
1
41
1
41
1
41
1
10
4.1681690216064444
20
-3.523534456888834
30
0
10
4.1338815689086923
20
-3.6685593922932935
30
0
10
4.1553160349527998
20
-3.8211723963419595
30
0
10
4.228226661682128
20
-3.951141675313314
30
0
0
SPLINE
5
122
100
AcDbEntity
8
0
100
AcDbSpline
70
4
71
3
72
8
73
4
74
0
42
0.000000001
43
0.0000000001
44
0.0000000001
40
-1
40
-1
40
-1
40
-1
40
0
40
0
40
0
40
0
41
1
41
1
41
1
41
1
10
4.228226661682128
20
-3.951141675313314
30
0
10
4.301041603088378
20
-4.0805145899454747
30
0
10
4.4197854995727539
20
-4.1778249740600577
30
0
10
4.5609432856241865
20
-4.2238012949625645
30
0
0
ARC
5
123
100
AcDbEntity
8
0
100
AcDbCircle
10
3.7318188279704327
20
-6.3070044496994475
30
0
40
2.2421379864284297
210
0
220
-0
230
1
100
AcDbArc
50
62.475589015133743
51
68.297216438362113
0
SPLINE
5
124
100
AcDbEntity
8
0
100
AcDbSpline
70
4
71
3
72
8
73
4
74
0
42
0.000000001
43
0.0000000001
44
0.0000000001
40
0.19529515033202666
40
0.19529515033202666
40
0.19529515033202666
40
0.19529515033202666
40
1
40
1
40
1
40
1
41
1
41
1
41
1
41
1
10
4.7679701725225874
20
-4.3186450401941912
30
0
10
4.7880400974639681
20
-4.3232054563884317
30
0
10
4.8065998651176285
20
-4.3331387693134022
30
0
10
4.8215856552124032
20
-4.3475170135498047
30
0
0
SPLINE
5
125
100
AcDbEntity
8
0
100
AcDbSpline
70
4
71
3
72
8
73
4
74
0
42
0.000000001
43
0.0000000001
44
0.0000000001
40
0
40
0
40
0
40
0
40
1
40
1
40
1
40
1
41
1
41
1
41
1
41
1
10
4.8215856552124032
20
-4.3475170135498047
30
0
10
4.9701735178629551
20
-4.4100389480590811
30
0
10
5.1070518493652326
20
-4.4973649978637695
30
0
10
5.2263711293538417
20
-4.605763117472331
30
0
0
SPLINE
5
126
100
AcDbEntity
8
0
100
AcDbSpline
70
4
71
3
72
8
73
4
74
0
42
0.000000001
43
0.0000000001
44
0.0000000001
40
0
40
0
40
0
40
0
40
1
40
1
40
1
40
1
41
1
41
1
41
1
41
1
10
5.2263711293538417
20
-4.605763117472331
30
0
10
5.2541402180989589
20
-4.6322937011718759
30
0
10
5.2708686192830401
20
-4.6683270136515294
30
0
10
5.2732159296671552
20
-4.7066589991251622
30
0
0
SPLINE
5
127
100
AcDbEntity
8
0
100
AcDbSpline
70
4
71
3
72
8
73
4
74
0
42
0.000000001
43
0.0000000001
44
0.0000000001
40
0
40
0
40
0
40
0
40
1
40
1
40
1
40
1
41
1
41
1
41
1
41
1
10
5.2732159296671552
20
-4.7066589991251622
30
0
10
5.3280868530273438
20
-4.850292205810546
30
0
10
5.4642365773518886
20
-4.9465932846069336
30
0
10
5.6179447174072257
20
-4.9504912694295244
30
0
0
SPLINE
5
128
100
AcDbEntity
8
0
100
AcDbSpline
70
4
71
3
72
8
73
4
74
0
42
0.000000001
43
0.0000000001
44
0.0000000001
40
0
40
0
40
0
40
0
40
1
40
1
40
1
40
1
41
1
41
1
41
1
41
1
10
5.6179447174072257
20
-4.9504912694295244
30
0
10
5.7860310872395821
20
-4.9567378362019854
30
0
10
5.9542668660481777
20
-4.9579381942749023
30
0
10
6.122425079345704
20
-4.9540952046712246
30
0
0
SPLINE
5
129
100
AcDbEntity
8
0
100
AcDbSpline
70
4
71
3
72
8
73
4
74
0
42
0.000000001
43
0.0000000001
44
0.0000000001
40
0
40
0
40
0
40
0
40
1
40
1
40
1
40
1
41
1
41
1
41
1
41
1
10
6.122425079345704
20
-4.9540952046712246
30
0
10
6.1790555318196621
20
-4.9386043548583984
30
0
10
6.2249679565429679
20
-4.8971478144327794
30
0
10
6.2461433410644531
20
-4.8423887888590489
30
0
0
SPLINE
5
130
100
AcDbEntity
8
0
100
AcDbSpline
70
4
71
3
72
8
73
4
74
0
42
0.000000001
43
0.0000000001
44
0.0000000001
40
0
40
0
40
0
40
0
40
1
40
1
40
1
40
1
41
1
41
1
41
1
41
1
10
6.2461433410644531
20
-4.8423887888590489
30
0
10
6.2706769307454424
20
-4.7958132425944004
30
0
10
6.2826811472574864
20
-4.7436596552530919
30
0
10
6.2809766133626299
20
-4.6910444895426435
30
0
0
SPLINE
5
131
100
AcDbEntity
8
0
100
AcDbSpline
70
4
71
3
72
8
73
4
74
0
42
0.000000001
43
0.0000000001
44
0.0000000001
40
0
40
0
40
0
40
0
40
1
40
1
40
1
40
1
41
1
41
1
41
1
41
1
10
6.2809766133626299
20
-4.6910444895426435
30
0
10
6.3166961669921875
20
-4.1837345759073896
30
0
10
6.3463261922200518
20
-3.676014582316081
30
0
10
6.3698609670003252
20
-3.1679935455322261
30
0
0
LINE
5
132
100
AcDbEntity
8
0
100
AcDbLine
10
6.3698609670003252
20
-3.1679935455322261
30
0
11
6.3698609670003252
21
-3.1667976379394527
31
0
0
LINE
5
133
100
AcDbEntity
8
0
100
AcDbLine
10
6.3698609670003252
20
-3.1667976379394527
30
0
11
6.5200042724609375
21
-3.1728019714355469
31
0
0
LINE
5
134
100
AcDbEntity
8
0
100
AcDbLine
10
6.5200042724609375
20
-3.1728019714355469
30
0
11
6.4551423390706395
21
-4.6886463165283203
31
0
0
SPLINE
5
135
100
AcDbEntity
8
0
100
AcDbSpline
70
4
71
3
72
8
73
4
74
0
42
0.000000001
43
0.0000000001
44
0.0000000001
40
0
40
0
40
0
40
0
40
1
40
1
40
1
40
1
41
1
41
1
41
1
41
1
10
6.4551423390706395
20
-4.6886463165283203
30
0
10
6.4566745758056632
20
-4.7685070037841788
30
0
10
6.4763933817545567
20
-4.8469676971435556
30
0
10
6.512797037760417
20
-4.9180650711059561
30
0
0
SPLINE
5
136
100
AcDbEntity
8
0
100
AcDbSpline
70
4
71
3
72
8
73
4
74
0
42
0.000000001
43
0.0000000001
44
0.0000000001
40
0
40
0
40
0
40
0
40
1
40
1
40
1
40
1
41
1
41
1
41
1
41
1
10
6.512797037760417
20
-4.9180650711059561
30
0
10
6.5349763234456386
20
-4.9548390706380196
30
0
10
6.5687929789225254
20
-4.9831597010294599
30
0
10
6.6088886260986337
20
-4.9985418319702157
30
0
0
SPLINE
5
137
100
AcDbEntity
8
0
100
AcDbSpline
70
4
71
3
72
8
73
4
74
0
42
0.000000001
43
0.0000000001
44
0.0000000001
40
0
40
0
40
0
40
0
40
1
40
1
40
1
40
1
41
1
41
1
41
1
41
1
10
6.6088886260986337
20
-4.9985418319702157
30
0
10
6.6442197163899746
20
-5.012211799621582
30
0
10
6.6780331929524737
20
-5.0295225779215498
30
0
10
6.7097848256429042
20
-5.0501906077067051
30
0
0
SPLINE
5
138
100
AcDbEntity
8
0
100
AcDbSpline
70
4
71
3
72
8
73
4
74
0
42
0.000000001
43
0.0000000001
44
0.0000000001
40
0
40
0
40
0
40
0
40
1
40
1
40
1
40
1
41
1
41
1
41
1
41
1
10
6.7097848256429042
20
-5.0501906077067051
30
0
10
6.8332233428955087
20
-5.1126203536987296
30
0
10
6.9737211863199855
20
-5.1328732172648115
30
0
10
7.1097660064697283
20
-5.1078459421793614
30
0
0
SPLINE
5
139
100
AcDbEntity
8
0
100
AcDbSpline
70
4
71
3
72
8
73
4
74
0
42
0.000000001
43
0.0000000001
44
0.0000000001
40
0
40
0
40
0
40
0
40
1
40
1
40
1
40
1
41
1
41
1
41
1
41
1
10
7.1097660064697283
20
-5.1078459421793614
30
0
10
7.2465006510416679
20
-5.081909815470377
30
0
10
7.3709665934244804
20
-5.0118707021077471
30
0
10
7.4641036987304679
20
-4.9084558486938485
30
0
0
SPLINE
5
140
100
AcDbEntity
8
0
100
AcDbSpline
70
4
71
3
72
8
73
4
74
0
42
0.000000001
43
0.0000000001
44
0.0000000001
40
0
40
0
40
0
40
0
40
1
40
1
40
1
40
1
41
1
41
1
41
1
41
1
10
7.4641036987304679
20
-4.9084558486938485
30
0
10
7.5074564615885429
20
-4.8525114059448242
30
0
10
7.55314064025879
20
-4.7984113693237314
30
0
10
7.6010335286458348
20
-4.7463010152181004
30
0
0
SPLINE
5
141
100
AcDbEntity
8
0
100
AcDbSpline
70
4
71
3
72
8
73
4
74
0
42
0.000000001
43
0.0000000001
44
0.0000000001
40
0
40
0
40
0
40
0
40
1
40
1
40
1
40
1
41
1
41
1
41
1
41
1
10
7.6010335286458348
20
-4.7463010152181004
30
0
10
7.6997521718343096
20
-4.6390619277954093
30
0
10
7.8083330790201817
20
-4.5413389205932626
30
0
10
7.9253425598144531
20
-4.4544229507446289
30
0
0
SPLINE
5
142
100
AcDbEntity
8
0
100
AcDbSpline
70
4
71
3
72
8
73
4
74
0
42
0.000000001
43
0.0000000001
44
0.0000000001
40
0
40
0
40
0
40
0
40
1
40
1
40
1
40
1
41
1
41
1
41
1
41
1
10
7.9253425598144531
20
-4.4544229507446289
30
0
10
7.9914429982503261
20
-4.4023291269938154
30
0
10
8.0702063242594413
20
-4.3687512079874677
30
0
10
8.1535600026448574
20
-4.3571303685506191
30
0
0
SPLINE
5
143
100
AcDbEntity
8
0
100
AcDbSpline
70
4
71
3
72
8
73
4
74
0
42
0.000000001
43
0.0000000001
44
0.0000000001
40
0
40
0
40
0
40
0
40
1
40
1
40
1
40
1
41
1
41
1
41
1
41
1
10
8.1535600026448574
20
-4.3571303685506191
30
0
10
8.2870947519938163
20
-4.354303677876791
30
0
10
8.4077548980712891
20
-4.2768036524454756
30
0
10
8.4658578236897792
20
-4.1565389633178711
30
0
0
SPLINE
5
144
100
AcDbEntity
8
0
100
AcDbSpline
70
4
71
3
72
8
73
4
74
0
42
0.000000001
43
0.0000000001
44
0.0000000001
40
0
40
0
40
0
40
0
40
1
40
1
40
1
40
1
41
1
41
1
41
1
41
1
10
8.4658578236897792
20
-4.1565389633178711
30
0
10
8.5184892018636056
20
-4.0315125783284511
30
0
10
8.5673580169677717
20
-3.9049348831176753
30
0
10
8.6123975118001308
20
-3.7769772211710606
30
0
0
SPLINE
5
145
100
AcDbEntity
8
0
100
AcDbSpline
70
4
71
3
72
8
73
4
74
0
42
0.000000001
43
0.0000000001
44
0.0000000001
40
0
40
0
40
0
40
0
40
1
40
1
40
1
40
1
41
1
41
1
41
1
41
1
10
8.6123975118001308
20
-3.7769772211710606
30
0
10
8.6343002319335955
20
-3.7128098805745449
30
0
10
8.6507740020751953
20
-3.6469154357910156
30
0
10
8.661644617716469
20
-3.5799900690714517
30
0
0
SPLINE
5
146
100
AcDbEntity
8
0
100
AcDbSpline
70
4
71
3
72
8
73
4
74
0
42
0.000000001
43
0.0000000001
44
0.0000000001
40
0
40
0
40
0
40
0
40
1
40
1
40
1
40
1
41
1
41
1
41
1
41
1
10
8.661644617716469
20
-3.5799900690714517
30
0
10
8.6406860351562518
20
-3.5071500142415357
30
0
10
8.5876019795735683
20
-3.4478734334309902
30
0
10
8.5175069173177089
20
-3.4190365473429365
30
0
0
SPLINE
5
147
100
AcDbEntity
8
0
100
AcDbSpline
70
4
71
3
72
8
73
4
74
0
42
0.000000001
43
0.0000000001
44
0.0000000001
40
0
40
0
40
0
40
0
40
1
40
1
40
1
40
1
41
1
41
1
41
1
41
1
10
8.5175069173177089
20
-3.4190365473429365
30
0
10
8.030699412027996
20
-3.2278696695963536
30
0
10
7.5462029774983703
20
-3.0308675765991202
30
0
10
7.0641225179036464
20
-2.8280731836954756
30
0
0
SPLINE
5
148
100
AcDbEntity
8
0
100
AcDbSpline
70
4
71
3
72
8
73
4
74
0
42
0.000000001
43
0.0000000001
44
0.0000000001
40
0
40
0
40
0
40
0
40
1
40
1
40
1
40
1
41
1
41
1
41
1
41
1
10
7.0641225179036464
20
-2.8280731836954756
30
0
10
7.0695164998372393
20
-2.7700459162394209
30
0
10
7.0902442932128897
20
-2.7144962946573896
30
0
10
7.1241798400878906
20
-2.6671199798583984
30
0
0
SPLINE
5
149
100
AcDbEntity
8
0
100
AcDbSpline
70
4
71
3
72
8
73
4
74
0
42
0.000000001
43
0.0000000001
44
0.0000000001
40
0
40
0
40
0
40
0
40
1
40
1
40
1
40
1
41
1
41
1
41
1
41
1
10
7.1241798400878906
20
-2.6671199798583984
30
0
10
7.6015446980794268
20
-2.8411954243977862
30
0
10
8.0796038309733085
20
-3.013360977172852
30
0
10
8.5583457946777326
20
-3.1836118698120117
30
0
0
SPLINE
5
150
100
AcDbEntity
8
0
100
AcDbSpline
70
4
71
3
72
8
73
4
74
0
42
0.000000001
43
0.0000000001
44
0.0000000001
40
0
40
0
40
0
40
0
40
1
40
1
40
1
40
1
41
1
41
1
41
1
41
1
10
8.5583457946777326
20
-3.1836118698120117
30
0
10
8.6138496398925763
20
-3.1966028213500981
30
0
10
8.6713002522786446
20
-3.1990509033203129
30
0
10
8.7277075449625663
20
-3.1908197402954106
30
0
0
SPLINE
5
151
100
AcDbEntity
8
0
100
AcDbSpline
70
4
71
3
72
8
73
4
74
0
42
0.000000001
43
0.0000000001
44
0.0000000001
40
0
40
0
40
0
40
0
40
1
40
1
40
1
40
1
41
1
41
1
41
1
41
1
10
8.7277075449625663
20
-3.1908197402954106
30
0
10
8.7767753601074219
20
-3.1833728154500327
30
0
10
8.8217557271321621
20
-3.1591790517171221
30
0
10
8.8550287882486973
20
-3.1223545074462886
30
0
0
SPLINE
5
152
100
AcDbEntity
8
0
100
AcDbSpline
70
4
71
3
72
8
73
4
74
0
42
0.000000001
43
0.0000000001
44
0.0000000001
40
0
40
0
40
0
40
0
40
1
40
1
40
1
40
1
41
1
41
1
41
1
41
1
10
8.8550287882486973
20
-3.1223545074462886
30
0
10
8.910797119140625
20
-3.0471458435058598
30
0
10
8.9680627187093105
20
-2.9730606079101558
30
0
10
9.026792526245119
20
-2.9001426696777339
30
0
0
SPLINE
5
153
100
AcDbEntity
8
0
100
AcDbSpline
70
4
71
3
72
8
73
4
74
0
42
0.000000001
43
0.0000000001
44
0.0000000001
40
0
40
0
40
0
40
0
40
1
40
1
40
1
40
1
41
1
41
1
41
1
41
1
10
9.026792526245119
20
-2.9001426696777339
30
0
10
9.0423138936360665
20
-2.8799025217692056
30
0
10
9.0499928792317732
20
-2.8547321955362959
30
0
10
9.0484135945638009
20
-2.8292748133341474
30
0
0
SPLINE
5
154
100
AcDbEntity
8
0
100
AcDbSpline
70
4
71
3
72
11
73
7
74
0
42
0.000000001
43
0.0000000001
44
0.0000000001
40
0
40
0
40
0
40
0
40
1
40
1
40
1
40
1.0521388421056714
40
1.0521388421056714
40
1.0521388421056714
40
1.0521388421056714
41
1
41
1
41
1
41
1
41
1
41
1
41
1
10
9.0484135945638009
20
-2.8292748133341474
30
0
10
9.0530255635579433
20
-2.8006436030069985
30
0
10
9.0602690378824882
20
-2.7724994023640948
30
0
10
9.0700340270996112
20
-2.7451947530110679
30
0
10
9.0723381534419421
20
-2.7387520053086791
30
0
10
9.074642279784273
20
-2.73230925760629
30
0
10
9.0769464061266056
20
-2.7258665099039017
30
0
0
ARC
5
155
100
AcDbEntity
8
0
100
AcDbCircle
10
8.3723515533772517
20
-2.5870926164292958
30
0
40
0.71813097693316985
210
-0
220
0
230
1
100
AcDbArc
50
-11.142111659488771
51
2.5835536697227672
0
LINE
5
156
100
AcDbEntity
8
0
100
AcDbLine
10
9.0897525858971377
20
-2.5547219727781272
30
0
11
9.0832287399473604
21
-2.4852804086880163
31
0
0
SPLINE
5
157
100
AcDbEntity
8
0
100
AcDbSpline
70
4
71
3
72
11
73
7
74
0
42
0.000000001
43
0.0000000001
44
0.0000000001
40
-1.0968995998647473
40
-1.0968995998647473
40
-1.0968995998647473
40
-1.0968995998647473
40
-1
40
-1
40
-1
40
0
40
0
40
0
40
0
41
1
41
1
41
1
41
1
41
1
41
1
41
1
10
9.0832287399473604
20
-2.4852804086880163
30
0
10
9.0820392985147098
20
-2.47261967541617
30
0
10
9.0808498570820646
20
-2.4599589421443238
30
0
10
9.0796604156494123
20
-2.4472982088724766
30
0
10
9.0673154195149746
20
-2.3158947626749673
30
0
10
9.0158532460530587
20
-2.1912113825480146
30
0
10
8.9319197336832659
20
-2.0893567403157558
30
0
0
SPLINE
5
158
100
AcDbEntity
8
0
100
AcDbSpline
70
4
71
3
72
8
73
4
74
0
42
0.000000001
43
0.0000000001
44
0.0000000001
40
-1
40
-1
40
-1
40
-1
40
0
40
0
40
0
40
0
41
1
41
1
41
1
41
1
10
8.9319197336832659
20
-2.0893567403157558
30
0
10
8.735557556152342
20
-1.8844230969746909
30
0
10
8.6450875600179042
20
-1.6001524925231936
30
0
10
8.6868858337402326
20
-1.3194230397542319
30
0
0
SPLINE
5
159
100
AcDbEntity
8
0
100
AcDbSpline
70
4
71
3
72
8
73
4
74
0
42
0.000000001
43
0.0000000001
44
0.0000000001
40
-1
40
-1
40
-1
40
-1
40
0
40
0
40
0
40
0
41
1
41
1
41
1
41
1
10
8.6868858337402326
20
-1.3194230397542319
30
0
10
8.7039807637532522
20
-1.2882777055104575
30
0
10
8.7035249074300136
20
-1.2504536310831706
30
0
10
8.6856816609700491
20
-1.2197282314300535
30
0
0
SPLINE
5
160
100
AcDbEntity
8
0
100
AcDbSpline
70
4
71
3
72
8
73
4
74
0
42
0.000000001
43
0.0000000001
44
0.0000000001
40
-1
40
-1
40
-1
40
-1
40
0
40
0
40
0
40
0
41
1
41
1
41
1
41
1
10
8.6856816609700491
20
-1.2197282314300535
30
0
10
8.642851511637371
20
-1.130069653193156
30
0
10
8.5774529774983712
20
-1.0530816713968914
30
0
10
8.4959011077880859
20
-0.99631563822428393
30
0
0
LINE
5
161
100
AcDbEntity
8
0
100
AcDbLine
10
8.4959011077880859
20
-0.99631563822428393
30
0
11
8.1920115152994786
21
-0.76929918924967455
31
0
0
SPLINE
5
162
100
AcDbEntity
8
0
100
AcDbSpline
70
4
71
3
72
8
73
4
74
0
42
0.000000001
43
0.0000000001
44
0.0000000001
40
-1
40
-1
40
-1
40
-1
40
0
40
0
40
0
40
0
41
1
41
1
41
1
41
1
10
8.1920115152994786
20
-0.76929918924967455
30
0
10
8.1677436828613281
20
-0.74253813425699855
30
0
10
8.1315797170003261
20
-0.72987731297810854
30
0
10
8.0959199269612618
20
-0.73566738764444983
30
0
0
SPLINE
5
163
100
AcDbEntity
8
0
100
AcDbSpline
70
4
71
3
72
8
73
4
74
0
42
0.000000001
43
0.0000000001
44
0.0000000001
40
-1
40
-1
40
-1
40
-1
40
0
40
0
40
0
40
0
41
1
41
1
41
1
41
1
10
8.0959199269612618
20
-0.73566738764444983
30
0
10
8.0658671061197929
20
-0.74287343025207531
30
0
10
8.0353724161783848
20
-0.74808549880981434
30
0
10
8.0046329498291016
20
-0.75128110249837254
30
0
0
SPLINE
5
164
100
AcDbEntity
8
0
100
AcDbSpline
70
4
71
3
72
8
73
4
74
0
42
0.000000001
43
0.0000000001
44
0.0000000001
40
-1
40
-1
40
-1
40
-1
40
0
40
0
40
0
40
0
41
1
41
1
41
1
41
1
10
8.0046329498291016
20
-0.75128110249837254
30
0
10
7.9788131713867179
20
-0.74993220965067542
30
0
10
7.9541829427083339
20
-0.76224811871846532
30
0
10
7.9397710164388036
20
-0.78371206919352221
30
0
0
SPLINE
5
165
100
AcDbEntity
8
0
100
AcDbSpline
70
4
71
3
72
8
73
4
74
0
42
0.000000001
43
0.0000000001
44
0.0000000001
40
-1
40
-1
40
-1
40
-1
40
0
40
0
40
0
40
0
41
1
41
1
41
1
41
1
10
7.9397710164388036
20
-0.78371206919352221
30
0
10
7.6051114400227853
20
-1.1998504797617593
30
0
10
7.2687880198160792
20
-1.614648977915446
30
0
10
6.9308096567789699
20
-2.0280974706013999
30
0
0
LINE
5
166
100
AcDbEntity
8
0
100
AcDbLine
10
6.9308096567789699
20
-2.0280974706013994
30
0
11
6.9296137491861964
21
-2.0269015630086265
31
0
0
SPLINE
5
167
100
AcDbEntity
8
0
100
AcDbSpline
70
4
71
3
72
8
73
4
74
0
42
0.000000001
43
0.0000000001
44
0.0000000001
40
-1
40
-1
40
-1
40
-1
40
0
40
0
40
0
40
0
41
1
41
1
41
1
41
1
10
6.9296137491861964
20
-2.0269015630086265
30
0
10
6.8715686798095712
20
-2.0145622889200849
30
0
10
6.8216635386149083
20
-1.9777906735738113
30
0
10
6.7926832834879569
20
-1.9260056813557942
30
0
0
LINE
5
168
100
AcDbEntity
8
0
100
AcDbLine
10
6.7926832834879569
20
-1.9260056813557942
30
0
11
6.7938791910807286
21
-1.9236170450846353
31
0
0
SPLINE
5
169
100
AcDbEntity
8
0
100
AcDbSpline
70
4
71
3
72
8
73
4
74
0
42
0.000000001
43
0.0000000001
44
0.0000000001
40
-1
40
-1
40
-1
40
-1
40
0
40
0
40
0
40
0
41
1
41
1
41
1
41
1
10
6.7938791910807286
20
-1.9236170450846353
30
0
10
7.1153532663981123
20
-1.4954166412353518
30
0
10
7.4316775004069004
20
-1.0633738835652673
30
0
10
7.7427832285563154
20
-0.62758239110310876
30
0
0
SPLINE
5
170
100
AcDbEntity
8
0
100
AcDbSpline
70
4
71
3
72
8
73
4
74
0
42
0.000000001
43
0.0000000001
44
0.0000000001
40
-1
40
-1
40
-1
40
-1
40
0
40
0
40
0
40
0
41
1
41
1
41
1
41
1
10
7.7427832285563154
20
-0.62758239110310876
30
0
10
7.7803732554117842
20
-0.59558260440826405
30
0
10
7.8044141133626299
20
-0.55050635337829579
30
0
10
7.8100471496582031
20
-0.50146230061848962
30
0
0
SPLINE
5
171
100
AcDbEntity
8
0
100
AcDbSpline
70
4
71
3
72
8
73
4
74
0
42
0.000000001
43
0.0000000001
44
0.0000000001
40
-1
40
-1
40
-1
40
-1
40
0
40
0
40
0
40
0
41
1
41
1
41
1
41
1
10
7.8100471496582031
20
-0.50146230061848962
30
0
10
7.815479914347331
20
-0.45237159729003906
30
0
10
7.8021818796793632
20
-0.40303949515024812
30
0
10
7.7728112538655587
20
-0.36333096027374262
30
0
0
SPLINE
5
172
100
AcDbEntity
8
0
100
AcDbSpline
70
4
71
3
72
8
73
4
74
0
42
0.000000001
43
0.0000000001
44
0.0000000001
40
-1
40
-1
40
-1
40
-1
40
0
40
0
40
0
40
0
41
1
41
1
41
1
41
1
10
7.7728112538655587
20
-0.36333096027374262
30
0
10
7.7380695343017587
20
-0.33526722590128583
30
0
10
7.7097994486490897
20
-0.30003064870834351
30
0
10
7.6899325052897156
20
-0.26003241539001465
30
0
0
SPLINE
5
173
100
AcDbEntity
8
0
100
AcDbSpline
70
4
71
3
72
8
73
4
74
0
42
0.000000001
43
0.0000000001
44
0.0000000001
40
-1
40
-1
40
-1
40
-1
40
0
40
0
40
0
40
0
41
1
41
1
41
1
41
1
10
7.6899325052897156
20
-0.26003241539001465
30
0
10
7.6242574055989589
20
-0.1426098148028056
30
0
10
7.5240268707275382
20
-0.048251579205195121
30
0
10
7.4028587341308585
20
0.010225087404251099
30
0
0
SPLINE
5
174
100
AcDbEntity
8
0
100
AcDbSpline
70
4
71
3
72
8
73
4
74
0
42
0.000000001
43
0.0000000001
44
0.0000000001
40
-1
40
-1
40
-1
40
-1
40
0
40
0
40
0
40
0
41
1
41
1
41
1
41
1
10
7.4028587341308585
20
0.010225087404251099
30
0
10
7.2822748819986991
20
0.068042169014612838
30
0
10
7.1468181610107422
20
0.08732914924621582
30
0
10
7.0148887634277344
20
0.06547768910725911
30
0
0
SPLINE
5
175
100
AcDbEntity
8
0
100
AcDbSpline
70
4
71
3
72
8
73
4
74
0
42
0.000000001
43
0.0000000001
44
0.0000000001
40
-1
40
-1
40
-1
40
-1
40
0
40
0
40
0
40
0
41
1
41
1
41
1
41
1
10
7.0148887634277344
20
0.06547768910725911
30
0
10
6.936044692993165
20
0.049783627192179353
30
0
10
6.8591257731119804
20
0.02562008301417033
30
0
10
6.7854703267415371
20
-0.0065908531347910566
30
0
0
SPLINE
5
176
100
AcDbEntity
8
0
100
AcDbSpline
70
4
71
3
72
8
73
4
74
0
42
0.000000001
43
0.0000000001
44
0.0000000001
40
-1
40
-1
40
-1
40
-1
40
0
40
0
40
0
40
0
41
1
41
1
41
1
41
1
10
6.7854703267415371
20
-0.0065908531347910566
30
0
10
6.5367075602213545
20
-0.11351002256075542
30
0
10
6.2550182342529297
20
-0.11394377549489339
30
0
10
6.0059274037679042
20
-0.0077867905298868809
30
0
0
SPLINE
5
177
100
AcDbEntity
8
0
100
AcDbSpline
70
4
71
3
72
8
73
4
74
0
42
0.000000001
43
0.0000000001
44
0.0000000001
40
-1
40
-1
40
-1
40
-1
40
0
40
0
40
0
40
0
41
1
41
1
41
1
41
1
10
6.0059274037679042
20
-0.0077867905298868809
30
0
10
5.9060516357421884
20
0.032241021593411766
30
0
10
5.7932167053222665
20
0.023356333374977115
30
0
10
5.700836817423502
20
-0.03180887301762899
30
0
0
SPLINE
5
178
100
AcDbEntity
8
0
100
AcDbSpline
70
4
71
3
72
8
73
4
74
0
42
0.000000001
43
0.0000000001
44
0.0000000001
40
-1
40
-1
40
-1
40
-1
40
0
40
0
40
0
40
0
41
1
41
1
41
1
41
1
10
5.2984539667765285
20
-0.32488811016082769
30
0
10
5.2634871800740557
20
-0.34951885541280114
30
0
10
5.2390578587849923
20
-0.38638822237650555
30
0
10
5.2299887339274092
20
-0.42818665504455572
30
0
0
LINE
5
179
100
AcDbEntity
8
0
100
AcDbLine
10
5.700836817423502
20
-0.031808873017628976
30
0
11
5.2984539667765285
21
-0.32488811016082753
31
0
0
SPLINE
5
180
100
AcDbEntity
8
0
100
AcDbSpline
70
4
71
3
72
8
73
4
74
0
42
0.000000001
43
0.0000000001
44
0.0000000001
40
-1
40
-1
40
-1
40
-1
40
0
40
0
40
0
40
0
41
1
41
1
41
1
41
1
10
3.1483856836954751
20
-1.362688700358073
30
0
10
3.1161953608194981
20
-1.3646821975708006
30
0
10
3.0841248830159507
20
-1.3682986895243325
30
0
10
3.0522940953572593
20
-1.3734984397888186
30
0
0
LINE
5
181
100
AcDbEntity
8
0
100
AcDbLine
10
3.0522940953572593
20
-1.3734984397888186
30
0
11
3.0510981877644854
21
-1.3734984397888186
31
0
0
SPLINE
5
182
100
AcDbEntity
8
0
100
AcDbSpline
70
4
71
3
72
8
73
4
74
0
42
0.000000001
43
0.0000000001
44
0.0000000001
40
-1
40
-1
40
-1
40
-1
40
0
40
0
40
0
40
0
41
1
41
1
41
1
41
1
10
3.0510981877644854
20
-1.3734984397888186
30
0
10
3.0384785334269209
20
-1.3797218004862466
30
0
10
3.0233627955118818
20
-1.3778335253397622
30
0
10
3.0126616160074873
20
-1.3686946233113608
30
0
0
SPLINE
5
183
100
AcDbEntity
8
0
100
AcDbSpline
70
4
71
3
72
8
73
4
74
0
42
0.000000001
43
0.0000000001
44
0.0000000001
40
-1
40
-1
40
-1
40
-1
40
0
40
0
40
0
40
0
41
1
41
1
41
1
41
1
10
3.0126616160074873
20
-1.3686946233113608
30
0
10
2.993550300598145
20
-1.3433370590209961
30
0
10
2.9677677154541016
20
-1.3237961133321128
30
0
10
2.9381907780965166
20
-1.3122408390045166
30
0
0
SPLINE
5
184
100
AcDbEntity
8
0
100
AcDbSpline
70
4
71
3
72
8
73
4
74
0
42
0.000000001
43
0.0000000001
44
0.0000000001
40
-1
40
-1
40
-1
40
-1
40
0
40
0
40
0
40
0
41
1
41
1
41
1
41
1
10
2.9381907780965166
20
-1.3122408390045166
30
0
10
2.8968426386515302
20
-1.3213227589925129
30
0
10
2.8571399052937823
20
-1.3367171287536619
30
0
10
2.8204784393310551
20
-1.3578840891520183
30
0
0
SPLINE
5
185
100
AcDbEntity
8
0
100
AcDbSpline
70
4
71
3
72
8
73
4
74
0
42
0.000000001
43
0.0000000001
44
0.0000000001
40
-1
40
-1
40
-1
40
-1
40
0
40
0
40
0
40
0
41
1
41
1
41
1
41
1
10
2.8204784393310551
20
-1.3578840891520183
30
0
10
2.7916018168131518
20
-1.364547888437907
30
0
10
2.7688767115275068
20
-1.3868056933085124
30
0
10
2.761622746785481
20
-1.4155387878417967
30
0
0
SPLINE
5
186
100
AcDbEntity
8
0
100
AcDbSpline
70
4
71
3
72
8
73
4
74
0
42
0.000000001
43
0.0000000001
44
0.0000000001
40
-1
40
-1
40
-1
40
-1
40
0
40
0
40
0
40
0
41
1
41
1
41
1
41
1
10
2.761622746785481
20
-1.4155387878417967
30
0
10
2.7427619298299155
20
-1.4604942003885903
30
0
10
2.7227379480997724
20
-1.5049521128336587
30
0
10
2.7015654246012373
20
-1.5488661130269363
30
0
0
SPLINE
5
187
100
AcDbEntity
8
0
100
AcDbSpline
70
4
71
3
72
8
73
4
74
0
42
0.000000001
43
0.0000000001
44
0.0000000001
40
-1
40
-1
40
-1
40
-1
40
0
40
0
40
0
40
0
41
1
41
1
41
1
41
1
10
2.7015654246012373
20
-1.5488661130269363
30
0
10
2.6841777165730796
20
-1.5480821927388513
30
0
10
2.6685689290364585
20
-1.5379810333251951
30
0
10
2.6607267061869297
20
-1.5224401156107583
30
0
0
SPLINE
5
188
100
AcDbEntity
8
0
100
AcDbSpline
70
4
71
3
72
8
73
4
74
0
42
0.000000001
43
0.0000000001
44
0.0000000001
40
-1
40
-1
40
-1
40
-1
40
0
40
0
40
0
40
0
41
1
41
1
41
1
41
1
10
2.6607267061869297
20
-1.5224401156107583
30
0
10
2.6540288925170894
20
-1.4928921063741047
30
0
10
2.634088516235352
20
-1.4680775006612143
30
0
10
2.6066751480102535
20
-1.4551761945088706
30
0
0
LINE
5
189
100
AcDbEntity
8
0
100
AcDbLine
10
2.6066751480102535
20
-1.4551761945088706
30
0
11
2.3940725326538081
21
-1.3746992746988931
31
0
0
SPLINE
5
190
100
AcDbEntity
8
0
100
AcDbSpline
70
4
71
3
72
8
73
4
74
0
42
0.000000001
43
0.0000000001
44
0.0000000001
40
-1
40
-1
40
-1
40
-1
40
0
40
0
40
0
40
0
41
1
41
1
41
1
41
1
10
2.3940725326538081
20
-1.3746992746988931
30
0
10
2.3888829549153647
20
-1.3731497128804526
30
0
10
2.3840061823527017
20
-1.3707103729248049
30
0
10
2.3796585400899253
20
-1.3674915631612141
30
0
0
SPLINE
5
191
100
AcDbEntity
8
0
100
AcDbSpline
70
4
71
3
72
8
73
4
74
0
42
0.000000001
43
0.0000000001
44
0.0000000001
40
-1
40
-1
40
-1
40
-1
40
0
40
0
40
0
40
0
41
1
41
1
41
1
41
1
10
2.3796585400899253
20
-1.3674915631612141
30
0
10
2.3707338968912763
20
-1.3618771235148113
30
0
10
2.363961060841878
20
-1.3534124692281086
30
0
10
2.3604408899943041
20
-1.3434693018595376
30
0
0
SPLINE
5
192
100
AcDbEntity
8
0
100
AcDbSpline
70
4
71
3
72
8
73
4
74
0
42
0.000000001
43
0.0000000001
44
0.0000000001
40
-1
40
-1
40
-1
40
-1
40
0
40
0
40
0
40
0
41
1
41
1
41
1
41
1
10
2.3604408899943041
20
-1.3434693018595376
30
0
10
2.3573856353759766
20
-1.3332113424936929
30
0
10
2.3578170140584311
20
-1.3222325642903647
30
0
10
2.3616369565327964
20
-1.3122395674387617
30
0
0
SPLINE
5
193
100
AcDbEntity
8
0
100
AcDbSpline
70
4
71
3
72
8
73
4
74
0
42
0.000000001
43
0.0000000001
44
0.0000000001
40
-1
40
-1
40
-1
40
-1
40
0
40
0
40
0
40
0
41
1
41
1
41
1
41
1
10
2.3616369565327964
20
-1.3122395674387617
30
0
10
2.3766899108886714
20
-1.2258552710215251
30
0
10
2.3679707845052085
20
-1.1370047728220622
30
0
10
2.3364143371582036
20
-1.0551944573720295
30
0
0
SPLINE
5
194
100
AcDbEntity
8
0
100
AcDbSpline
70
4
71
3
72
8
73
4
74
0
42
0.000000001
43
0.0000000001
44
0.0000000001
40
-1
40
-1
40
-1
40
-1
40
0
40
0
40
0
40
0
41
1
41
1
41
1
41
1
10
2.3364143371582036
20
-1.0551944573720295
30
0
10
2.3012591997782392
20
-1.0623222986857095
30
0
10
2.2685615221659345
20
-1.0784658590952556
30
0
10
2.2415237426757817
20
-1.1020391782124839
30
0
0
SPLINE
5
195
100
AcDbEntity
8
0
100
AcDbSpline
70
4
71
3
72
8
73
4
74
0
42
0.000000001
43
0.0000000001
44
0.0000000001
40
-1
40
-1
40
-1
40
-1
40
0
40
0
40
0
40
0
41
1
41
1
41
1
41
1
10
2.2415237426757817
20
-1.1020391782124839
30
0
10
2.2234787940979004
20
-1.0772535800933838
30
0
10
2.2119145393371582
20
-1.0483506520589194
30
0
10
2.2078917821248374
20
-1.0179591973622639
30
0
0
SPLINE
5
196
100
AcDbEntity
8
0
100
AcDbSpline
70
4
71
3
72
8
73
4
74
0
42
0.000000001
43
0.0000000001
44
0.0000000001
40
-1
40
-1
40
-1
40
-1
40
0
40
0
40
0
40
0
41
1
41
1
41
1
41
1
10
2.2078917821248374
20
-1.0179591973622639
30
0
10
2.2356260617574057
20
-0.96545950571695949
30
0
10
2.2412468592325845
20
-0.90405956904093432
30
0
10
2.2235058148701983
20
-0.84739669164021802
30
0
0
SPLINE
5
197
100
AcDbEntity
8
0
100
AcDbSpline
70
4
71
3
72
8
73
4
74
0
42
0.000000001
43
0.0000000001
44
0.0000000001
40
-1
40
-1
40
-1
40
-1
40
0
40
0
40
0
40
0
41
1
41
1
41
1
41
1
10
2.2235058148701983
20
-0.84739669164021802
30
0
10
2.2053720156351724
20
-0.79022463162740053
30
0
10
2.1651587486267085
20
-0.74266076087951649
30
0
10
2.1117992401123047
20
-0.71527075767517101
30
0
0
SPLINE
5
198
100
AcDbEntity
8
0
100
AcDbSpline
70
4
71
3
72
8
73
4
74
0
42
0.000000001
43
0.0000000001
44
0.0000000001
40
-1
40
-1
40
-1
40
-1
40
0
40
0
40
0
40
0
41
1
41
1
41
1
41
1
10
2.1117992401123047
20
-0.71527075767517101
30
0
10
2.1002909342447915
20
-0.70897761980692542
30
0
10
2.0882296562194829
20
-0.70374218622843432
30
0
10
2.0757648150126133
20
-0.69965680440266931
30
0
0
SPLINE
5
199
100
AcDbEntity
8
0
100
AcDbSpline
70
4
71
3
72
8
73
4
74
0
42
0.000000001
43
0.0000000001
44
0.0000000001
40
-1
40
-1
40
-1
40
-1
40
0
40
0
40
0
40
0
41
1
41
1
41
1
41
1
10
2.0757648150126133
20
-0.69965680440266931
30
0
10
2.0549597740173335
20
-0.69776407877604185
30
0
10
2.0364769299825034
20
-0.68559304873148608
30
0
10
2.0265178680419926
20
-0.66722583770751942
30
0
0
SPLINE
5
200
100
AcDbEntity
8
0
100
AcDbSpline
70
4
71
3
72
8
73
4
74
0
42
0.000000001
43
0.0000000001
44
0.0000000001
40
-1
40
-1
40
-1
40
-1
40
0
40
0
40
0
40
0
41
1
41
1
41
1
41
1
10
2.0265178680419926
20
-0.66722583770751942
30
0
10
2.0157357851664224
20
-0.62170263131459558
30
0
10
2.0025043487548837
20
-0.57679430643717455
30
0
10
1.9868799845377605
20
-0.53269763787587487
30
0
0
SPLINE
5
201
100
AcDbEntity
8
0
100
AcDbSpline
70
4
71
3
72
8
73
4
74
0
42
0.000000001
43
0.0000000001
44
0.0000000001
40
-1
40
-1
40
-1
40
-1
40
0
40
0
40
0
40
0
41
1
41
1
41
1
41
1
10
1.9868799845377605
20
-0.53269763787587487
30
0
10
1.9592909812927248
20
-0.54626814524332679
30
0
10
1.9366176923116047
20
-0.56809930006663001
30
0
10
1.9220183690389001
20
-0.59515722592671716
30
0
0
SPLINE
5
202
100
AcDbEntity
8
0
100
AcDbSpline
70
4
71
3
72
8
73
4
74
0
42
0.000000001
43
0.0000000001
44
0.0000000001
40
-1
40
-1
40
-1
40
-1
40
0
40
0
40
0
40
0
41
1
41
1
41
1
41
1
10
1.9220183690389001
20
-0.59515722592671716
30
0
10
1.8576490084330239
20
-0.49263517061869294
30
0
10
1.7994898160298669
20
-0.38634339968363446
30
0
10
1.7478524843851726
20
-0.27685401837031043
30
0
0
SPLINE
5
203
100
AcDbEntity
8
0
100
AcDbSpline
70
4
71
3
72
8
73
4
74
0
42
0.000000001
43
0.0000000001
44
0.0000000001
40
-1
40
-1
40
-1
40
-1
40
0
40
0
40
0
40
0
41
1
41
1
41
1
41
1
10
1.7478524843851726
20
-0.27685401837031043
30
0
10
1.7196973164876299
20
-0.27730099360148114
30
0
10
1.6928879419962564
20
-0.28897776206334441
30
0
10
1.6733816464742024
20
-0.30928516387939448
30
0
0
SPLINE
5
204
100
AcDbEntity
8
0
100
AcDbSpline
70
4
71
3
72
8
73
4
74
0
42
0.000000001
43
0.0000000001
44
0.0000000001
40
-1
40
-1
40
-1
40
-1
40
0
40
0
40
0
40
0
41
1
41
1
41
1
41
1
10
1.6733816464742024
20
-0.30928516387939448
30
0
10
1.6532988548278811
20
-0.32933559020360315
30
0
10
1.6420478820800779
20
-0.35657620429992676
30
0
10
1.6421519915262861
20
-0.38495715459187829
30
0
0
SPLINE
5
205
100
AcDbEntity
8
0
100
AcDbSpline
70
4
71
3
72
8
73
4
74
0
42
0.000000001
43
0.0000000001
44
0.0000000001
40
-1
40
-1
40
-1
40
-1
40
0
40
0
40
0
40
0
41
1
41
1
41
1
41
1
10
1.6421519915262861
20
-0.38495715459187829
30
0
10
1.6423659324645996
20
-0.40313665072123217
30
0
10
1.6473409334818525
20
-0.42094278335571289
30
0
10
1.6565656661987305
20
-0.43660664558410645
30
0
0
SPLINE
5
206
100
AcDbEntity
8
0
100
AcDbSpline
70
4
71
3
72
8
73
4
74
0
42
0.000000001
43
0.0000000001
44
0.0000000001
40
-1
40
-1
40
-1
40
-1
40
0
40
0
40
0
40
0
41
1
41
1
41
1
41
1
10
1.6565656661987305
20
-0.43660664558410645
30
0
10
1.6594258944193523
20
-0.43944176038106286
30
0
10
1.661850134531657
20
-0.44267300764719647
30
0
10
1.6637735366821291
20
-0.44621622562408447
30
0
0
SPLINE
5
207
100
AcDbEntity
8
0
100
AcDbSpline
70
4
71
3
72
8
73
4
74
0
42
0.000000001
43
0.0000000001
44
0.0000000001
40
-1
40
-1
40
-1
40
-1
40
0
40
0
40
0
40
0
41
1
41
1
41
1
41
1
10
1.6637735366821291
20
-0.44621622562408447
30
0
10
1.669136047363281
20
-0.45524986584981292
30
0
10
1.6712589263916013
20
-0.46584308147430414
30
0
10
1.6697777112325032
20
-0.47624464829762775
30
0
0
SPLINE
5
208
100
AcDbEntity
8
0
100
AcDbSpline
70
4
71
3
72
8
73
4
74
0
42
0.000000001
43
0.0000000001
44
0.0000000001
40
-1
40
-1
40
-1
40
-1
40
0
40
0
40
0
40
0
41
1
41
1
41
1
41
1
10
1.6697777112325032
20
-0.47624464829762775
30
0
10
1.6684417724609375
20
-0.48628266652425134
30
0
10
1.6637951532999675
20
-0.49558381239573163
30
0
10
1.6565637588500977
20
-0.50267036755879735
30
0
0
SPLINE
5
209
100
AcDbEntity
8
0
100
AcDbSpline
70
4
71
3
72
8
73
4
74
0
42
0.000000001
43
0.0000000001
44
0.0000000001
40
-1
40
-1
40
-1
40
-1
40
0
40
0
40
0
40
0
41
1
41
1
41
1
41
1
10
1.6565637588500977
20
-0.50267036755879735
30
0
10
1.609336535135905
20
-0.55027127265930176
30
0
10
1.5811440149943037
20
-0.61349658171335864
30
0
10
1.5772886276245113
20
-0.68044002850850405
30
0
0
SPLINE
5
210
100
AcDbEntity
8
0
100
AcDbSpline
70
4
71
3
72
8
73
4
74
0
42
0.000000001
43
0.0000000001
44
0.0000000001
40
-1
40
-1
40
-1
40
-1
40
0
40
0
40
0
40
0
41
1
41
1
41
1
41
1
10
1.5772886276245113
20
-0.68044002850850405
30
0
10
1.5645654996236169
20
-0.71025101343790698
30
0
10
1.5658887227376304
20
-0.74419736862182617
30
0
10
1.5808924039204917
20
-0.77292792002360022
30
0
0
SPLINE
5
211
100
AcDbEntity
8
0
100
AcDbSpline
70
4
71
3
72
8
73
4
74
0
42
0.000000001
43
0.0000000001
44
0.0000000001
40
-1
40
-1
40
-1
40
-1
40
0
40
0
40
0
40
0
41
1
41
1
41
1
41
1
10
1.5808924039204917
20
-0.77292792002360022
30
0
10
1.6421543757120771
20
-0.90205176671346032
30
0
10
1.6447800000508628
20
-1.0513186454772947
30
0
10
1.5880969365437827
20
-1.1825180053710935
30
0
0
SPLINE
5
212
100
AcDbEntity
8
0
100
AcDbSpline
70
4
71
3
72
8
73
4
74
0
42
0.000000001
43
0.0000000001
44
0.0000000001
40
-1
40
-1
40
-1
40
-1
40
0
40
0
40
0
40
0
41
1
41
1
41
1
41
1
10
1.5880969365437827
20
-1.1825180053710935
30
0
10
1.5704763730367026
20
-1.2068569660186768
30
0
10
1.5619780222574873
20
-1.2366211414337156
30
0
10
1.564074675242106
20
-1.2665982246398924
30
0
0
SPLINE
5
213
100
AcDbEntity
8
0
100
AcDbSpline
70
4
71
3
72
8
73
4
74
0
42
0.000000001
43
0.0000000001
44
0.0000000001
40
-1
40
-1
40
-1
40
-1
40
0
40
0
40
0
40
0
41
1
41
1
41
1
41
1
10
1.564074675242106
20
-1.2665982246398924
30
0
10
1.570876916249593
20
-1.412765661875407
30
0
10
1.6383571624755857
20
-1.5494664510091145
30
0
10
1.7502519289652507
20
-1.6437573432922361
30
0
0
SPLINE
5
214
100
AcDbEntity
8
0
100
AcDbSpline
70
4
71
3
72
8
73
4
74
0
42
0.000000001
43
0.0000000001
44
0.0000000001
40
-1
40
-1
40
-1
40
-1
40
0
40
0
40
0
40
0
41
1
41
1
41
1
41
1
10
1.7502519289652507
20
-1.6437573432922361
30
0
10
1.7474691073099773
20
-1.6818857192993164
30
0
10
1.7225352923075359
20
-1.7148164113362632
30
0
10
1.6865911483764653
20
-1.7278374036153157
30
0
0
LINE
5
215
100
AcDbEntity
8
0
100
AcDbLine
10
1.6865911483764653
20
-1.7278374036153157
30
0
11
1.4679829279581704
21
-1.667780558268229
31
0
0
SPLINE
5
216
100
AcDbEntity
8
0
100
AcDbSpline
70
4
71
3
72
8
73
4
74
0
42
0.000000001
43
0.0000000001
44
0.0000000001
40
-1
40
-1
40
-1
40
-1
40
0
40
0
40
0
40
0
41
1
41
1
41
1
41
1
10
1.4679829279581704
20
-1.667780558268229
30
0
10
1.4508299827575686
20
-1.6602648099263511
30
0
10
1.4314018885294597
20
-1.659833113352458
30
0
10
1.4139318466186523
20
-1.6665846506754558
30
0
0
LINE
5
217
100
AcDbEntity
8
0
100
AcDbLine
10
1.4139318466186523
20
-1.6665846506754558
30
0
11
1.1809096336364744
21
-1.753067175547282
31
0
0
SPLINE
5
218
100
AcDbEntity
8
0
100
AcDbSpline
70
4
71
3
72
8
73
4
74
0
42
0.000000001
43
0.0000000001
44
0.0000000001
40
-1
40
-1
40
-1
40
-1
40
0
40
0
40
0
40
0
41
1
41
1
41
1
41
1
10
1.1809096336364744
20
-1.753067175547282
30
0
10
1.1428532600402832
20
-1.7637186050415037
30
0
10
1.1051931381225588
20
-1.7757396697998049
30
0
10
1.0680019060770671
20
-1.7891011238098149
30
0
0
LINE
5
219
100
AcDbEntity
8
0
100
AcDbLine
10
1.0680019060770671
20
-1.7891011238098149
30
0
11
1.0668059984842935
21
-1.7891011238098149
31
0
0
SPLINE
5
220
100
AcDbEntity
8
0
100
AcDbSpline
70
4
71
3
72
8
73
4
74
0
42
0.000000001
43
0.0000000001
44
0.0000000001
40
-1
40
-1
40
-1
40
-1
40
0
40
0
40
0
40
0
41
1
41
1
41
1
41
1
10
1.0668059984842935
20
-1.7891011238098149
30
0
10
1.05782945950826
20
-1.7912661234537763
30
0
10
1.0500652790069582
20
-1.7968722979227703
30
0
10
1.0451847712198894
20
-1.8047151565551758
30
0
0
LINE
5
221
100
AcDbEntity
8
0
100
AcDbLine
10
1.0451847712198894
20
-1.8047151565551758
30
0
11
1.0331727663675945
21
-1.9188241958618164
31
0
0
SPLINE
5
222
100
AcDbEntity
8
0
100
AcDbSpline
70
4
71
3
72
8
73
4
74
0
42
0.000000001
43
0.0000000001
44
0.0000000001
40
-1
40
-1
40
-1
40
-1
40
0
40
0
40
0
40
0
41
1
41
1
41
1
41
1
10
1.0331727663675945
20
-1.9188241958618164
30
0
10
1.0330998897552492
20
-1.9234603246053057
30
0
10
1.0318719546000164
20
-1.9280025164286296
30
0
10
1.0295688311258953
20
-1.9320375124613447
30
0
0
SPLINE
5
223
100
AcDbEntity
8
0
100
AcDbSpline
70
4
71
3
72
8
73
4
74
0
42
0.000000001
43
0.0000000001
44
0.0000000001
40
-1
40
-1
40
-1
40
-1
40
0
40
0
40
0
40
0
41
1
41
1
41
1
41
1
10
1.0295688311258953
20
-1.9320375124613447
30
0
10
1.0255927244822185
20
-1.940673669179281
30
0
10
1.0173896948496499
20
-1.9465982119242351
30
0
10
1.007947603861491
20
-1.9476515452067054
30
0
0
SPLINE
5
224
100
AcDbEntity
8
0
100
AcDbSpline
70
4
71
3
72
8
73
4
74
0
42
0.000000001
43
0.0000000001
44
0.0000000001
40
-1
40
-1
40
-1
40
-1
40
0
40
0
40
0
40
0
41
1
41
1
41
1
41
1
10
1.007947603861491
20
-1.9476515452067054
30
0
10
0.83088429768880212
20
-1.914124011993408
30
0
10
0.64820694923400879
20
-1.9261105855305991
30
0
10
0.47704207897186285
20
-1.9824848175048828
30
0
0
SPLINE
5
225
100
AcDbEntity
8
0
100
AcDbSpline
70
4
71
3
72
8
73
4
74
0
42
0.000000001
43
0.0000000001
44
0.0000000001
40
-1
40
-1
40
-1
40
-1
40
0
40
0
40
0
40
0
41
1
41
1
41
1
41
1
10
0.47704207897186285
20
-1.9824848175048828
30
0
10
0.42623424530029297
20
-1.9968396822611489
30
0
10
0.37368917465209961
20
-2.0041162172953282
30
0
10
0.32089281082153315
20
-2.0041062037150068
30
0
0
SPLINE
5
226
100
AcDbEntity
8
0
100
AcDbSpline
70
4
71
3
72
8
73
4
74
0
42
0.000000001
43
0.0000000001
44
0.0000000001
40
-1
40
-1
40
-1
40
-1
40
0
40
0
40
0
40
0
41
1
41
1
41
1
41
1
10
0.32089281082153315
20
-2.0041062037150068
30
0
10
0.2138126095136007
20
-2.0008087158203125
30
0
10
0.106633851925532
20
-2.0052223205566406
30
0
10
0.00018750459033374981
20
-2.0173195203145342
30
0
0
SPLINE
5
227
100
AcDbEntity
8
0
100
AcDbSpline
70
4
71
3
72
8
73
4
74
0
42
0.000000001
43
0.0000000001
44
0.0000000001
40
-1
40
-1
40
-1
40
-1
40
0
40
0
40
0
40
0
41
1
41
1
41
1
41
1
10
0.00018750459033374981
20
-2.0173195203145342
30
0
10
0.064403648177782699
20
-2.1423459053039551
30
0
10
0.17077177762985227
20
-2.2406304677327475
30
0
10
0.30047961076100671
20
-2.2947829564412441
30
0
0
SPLINE
5
228
100
AcDbEntity
8
0
100
AcDbSpline
70
4
71
3
72
8
73
4
74
0
42
0.000000001
43
0.0000000001
44
0.0000000001
40
-1
40
-1
40
-1
40
-1
40
0
40
0
40
0
40
0
41
1
41
1
41
1
41
1
10
0.30047961076100671
20
-2.2947829564412441
30
0
10
0.42988991737365723
20
-2.3483832677205401
30
0
10
0.57402888933817553
20
-2.3547614415486646
30
0
10
0.70766743024190271
20
-2.3128005663553881
30
0
0
SPLINE
5
229
100
AcDbEntity
8
0
100
AcDbSpline
70
4
71
3
72
8
73
4
74
0
42
0.000000001
43
0.0000000001
44
0.0000000001
40
-1
40
-1
40
-1
40
-1
40
0
40
0
40
0
40
0
41
1
41
1
41
1
41
1
10
0.70766743024190271
20
-2.3128005663553881
30
0
10
0.7095524470011394
20
-2.3114116986592608
30
0
10
0.71157471338907885
20
-2.3102132479349771
30
0
10
0.71367136637369799
20
-2.3091966311136884
30
0
0
SPLINE
5
230
100
AcDbEntity
8
0
100
AcDbSpline
70
4
71
3
72
8
73
4
74
0
42
0.000000001
43
0.0000000001
44
0.0000000001
40
-1
40
-1
40
-1
40
-1
40
0
40
0
40
0
40
0
41
1
41
1
41
1
41
1
10
0.71367136637369799
20
-2.3091966311136884
30
0
10
0.72172522544860851
20
-2.3060773213704429
30
0
10
0.73057897885640444
20
-2.3056397438049316
30
0
10
0.7388939857482909
20
-2.308000723520915
30
0
0
SPLINE
5
231
100
AcDbEntity
8
0
100
AcDbSpline
70
4
71
3
72
8
73
4
74
0
42
0.000000001
43
0.0000000001
44
0.0000000001
40
-1
40
-1
40
-1
40
-1
40
0
40
0
40
0
40
0
41
1
41
1
41
1
41
1
10
0.7388939857482909
20
-2.308000723520915
30
0
10
0.74692948659261071
20
-2.310128053029378
30
0
10
0.75408196449279774
20
-2.3147516250610347
30
0
10
0.75931199391682935
20
-2.3212141990661626
30
0
0
SPLINE
5
232
100
AcDbEntity
8
0
100
AcDbSpline
70
4
71
3
72
8
73
4
74
0
42
0.000000001
43
0.0000000001
44
0.0000000001
40
-1
40
-1
40
-1
40
-1
40
0
40
0
40
0
40
0
41
1
41
1
41
1
41
1
10
0.75931199391682935
20
-2.3212141990661626
30
0
10
0.78516880671183253
20
-2.3815067609151201
30
0
10
0.81485803922017419
20
-2.4400817553202314
30
0
10
0.84819682439168287
20
-2.4965812365214028
30
0
0
SPLINE
5
233
100
AcDbEntity
8
0
100
AcDbSpline
70
4
71
3
72
8
73
4
74
0
42
0.000000001
43
0.0000000001
44
0.0000000001
40
-1
40
-1
40
-1
40
-1
40
0
40
0
40
0
40
0
41
1
41
1
41
1
41
1
10
0.84819682439168287
20
-2.4965812365214028
30
0
10
0.87104964256286621
20
-2.516043821970622
30
0
10
0.89704481760660815
20
-2.5314736366271973
30
0
10
0.92507004737853993
20
-2.5422247250874834
30
0
0
SPLINE
5
234
100
AcDbEntity
8
0
100
AcDbSpline
70
4
71
3
72
8
73
4
74
0
42
0.000000001
43
0.0000000001
44
0.0000000001
40
-1
40
-1
40
-1
40
-1
40
0
40
0
40
0
40
0
41
1
41
1
41
1
41
1
10
0.92507004737853993
20
-2.5422247250874834
30
0
10
0.97414477666219068
20
-2.5713464419047036
30
0
10
1.0291665395100913
20
-2.5890076955159507
30
0
10
1.0860234101613364
20
-2.5938741366068521
30
0
0
SPLINE
5
235
100
AcDbEntity
8
0
100
AcDbSpline
70
4
71
3
72
8
73
4
74
0
42
0.000000001
43
0.0000000001
44
0.0000000001
40
-1
40
-1
40
-1
40
-1
40
0
40
0
40
0
40
0
41
1
41
1
41
1
41
1
10
1.0860234101613364
20
-2.5938741366068521
30
0
10
1.1974143981933596
20
-2.5912917455037436
30
0
10
1.3087430000305178
20
-2.5864880879720049
30
0
10
1.4199414253234863
20
-2.5794604619344077
30
0
0
SPLINE
5
236
100
AcDbEntity
8
0
100
AcDbSpline
70
4
71
3
72
8
73
4
74
0
42
0.000000001
43
0.0000000001
44
0.0000000001
40
-1
40
-1
40
-1
40
-1
40
0
40
0
40
0
40
0
41
1
41
1
41
1
41
1
10
1.4199414253234863
20
-2.5794604619344077
30
0
10
1.5020751953125
20
-2.6741418838500972
30
0
10
1.5239090919494631
20
-2.8070001602172847
30
0
10
1.4763951301574705
20
-2.9229876200358076
30
0
0
SPLINE
5
237
100
AcDbEntity
8
0
100
AcDbSpline
70
4
71
3
72
8
73
4
74
0
42
0.000000001
43
0.0000000001
44
0.0000000001
40
-1
40
-1
40
-1
40
-1
40
0
40
0
40
0
40
0
41
1
41
1
41
1
41
1
10
1.4763951301574705
20
-2.9229876200358076
30
0
10
1.4627901713053386
20
-2.9398253758748369
30
0
10
1.4570938746134441
20
-2.9617115656534834
30
0
10
1.4607812563578286
20
-2.9830446243286128
30
0
0
LINE
5
238
100
AcDbEntity
8
0
100
AcDbLine
10
1.4607812563578284
20
-2.9830446243286128
30
0
11
1.501620292663574
21
-3.1680212020874028
31
0
0
SPLINE
5
239
100
AcDbEntity
8
0
100
AcDbSpline
70
4
71
3
72
8
73
4
74
0
42
0.000000001
43
0.0000000001
44
0.0000000001
40
-1
40
-1
40
-1
40
-1
40
0
40
0
40
0
40
0
41
1
41
1
41
1
41
1
10
1.501620292663574
20
-3.1680212020874028
30
0
10
1.5084913571675616
20
-3.1759840647379556
30
0
10
1.5119635264078777
20
-3.1863498687744136
30
0
10
1.511230150858561
20
-3.1968479156494145
30
0
0
SPLINE
5
240
100
AcDbEntity
8
0
100
AcDbSpline
70
4
71
3
72
8
73
4
74
0
42
0.000000001
43
0.0000000001
44
0.0000000001
40
-1
40
-1
40
-1
40
-1
40
0
40
0
40
0
40
0
41
1
41
1
41
1
41
1
10
1.511230150858561
20
-3.1968479156494145
30
0
10
1.510798454284668
20
-3.2060642242431645
30
0
10
1.507433573404948
20
-3.2148996988932286
30
0
10
1.501620292663574
20
-3.2220703760782876
30
0
0
SPLINE
5
241
100
AcDbEntity
8
0
100
AcDbSpline
70
4
71
3
72
8
73
4
74
0
42
0.000000001
43
0.0000000001
44
0.0000000001
40
-1
40
-1
40
-1
40
-1
40
0
40
0
40
0
40
0
41
1
41
1
41
1
41
1
10
1.501620292663574
20
-3.2220703760782876
30
0
10
1.4959534009297688
20
-3.2286055882771802
30
0
10
1.4883960088094075
20
-3.2332146962483725
30
0
10
1.4799990653991699
20
-3.2352838516235352
30
0
0
LINE
5
242
100
AcDbEntity
8
0
100
AcDbLine
10
1.4799990653991699
20
-3.2352838516235338
30
0
11
1.4019244511922202
21
-3.2569052378336587
31
0
0
SPLINE
5
243
100
AcDbEntity
8
0
100
AcDbSpline
70
4
71
3
72
8
73
4
74
0
42
0.000000001
43
0.0000000001
44
0.0000000001
40
-1
40
-1
40
-1
40
-1
40
0
40
0
40
0
40
0
41
1
41
1
41
1
41
1
10
1.4019244511922202
20
-3.2569052378336587
30
0
10
1.3920183181762693
20
-3.2564004262288413
30
0
10
1.3822498321533203
20
-3.2593660354614258
30
0
10
1.3742982546488445
20
-3.2653131484985356
30
0
0
SPLINE
5
244
100
AcDbEntity
8
0
100
AcDbSpline
70
4
71
3
72
8
73
4
74
0
42
0.000000001
43
0.0000000001
44
0.0000000001
40
-1
40
-1
40
-1
40
-1
40
0
40
0
40
0
40
0
41
1
41
1
41
1
41
1
10
1.3742982546488445
20
-3.2653131484985356
30
0
10
1.366236368815104
20
-3.2707646687825518
30
0
10
1.3603072166442869
20
-3.2788267135620117
30
0
10
1.357481002807617
20
-3.2881348927815748
30
0
0
SPLINE
5
245
100
AcDbEntity
8
0
100
AcDbSpline
70
4
71
3
72
8
73
4
74
0
42
0.000000001
43
0.0000000001
44
0.0000000001
40
-1
40
-1
40
-1
40
-1
40
0
40
0
40
0
40
0
41
1
41
1
41
1
41
1
10
1.357481002807617
20
-3.2881348927815748
30
0
10
1.3422015508015952
20
-3.3665065765380864
30
0
10
1.3341533342997234
20
-3.4461167653401685
30
0
10
1.3334585825602214
20
-3.5259615580240888
30
0
0
LINE
5
246
100
AcDbEntity
8
0
100
AcDbLine
10
1.3334585825602214
20
-3.5259615580240888
30
0
11
1.3322625954945879
21
-3.5283501942952471
31
0
0
SPLINE
5
247
100
AcDbEntity
8
0
100
AcDbSpline
70
4
71
3
72
8
73
4
74
0
42
0.000000001
43
0.0000000001
44
0.0000000001
40
-1
40
-1
40
-1
40
-1
40
0
40
0
40
0
40
0
41
1
41
1
41
1
41
1
10
1.3322625954945879
20
-3.5283501942952471
30
0
10
1.3365335464477539
20
-3.5483036041259766
30
0
10
1.3296343485514324
20
-3.5690024693806963
30
0
10
1.3142450650533042
20
-3.5824015935262046
30
0
0
SPLINE
5
248
100
AcDbEntity
8
0
100
AcDbSpline
70
4
71
3
72
8
73
4
74
0
42
0.000000001
43
0.0000000001
44
0.0000000001
40
-1
40
-1
40
-1
40
-1
40
0
40
0
40
0
40
0
41
1
41
1
41
1
41
1
10
1.3142450650533042
20
-3.5824015935262046
30
0
10
1.301804224650065
20
-3.5831454594930006
30
0
10
1.2901488939921062
20
-3.5887533823649083
30
0
10
1.2818140983581543
20
-3.5980154673258467
30
0
0
SPLINE
5
249
100
AcDbEntity
8
0
100
AcDbSpline
70
4
71
3
72
8
73
4
74
0
42
0.000000001
43
0.0000000001
44
0.0000000001
40
-1
40
-1
40
-1
40
-1
40
0
40
0
40
0
40
0
41
1
41
1
41
1
41
1
10
1.2818140983581543
20
-3.5980154673258467
30
0
10
1.2737058798472087
20
-3.6068325042724605
30
0
10
1.2693930466969807
20
-3.6184832255045571
30
0
10
1.2698024113972981
20
-3.6304467519124359
30
0
0
LINE
5
250
100
AcDbEntity
8
0
100
AcDbLine
10
1.2698024113972981
20
-3.6304467519124359
30
0
11
1.3370658556620278
21
-4.1181112925211583
31
0
0
SPLINE
5
251
100
AcDbEntity
8
0
100
AcDbSpline
70
4
71
3
72
8
73
4
74
0
42
0.000000001
43
0.0000000001
44
0.0000000001
40
-1
40
-1
40
-1
40
-1
40
-0.22645122633803885
40
-0.22645122633803885
40
-0.22645122633803885
40
-0.22645122633803885
41
1
41
1
41
1
41
1
10
1.3370658556620278
20
-4.1181112925211583
30
0
10
1.4362705065048569
20
-4.0531300361521181
30
0
10
1.5317565631909065
20
-3.9826883488728266
30
0
10
1.6230856843699168
20
-3.9071209828054179
30
0
0
SPLINE
5
252
100
AcDbEntity
8
0
100
AcDbSpline
70
4
71
3
72
8
73
4
74
0
42
0.000000001
43
0.0000000001
44
0.0000000001
40
-0.22645122633797696
40
-0.22645122633797696
40
-0.22645122633797696
40
-0.22645122633797696
40
0
40
0
40
0
40
0
41
1
41
1
41
1
41
1
10
1.6230856843699379
20
-3.9071209828053997
30
0
10
1.649821673354124
20
-3.8849991421409942
30
0
10
1.6762014186023584
20
-3.862438037755112
30
0
10
1.7022139231363935
20
-3.8394460678100586
30
0
0
LINE
5
253
100
AcDbEntity
8
0
100
AcDbLine
10
1.7022139231363935
20
-3.8394460678100586
30
0
11
1.7047916805301653
21
-3.8416777112890359
31
0
0
ARC
5
254
100
AcDbEntity
8
0
100
AcDbCircle
10
0.60478765142541757
20
-2.5520481248696321
30
0
40
1.6950378562778361
210
-0
220
0
230
1
100
AcDbArc
50
310.46289235923558
51
316.13466226859043
0
SPLINE
5
255
100
AcDbEntity
8
0
100
AcDbSpline
70
4
71
3
72
8
73
4
74
0
42
0.000000001
43
0.0000000001
44
0.0000000001
40
-0.01305782106102522
40
-0.01305782106102522
40
-0.01305782106102522
40
-0.01305782106102522
40
0
40
0
40
0
40
0
41
1
41
1
41
1
41
1
10
1.8268598872592723
20
-3.7266513704887649
30
0
10
1.8253505998428965
20
-3.7250097340586272
30
0
10
1.8238421200620853
20
-3.7233673411348795
30
0
10
1.8223344484965007
20
-3.721724192301433
30
0
0
LINE
5
256
100
AcDbEntity
8
0
100
AcDbLine
10
1.8223344484965007
20
-3.721724192301433
30
0
11
1.8235303560892742
21
-3.7205282847086587
31
0
0
SPLINE
5
257
100
AcDbEntity
8
0
100
AcDbSpline
70
4
71
3
72
8
73
4
74
0
42
0.000000001
43
0.0000000001
44
0.0000000001
40
-1
40
-1
40
-1
40
-1
40
-0.71521035313888504
40
-0.71521035313888504
40
-0.71521035313888504
40
-0.71521035313888504
41
1
41
1
41
1
41
1
10
1.8235303560892742
20
-3.7205282847086587
30
0
10
1.8382860167702355
20
-3.7089986481074173
30
0
10
1.8525469345528136
20
-3.6968810128329506
30
0
10
1.86628057793136
20
-3.6842093018185822
30
0
0
SPLINE
5
258
100
AcDbEntity
8
0
100
AcDbSpline
70
4
71
3
72
8
73
4
74
0
42
0.000000001
43
0.0000000001
44
0.0000000001
40
-0.7152103531388091
40
-0.7152103531388091
40
-0.7152103531388091
40
-0.7152103531388091
40
0
40
0
40
0
40
0
41
1
41
1
41
1
41
1
10
1.866280577931372
20
-3.6842093018185715
30
0
10
1.9007707500247504
20
-3.6523860280115725
30
0
10
1.9319354303248575
20
-3.6170682278027555
30
0
10
1.9592593510945637
20
-3.5787932078043623
30
0
0
SPLINE
5
259
100
AcDbEntity
8
0
100
AcDbSpline
70
4
71
3
72
8
73
4
74
0
42
0.000000001
43
0.0000000001
44
0.0000000001
40
-1
40
-1
40
-1
40
-1
40
0
40
0
40
0
40
0
41
1
41
1
41
1
41
1
10
1.9592593510945637
20
-3.5787932078043623
30
0
10
1.9662758509318035
20
-3.508957544962565
30
0
10
1.9690589904785158
20
-3.4387645721435551
30
0
10
1.9676674207051594
20
-3.3685925801595054
30
0
0
SPLINE
5
260
100
AcDbEntity
8
0
100
AcDbSpline
70
4
71
3
72
8
73
4
74
0
42
0.000000001
43
0.0000000001
44
0.0000000001
40
-1
40
-1
40
-1
40
-1
40
0
40
0
40
0
40
0
41
1
41
1
41
1
41
1
10
1.9676674207051594
20
-3.3685925801595054
30
0
10
1.972890059153239
20
-3.3241335550944009
30
0
10
2.0048344930013022
20
-3.2874174118041988
30
0
10
2.0481440226236973
20
-3.2761046091715498
30
0
0
SPLINE
5
261
100
AcDbEntity
8
0
100
AcDbSpline
70
4
71
3
72
8
73
4
74
0
42
0.000000001
43
0.0000000001
44
0.0000000001
40
-1
40
-1
40
-1
40
-1
40
0
40
0
40
0
40
0
41
1
41
1
41
1
41
1
10
2.0481440226236973
20
-3.2761046091715498
30
0
10
2.16740353902181
20
-3.2126248677571616
30
0
10
2.2468183835347486
20
-3.0935026804606118
30
0
10
2.2595456441243487
20
-2.9590024948120122
30
0
0
SPLINE
5
262
100
AcDbEntity
8
0
100
AcDbSpline
70
4
71
3
72
8
73
4
74
0
42
0.000000001
43
0.0000000001
44
0.0000000001
40
-1
40
-1
40
-1
40
-1
40
0
40
0
40
0
40
0
41
1
41
1
41
1
41
1
10
2.2595456441243487
20
-2.9590024948120122
30
0
10
2.2619673411051435
20
-2.9491605758666988
30
0
10
2.267436345418294
20
-2.9403355916341147
30
0
10
2.275159358978271
20
-2.9337768554687504
30
0
0
SPLINE
5
263
100
AcDbEntity
8
0
100
AcDbSpline
70
4
71
3
72
8
73
4
74
0
42
0.000000001
43
0.0000000001
44
0.0000000001
40
-1
40
-1
40
-1
40
-1
40
0
40
0
40
0
40
0
41
1
41
1
41
1
41
1
10
2.275159358978271
20
-2.9337768554687504
30
0
10
2.282536506652832
20
-2.927170117696126
30
0
10
2.2917613983154301
20
-2.9229958852132158
30
0
10
2.3015851974487305
20
-2.9217653274536128
30
0
0
LINE
5
264
100
AcDbEntity
8
0
100
AcDbLine
10
2.3015851974487305
20
-2.9217653274536128
30
0
11
2.3123949368794761
21
-2.9205694198608403
31
0
0
SPLINE
5
265
100
AcDbEntity
8
0
100
AcDbSpline
70
4
71
3
72
8
73
4
74
0
42
0.000000001
43
0.0000000001
44
0.0000000001
40
-1
40
-1
40
-1
40
-1
40
0
40
0
40
0
40
0
41
1
41
1
41
1
41
1
10
2.3123949368794761
20
-2.9205694198608403
30
0
10
2.376603444417317
20
-2.9126453399658203
30
0
10
2.4414265950520835
20
-2.9293880462646489
30
0
10
2.4937678972880044
20
-2.9674139022827153
30
0
0
SPLINE
5
266
100
AcDbEntity
8
0
100
AcDbSpline
70
4
71
3
72
8
73
4
74
0
42
0.000000001
43
0.0000000001
44
0.0000000001
40
-1
40
-1
40
-1
40
-1
40
0
40
0
40
0
40
0
41
1
41
1
41
1
41
1
10
2.4937678972880044
20
-2.9674139022827153
30
0
10
2.5453917185465493
20
-3.0051323572794599
30
0
10
2.580972989400228
20
-3.0608590443929038
30
0
10
2.5934626261393228
20
-3.1235624949137368
30
0
0
SPLINE
5
267
100
AcDbEntity
8
0
100
AcDbSpline
70
4
71
3
72
8
73
4
74
0
42
0.000000001
43
0.0000000001
44
0.0000000001
40
-1
40
-1
40
-1
40
-1
40
0
40
0
40
0
40
0
41
1
41
1
41
1
41
1
10
2.5934626261393228
20
-3.1235624949137368
30
0
10
2.5911045074462886
20
-3.1314697265625
30
0
10
2.5915236473083492
20
-3.1399453481038413
30
0
10
2.5946585337320967
20
-3.1475845972696943
30
0
0
SPLINE
5
268
100
AcDbEntity
8
0
100
AcDbSpline
70
4
71
3
72
8
73
4
74
0
42
0.000000001
43
0.0000000001
44
0.0000000001
40
-1
40
-1
40
-1
40
-1
40
0
40
0
40
0
40
0
41
1
41
1
41
1
41
1
10
2.5946585337320967
20
-3.1475845972696943
30
0
10
2.5977007548014321
20
-3.1551666259765621
30
0
10
2.6031983693440761
20
-3.1615165074666343
30
0
10
2.6102722485860186
20
-3.1656020482381191
30
0
0
SPLINE
5
269
100
AcDbEntity
8
0
100
AcDbSpline
70
4
71
3
72
8
73
4
74
0
42
0.000000001
43
0.0000000001
44
0.0000000001
40
-1
40
-1
40
-1
40
-1
40
0
40
0
40
0
40
0
41
1
41
1
41
1
41
1
10
2.6102722485860186
20
-3.1656020482381191
30
0
10
2.6603418986002603
20
-3.1933768590291343
30
0
10
2.7163883845011401
20
-3.2086184819539394
30
0
10
2.7736279169718427
20
-3.2100445429484048
30
0
0
SPLINE
5
270
100
AcDbEntity
8
0
100
AcDbSpline
70
4
71
3
72
8
73
4
74
0
42
0.000000001
43
0.0000000001
44
0.0000000001
40
-1
40
-1
40
-1
40
-1
40
0
40
0
40
0
40
0
41
1
41
1
41
1
41
1
10
2.7736279169718427
20
-3.2100445429484048
30
0
10
2.829417546590169
20
-3.1910209655761719
30
0
10
2.8839740753173837
20
-3.1685565312703456
30
0
10
2.9369834264119468
20
-3.1427803039550786
30
0
0
SPLINE
5
271
100
AcDbEntity
8
0
100
AcDbSpline
70
4
71
3
72
8
73
4
74
0
42
0.000000001
43
0.0000000001
44
0.0000000001
40
-1
40
-1
40
-1
40
-1
40
0
40
0
40
0
40
0
41
1
41
1
41
1
41
1
10
2.9369834264119468
20
-3.1427803039550786
30
0
10
2.9594818751017251
20
-3.1291866302490239
30
0
10
2.9870678583780923
20
-3.126963297526042
30
0
10
3.0114542643229165
20
-3.1367762883504238
30
0
0
LINE
5
272
100
AcDbEntity
8
0
100
AcDbLine
10
3.0114542643229165
20
-3.1367762883504238
30
0
11
3.1135511398315425
21
-3.1728105545043945
31
0
0
LINE
5
273
100
AcDbEntity
8
0
100
AcDbLine
10
3.1135511398315425
20
-3.1728105545043945
30
0
11
3.1555913289388022
21
-3.1860240300496403
31
0
0
SPLINE
5
274
100
AcDbEntity
8
0
100
AcDbSpline
70
4
71
3
72
8
73
4
74
0
42
0.000000001
43
0.0000000001
44
0.0000000001
40
-1
40
-1
40
-1
40
-1
40
0
40
0
40
0
40
0
41
1
41
1
41
1
41
1
10
3.1555913289388022
20
-3.1860240300496412
30
0
10
3.176177978515625
20
-3.1978146235148115
30
0
10
3.188629468282064
20
-3.2199598948160801
30
0
10
3.1880222956339517
20
-3.2436790466308598
30
0
0
SPLINE
5
275
100
AcDbEntity
8
0
100
AcDbSpline
70
4
71
3
72
8
73
4
74
0
42
0.000000001
43
0.0000000001
44
0.0000000001
40
-1
40
-1
40
-1
40
-1
40
0
40
0
40
0
40
0
41
1
41
1
41
1
41
1
10
3.1880222956339517
20
-3.2436790466308598
30
0
10
3.17884349822998
20
-3.2807846069335942
30
0
10
3.1897850036621089
20
-3.3199863433837891
30
0
10
3.2168490091959634
20
-3.3469772338867188
30
0
0
LINE
5
276
100
AcDbEntity
8
0
100
AcDbLine
10
3.2168490091959634
20
-3.3469772338867188
30
0
11
3.5579741795857749
21
-3.6112292607625327
31
0
0
SPLINE
5
277
100
AcDbEntity
8
0
100
AcDbSpline
70
4
71
3
72
8
73
4
74
0
42
0.000000001
43
0.0000000001
44
0.0000000001
40
-1
40
-1
40
-1
40
-1
40
0
40
0
40
0
40
0
41
1
41
1
41
1
41
1
10
3.5579741795857749
20
-3.6112292607625327
30
0
10
3.5785881678263349
20
-3.6421143213907876
30
0
10
3.614787101745605
20
-3.6588176091512046
30
0
10
3.6516634623209638
20
-3.6544701258341465
30
0
0
SPLINE
5
278
100
AcDbEntity
8
0
100
AcDbSpline
70
4
71
3
72
8
73
4
74
0
42
0.000000001
43
0.0000000001
44
0.0000000001
40
-1
40
-1
40
-1
40
-1
40
0
40
0
40
0
40
0
41
1
41
1
41
1
41
1
10
3.6516634623209638
20
-3.6544701258341465
30
0
10
3.7009340922037768
20
-3.6542898813883462
30
0
10
3.7502009073893223
20
-3.6554810206095372
30
0
10
3.7994041442871094
20
-3.6580737431844077
30
0
0
SPLINE
5
279
100
AcDbEntity
8
0
100
AcDbSpline
70
4
71
3
72
8
73
4
74
0
42
0.000000001
43
0.0000000001
44
0.0000000001
40
-1
40
-1
40
-1
40
-1
40
0
40
0
40
0
40
0
41
1
41
1
41
1
41
1
10
3.7994041442871094
20
-3.6580737431844077
30
0
10
3.7920052210489912
20
-3.6067934036254874
30
0
10
3.7778695424397779
20
-3.5567127863566088
30
0
10
3.7573639551798501
20
-3.5091320673624673
30
0
0
LINE
5
280
100
AcDbEntity
8
0
100
AcDbLine
10
3.7573639551798501
20
-3.5091320673624673
30
0
11
3.6816921234130855
21
-3.3421729405721035
31
0
0
SPLINE
5
281
100
AcDbEntity
8
0
100
AcDbSpline
70
4
71
3
72
8
73
4
74
0
42
0.000000001
43
0.0000000001
44
0.0000000001
40
-1
40
-1
40
-1
40
-1
40
0
40
0
40
0
40
0
41
1
41
1
41
1
41
1
10
3.6816921234130855
20
-3.3421729405721035
30
0
10
3.6750329335530609
20
-3.3221124013264971
30
0
10
3.662475268046061
20
-3.304530143737793
30
0
10
3.6456575393676758
20
-3.2917248407999677
30
0
0
SPLINE
5
282
100
AcDbEntity
8
0
100
AcDbSpline
70
4
71
3
72
8
73
4
74
0
42
0.000000001
43
0.0000000001
44
0.0000000001
40
-1
40
-1
40
-1
40
-1
40
0
40
0
40
0
40
0
41
1
41
1
41
1
41
1
10
3.6456575393676758
20
-3.2917248407999677
30
0
10
3.6176681518554683
20
-3.2778469721476227
30
0
10
3.5943053563435874
20
-3.2561518351236973
30
0
10
3.5783936182657881
20
-3.2292655309041347
30
0
0
SPLINE
5
283
100
AcDbEntity
8
0
100
AcDbSpline
70
4
71
3
72
8
73
4
74
0
42
0.000000001
43
0.0000000001
44
0.0000000001
40
-1
40
-1
40
-1
40
-1
40
0
40
0
40
0
40
0
41
1
41
1
41
1
41
1
10
3.5783936182657881
20
-3.2292655309041347
30
0
10
3.5708389282226567
20
-3.2140134175618487
30
0
10
3.5687265396118169
20
-3.1966400146484366
30
0
10
3.5723892847696943
20
-3.1800187428792315
30
0
0
SPLINE
5
284
100
AcDbEntity
8
0
100
AcDbSpline
70
4
71
3
72
8
73
4
74
0
42
0.000000001
43
0.0000000001
44
0.0000000001
40
-1
40
-1
40
-1
40
-1
40
0
40
0
40
0
40
0
41
1
41
1
41
1
41
1
10
3.5723892847696943
20
-3.1800187428792315
30
0
10
3.5867910385131831
20
-3.1500838597615561
30
0
10
3.593805631001791
20
-3.1171305974324546
30
0
10
3.5928077697753902
20
-3.0839271545410156
30
0
0
SPLINE
5
285
100
AcDbEntity
8
0
100
AcDbSpline
70
4
71
3
72
8
73
4
74
0
42
0.000000001
43
0.0000000001
44
0.0000000001
40
-1
40
-1
40
-1
40
-1
40
0
40
0
40
0
40
0
41
1
41
1
41
1
41
1
10
3.5928077697753902
20
-3.0839271545410156
30
0
10
3.5721766153971357
20
-3.042520840962728
30
0
10
3.5497344334920244
20
-3.0020437240600581
30
0
10
3.525543530782064
20
-2.9626111984252925
30
0
0
LINE
5
286
100
AcDbEntity
8
0
100
AcDbLine
10
3.525543530782064
20
-2.962611198425293
30
0
11
3.4222450256347652
21
-2.7992556889851885
31
0
0
SPLINE
5
287
100
AcDbEntity
8
0
100
AcDbSpline
70
4
71
3
72
8
73
4
74
0
42
0.000000001
43
0.0000000001
44
0.0000000001
40
-1
40
-1
40
-1
40
-1
40
0
40
0
40
0
40
0
41
1
41
1
41
1
41
1
10
3.4222450256347652
20
-2.7992556889851894
30
0
10
3.4177789688110352
20
-2.7812814712524414
30
0
10
3.4040304819742842
20
-2.7670774459838872
30
0
10
3.3862104415893555
20
-2.7620204289754233
30
0
0
SPLINE
5
288
100
AcDbEntity
8
0
100
AcDbSpline
70
4
71
3
72
8
73
4
74
0
42
0.000000001
43
0.0000000001
44
0.0000000001
40
-1
40
-1
40
-1
40
-1
40
0
40
0
40
0
40
0
41
1
41
1
41
1
41
1
10
3.3862104415893555
20
-2.7620204289754233
30
0
10
3.3354384104410806
20
-2.7505222956339521
30
0
10
3.2849737803141279
20
-2.7377052307128897
30
0
10
3.2348664601643886
20
-2.7235838572184248
30
0
0
SPLINE
5
289
100
AcDbEntity
8
0
100
AcDbSpline
70
4
71
3
72
8
73
4
74
0
42
0.000000001
43
0.0000000001
44
0.0000000001
40
-1
40
-1
40
-1
40
-1
40
0
40
0
40
0
40
0
41
1
41
1
41
1
41
1
10
3.2348664601643886
20
-2.7235838572184248
30
0
10
3.2289892832438154
20
-2.7253319422403965
30
0
10
3.2227230072021484
20
-2.7253319422403965
30
0
10
3.2168490091959634
20
-2.7235838572184248
30
0
0
SPLINE
5
290
100
AcDbEntity
8
0
100
AcDbSpline
70
4
71
3
72
8
73
4
74
0
42
0.000000001
43
0.0000000001
44
0.0000000001
40
-1
40
-1
40
-1
40
-1
40
0
40
0
40
0
40
0
41
1
41
1
41
1
41
1
10
3.2168490091959634
20
-2.7235838572184248
30
0
10
3.2080062230428052
20
-2.7218557993570967
30
0
10
3.2002239227294922
20
-2.7166630427042646
30
0
10
3.1952276229858398
20
-2.7091700236002603
30
0
0
SPLINE
5
291
100
AcDbEntity
8
0
100
AcDbSpline
70
4
71
3
72
8
73
4
74
0
42
0.000000001
43
0.0000000001
44
0.0000000001
40
-1
40
-1
40
-1
40
-1
40
0
40
0
40
0
40
0
41
1
41
1
41
1
41
1
10
3.1952276229858398
20
-2.7091700236002603
30
0
10
3.1907157897949223
20
-2.7015775044759116
30
0
10
3.1894089380900064
20
-2.6924953460693364
30
0
10
3.1916240056355796
20
-2.6839447021484371
30
0
0
SPLINE
5
292
100
AcDbEntity
8
0
100
AcDbSpline
70
4
71
3
72
8
73
4
74
0
42
0.000000001
43
0.0000000001
44
0.0000000001
40
-1
40
-1
40
-1
40
-1
40
0
40
0
40
0
40
0
41
1
41
1
41
1
41
1
10
3.1916240056355796
20
-2.6839447021484371
30
0
10
3.2181132634480787
20
-2.5615029335021968
30
0
10
3.1701199213663727
20
-2.4349319140116377
30
0
10
3.069107373555501
20
-2.3608368237813311
30
0
0
SPLINE
5
293
100
AcDbEntity
8
0
100
AcDbSpline
70
4
71
3
72
8
73
4
74
0
42
0.000000001
43
0.0000000001
44
0.0000000001
40
-1
40
-1
40
-1
40
-1
40
0
40
0
40
0
40
0
41
1
41
1
41
1
41
1
10
3.069107373555501
20
-2.3608368237813311
30
0
10
3.0618642171223964
20
-2.3558595975240073
30
0
10
3.0564072926839194
20
-2.3487073580423994
30
0
10
3.0534934997558598
20
-2.3404189745585127
30
0
0
SPLINE
5
294
100
AcDbEntity
8
0
100
AcDbSpline
70
4
71
3
72
8
73
4
74
0
42
0.000000001
43
0.0000000001
44
0.0000000001
40
-1
40
-1
40
-1
40
-1
40
0
40
0
40
0
40
0
41
1
41
1
41
1
41
1
10
3.0534934997558598
20
-2.3404189745585127
30
0
10
3.050841967264811
20
-2.3322207132975263
30
0
10
3.050841967264811
20
-2.3234008153279624
30
0
10
3.0534934997558598
20
-2.3151965141296382
30
0
0
SPLINE
5
295
100
AcDbEntity
8
0
100
AcDbSpline
70
4
71
3
72
8
73
4
74
0
42
0.000000001
43
0.0000000001
44
0.0000000001
40
-1
40
-1
40
-1
40
-1
40
0
40
0
40
0
40
0
41
1
41
1
41
1
41
1
10
3.0534934997558598
20
-2.3151965141296382
30
0
10
3.059397061665853
20
-2.3076971371968584
30
0
10
3.0624004999796552
20
-2.2983071009318037
30
0
10
3.0619014104207354
20
-2.2887708346048989
30
0
0
SPLINE
5
296
100
AcDbEntity
8
0
100
AcDbSpline
70
4
71
3
72
8
73
4
74
0
42
0.000000001
43
0.0000000001
44
0.0000000001
40
-1
40
-1
40
-1
40
-1
40
0
40
0
40
0
40
0
41
1
41
1
41
1
41
1
10
3.0619014104207354
20
-2.2887708346048989
30
0
10
3.0619637171427407
20
-2.2790945370992026
30
0
10
3.0585505167643228
20
-2.2697184880574546
30
0
10
3.0522931416829424
20
-2.26234499613444
30
0
0
SPLINE
5
297
100
AcDbEntity
8
0
100
AcDbSpline
70
4
71
3
72
8
73
4
74
0
42
0.000000001
43
0.0000000001
44
0.0000000001
40
-1
40
-1
40
-1
40
-1
40
0
40
0
40
0
40
0
41
1
41
1
41
1
41
1
10
3.0522931416829424
20
-2.26234499613444
30
0
10
3.0253445307413727
20
-2.2417427698771157
30
0
10
3.0055942535400386
20
-2.2131582895914712
30
0
10
2.9958400726318364
20
-2.1806672414143882
30
0
0
SPLINE
5
298
100
AcDbEntity
8
0
100
AcDbSpline
70
4
71
3
72
8
73
4
74
0
42
0.000000001
43
0.0000000001
44
0.0000000001
40
-1
40
-1
40
-1
40
-1
40
0
40
0
40
0
40
0
41
1
41
1
41
1
41
1
10
2.9958400726318364
20
-2.1806672414143882
30
0
10
2.9835631052653002
20
-2.1395552953084311
30
0
10
2.9874289830525722
20
-2.0953086217244468
30
0
10
3.0066496531168623
20
-2.0569489796956386
30
0
0
SPLINE
5
299
100
AcDbEntity
8
0
100
AcDbSpline
70
4
71
3
72
8
73
4
74
0
42
0.000000001
43
0.0000000001
44
0.0000000001
40
-1
40
-1
40
-1
40
-1
40
0
40
0
40
0
40
0
41
1
41
1
41
1
41
1
10
3.0066496531168623
20
-2.0569489796956386
30
0
10
3.0251607894897465
20
-2.0189569791158042
30
0
10
3.0573361714680991
20
-1.9893577893575034
30
0
10
3.0967356363932286
20
-1.9740702311197917
30
0
0
SPLINE
5
300
100
AcDbEntity
8
0
100
AcDbSpline
70
4
71
3
72
8
73
4
74
0
42
0.000000001
43
0.0000000001
44
0.0000000001
40
-1
40
-1
40
-1
40
-1
40
0
40
0
40
0
40
0
41
1
41
1
41
1
41
1
10
3.0967356363932286
20
-1.9740702311197917
30
0
10
3.1130186716715498
20
-1.965707619984945
30
0
10
3.1314055124918618
20
-1.9623916943868003
30
0
10
3.1495860417683916
20
-1.9644606908162434
30
0
0
SPLINE
5
301
100
AcDbEntity
8
0
100
AcDbSpline
70
4
71
3
72
8
73
4
74
0
42
0.000000001
43
0.0000000001
44
0.0000000001
40
-1
40
-1
40
-1
40
-1
40
0
40
0
40
0
40
0
41
1
41
1
41
1
41
1
10
3.1495860417683916
20
-1.9644606908162434
30
0
10
3.2210687001546225
20
-1.975817362467448
30
0
10
3.2942914962768559
20
-1.9626960754394527
30
0
10
3.3573840459187831
20
-1.9272249539693198
30
0
0
SPLINE
5
302
100
AcDbEntity
8
0
100
AcDbSpline
70
4
71
3
72
8
73
4
74
0
42
0.000000001
43
0.0000000001
44
0.0000000001
40
-1
40
-1
40
-1
40
-1
40
0
40
0
40
0
40
0
41
1
41
1
41
1
41
1
10
3.3573840459187831
20
-1.9272249539693198
30
0
10
3.4195855458577471
20
-1.8913100560506184
30
0
10
3.4678363800048837
20
-1.8354407946268718
30
0
10
3.4943148295084634
20
-1.7686740557352705
30
0
0
SPLINE
5
303
100
AcDbEntity
8
0
100
AcDbSpline
70
4
71
3
72
8
73
4
74
0
42
0.000000001
43
0.0000000001
44
0.0000000001
40
-1
40
-1
40
-1
40
-1
40
0
40
0
40
0
40
0
41
1
41
1
41
1
41
1
10
3.4943148295084634
20
-1.7686740557352705
30
0
10
3.4948186874389653
20
-1.7419716517130535
30
0
10
3.5114377339680996
20
-1.718226432800293
30
0
10
3.5363547007242842
20
-1.7086165746053057
30
0
0
SPLINE
5
304
100
AcDbEntity
8
0
100
AcDbSpline
70
4
71
3
72
8
73
4
74
0
42
0.000000001
43
0.0000000001
44
0.0000000001
40
-1
40
-1
40
-1
40
-1
40
0
40
0
40
0
40
0
41
1
41
1
41
1
41
1
10
3.5363547007242842
20
-1.7086165746053057
30
0
10
3.5634568532307949
20
-1.7014721234639483
30
0
10
3.5851325988769527
20
-1.6811513900756834
30
0
10
3.5940097173055006
20
-1.6545651753743487
30
0
0
SPLINE
5
305
100
AcDbEntity
8
0
100
AcDbSpline
70
4
71
3
72
8
73
4
74
0
42
0.000000001
43
0.0000000001
44
0.0000000001
40
-1
40
-1
40
-1
40
-1
40
0
40
0
40
0
40
0
41
1
41
1
41
1
41
1
10
3.5940097173055006
20
-1.6545651753743487
30
0
10
3.5974829991658526
20
-1.6207385063171387
30
0
10
3.6171986262003584
20
-1.5907150904337566
30
0
10
3.6468598047892256
20
-1.5740885734558103
30
0
0
SPLINE
5
306
100
AcDbEntity
8
0
100
AcDbSpline
70
4
71
3
72
8
73
4
74
0
42
0.000000001
43
0.0000000001
44
0.0000000001
40
-1
40
-1
40
-1
40
-1
40
0
40
0
40
0
40
0
41
1
41
1
41
1
41
1
10
3.6468598047892256
20
-1.5740885734558103
30
0
10
3.7407894134521489
20
-1.5140080451965332
30
0
10
3.8115186691284175
20
-1.4237963358561199
30
0
10
3.8474508921305342
20
-1.3182446161905923
30
0
0
SPLINE
5
307
100
AcDbEntity
8
0
100
AcDbSpline
70
4
71
3
72
8
73
4
74
0
42
0.000000001
43
0.0000000001
44
0.0000000001
40
-1
40
-1
40
-1
40
-1
40
0
40
0
40
0
40
0
41
1
41
1
41
1
41
1
10
3.8474508921305342
20
-1.3182446161905923
30
0
10
3.8536799748738604
20
-1.2902511755625408
30
0
10
3.8625246683756509
20
-1.262905200322469
30
0
10
3.873876571655273
20
-1.2365670998891196
30
0
0
SPLINE
5
308
100
AcDbEntity
8
0
100
AcDbSpline
70
4
71
3
72
8
73
4
74
0
42
0.000000001
43
0.0000000001
44
0.0000000001
40
-1
40
-1
40
-1
40
-1
40
0
40
0
40
0
40
0
41
1
41
1
41
1
41
1
10
3.873876571655273
20
-1.2365670998891196
30
0
10
3.874731063842773
20
-1.230165402094523
30
0
10
3.8729991912841797
20
-1.2236781120300293
30
0
10
3.8690725962320962
20
-1.2185498078664143
30
0
0
SPLINE
5
309
100
AcDbEntity
8
0
100
AcDbSpline
70
4
71
3
72
8
73
4
74
0
42
0.000000001
43
0.0000000001
44
0.0000000001
40
-1
40
-1
40
-1
40
-1
40
0
40
0
40
0
40
0
41
1
41
1
41
1
41
1
10
3.8690725962320962
20
-1.2185498078664143
30
0
10
3.8647718429565425
20
-1.2128575642903647
30
0
10
3.858179092407227
20
-1.209351062774658
30
0
10
3.8510551452636719
20
-1.2089416980743406
30
0
0
LINE
5
310
100
AcDbEntity
8
0
100
AcDbLine
10
3.8510551452636719
20
-1.2089416980743406
30
0
11
3.539958953857421
21
-1.1512866020202634
31
0
0
SPLINE
5
311
100
AcDbEntity
8
0
100
AcDbSpline
70
4
71
3
72
8
73
4
74
0
42
0.000000001
43
0.0000000001
44
0.0000000001
40
-1
40
-1
40
-1
40
-1
40
0
40
0
40
0
40
0
41
1
41
1
41
1
41
1
10
3.539958953857421
20
-1.1512866020202634
30
0
10
3.5057309468587241
20
-1.144207239151001
30
0
10
3.4701677958170576
20
-1.1475543975830076
30
0
10
3.4378614425659175
20
-1.1608966191609702
30
0
0
SPLINE
5
312
100
AcDbEntity
8
0
100
AcDbSpline
70
4
71
3
72
8
73
4
74
0
42
0.000000001
43
0.0000000001
44
0.0000000001
40
-1
40
-1
40
-1
40
-1
40
0
40
0
40
0
40
0
41
1
41
1
41
1
41
1
10
3.2096439997355146
20
-1.3194475173950198
30
0
10
3.1999247868855796
20
-1.3449832598368325
30
0
10
3.175700187683105
20
-1.3620813687642415
30
0
10
3.1483856836954751
20
-1.362688700358073
30
0
0
SPLINE
5
313
100
AcDbEntity
8
0
100
AcDbSpline
70
4
71
3
72
8
73
4
74
0
42
0.000000001
43
0.0000000001
44
0.0000000001
40
-1
40
-1
40
-1
40
-1
40
0
40
0
40
0
40
0
41
1
41
1
41
1
41
1
10
3.4378614425659175
20
-1.1608966191609702
30
0
10
3.350200017293294
20
-1.1947268644968667
30
0
10
3.2719370524088536
20
-1.2490998109181719
30
0
10
3.2096439997355146
20
-1.3194475173950198
30
0
0
SPLINE
5
314
100
AcDbEntity
8
0
100
AcDbSpline
70
4
71
3
72
8
73
4
74
0
42
0.000000001
43
0.0000000001
44
0.0000000001
40
-1
40
-1
40
-1
40
-1
40
0
40
0
40
0
40
0
41
1
41
1
41
1
41
1
10
2.1961388587951665
20
-2.3603703180948896
30
0
10
2.1132171948750811
20
-2.3603703180948896
30
0
10
2.0459958712259927
20
-2.2931489944458003
30
0
10
2.0459958712259927
20
-2.2102273305257163
30
0
0
SPLINE
5
315
100
AcDbEntity
8
0
100
AcDbSpline
70
4
71
3
72
8
73
4
74
0
42
0.000000001
43
0.0000000001
44
0.0000000001
40
-1
40
-1
40
-1
40
-1
40
0
40
0
40
0
40
0
41
1
41
1
41
1
41
1
10
2.0459958712259927
20
-2.2102273305257163
30
0
10
2.0459958712259927
20
-2.1273055076599126
30
0
10
2.1132170359293623
20
-2.0600841840108242
30
0
10
2.1961388587951665
20
-2.0600841840108242
30
0
0
SPLINE
5
316
100
AcDbEntity
8
0
100
AcDbSpline
70
4
71
3
72
8
73
4
74
0
42
0.000000001
43
0.0000000001
44
0.0000000001
40
-1
40
-1
40
-1
40
-1
40
0
40
0
40
0
40
0
41
1
41
1
41
1
41
1
10
2.3462818463643398
20
-2.2102273305257163
30
0
10
2.3462818463643398
20
-2.2931489944458003
30
0
10
2.2790605227152509
20
-2.3603703180948896
30
0
10
2.1961388587951665
20
-2.3603703180948896
30
0
0
SPLINE
5
317
100
AcDbEntity
8
0
100
AcDbSpline
70
4
71
3
72
8
73
4
74
0
42
0.000000001
43
0.0000000001
44
0.0000000001
40
-1
40
-1
40
-1
40
-1
40
0
40
0
40
0
40
0
41
1
41
1
41
1
41
1
10
2.1961388587951665
20
-2.0600841840108242
30
0
10
2.2790605227152509
20
-2.0600841840108242
30
0
10
2.3462818463643398
20
-2.1273055076599126
30
0
10
2.3462818463643398
20
-2.2102273305257163
30
0
0
SPLINE
5
318
100
AcDbEntity
8
0
100
AcDbSpline
70
4
71
3
72
8
73
4
74
0
42
0.000000001
43
0.0000000001
44
0.0000000001
40
-1
40
-1
40
-1
40
-1
40
0
40
0
40
0
40
0
41
1
41
1
41
1
41
1
10
6.612061818440754
20
-2.4996445973714194
30
0
10
6.6120624542236337
20
-2.5825662612915035
30
0
10
6.544841130574544
20
-2.649787743886312
30
0
10
6.4619191487630223
20
-2.6497879028320312
30
0
0
SPLINE
5
319
100
AcDbEntity
8
0
100
AcDbSpline
70
4
71
3
72
8
73
4
74
0
42
0.000000001
43
0.0000000001
44
0.0000000001
40
-1
40
-1
40
-1
40
-1
40
0
40
0
40
0
40
0
41
1
41
1
41
1
41
1
10
6.4619191487630223
20
-2.6497879028320312
30
0
10
6.3789971669514971
20
-2.6497879028320312
30
0
10
6.3117758433024074
20
-2.5825662612915035
30
0
10
6.3117758433024074
20
-2.4996445973714194
30
0
0
SPLINE
5
320
100
AcDbEntity
8
0
100
AcDbSpline
70
4
71
3
72
8
73
4
74
0
42
0.000000001
43
0.0000000001
44
0.0000000001
40
-1
40
-1
40
-1
40
-1
40
0
40
0
40
0
40
0
41
1
41
1
41
1
41
1
10
6.4619191487630223
20
-2.3495016098022465
30
0
10
6.544840494791667
20
-2.3495016098022465
30
0
10
6.612061818440754
20
-2.4167227745056152
30
0
10
6.612061818440754
20
-2.4996445973714194
30
0
0
SPLINE
5
321
100
AcDbEntity
8
0
100
AcDbSpline
70
4
71
3
72
8
73
4
74
0
42
0.000000001
43
0.0000000001
44
0.0000000001
40
-1
40
-1
40
-1
40
-1
40
0
40
0
40
0
40
0
41
1
41
1
41
1
41
1
10
6.3117758433024074
20
-2.4996445973714194
30
0
10
6.3117758433024074
20
-2.4167229334513345
30
0
10
6.3789971669514971
20
-2.3495016098022465
30
0
10
6.4619191487630223
20
-2.3495016098022465
30
0
0
LINE
5
322
100
AcDbEntity
8
0
100
AcDbLine
10
10.277178446451824
20
-2.9253676732381177
30
0
11
10.272373835245768
21
-2.9241717656453448
31
0
0
LINE
5
323
100
AcDbEntity
8
0
100
AcDbLine
10
10.272373835245768
20
-2.9241717656453448
30
0
11
10.272396087646483
21
-2.9241511027018228
31
0
0
SPLINE
5
324
100
AcDbEntity
8
0
100
AcDbSpline
70
4
71
3
72
8
73
4
74
0
42
0.000000001
43
0.0000000001
44
0.0000000001
40
-1
40
-1
40
-1
40
-1
40
0
40
0
40
0
40
0
41
1
41
1
41
1
41
1
10
10.272396087646483
20
-2.9241511027018228
30
0
10
10.212134679158527
20
-2.9286069869995122
30
0
10
10.152674357096354
20
-2.9082085291544599
30
0
10
10.107839584350584
20
-2.8676973978678388
30
0
0
LINE
5
325
100
AcDbEntity
8
0
100
AcDbLine
10
10.107839584350584
20
-2.8676973978678384
30
0
11
9.6898415883382132
21
-2.5145608584086099
31
0
0
ELLIPSE
5
326
100
AcDbEntity
8
0
100
AcDbEllipse
10
9.6266970074513178
20
-2.5807512101738506
30
0
11
0.089611786039959743
21
-0.019365210085740155
31
0.0
40
0.99698524959479795
41
1.023114865082752
42
1.7755265968267455
0
SPLINE
5
327
100
AcDbEntity
8
0
100
AcDbSpline
70
4
71
3
72
8
73
4
74
0
42
0.000000001
43
0.0000000001
44
0.0000000001
40
-1
40
-1
40
-1
40
-1
40
0
40
0
40
0
40
0
41
1
41
1
41
1
41
1
10
9.6273822784423828
20
-2.4893383979797359
30
0
10
9.5622227986653634
20
-2.4840555191040035
30
0
10
9.4983088175455741
20
-2.5093555450439453
30
0
10
9.4544175465901681
20
-2.5578034718831386
30
0
0
SPLINE
5
328
100
AcDbEntity
8
0
100
AcDbSpline
70
4
71
3
72
8
73
4
74
0
42
0.000000001
43
0.0000000001
44
0.0000000001
40
0
40
0
40
0
40
0
40
1
40
1
40
1
40
1
41
1
41
1
41
1
41
1
10
9.1985518137613944
20
-4.4700479507446298
30
0
10
9.1231428782145159
20
-4.4222806294759121
30
0
10
9.0275427500406913
20
-4.4199708302815752
30
0
10
8.9499149322509766
20
-4.4640439351399746
30
0
0
SPLINE
5
329
100
AcDbEntity
8
0
100
AcDbSpline
70
4
71
3
72
8
73
4
74
0
42
0.000000001
43
0.0000000001
44
0.0000000001
40
0
40
0
40
0
40
0
40
1
40
1
40
1
40
1
41
1
41
1
41
1
41
1
10
8.9499149322509766
20
-4.4640439351399746
30
0
10
8.8615550994873029
20
-4.5240090688069676
30
0
10
8.7746473948160837
20
-4.5860862731933603
30
0
10
8.6892668406168632
20
-4.6502211888631182
30
0
0
SPLINE
5
330
100
AcDbEntity
8
0
100
AcDbSpline
70
4
71
3
72
8
73
4
74
0
42
0.000000001
43
0.0000000001
44
0.0000000001
40
0
40
0
40
0
40
0
40
1
40
1
40
1
40
1
41
1
41
1
41
1
41
1
10
8.6892668406168632
20
-4.6502211888631182
30
0
10
8.6708978017171212
20
-4.6659812927246085
30
0
10
8.6585820515950527
20
-4.6876357396443691
30
0
10
8.6544335683186855
20
-4.7114798227945967
30
0
0
SPLINE
5
331
100
AcDbEntity
8
0
100
AcDbSpline
70
4
71
3
72
8
73
4
74
0
42
0.000000001
43
0.0000000001
44
0.0000000001
40
0
40
0
40
0
40
0
40
1
40
1
40
1
40
1
41
1
41
1
41
1
41
1
10
8.6544335683186855
20
-4.7114798227945967
30
0
10
8.65033785502116
20
-4.7359215418497724
30
0
10
8.6550159454345703
20
-4.7610244750976554
30
0
10
8.6676464080810565
20
-4.7823473612467442
30
0
0
LINE
5
332
100
AcDbEntity
8
0
100
AcDbLine
10
8.6676464080810565
20
-4.7823473612467442
30
0
11
8.6688486735026036
21
-4.7859512964884434
31
0
0
SPLINE
5
333
100
AcDbEntity
8
0
100
AcDbSpline
70
4
71
3
72
8
73
4
74
0
42
0.000000001
43
0.0000000001
44
0.0000000001
40
0
40
0
40
0
40
0
40
1
40
1
40
1
40
1
41
1
41
1
41
1
41
1
10
8.6688486735026036
20
-4.7859512964884434
30
0
10
8.8577200571695975
20
-5.050949414571126
30
0
10
9.0407390594482422
20
-5.3200712203979501
30
0
10
9.2177715301513654
20
-5.5931199391682949
30
0
0
SPLINE
5
334
100
AcDbEntity
8
0
100
AcDbSpline
70
4
71
3
72
8
73
4
74
0
42
0.000000001
43
0.0000000001
44
0.0000000001
40
0
40
0
40
0
40
0
40
1
40
1
40
1
40
1
41
1
41
1
41
1
41
1
10
9.2177715301513654
20
-5.5931199391682949
30
0
10
9.1876735687255877
20
-5.6142419179280605
30
0
10
9.1568234761555978
20
-5.6342748006184884
30
0
10
9.1252835591634121
20
-5.6531766255696612
30
0
0
LINE
5
335
100
AcDbEntity
8
0
100
AcDbLine
10
9.1252835591634121
20
-5.6531766255696612
30
0
11
8.6292107899983712
21
-4.9228811264038077
31
0
0
SPLINE
5
336
100
AcDbEntity
8
0
100
AcDbSpline
70
4
71
3
72
8
73
4
74
0
42
0.000000001
43
0.0000000001
44
0.0000000001
40
0
40
0
40
0
40
0
40
1
40
1
40
1
40
1
41
1
41
1
41
1
41
1
10
8.6292107899983712
20
-4.9228811264038077
30
0
10
8.5969117482503261
20
-4.8687658309936515
30
0
10
8.5415693918863944
20
-4.8324613571166992
30
0
10
8.4790674845377598
20
-4.8243872324625645
30
0
0
SPLINE
5
337
100
AcDbEntity
8
0
100
AcDbSpline
70
4
71
3
72
8
73
4
74
0
42
0.000000001
43
0.0000000001
44
0.0000000001
40
0
40
0
40
0
40
0
40
1
40
1
40
1
40
1
41
1
41
1
41
1
41
1
10
8.4790674845377598
20
-4.8243872324625645
30
0
10
8.3194853464762364
20
-4.8149827321370431
30
0
10
8.1705582936604806
20
-4.9047161738077802
30
0
10
8.1043109893798793
20
-5.0502023696899405
30
0
0
LINE
5
338
100
AcDbEntity
8
0
100
AcDbLine
10
8.1043109893798846
20
-5.0502023696899405
30
0
11
7.9781907399495449
21
-5.6303551991780605
31
0
0
SPLINE
5
339
100
AcDbEntity
8
0
100
AcDbSpline
70
4
71
3
72
8
73
4
74
0
42
0.000000001
43
0.0000000001
44
0.0000000001
40
0
40
0
40
0
40
0
40
1
40
1
40
1
40
1
41
1
41
1
41
1
41
1
10
7.9781907399495449
20
-5.6303551991780605
30
0
10
7.971811930338542
20
-5.6490243275960283
30
0
10
7.9584700266520194
20
-5.6645139058431004
30
0
10
7.9409548441569004
20
-5.6735960642496748
30
0
0
SPLINE
5
340
100
AcDbEntity
8
0
100
AcDbSpline
70
4
71
3
72
8
73
4
74
0
42
0.000000001
43
0.0000000001
44
0.0000000001
40
0
40
0
40
0
40
0
40
1
40
1
40
1
40
1
41
1
41
1
41
1
41
1
10
7.9409548441569004
20
-5.6735960642496748
30
0
10
7.8628406524658203
20
-5.7360375722249364
30
0
10
7.8317178090413408
20
-5.8404216766357431
30
0
10
7.8628800710042324
20
-5.9354451497395839
30
0
0
LINE
5
341
100
AcDbEntity
8
0
100
AcDbLine
10
7.8628800710042324
20
-5.9354451497395839
30
0
11
7.9505634307861328
21
-6.2273235321044931
31
0
0
SPLINE
5
342
100
AcDbEntity
8
0
100
AcDbSpline
70
4
71
3
72
8
73
4
74
0
42
0.000000001
43
0.0000000001
44
0.0000000001
40
0
40
0
40
0
40
0
40
1
40
1
40
1
40
1
41
1
41
1
41
1
41
1
10
7.9505634307861328
20
-6.2273235321044931
30
0
10
7.9670461018880179
20
-6.2560876210530596
30
0
10
7.9978942871093759
20
-6.2735830942789717
30
0
10
8.0310401916503906
20
-6.2729670206705732
30
0
0
SPLINE
5
343
100
AcDbEntity
8
0
100
AcDbSpline
70
4
71
3
72
8
73
4
74
0
42
0.000000001
43
0.0000000001
44
0.0000000001
40
0
40
0
40
0
40
0
40
1
40
1
40
1
40
1
41
1
41
1
41
1
41
1
10
8.0310401916503906
20
-6.2729670206705732
30
0
10
8.3559405008951799
20
-6.1968059539794931
30
0
10
8.6791267395019549
20
-6.1135063171386728
30
0
10
9.0003636678059902
20
-6.0231285095214844
30
0
0
SPLINE
5
344
100
AcDbEntity
8
0
100
AcDbSpline
70
4
71
3
72
8
73
4
74
0
42
0.000000001
43
0.0000000001
44
0.0000000001
40
0
40
0
40
0
40
0
40
1
40
1
40
1
40
1
41
1
41
1
41
1
41
1
10
9.0003636678059902
20
-6.0231285095214844
30
0
10
9.0118344624837246
20
-6.0548750559488935
30
0
10
9.0210628509521502
20
-6.0873851776123056
30
0
10
9.0279897054036464
20
-6.1204210917154951
30
0
0
LINE
5
345
100
AcDbEntity
8
0
100
AcDbLine
10
9.0279897054036464
20
-6.1204210917154951
30
0
11
8.3829739888509121
21
-6.3077952067057286
31
0
0
SPLINE
5
346
100
AcDbEntity
8
0
100
AcDbSpline
70
4
71
3
72
8
73
4
74
0
42
0.000000001
43
0.0000000001
44
0.0000000001
40
0
40
0
40
0
40
0
40
1
40
1
40
1
40
1
41
1
41
1
41
1
41
1
10
8.3829739888509121
20
-6.3077952067057286
30
0
10
8.2771415710449219
20
-6.3362229665120449
30
0
10
8.1725502014160121
20
-6.3690840403238917
30
0
10
8.0694751739501953
20
-6.4062894185384121
30
0
0
SPLINE
5
347
100
AcDbEntity
8
0
100
AcDbSpline
70
4
71
3
72
8
73
4
74
0
42
0.000000001
43
0.0000000001
44
0.0000000001
40
0
40
0
40
0
40
0
40
1
40
1
40
1
40
1
41
1
41
1
41
1
41
1
10
8.0694751739501953
20
-6.4062894185384121
30
0
10
8.0407861073811837
20
-6.4591503143310547
30
0
10
8.024750391642252
20
-6.5179462432861337
30
0
10
8.0226306915283203
20
-6.5780531565348319
30
0
0
ARC
5
348
100
AcDbEntity
8
0
100
AcDbCircle
10
8.466475616316675
20
-6.6053252912673308
30
0
40
0.44468200614961778
210
0
220
0
230
1
100
AcDbArc
50
176.48387068629523
51
210.8449986794044
0
LINE
5
349
100
AcDbEntity
8
0
100
AcDbLine
10
8.08469055089666
20
-6.8333214544268941
30
0
11
8.2544555664062518
21
-6.9864425659179714
31
0
0
SPLINE
5
350
100
AcDbEntity
8
0
100
AcDbSpline
70
4
71
3
72
8
73
4
74
0
42
0.000000001
43
0.0000000001
44
0.0000000001
40
-1
40
-1
40
-1
40
-1
40
0
40
0
40
0
40
0
41
1
41
1
41
1
41
1
10
8.2544555664062518
20
-6.9864425659179696
30
0
10
8.2946217854817714
20
-7.0094057718912754
30
0
10
8.3373578389485683
20
-7.0275484720865897
30
0
10
8.3817768096923846
20
-7.0404942830403652
30
0
0
SPLINE
5
351
100
AcDbEntity
8
0
100
AcDbSpline
70
4
71
3
72
8
73
4
74
0
42
0.000000001
43
0.0000000001
44
0.0000000001
40
-1
40
-1
40
-1
40
-1
40
0
40
0
40
0
40
0
41
1
41
1
41
1
41
1
10
8.3817768096923846
20
-7.0404942830403652
30
0
10
8.5316836039225272
20
-7.0903669993082685
30
0
10
8.6603527069091779
20
-7.1894079844156895
30
0
10
8.7469247182210292
20
-7.3215618133544922
30
0
0
SPLINE
5
352
100
AcDbEntity
8
0
100
AcDbSpline
70
4
71
3
72
8
73
4
74
0
42
0.000000001
43
0.0000000001
44
0.0000000001
40
-1
40
-1
40
-1
40
-1
40
0
40
0
40
0
40
0
41
1
41
1
41
1
41
1
10
8.7469247182210292
20
-7.3215618133544922
30
0
10
8.7680664062499982
20
-7.3679021199544268
30
0
10
8.8137226104736328
20
-7.3981850941975891
30
0
10
8.8646367390950527
20
-7.3996359507242824
30
0
0
SPLINE
5
353
100
AcDbEntity
8
0
100
AcDbSpline
70
4
71
3
72
8
73
4
74
0
42
0.000000001
43
0.0000000001
44
0.0000000001
40
-1
40
-1
40
-1
40
-1
40
0
40
0
40
0
40
0
41
1
41
1
41
1
41
1
10
8.8646367390950527
20
-7.3996359507242824
30
0
10
8.9648679097493496
20
-7.4000345865885437
30
0
10
9.0650437672932949
20
-7.4044418334960946
30
0
10
9.1649227142333967
20
-7.4128487904866542
30
0
0
SPLINE
5
354
100
AcDbEntity
8
0
100
AcDbSpline
70
4
71
3
72
8
73
4
74
0
42
0.000000001
43
0.0000000001
44
0.0000000001
40
-1
40
-1
40
-1
40
-1
40
0
40
0
40
0
40
0
41
1
41
1
41
1
41
1
10
9.1649227142333967
20
-7.4128487904866542
30
0
10
9.1909745534261091
20
-7.416728973388671
30
0
10
9.2175369262695312
20
-7.4107309977213554
30
0
10
9.2393938700358085
20
-7.3960329691569022
30
0
0
SPLINE
5
355
100
AcDbEntity
8
0
100
AcDbSpline
70
4
71
3
72
8
73
4
74
0
42
0.000000001
43
0.0000000001
44
0.0000000001
40
-1
40
-1
40
-1
40
-1
40
0
40
0
40
0
40
0
41
1
41
1
41
1
41
1
10
9.2393938700358085
20
-7.3960329691569022
30
0
10
9.2614040374755877
20
-7.3814067840576172
30
0
10
9.27722994486491
20
-7.359162012736002
30
0
10
9.283836364746092
20
-7.3335736592610683
30
0
0
LINE
5
356
100
AcDbEntity
8
0
100
AcDbLine
10
9.283836364746092
20
-7.3335736592610683
30
0
11
9.3330834706624355
21
-6.3522383371988935
31
0
0
SPLINE
5
357
100
AcDbEntity
8
0
100
AcDbSpline
70
4
71
3
72
8
73
4
74
0
42
0.000000001
43
0.0000000001
44
0.0000000001
40
-1
40
-1
40
-1
40
-1
40
0
40
0
40
0
40
0
41
1
41
1
41
1
41
1
10
9.3330834706624355
20
-6.3522383371988935
30
0
10
9.3618361155192087
20
-6.3457412719726571
30
0
10
9.3914756774902326
20
-6.3441193898518868
30
0
10
9.4207668304443359
20
-6.3474343617757158
30
0
0
SPLINE
5
358
100
AcDbEntity
8
0
100
AcDbSpline
70
4
71
3
72
8
73
4
74
0
42
0.000000001
43
0.0000000001
44
0.0000000001
40
-1
40
-1
40
-1
40
-1
40
0
40
0
40
0
40
0
41
1
41
1
41
1
41
1
10
9.4207668304443359
20
-6.3474343617757158
30
0
10
9.4116141001383493
20
-6.6237595876057931
30
0
10
9.4008038838704433
20
-6.9000282287597665
30
0
10
9.3883361816406232
20
-7.1762237548828125
30
0
0
SPLINE
5
359
100
AcDbEntity
8
0
100
AcDbSpline
70
4
71
3
72
8
73
4
74
0
42
0.000000001
43
0.0000000001
44
0.0000000001
40
-1
40
-1
40
-1
40
-1
40
0
40
0
40
0
40
0
41
1
41
1
41
1
41
1
10
9.3883361816406232
20
-7.1762237548828125
30
0
10
9.378143310546875
20
-7.2375596364339199
30
0
10
9.3887112935384121
20
-7.3005434672037763
30
0
10
9.4183648427327462
20
-7.3551940917968768
30
0
0
SPLINE
5
360
100
AcDbEntity
8
0
100
AcDbSpline
70
4
71
3
72
8
73
4
74
0
42
0.000000001
43
0.0000000001
44
0.0000000001
40
-1
40
-1
40
-1
40
-1
40
0
40
0
40
0
40
0
41
1
41
1
41
1
41
1
10
9.4183648427327462
20
-7.3551940917968768
30
0
10
9.4868799845377598
20
-7.434594472249346
30
0
10
9.5831114451090489
20
-7.4848575592041025
30
0
10
9.6874211629231741
20
-7.4957281748453779
30
0
0
SPLINE
5
361
100
AcDbEntity
8
0
100
AcDbSpline
70
4
71
3
72
8
73
4
74
0
42
0.000000001
43
0.0000000001
44
0.0000000001
40
-1
40
-1
40
-1
40
-1
40
0
40
0
40
0
40
0
41
1
41
1
41
1
41
1
10
9.6874211629231741
20
-7.4957281748453779
30
0
10
9.7912425994873047
20
-7.5072263081868496
30
0
10
9.8955586751302089
20
-7.4788932800292987
30
0
10
9.9792989095052089
20
-7.4164543151855478
30
0
0
SPLINE
5
362
100
AcDbEntity
8
0
100
AcDbSpline
70
4
71
3
72
8
73
4
74
0
42
0.000000001
43
0.0000000001
44
0.0000000001
40
-1
40
-1
40
-1
40
-1
40
0
40
0
40
0
40
0
41
1
41
1
41
1
41
1
10
9.9792989095052089
20
-7.4164543151855478
30
0
10
10.022386550903319
20
-7.3848133087158212
30
0
10
10.059070587158203
20
-7.3452752431233721
30
0
10
10.087401707967123
20
-7.2999432881673165
30
0
0
SPLINE
5
363
100
AcDbEntity
8
0
100
AcDbSpline
70
4
71
3
72
8
73
4
74
0
42
0.000000001
43
0.0000000001
44
0.0000000001
40
-1
40
-1
40
-1
40
-1
40
0
40
0
40
0
40
0
41
1
41
1
41
1
41
1
10
10.087401707967123
20
-7.2999432881673165
30
0
10
10.124221165974935
20
-7.2233295440673819
30
0
10
10.181608835856119
20
-7.1584555308024092
30
0
10
10.253159840901692
20
-7.1125647226969395
30
0
0
SPLINE
5
364
100
AcDbEntity
8
0
100
AcDbSpline
70
4
71
3
72
8
73
4
74
0
42
0.000000001
43
0.0000000001
44
0.0000000001
40
-1
40
-1
40
-1
40
-1
40
0
40
0
40
0
40
0
41
1
41
1
41
1
41
1
10
10.253159840901692
20
-7.1125647226969395
30
0
10
10.317851384480797
20
-7.0678157806396475
30
0
10
10.39037831624349
20
-7.0356267293294277
30
0
10
10.466963450113932
20
-7.0176741282145194
30
0
0
SPLINE
5
365
100
AcDbEntity
8
0
100
AcDbSpline
70
4
71
3
72
8
73
4
74
0
42
0.000000001
43
0.0000000001
44
0.0000000001
40
-1
40
-1
40
-1
40
-1
40
0
40
0
40
0
40
0
41
1
41
1
41
1
41
1
10
10.466963450113932
20
-7.0176741282145194
30
0
10
10.508310317993164
20
-7.0059750874837246
30
0
10
10.543310165405273
20
-6.9783198038736991
30
0
10
10.564256032307942
20
-6.9408009847005214
30
0
0
LINE
5
366
100
AcDbEntity
8
0
100
AcDbLine
10
10.564256032307942
20
-6.9408009847005214
30
0
11
10.696381886800131
21
-6.6333077748616542
31
0
0
SPLINE
5
367
100
AcDbEntity
8
0
100
AcDbSpline
70
4
71
3
72
8
73
4
74
0
42
0.000000001
43
0.0000000001
44
0.0000000001
40
-1
40
-1
40
-1
40
-1
40
0
40
0
40
0
40
0
41
1
41
1
41
1
41
1
10
10.696381886800131
20
-6.6333077748616542
30
0
10
10.704200744628904
20
-6.6138579050699864
30
0
10
10.705870310465496
20
-6.5924809773763036
30
0
10
10.701185862223307
20
-6.5720494588216152
30
0
0
SPLINE
5
368
100
AcDbEntity
8
0
100
AcDbSpline
70
4
71
3
72
8
73
4
74
0
42
0.000000001
43
0.0000000001
44
0.0000000001
40
-1
40
-1
40
-1
40
-1
40
0
40
0
40
0
40
0
41
1
41
1
41
1
41
1
10
10.701185862223307
20
-6.5720494588216152
30
0
10
10.696056365966797
20
-6.5515206654866551
30
0
10
10.684734344482424
20
-6.5330689748128243
30
0
10
10.668754577636719
20
-6.5191993713378924
30
0
0
SPLINE
5
369
100
AcDbEntity
8
0
100
AcDbSpline
70
4
71
3
72
8
73
4
74
0
42
0.000000001
43
0.0000000001
44
0.0000000001
40
-1
40
-1
40
-1
40
-1
40
0
40
0
40
0
40
0
41
1
41
1
41
1
41
1
10
10.668754577636719
20
-6.5191993713378924
30
0
10
10.360010147094727
20
-6.3928248087565107
30
0
10
10.050509770711264
20
-6.2683041890462237
30
0
10
9.7402706146240217
20
-6.1456438700358067
30
0
0
SPLINE
5
370
100
AcDbEntity
8
0
100
AcDbSpline
70
4
71
3
72
8
73
4
74
0
42
0.000000001
43
0.0000000001
44
0.0000000001
40
-1
40
-1
40
-1
40
-1
40
0
40
0
40
0
40
0
41
1
41
1
41
1
41
1
10
9.7402706146240217
20
-6.1456438700358067
30
0
10
9.7508742014567069
20
-6.1116504669189453
30
0
10
9.7653853098551444
20
-6.07900047302246
30
0
10
9.7835114796956368
20
-6.0483512878417969
30
0
0
SPLINE
5
371
100
AcDbEntity
8
0
100
AcDbSpline
70
4
71
3
72
8
73
4
74
0
42
0.000000001
43
0.0000000001
44
0.0000000001
40
-1
40
-1
40
-1
40
-1
40
0
40
0
40
0
40
0
41
1
41
1
41
1
41
1
10
9.7835114796956368
20
-6.0483512878417969
30
0
10
10.070799509684246
20
-6.1495285034179679
30
0
10
10.35747782389323
20
-6.2524280548095694
30
0
10
10.64353052775065
20
-6.3570454915364571
30
0
0
SPLINE
5
372
100
AcDbEntity
8
0
100
AcDbSpline
70
4
71
3
72
8
73
4
74
0
42
0.000000001
43
0.0000000001
44
0.0000000001
40
-1
40
-1
40
-1
40
-1
40
0
40
0
40
0
40
0
41
1
41
1
41
1
41
1
10
10.64353052775065
20
-6.3570454915364571
30
0
10
10.685643513997395
20
-6.3774681091308585
30
0
10
10.735608418782553
20
-6.3728427886962882
30
0
10
10.773254394531248
20
-6.3450336456298837
30
0
0
SPLINE
5
373
100
AcDbEntity
8
0
100
AcDbSpline
70
4
71
3
72
8
73
4
74
0
42
0.000000001
43
0.0000000001
44
0.0000000001
40
-1
40
-1
40
-1
40
-1
40
0
40
0
40
0
40
0
41
1
41
1
41
1
41
1
10
10.773254394531248
20
-6.3450336456298837
30
0
10
10.86918258666992
20
-6.2798817952473955
30
0
10
10.935961405436196
20
-6.1799278259277353
30
0
10
10.959431966145836
20
-6.0663681030273429
30
0
0
SPLINE
5
374
100
AcDbEntity
8
0
100
AcDbSpline
70
4
71
3
72
8
73
4
74
0
42
0.000000001
43
0.0000000001
44
0.0000000001
40
-1
40
-1
40
-1
40
-1
40
0
40
0
40
0
40
0
41
1
41
1
41
1
41
1
10
10.959431966145836
20
-6.0663681030273429
30
0
10
10.983503977457683
20
-5.9527988433837891
30
0
10
10.962393442789715
20
-5.8343187967936201
30
0
10
10.900576273600258
20
-5.7360534667968741
30
0
0
SPLINE
5
375
100
AcDbEntity
8
0
100
AcDbSpline
70
4
71
3
72
8
73
4
74
0
42
0.000000001
43
0.0000000001
44
0.0000000001
40
-1
40
-1
40
-1
40
-1
40
0
40
0
40
0
40
0
41
1
41
1
41
1
41
1
10
10.900576273600258
20
-5.7360534667968741
30
0
10
10.836209615071617
20
-5.6774927775065107
30
0
10
10.786436716715496
20
-5.6046841939290362
30
0
10
10.755237579345701
20
-5.5234508514404297
30
0
0
SPLINE
5
376
100
AcDbEntity
8
0
100
AcDbSpline
70
4
71
3
72
8
73
4
74
0
42
0.000000001
43
0.0000000001
44
0.0000000001
40
-1
40
-1
40
-1
40
-1
40
0
40
0
40
0
40
0
41
1
41
1
41
1
41
1
10
10.755237579345701
20
-5.5234508514404297
30
0
10
10.717665354410807
20
-5.4318510691324864
30
0
10
10.702434539794922
20
-5.332626024881999
30
0
10
10.710795084635416
20
-5.2339750925699864
30
0
0
SPLINE
5
377
100
AcDbEntity
8
0
100
AcDbSpline
70
4
71
3
72
8
73
4
74
0
42
0.000000001
43
0.0000000001
44
0.0000000001
40
-1
40
-1
40
-1
40
-1
40
0
40
0
40
0
40
0
41
1
41
1
41
1
41
1
10
10.710795084635416
20
-5.2339750925699864
30
0
10
10.720830281575518
20
-5.2024208704630528
30
0
10
10.711968739827476
20
-5.1679061253865566
30
0
10
10.687973022460939
20
-5.1450904210408535
30
0
0
LINE
5
378
100
AcDbEntity
8
0
100
AcDbLine
10
10.687973022460939
20
-5.1450904210408535
30
0
11
10.405704498291014
21
-4.914470672607421
31
0
0
SPLINE
5
379
100
AcDbEntity
8
0
100
AcDbSpline
70
4
71
3
72
8
73
4
74
0
42
0.000000001
43
0.0000000001
44
0.0000000001
40
-1
40
-1
40
-1
40
-1
40
0
40
0
40
0
40
0
41
1
41
1
41
1
41
1
10
10.405704498291014
20
-4.914470672607421
30
0
10
10.387430191040039
20
-4.9006083806355791
30
0
10
10.364969889322916
20
-4.8934078216552734
30
0
10
10.342043558756512
20
-4.8940496444702148
30
0
0
SPLINE
5
380
100
AcDbEntity
8
0
100
AcDbSpline
70
4
71
3
72
8
73
4
74
0
42
0.000000001
43
0.0000000001
44
0.0000000001
40
-1
40
-1
40
-1
40
-1
40
0
40
0
40
0
40
0
41
1
41
1
41
1
41
1
10
10.342043558756512
20
-4.8940496444702148
30
0
10
10.319229761759438
20
-4.8943150838216152
30
0
10
10.297192891438804
20
-4.9023650487263994
30
0
10
10.279583613077799
20
-4.9168713887532558
30
0
0
LINE
5
381
100
AcDbEntity
8
0
100
AcDbLine
10
10.279583613077799
20
-4.9168713887532558
30
0
11
9.6742070515950527
21
-5.6591784159342451
31
0
0
SPLINE
5
382
100
AcDbEntity
8
0
100
AcDbSpline
70
4
71
3
72
8
73
4
74
0
42
0.000000001
43
0.0000000001
44
0.0000000001
40
-1
40
-1
40
-1
40
-1
40
0
40
0
40
0
40
0
41
1
41
1
41
1
41
1
10
9.6742070515950527
20
-5.6591784159342451
30
0
10
9.6554641723632795
20
-5.6564153035481768
30
0
10
9.6381543477376308
20
-5.6475493113199873
30
0
10
9.6249599456787127
20
-5.6339543660481768
30
0
0
SPLINE
5
383
100
AcDbEntity
8
0
100
AcDbSpline
70
4
71
3
72
8
73
4
74
0
42
0.000000001
43
0.0000000001
44
0.0000000001
40
-1
40
-1
40
-1
40
-1
40
0
40
0
40
0
40
0
41
1
41
1
41
1
41
1
10
9.6249599456787127
20
-5.6339543660481768
30
0
10
9.6120122273763009
20
-5.6201089223225917
30
0
10
9.6039886474609357
20
-5.602375666300456
30
0
10
9.6021385192871076
20
-5.583506266276042
30
0
0
LINE
5
384
100
AcDbEntity
8
0
100
AcDbLine
10
9.6021385192871076
20
-5.583506266276042
30
0
11
10.134243647257486
21
-4.8640076319376622
31
0
0
SPLINE
5
385
100
AcDbEntity
8
0
100
AcDbSpline
70
4
71
3
72
8
73
4
74
0
42
0.000000001
43
0.0000000001
44
0.0000000001
40
-1
40
-1
40
-1
40
-1
40
0
40
0
40
0
40
0
41
1
41
1
41
1
41
1
10
10.134243647257486
20
-4.8640076319376622
30
0
10
10.163898468017578
20
-4.8361949920654306
30
0
10
10.179358800252279
20
-4.7964455286661778
30
0
10
10.176283518473307
20
-4.7559048334757481
30
0
0
SPLINE
5
386
100
AcDbEntity
8
0
100
AcDbSpline
70
4
71
3
72
8
73
4
74
0
42
0.000000001
43
0.0000000001
44
0.0000000001
40
-1
40
-1
40
-1
40
-1
40
0
40
0
40
0
40
0
41
1
41
1
41
1
41
1
10
10.176283518473307
20
-4.7559048334757481
30
0
10
10.172730127970381
20
-4.7369000116984052
30
0
10
10.171114603678387
20
-4.717580795288085
30
0
10
10.171478907267254
20
-4.6982498168945321
30
0
0
SPLINE
5
387
100
AcDbEntity
8
0
100
AcDbSpline
70
4
71
3
72
11
73
7
74
0
42
0.000000001
43
0.0000000001
44
0.0000000001
40
-1.6277876284748367
40
-1.6277876284748367
40
-1.6277876284748367
40
-1.6277876284748367
40
-0.62778762847483682
40
-0.62778762847483682
40
-0.62778762847483682
40
0
40
0
40
0
40
0
41
1
41
1
41
1
41
1
41
1
41
1
41
1
10
10.171478907267254
20
-4.6982498168945321
30
0
10
10.172426223754883
20
-4.6708154678344718
30
0
10
10.163473129272461
20
-4.6439571380615225
30
0
10
10.146254857381187
20
-4.6225776672363263
30
0
10
10.094578592472486
20
-4.5584126218155765
30
0
10
10.042902327563791
20
-4.4942475763948249
30
0
10
9.9912260626550893
20
-4.4300825309740759
30
0
0
LINE
5
388
100
AcDbEntity
8
0
100
AcDbLine
10
9.9912260626550893
20
-4.4300825309740759
30
0
11
9.9720891316731741
21
-4.4616381327311201
31
0
0
SPLINE
5
389
100
AcDbEntity
8
0
100
AcDbSpline
70
4
71
3
72
8
73
4
74
0
42
0.000000001
43
0.0000000001
44
0.0000000001
40
0
40
0
40
0
40
0
40
1
40
1
40
1
40
1
41
1
41
1
41
1
41
1
10
9.9720891316731741
20
-4.4616381327311201
30
0
10
9.9657707214355451
20
-4.4673089981079093
30
0
10
9.9577363332112636
20
-4.4706932703653965
30
0
10
9.9492670694986955
20
-4.4712464014689131
30
0
0
SPLINE
5
390
100
AcDbEntity
8
0
100
AcDbSpline
70
4
71
3
72
8
73
4
74
0
42
0.000000001
43
0.0000000001
44
0.0000000001
40
0
40
0
40
0
40
0
40
0.99937548203531756
40
0.99937548203531756
40
0.99937548203531756
40
0.99937548203531756
41
1
41
1
41
1
41
1
10
9.9492670694986955
20
-4.4712464014689131
30
0
10
9.940288432479452
20
-4.4718001402108474
30
0
10
9.9313967889545598
20
-4.4692405278371607
30
0
10
9.924056778293723
20
-4.4640517583855805
30
0
0
LINE
5
391
100
AcDbEntity
8
0
100
AcDbLine
10
9.924056778293723
20
-4.4640517583855797
30
0
11
9.8796005249023438
21
-4.4304097493489571
31
0
0
SPLINE
5
392
100
AcDbEntity
8
0
100
AcDbSpline
70
4
71
3
72
8
73
4
74
0
42
0.000000001
43
0.0000000001
44
0.0000000001
40
0
40
0
40
0
40
0
40
1
40
1
40
1
40
1
41
1
41
1
41
1
41
1
10
9.8796005249023438
20
-4.4304097493489571
30
0
10
9.8628406524658185
20
-4.417525927225749
30
0
10
9.8407313028971348
20
-4.4139169057210283
30
0
10
9.8207441965738926
20
-4.420800209045411
30
0
0
SPLINE
5
393
100
AcDbEntity
8
0
100
AcDbSpline
70
4
71
3
72
8
73
4
74
0
42
0.000000001
43
0.0000000001
44
0.0000000001
40
0
40
0
40
0
40
0
40
1
40
1
40
1
40
1
41
1
41
1
41
1
41
1
10
9.2802295684814435
20
-4.4904661178588876
30
0
10
9.2514177958170585
20
-4.4939629236857099
30
0
10
9.2223294576009103
20
-4.4866927464803066
30
0
10
9.1985518137613944
20
-4.4700479507446298
30
0
0
SPLINE
5
394
100
AcDbEntity
8
0
100
AcDbSpline
70
4
71
3
72
8
73
4
74
0
42
0.000000001
43
0.0000000001
44
0.0000000001
40
0
40
0
40
0
40
0
40
1
40
1
40
1
40
1
41
1
41
1
41
1
41
1
10
9.8207441965738926
20
-4.420800209045411
30
0
10
9.6403446197509748
20
-4.4422203699747724
30
0
10
9.4601643880208339
20
-4.4654429753621416
30
0
10
9.2802295684814435
20
-4.4904661178588876
30
0
0
ELLIPSE
5
395
100
AcDbEntity
8
0
100
AcDbEllipse
10
9.5358640323481154
20
-2.6460471007054003
30
0
11
0.060038951516029074
21
0.1044896852084372
31
0.0
40
0.99612662663866913
41
1.2679974307849557
42
2.0260927239102537
0
ELLIPSE
5
396
100
AcDbEntity
8
0
100
AcDbEllipse
10
10.737874559580774
20
-2.887612731575953
30
0
11
-0.0011880909458886696
21
-0.053969788511202196
31
0.0
40
0.99309637746651436
41
4.4275926318881655
42
5.1085721378129527
0
ARC
5
397
100
AcDbEntity
8
0
100
AcDbCircle
10
11.188727204232215
20
-3.1205243555941129
30
0
40
0.560415260493208
210
0
220
0
230
1
100
AcDbArc
50
137.12131431224563
51
153.5969060289452
0
ARC
5
398
100
AcDbEntity
8
0
100
AcDbCircle
10
-11.666084445727229
20
17.870941176593433
30
0
40
30.471577365879561
210
-0
220
0
230
1
100
AcDbArc
50
317.43918927342935
51
318.35545702608522
0
SPLINE
5
399
100
AcDbEntity
8
0
100
AcDbSpline
70
4
71
3
72
8
73
4
74
0
42
0.000000001
43
0.0000000001
44
0.0000000001
40
-1
40
-1
40
-1
40
-1
40
0
40
0
40
0
40
0
41
1
41
1
41
1
41
1
10
11.104768117268883
20
-2.3776464462280278
30
0
10
11.15388615926107
20
-2.3414471944173174
30
0
10
11.177736918131512
20
-2.2801783879597983
30
0
10
11.166027069091797
20
-2.2202963829040527
30
0
0
SPLINE
5
400
100
AcDbEntity
8
0
100
AcDbSpline
70
4
71
3
72
8
73
4
74
0
42
0.000000001
43
0.0000000001
44
0.0000000001
40
-1
40
-1
40
-1
40
-1
40
0
40
0
40
0
40
0
41
1
41
1
41
1
41
1
10
11.166027069091797
20
-2.2202963829040527
30
0
10
11.152835845947264
20
-2.1440912882486978
30
0
10
11.100280761718748
20
-2.0805675188700361
30
0
10
11.027894337972008
20
-2.053337256113688
30
0
0
ARC
5
401
100
AcDbEntity
8
0
100
AcDbCircle
10
11.045114128650177
20
-1.9438256013125008
30
0
40
0.11085722226492285
210
0
220
0
230
1
100
AcDbArc
50
225.80625295069876
51
261.06388731478341
0
SPLINE
5
402
100
AcDbEntity
8
0
100
AcDbSpline
70
4
71
3
72
8
73
4
74
0
42
0.000000001
43
0.0000000001
44
0.0000000001
40
-1
40
-1
40
-1
40
-1
40
0
40
0
40
0
40
0
41
1
41
1
41
1
41
1
10
10.967837015787762
20
-2.0233087539672847
30
0
10
10.82671610514323
20
-1.9085466066996255
30
0
10
10.633010864257812
20
-1.8829970359802248
30
0
10
10.466959635416668
20
-1.9572456677754719
30
0
0
SPLINE
5
403
100
AcDbEntity
8
0
100
AcDbSpline
70
4
71
3
72
8
73
4
74
0
42
0.000000001
43
0.0000000001
44
0.0000000001
40
-1
40
-1
40
-1
40
-1
40
0
40
0
40
0
40
0
41
1
41
1
41
1
41
1
10
10.466959635416668
20
-1.9572456677754719
30
0
10
10.435268402099606
20
-1.9807880719502768
30
0
10
10.394464492797852
20
-1.9883189201354978
30
0
10
10.356454213460285
20
-1.9776641527811687
30
0
0
ARC
5
404
100
AcDbEntity
8
0
100
AcDbCircle
10
10.227166281720496
20
-2.6514708141157528
30
0
40
0.68609823360245659
210
0
220
-0
230
1
100
AcDbArc
50
79.138277297748331
51
108.08975308484921
0
ARC
5
405
100
AcDbEntity
8
0
100
AcDbCircle
10
20.465165799345357
20
7.7891214887340681
30
0
40
14.729178741325478
210
0
220
0
230
1
100
AcDbArc
50
223.51418953063319
51
226.03527287236423
0
SPLINE
5
406
100
AcDbEntity
8
0
100
AcDbSpline
70
4
71
3
72
8
73
4
74
0
42
0.000000001
43
0.0000000001
44
0.0000000001
40
-1
40
-1
40
-1
40
-1
40
0
40
0
40
0
40
0
41
1
41
1
41
1
41
1
10
10.014128367106119
20
-1.9992855389912925
30
0
10
9.8722260793050118
20
-2.0587040583292646
30
0
10
9.7808659871419277
20
-2.1986044247945151
30
0
10
9.78350830078125
20
-2.3524217605590816
30
0
0
ARC
5
407
100
AcDbEntity
8
0
100
AcDbCircle
10
10.698759079259627
20
-3.6898326712846927
30
0
40
0.36702254727963946
210
0
220
-0
230
1
100
AcDbArc
50
69.097395195028938
51
85.115359336126971
0
ARC
5
408
100
AcDbEntity
8
0
100
AcDbCircle
10
1.5619987599619709
20
-16.058056047083486
30
0
40
15.730932493548297
210
0
220
-0
230
1
100
AcDbArc
50
51.612313148515739
51
53.904062873020315
0
ELLIPSE
5
409
100
AcDbEntity
8
0
100
AcDbEllipse
10
11.432763152281545
20
-3.5720297469543008
30
0
11
0.18645200412970414
21
-0.0071158197696842181
31
0.0
40
0.99740781197552464
41
4.1709097579408576
42
4.8144045200463781
0
ARC
5
410
100
AcDbEntity
8
0
100
AcDbCircle
10
11.433433007381455
20
-3.5687975041977018
30
0
40
0.18929378492939655
210
-0
220
0
230
1
100
AcDbArc
50
273.4095116256695
51
309.09146686596313
0
ARC
5
411
100
AcDbEntity
8
0
100
AcDbCircle
10
11.406129393574487
20
-3.5438705508217749
30
0
40
0.22592348482046237
210
-0
220
0
230
1
100
AcDbArc
50
310.47971824158191
51
339.43569605809262
0
ARC
5
412
100
AcDbEntity
8
0
100
AcDbCircle
10
11.949268182819269
20
-3.7090557544482281
30
0
40
0.34253840846058115
210
0
220
0
230
1
100
AcDbArc
50
146.9672665611628
51
165.48913012880698
0
SPLINE
5
413
100
AcDbEntity
8
0
100
AcDbSpline
70
4
71
3
72
8
73
4
74
0
42
0.000000001
43
0.0000000001
44
0.0000000001
40
-1
40
-1
40
-1
40
-1
40
0
40
0
40
0
40
0
41
1
41
1
41
1
41
1
10
11.662097930908203
20
-3.5223318735758467
30
0
10
11.752724965413414
20
-3.3785079320271816
30
0
10
11.760044097900391
20
-3.1973450978596998
30
0
10
11.681316375732425
20
-3.0466785430908199
30
0
0
SPLINE
5
414
100
AcDbEntity
8
0
100
AcDbSpline
70
4
71
3
72
8
73
4
74
0
42
0.000000001
43
0.0000000001
44
0.0000000001
40
-1
40
-1
40
-1
40
-1
40
0
40
0
40
0
40
0
41
1
41
1
41
1
41
1
10
11.681316375732425
20
-3.0466785430908199
30
0
10
11.656511942545574
20
-3.0247192382812496
30
0
10
11.644345601399742
20
-2.9918079376220708
30
0
10
11.648885091145834
20
-2.958995183308919
30
0
0
SPLINE
5
415
100
AcDbEntity
8
0
100
AcDbSpline
70
4
71
3
72
8
73
4
74
0
42
0.000000001
43
0.0000000001
44
0.0000000001
40
-1
40
-1
40
-1
40
-1
40
0
40
0
40
0
40
0
41
1
41
1
41
1
41
1
10
11.648885091145834
20
-2.958995183308919
30
0
10
11.672546386718752
20
-2.8204746246337886
30
0
10
11.64929707845052
20
-2.678019523620605
30
0
10
11.58282216389974
20
-2.554209391276042
30
0
0
SPLINE
5
416
100
AcDbEntity
8
0
100
AcDbSpline
70
4
71
3
72
8
73
4
74
0
42
0.000000001
43
0.0000000001
44
0.0000000001
40
-1
40
-1
40
-1
40
-1
40
0
40
0
40
0
40
0
41
1
41
1
41
1
41
1
10
11.58282216389974
20
-2.554209391276042
30
0
10
11.516328175862631
20
-2.4582888285319013
30
0
10
11.411708831787113
20
-2.3956917126973467
30
0
10
11.295748392740885
20
-2.382445971171061
30
0
0
ARC
5
417
100
AcDbEntity
8
0
100
AcDbCircle
10
11.269924163818358
20
-2.4637677345391782
30
0
40
0.085323619219668606
210
0
220
-0
230
1
100
AcDbArc
50
72.382432385137562
51
107.61756761486244
0
ARC
5
418
100
AcDbEntity
8
0
100
AcDbCircle
10
11.269371572463932
20
-2.4615902676447661
30
0
40
0.083081137026950677
210
0
220
0
230
1
100
AcDbArc
50
107.70885008214196
51
142.72467237743996
0
LINE
5
419
100
AcDbEntity
8
0
100
AcDbLine
10
11.203261057535805
20
-2.4112725257873526
30
0
11
10.788866678873697
21
-2.9037415186564126
31
0
0
ELLIPSE
5
420
100
AcDbEntity
8
0
100
AcDbEllipse
10
10.736763395841963
20
-2.8873516730626707
30
0
11
0.033703554193213761
21
-0.040714523402133163
31
0.0
40
0.99746954593985004
41
4.4106429328608012
42
5.2025086073403637
0
ARC
5
421
100
AcDbEntity
8
0
100
AcDbCircle
10
10.73864959661139
20
-2.8878742919683957
30
0
40
0.053016256036935175
210
0
220
0
230
1
100
AcDbArc
50
245.65908475250617
51
290.98622549047531
0
ELLIPSE
5
422
100
AcDbEntity
8
0
100
AcDbEllipse
10
10.738627646474018
20
-2.8884227768841151
30
0
11
-0.036815241015492252
21
-0.037750857001387444
31
0.0
40
0.99501659027292566
41
1.1451430149081361
42
2.0456514904002541
0
ELLIPSE
5
423
100
AcDbEntity
8
0
100
AcDbEllipse
10
10.019059446313648
20
-2.9482192797211626
30
0
11
-0.023168718029466684
21
-0.25850946746158743
31
0.0
40
0.99834140894395884
41
1.7481942700116038
42
2.2104860259080517
0
ARC
5
424
100
AcDbEntity
8
0
100
AcDbCircle
10
7.8365083109245752
20
-2.430938530983016
30
0
40
1.5391682629789571
210
-0
220
0
230
1
100
AcDbArc
50
340.50547358048436
51
342.80571004214028
0
ARC
5
425
100
AcDbEntity
8
0
100
AcDbCircle
10
9.3425257213619499
20
-2.6057358444546015
30
0
40
0.080342131995402688
210
-0
220
0
230
1
100
AcDbArc
50
323.5416245311182
51
336.10432953355968
0
ARC
5
426
100
AcDbEntity
8
0
100
AcDbCircle
10
7.828096562847743
20
-2.4283296368197127
30
0
40
1.5479752943986342
210
-0
220
0
230
1
100
AcDbArc
50
342.8054999460345
51
344.85037645880254
0
ARC
5
427
100
AcDbEntity
8
0
100
AcDbCircle
10
10.078984438823923
20
-3.0810829803989792
30
0
40
0.79637641271267223
210
0
220
0
230
1
100
AcDbArc
50
147.52456434212507
51
161.84025670968214
0
ELLIPSE
5
428
100
AcDbEntity
8
0
100
AcDbEllipse
10
9.3781738302848581
20
-2.9725678111067011
30
0
11
0.0058885667446650731
21
-0.095099217176788861
31
0.0
40
0.99602610886837661
41
4.3527057434976903
42
5.1176556646166738
0
SPLINE
5
429
100
AcDbEntity
8
0
100
AcDbSpline
70
4
71
3
72
8
73
4
74
0
42
0.000000001
43
0.0000000001
44
0.0000000001
40
0
40
0
40
0
40
0
40
1
40
1
40
1
40
1
41
1
41
1
41
1
41
1
10
9.3643143971761074
20
-3.3205429712931314
30
0
10
9.3692391713460275
20
-3.3398246765136719
30
0
10
9.3647829691569022
20
-3.3602972030639653
30
0
10
9.3523031870524083
20
-3.3757956822713222
30
0
0
ARC
5
430
100
AcDbEntity
8
0
100
AcDbCircle
10
18.862747014239996
20
-0.95343906021290725
30
0
40
9.7889429003725716
210
0
220
0
230
1
100
AcDbArc
50
192.16028007341211
51
193.99363172410872
0
ELLIPSE
5
431
100
AcDbEntity
8
0
100
AcDbEllipse
10
9.6725088290954915
20
-3.4857067250910077
30
0
11
0.0012815093559166491
21
-0.33932469263316778
31
0.0
40
0.99741483521154251
41
4.3787639676440815
42
5.038441159534905
0
ELLIPSE
5
432
100
AcDbEntity
8
0
100
AcDbEllipse
10
9.6734873356801891
20
-3.4827359476737967
30
0
11
0.21252394434341532
21
-0.26697802301643037
31
0.0
40
0.99737555048288173
41
4.378819801541475
42
5.0423543841034881
0
ARC
5
433
100
AcDbEntity
8
0
100
AcDbCircle
10
-27.041401535446536
20
-42.805074547537927
30
0
40
54.579958113620805
210
0
220
-0
230
1
100
AcDbArc
50
45.473660729355849
51
46.161157986039647
0
SPLINE
5
434
100
AcDbEntity
8
0
100
AcDbSpline
70
4
71
3
72
8
73
4
74
0
42
0.000000001
43
0.0000000001
44
0.0000000001
40
-1
40
-1
40
-1
40
-1
40
0
40
0
40
0
40
0
41
1
41
1
41
1
41
1
10
11.233289082845053
20
-4.02200730641683
30
0
10
11.259587605794271
20
-3.9830649693806968
30
0
10
11.259109497070314
20
-3.9319289525349932
30
0
10
11.232088724772137
20
-3.8934853871663417
30
0
0
LINE
5
435
100
AcDbEntity
8
0
100
AcDbLine
10
11.193651835123699
20
-4.0976797739664717
30
0
11
11.233289082845053
21
-4.0220073064168291
31
0
0
SPLINE
5
436
100
AcDbEntity
8
0
100
AcDbSpline
70
4
71
3
72
8
73
4
74
0
42
0.000000001
43
0.0000000001
44
0.0000000001
40
-1
40
-1
40
-1
40
-1
40
0
40
0
40
0
40
0
41
1
41
1
41
1
41
1
10
11.006272633870445
20
-4.2694431940714512
30
0
10
11.087229410807293
20
-4.2363869349161787
30
0
10
11.153692881266272
20
-4.1754624048868818
30
0
10
11.193651835123699
20
-4.0976797739664717
30
0
0
SPLINE
5
437
100
AcDbEntity
8
0
100
AcDbSpline
70
4
71
3
72
8
73
4
74
0
42
0.000000001
43
0.0000000001
44
0.0000000001
40
-1
40
-1
40
-1
40
-1
40
0
40
0
40
0
40
0
41
1
41
1
41
1
41
1
10
10.749228159586586
20
-4.2778511047363281
30
0
10
10.833142598470054
20
-4.3059867223103838
30
0
10
10.924376169840496
20
-4.3030020395914717
30
0
10
11.006272633870445
20
-4.2694431940714512
30
0
0
SPLINE
5
438
100
AcDbEntity
8
0
100
AcDbSpline
70
4
71
3
72
8
73
4
74
0
42
0.000000001
43
0.0000000001
44
0.0000000001
40
-1
40
-1
40
-1
40
-1
40
0
40
0
40
0
40
0
41
1
41
1
41
1
41
1
10
10.650734583536781
20
-4.2862586975097665
30
0
10
10.680882771809895
20
-4.2695999145507804
30
0
10
10.716691335042318
20
-4.2665491104125977
30
0
10
10.749228159586586
20
-4.2778511047363281
30
0
0
ARC
5
439
100
AcDbEntity
8
0
100
AcDbCircle
10
10.336642403654071
20
-3.1986111571103404
30
0
40
1.1320914581430239
210
-0
220
0
230
1
100
AcDbArc
50
270.09084571601136
51
286.10772409895691
0
ELLIPSE
5
440
100
AcDbEntity
8
0
100
AcDbEllipse
10
10.349082004695411
20
-4.6073603600171857
30
0
11
-0.13369124522803014
21
-0.24310808006241238
31
0.0
40
0.99219689275716938
41
3.6863003578643405
42
3.9480986452427485
0
LINE
5
441
100
AcDbEntity
8
0
100
AcDbLine
10
9.9997158050537127
20
-4.1997871398925781
30
0
11
10.267475750535723
21
-4.3433683962320178
31
0
0
ARC
5
442
100
AcDbEntity
8
0
100
AcDbCircle
10
10.085382540364048
20
-3.9247197008561474
30
0
40
0.28809874271990682
210
0
220
0
230
1
100
AcDbArc
50
237.37306205139907
51
252.70137310614388
0
ARC
5
443
100
AcDbEntity
8
0
100
AcDbCircle
10
10.021389159568947
20
-4.024020900877078
30
0
40
0.16996463591248795
210
0
220
0
230
1
100
AcDbArc
50
198.68507046328546
51
237.49281837011446
0
ARC
5
444
100
AcDbEntity
8
0
100
AcDbCircle
10
10.021483652373199
20
-4.0243422227198957
30
0
40
0.16995153720737505
210
0
220
0
230
1
100
AcDbArc
50
160.19709526805008
51
198.57224694103849
0
ARC
5
445
100
AcDbEntity
8
0
100
AcDbCircle
10
10.034161295537944
20
-4.0391217551633085
30
0
40
0.18713350744909441
210
0
220
0
230
1
100
AcDbArc
50
138.49699554673828
51
157.25328990845924
0
ARC
5
446
100
AcDbEntity
8
0
100
AcDbCircle
10
-4.1731144243616898
20
8.6805320539719357
30
0
40
18.882119216957111
210
-0
220
0
230
1
100
AcDbArc
50
318.1588655476221
51
319.76320537716526
0
ARC
5
447
100
AcDbEntity
8
0
100
AcDbCircle
10
9.5551562589237609
20
-3.1927319800294884
30
0
40
0.75848414448599966
210
-0
220
0
230
1
100
AcDbArc
50
334.74511254658154
51
347.33837521807283
0
SPLINE
5
448
100
AcDbEntity
8
0
100
AcDbSpline
70
4
71
3
72
8
73
4
74
0
42
0.000000001
43
0.0000000001
44
0.0000000001
40
0
40
0
40
0
40
0
40
1
40
1
40
1
40
1
41
1
41
1
41
1
41
1
10
10.206310907999676
20
-3.3818079630533857
30
0
10
10.230517705281574
20
-3.3602972030639653
30
0
10
10.263619740804037
20
-3.3517974217732744
30
0
10
10.295195261637371
20
-3.3589862187703443
30
0
0
LINE
5
449
100
AcDbEntity
8
0
100
AcDbLine
10
9.7727031241964397
20
-3.8490464436051282
30
0
11
10.206310907999676
21
-3.3818079630533857
31
0
0
LINE
5
450
100
AcDbEntity
8
0
100
AcDbLine
10
9.7726976771962359
20
-3.8490532420714234
30
0
11
9.7727031241964397
21
-3.8490464436051282
31
0
0
SPLINE
5
451
100
AcDbEntity
8
0
100
AcDbSpline
70
4
71
3
72
8
73
4
74
0
42
0.000000001
43
0.0000000001
44
0.0000000001
40
0
40
0
40
0
40
0
40
0.99992230694271678
40
0.99992230694271678
40
0.99992230694271678
40
0.99992230694271678
41
1
41
1
41
1
41
1
10
9.6742095947265625
20
-3.885080655415853
30
0
10
9.7111851254885391
20
-3.8923340565751796
30
0
10
9.7491288031189907
20
-3.8784509617549454
30
0
10
9.7726976771962359
20
-3.8490532420714234
30
0
0
ARC
5
452
100
AcDbEntity
8
0
100
AcDbCircle
10
9.7077357909962441
20
-3.6490163930407924
30
0
40
0.23843309712997998
210
0
220
0
230
1
100
AcDbArc
50
227.57675066648997
51
261.91682539752316
0
ARC
5
453
100
AcDbEntity
8
0
100
AcDbCircle
10
9.3761338895305997
20
-3.9430236181397897
30
0
40
0.20755999976037459
210
0
220
-0
230
1
100
AcDbArc
50
34.6465060005848
51
56.585789120048325
0
SPLINE
5
454
100
AcDbEntity
8
0
100
AcDbSpline
70
4
71
3
72
8
73
4
74
0
42
0.000000001
43
0.0000000001
44
0.0000000001
40
-1
40
-1
40
-1
40
-1
40
0
40
0
40
0
40
0
41
1
41
1
41
1
41
1
10
10.504818598429361
20
-2.986751238505045
30
0
10
10.587740580240885
20
-2.986751238505045
30
0
10
10.654961268107098
20
-3.0539722442626958
30
0
10
10.65496253967285
20
-3.1368939081827798
30
0
0
SPLINE
5
455
100
AcDbEntity
8
0
100
AcDbSpline
70
4
71
3
72
8
73
4
74
0
42
0.000000001
43
0.0000000001
44
0.0000000001
40
-1
40
-1
40
-1
40
-1
40
0
40
0
40
0
40
0
41
1
41
1
41
1
41
1
10
10.65496253967285
20
-3.1368939081827798
30
0
10
10.65496253967285
20
-3.2198155721028647
30
0
10
10.587740580240885
20
-3.2870368957519536
30
0
10
10.504818598429361
20
-3.2870368957519536
30
0
0
SPLINE
5
456
100
AcDbEntity
8
0
100
AcDbSpline
70
4
71
3
72
8
73
4
74
0
42
0.000000001
43
0.0000000001
44
0.0000000001
40
-1
40
-1
40
-1
40
-1
40
0
40
0
40
0
40
0
41
1
41
1
41
1
41
1
10
10.354675928751627
20
-3.1368939081827798
30
0
10
10.354676564534506
20
-3.0539725621541343
30
0
10
10.421897888183596
20
-2.9867515563964848
30
0
10
10.504818598429361
20
-2.986751238505045
30
0
0
SPLINE
5
457
100
AcDbEntity
8
0
100
AcDbSpline
70
4
71
3
72
8
73
4
74
0
42
0.000000001
43
0.0000000001
44
0.0000000001
40
-1
40
-1
40
-1
40
-1
40
0
40
0
40
0
40
0
41
1
41
1
41
1
41
1
10
10.504818598429361
20
-3.2870368957519536
30
0
10
10.421897888183596
20
-3.2870365778605146
30
0
10
10.354675928751627
20
-3.2198155721028647
30
0
10
10.354675928751627
20
-3.1368939081827798
30
0
0
SPLINE
5
458
100
AcDbEntity
8
0
100
AcDbSpline
70
4
71
3
72
8
73
4
74
0
42
0.000000001
43
0.0000000001
44
0.0000000001
40
-1
40
-1
40
-1
40
-1
40
0
40
0
40
0
40
0
41
1
41
1
41
1
41
1
10
9.5467611948649083
20
-5.9528808593749991
30
0
10
9.5467611948649083
20
-6.0358028411865225
30
0
10
9.4795405069987009
20
-6.1030241648356123
30
0
10
9.3966185251871757
20
-6.1030241648356123
30
0
0
SPLINE
5
459
100
AcDbEntity
8
0
100
AcDbSpline
70
4
71
3
72
8
73
4
74
0
42
0.000000001
43
0.0000000001
44
0.0000000001
40
-1
40
-1
40
-1
40
-1
40
0
40
0
40
0
40
0
41
1
41
1
41
1
41
1
10
9.3966185251871757
20
-6.1030241648356123
30
0
10
9.3136965433756487
20
-6.1030241648356123
30
0
10
9.2464752197265625
20
-6.0358028411865225
30
0
10
9.2464752197265625
20
-5.9528808593749991
30
0
0
SPLINE
5
460
100
AcDbEntity
8
0
100
AcDbSpline
70
4
71
3
72
8
73
4
74
0
42
0.000000001
43
0.0000000001
44
0.0000000001
40
-1
40
-1
40
-1
40
-1
40
0
40
0
40
0
40
0
41
1
41
1
41
1
41
1
10
9.3966185251871757
20
-5.8027375539143886
30
0
10
9.4795398712158185
20
-5.8027375539143886
30
0
10
9.5467611948649083
20
-5.8699588775634757
30
0
10
9.5467611948649083
20
-5.9528808593749991
30
0
0
SPLINE
5
461
100
AcDbEntity
8
0
100
AcDbSpline
70
4
71
3
72
8
73
4
74
0
42
0.000000001
43
0.0000000001
44
0.0000000001
40
-1
40
-1
40
-1
40
-1
40
0
40
0
40
0
40
0
41
1
41
1
41
1
41
1
10
9.2464752197265625
20
-5.9528808593749991
30
0
10
9.2464752197265625
20
-5.8699588775634757
30
0
10
9.3136965433756487
20
-5.8027375539143886
30
0
10
9.3966185251871757
20
-5.8027375539143886
30
0
0
SPLINE
5
462
100
AcDbEntity
8
0
100
AcDbSpline
70
4
71
3
72
8
73
4
74
0
42
0.000000001
43
0.0000000001
44
0.0000000001
40
0
40
0
40
0
40
0
40
1
40
1
40
1
40
1
41
1
41
1
41
1
41
1
10
7.1013539632161455
20
-6.1024004618326826
30
0
10
6.9142157236735038
20
-6.3337275187174491
30
0
10
6.7252292633056632
20
-6.5635541280110683
30
0
10
6.5344136555989571
20
-6.7918574015299473
30
0
0
SPLINE
5
463
100
AcDbEntity
8
0
100
AcDbSpline
70
4
71
3
72
8
73
4
74
0
42
0.000000001
43
0.0000000001
44
0.0000000001
40
0
40
0
40
0
40
0
40
1
40
1
40
1
40
1
41
1
41
1
41
1
41
1
10
6.5344136555989571
20
-6.7918574015299473
30
0
10
6.5022061665852871
20
-6.7868607838948574
30
0
10
6.4749126434326163
20
-6.7654768625895185
30
0
10
6.4623451232910147
20
-6.7354036966959629
30
0
0
LINE
5
464
100
AcDbEntity
8
0
100
AcDbLine
10
6.4623451232910147
20
-6.7354036966959629
30
0
11
6.9668254852294931
21
-6.0567569732666025
31
0
0
SPLINE
5
465
100
AcDbEntity
8
0
100
AcDbSpline
70
4
71
3
72
8
73
4
74
0
42
0.000000001
43
0.0000000001
44
0.0000000001
40
0
40
0
40
0
40
0
40
1
40
1
40
1
40
1
41
1
41
1
41
1
41
1
10
6.9668254852294931
20
-6.0567569732666025
30
0
10
6.9783077239990234
20
-6.0425694783528643
30
0
10
6.9857699076334647
20
-6.0255635579427089
30
0
10
6.9884459177652998
20
-6.0075105031331377
30
0
0
SPLINE
5
466
100
AcDbEntity
8
0
100
AcDbSpline
70
4
71
3
72
8
73
4
74
0
42
0.000000001
43
0.0000000001
44
0.0000000001
40
0
40
0
40
0
40
0
40
1
40
1
40
1
40
1
41
1
41
1
41
1
41
1
10
6.9884459177652998
20
-6.0075105031331377
30
0
10
6.9988352457682304
20
-5.927256902058919
30
0
10
6.9782250722249346
20
-5.8460617065429679
30
0
10
6.9307912190755214
20
-5.7804940541585283
30
0
0
SPLINE
5
467
100
AcDbEntity
8
0
100
AcDbSpline
70
4
71
3
72
8
73
4
74
0
42
0.000000001
43
0.0000000001
44
0.0000000001
40
0
40
0
40
0
40
0
40
1
40
1
40
1
40
1
41
1
41
1
41
1
41
1
10
6.9307912190755214
20
-5.7804940541585283
30
0
10
6.8830757141113281
20
-5.7140960693359375
30
0
10
6.8117116292317714
20
-5.6685256958007821
30
0
10
6.7314008076985683
20
-5.6531728108723955
30
0
0
LINE
5
468
100
AcDbEntity
8
0
100
AcDbLine
10
6.7314008076985683
20
-5.6531728108723955
30
0
11
6.720591227213542
21
-5.6519769032796212
31
0
0
SPLINE
5
469
100
AcDbEntity
8
0
100
AcDbSpline
70
4
71
3
72
8
73
4
74
0
42
0.000000001
43
0.0000000001
44
0.0000000001
40
0
40
0
40
0
40
0
40
1
40
1
40
1
40
1
41
1
41
1
41
1
41
1
10
6.720591227213542
20
-5.6519769032796212
30
0
10
6.5506788889567069
20
-5.6665102640787754
30
0
10
6.3812414805094404
20
-5.6861375172932949
30
0
10
6.2125072479248056
20
-5.7108325958251944
30
0
0
SPLINE
5
470
100
AcDbEntity
8
0
100
AcDbSpline
70
4
71
3
72
8
73
4
74
0
42
0.000000001
43
0.0000000001
44
0.0000000001
40
0
40
0
40
0
40
0
40
1
40
1
40
1
40
1
41
1
41
1
41
1
41
1
10
6.2125072479248056
20
-5.7108325958251944
30
0
10
6.1821854909261065
20
-5.7190481821695958
30
0
10
6.1497917175292978
20
-5.7137997945149746
30
0
10
6.1236228942871103
20
-5.6964187622070321
30
0
0
SPLINE
5
471
100
AcDbEntity
8
0
100
AcDbSpline
70
4
71
3
72
8
73
4
74
0
42
0.000000001
43
0.0000000001
44
0.0000000001
40
0
40
0
40
0
40
0
40
1
40
1
40
1
40
1
41
1
41
1
41
1
41
1
10
6.1236228942871103
20
-5.6964187622070321
30
0
10
6.0429217020670567
20
-5.6449775695800772
30
0
10
5.9396018981933603
20
-5.6454474131266279
30
0
10
5.8593711853027335
20
-5.6976146697998056
30
0
0
SPLINE
5
472
100
AcDbEntity
8
0
100
AcDbSpline
70
4
71
3
72
8
73
4
74
0
42
0.000000001
43
0.0000000001
44
0.0000000001
40
0
40
0
40
0
40
0
40
1
40
1
40
1
40
1
41
1
41
1
41
1
41
1
10
5.8593711853027335
20
-5.6976146697998056
30
0
10
5.7789427439371739
20
-5.7540791829427071
30
0
10
5.6996510823567714
20
-5.8121458689371748
30
0
10
5.6215445200602208
20
-5.8717803955078125
30
0
0
SPLINE
5
473
100
AcDbEntity
8
0
100
AcDbSpline
70
4
71
3
72
8
73
4
74
0
42
0.000000001
43
0.0000000001
44
0.0000000001
40
0
40
0
40
0
40
0
40
1
40
1
40
1
40
1
41
1
41
1
41
1
41
1
10
5.6215445200602208
20
-5.8717803955078125
30
0
10
5.6052227020263663
20
-5.8897546132405605
30
0
10
5.5969746907552089
20
-5.9136276245117196
30
0
10
5.5987224578857413
20
-5.9378433227539071
30
0
0
SPLINE
5
474
100
AcDbEntity
8
0
100
AcDbSpline
70
4
71
3
72
8
73
4
74
0
42
0.000000001
43
0.0000000001
44
0.0000000001
40
0
40
0
40
0
40
0
40
1
40
1
40
1
40
1
41
1
41
1
41
1
41
1
10
5.5987224578857413
20
-5.9378433227539071
30
0
10
5.5949261983235683
20
-5.953378677368165
30
0
10
5.6011409759521484
20
-5.9696432749430333
30
0
10
5.6143366495768223
20
-5.9786822001139317
30
0
0
SPLINE
5
475
100
AcDbEntity
8
0
100
AcDbSpline
70
4
71
3
72
8
73
4
74
0
42
0.000000001
43
0.0000000001
44
0.0000000001
40
0
40
0
40
0
40
0
40
1
40
1
40
1
40
1
41
1
41
1
41
1
41
1
10
5.6143366495768223
20
-5.9786822001139317
30
0
10
5.7842960357666025
20
-6.2278436024983703
30
0
10
5.9532578786214181
20
-6.4776833852132167
30
0
10
6.1212196350097656
20
-6.7281964619954415
30
0
0
SPLINE
5
476
100
AcDbEntity
8
0
100
AcDbSpline
70
4
71
3
72
8
73
4
74
0
42
0.000000001
43
0.0000000001
44
0.0000000001
40
0
40
0
40
0
40
0
40
1
40
1
40
1
40
1
41
1
41
1
41
1
41
1
10
6.1212196350097656
20
-6.7281964619954415
30
0
10
6.0956179300944004
20
-6.747019449869792
30
0
10
6.0691655476888018
20
-6.7646547953287763
30
0
10
6.0419438680013027
20
-6.781046549479167
30
0
0
LINE
5
477
100
AcDbEntity
8
0
100
AcDbLine
10
6.0419438680013027
20
-6.781046549479167
30
0
11
6.039539972941081
21
-6.782246271769206
31
0
0
LINE
5
478
100
AcDbEntity
8
0
100
AcDbLine
10
6.039539972941081
20
-6.782246271769206
30
0
11
5.5710932413736973
21
-6.0939903259277344
31
0
0
SPLINE
5
479
100
AcDbEntity
8
0
100
AcDbSpline
70
4
71
3
72
8
73
4
74
0
42
0.000000001
43
0.0000000001
44
0.0000000001
40
0
40
0
40
0
40
0
40
1
40
1
40
1
40
1
41
1
41
1
41
1
41
1
10
5.5710932413736973
20
-6.0939903259277344
30
0
10
5.5630919138590498
20
-6.0835762023925772
30
0
10
5.5533345540364571
20
-6.074635187784831
30
0
10
5.5422668457031241
20
-6.0675646464029942
30
0
0
SPLINE
5
480
100
AcDbEntity
8
0
100
AcDbSpline
70
4
71
3
72
8
73
4
74
0
42
0.000000001
43
0.0000000001
44
0.0000000001
40
0
40
0
40
0
40
0
40
1
40
1
40
1
40
1
41
1
41
1
41
1
41
1
10
5.5422668457031241
20
-6.0675646464029942
30
0
10
5.5165227254231768
20
-6.0508505503336592
30
0
10
5.4916661580403643
20
-6.0328095753987636
30
0
10
5.4677956899007167
20
-6.0135135650634775
30
0
0
SPLINE
5
481
100
AcDbEntity
8
0
100
AcDbSpline
70
4
71
3
72
8
73
4
74
0
42
0.000000001
43
0.0000000001
44
0.0000000001
40
0
40
0
40
0
40
0
40
1
40
1
40
1
40
1
41
1
41
1
41
1
41
1
10
5.4677956899007167
20
-6.0135135650634775
30
0
10
5.4566987355550136
20
-6.0049025217692069
30
0
10
5.4414482116699228
20
-6.0039412180582685
30
0
10
5.4293594360351554
20
-6.0111096700032558
30
0
0
LINE
5
482
100
AcDbEntity
8
0
100
AcDbLine
10
5.4293594360351554
20
-6.0111096700032558
30
0
11
5.4281635284423819
21
-6.0123055775960292
31
0
0
LINE
5
483
100
AcDbEntity
8
0
100
AcDbLine
10
5.4281635284423819
20
-6.0123055775960292
30
0
11
5.1819283167521153
21
-6.1047935485839835
31
0
0
SPLINE
5
484
100
AcDbEntity
8
0
100
AcDbSpline
70
4
71
3
72
8
73
4
74
0
42
0.000000001
43
0.0000000001
44
0.0000000001
40
0
40
0
40
0
40
0
40
1
40
1
40
1
40
1
41
1
41
1
41
1
41
1
10
5.1819283167521153
20
-6.1047935485839835
30
0
10
5.1676286061604815
20
-6.1107279459635429
30
0
10
5.1578772862752285
20
-6.1241906483968096
30
0
10
5.1567058563232413
20
-6.1396268208821603
30
0
0
ARC
5
485
100
AcDbEntity
8
0
100
AcDbCircle
10
11.477048393687671
20
-7.9342756690247667
30
0
40
6.570197430652887
210
0
220
0
230
1
100
AcDbArc
50
164.14820872596169
51
167.76713152395487
0
SPLINE
5
486
100
AcDbEntity
8
0
100
AcDbSpline
70
4
71
3
72
8
73
4
74
0
42
0.000000001
43
0.0000000001
44
0.0000000001
40
-0.70689575785852599
40
-0.70689575785852599
40
-0.70689575785852599
40
-0.70689575785852599
40
-0.45428448546428168
40
-0.45428448546428168
40
-0.45428448546428168
40
-0.45428448546428168
41
1
41
1
41
1
41
1
10
5.0560305530664031
20
-6.5421463042812418
30
0
10
5.0516342578014619
20
-6.5821434658141795
30
0
10
5.043449928011758
20
-6.6215801671405439
30
0
10
5.0316217161983579
20
-6.6599251588169777
30
0
0
SPLINE
5
487
100
AcDbEntity
8
0
100
AcDbSpline
70
4
71
3
72
8
73
4
74
0
42
0.000000001
43
0.0000000001
44
0.0000000001
40
-0.4542844854617058
40
-0.4542844854617058
40
-0.4542844854617058
40
-0.4542844854617058
40
0
40
0
40
0
40
0
41
1
41
1
41
1
41
1
10
5.0316217161979964
20
-6.6599251588181501
30
0
10
5.0103504044838036
20
-6.7288830269633424
30
0
10
4.9772944976750173
20
-6.7943102220236993
30
0
10
4.9332923889160147
20
-6.8531169891357413
30
0
0
SPLINE
5
488
100
AcDbEntity
8
0
100
AcDbSpline
70
4
71
3
72
8
73
4
74
0
42
0.000000001
43
0.0000000001
44
0.0000000001
40
-1
40
-1
40
-1
40
-1
40
0
40
0
40
0
40
0
41
1
41
1
41
1
41
1
10
4.9332923889160147
20
-6.8531169891357413
30
0
10
4.9086122512817365
20
-6.8665205637613926
30
0
10
4.8894621531168623
20
-6.8882191975911473
30
0
10
4.8792406717936192
20
-6.9143753051757804
30
0
0
SPLINE
5
489
100
AcDbEntity
8
0
100
AcDbSpline
70
4
71
3
72
8
73
4
74
0
42
0.000000001
43
0.0000000001
44
0.0000000001
40
-1
40
-1
40
-1
40
-1
40
0
40
0
40
0
40
0
41
1
41
1
41
1
41
1
10
4.8792406717936192
20
-6.9143753051757804
30
0
10
4.8692731857299805
20
-6.9397207895914717
30
0
10
4.8684317270914717
20
-6.9677486419677725
30
0
10
4.8768520355224609
20
-6.9936510721842451
30
0
0
SPLINE
5
490
100
AcDbEntity
8
0
100
AcDbSpline
70
4
71
3
72
8
73
4
74
0
42
0.000000001
43
0.0000000001
44
0.0000000001
40
-1
40
-1
40
-1
40
-1
40
0
40
0
40
0
40
0
41
1
41
1
41
1
41
1
10
4.8768520355224609
20
-6.9936510721842451
30
0
10
4.9021088282267247
20
-7.084105173746746
30
0
10
4.9257338841756173
20
-7.1750062306722011
30
0
10
4.9477195739746094
20
-7.2663110097249346
30
0
0
SPLINE
5
491
100
AcDbEntity
8
0
100
AcDbSpline
70
4
71
3
72
8
73
4
74
0
42
0.000000001
43
0.0000000001
44
0.0000000001
40
-1
40
-1
40
-1
40
-1
40
0
40
0
40
0
40
0
41
1
41
1
41
1
41
1
10
4.9477195739746094
20
-7.2663110097249346
30
0
10
4.9496692021687823
20
-7.2919368743896493
30
0
10
4.9617786407470703
20
-7.3157208760579415
30
0
10
4.9813518524169931
20
-7.3323739369710283
30
0
0
SPLINE
5
492
100
AcDbEntity
8
0
100
AcDbSpline
70
4
71
3
72
8
73
4
74
0
42
0.000000001
43
0.0000000001
44
0.0000000001
40
-1
40
-1
40
-1
40
-1
40
0
40
0
40
0
40
0
41
1
41
1
41
1
41
1
10
4.9813518524169931
20
-7.3323739369710283
30
0
10
5.0009876887003584
20
-7.3491242726643868
30
0
10
5.0264984766642256
20
-7.3573373158772775
30
0
10
5.0522193908691397
20
-7.355195999145506
30
0
0
LINE
5
493
100
AcDbEntity
8
0
100
AcDbLine
10
5.0522193908691415
20
-7.355195999145506
30
0
11
5.0546080271403007
21
-7.355195999145506
31
0
0
SPLINE
5
494
100
AcDbEntity
8
0
100
AcDbSpline
70
4
71
3
72
8
73
4
74
0
42
0.000000001
43
0.0000000001
44
0.0000000001
40
-1
40
-1
40
-1
40
-1
40
0
40
0
40
0
40
0
41
1
41
1
41
1
41
1
10
5.0546080271402998
20
-7.355195999145506
30
0
10
5.340099334716796
20
-7.2693030039469404
30
0
10
5.628103256225585
20
-7.1919949849446603
30
0
10
5.9182306925455723
20
-7.1233749389648446
30
0
0
SPLINE
5
495
100
AcDbEntity
8
0
100
AcDbSpline
70
4
71
3
72
8
73
4
74
0
42
0.000000001
43
0.0000000001
44
0.0000000001
40
-1
40
-1
40
-1
40
-1
40
0
40
0
40
0
40
0
41
1
41
1
41
1
41
1
10
5.9182306925455723
20
-7.1233749389648446
30
0
10
5.9313093821207685
20
-7.1486701965332031
30
0
10
5.9417711893717451
20
-7.1752325693766288
30
0
10
5.9494609832763672
20
-7.2026507059733058
30
0
0
SPLINE
5
496
100
AcDbEntity
8
0
100
AcDbSpline
70
4
71
3
72
8
73
4
74
0
42
0.000000001
43
0.0000000001
44
0.0000000001
40
-1
40
-1
40
-1
40
-1
40
0
40
0
40
0
40
0
41
1
41
1
41
1
41
1
10
5.9494609832763672
20
-7.2026507059733058
30
0
10
5.6729049682617196
20
-7.2922878265380859
30
0
10
5.3945840199788408
20
-7.3763847351074228
30
0
10
5.1146650314331046
20
-7.4548912048339853
30
0
0
SPLINE
5
497
100
AcDbEntity
8
0
100
AcDbSpline
70
4
71
3
72
8
73
4
74
0
42
0.000000001
43
0.0000000001
44
0.0000000001
40
-1
40
-1
40
-1
40
-1
40
0
40
0
40
0
40
0
41
1
41
1
41
1
41
1
10
5.1146650314331046
20
-7.4548912048339853
30
0
10
5.0828062693277989
20
-7.4619248708089181
30
0
10
5.0574064254760733
20
-7.4859345753987645
30
0
10
5.0486024220784511
20
-7.5173505147298174
30
0
0
SPLINE
5
498
100
AcDbEntity
8
0
100
AcDbSpline
70
4
71
3
72
8
73
4
74
0
42
0.000000001
43
0.0000000001
44
0.0000000001
40
-1
40
-1
40
-1
40
-1
40
0
40
0
40
0
40
0
41
1
41
1
41
1
41
1
10
5.0486024220784511
20
-7.5173505147298174
30
0
10
5.0071233113606777
20
-7.616901397705079
30
0
10
5.0071233113606777
20
-7.7288958231608058
30
0
10
5.0486024220784511
20
-7.8284467061360692
30
0
0
SPLINE
5
499
100
AcDbEntity
8
0
100
AcDbSpline
70
4
71
3
72
8
73
4
74
0
42
0.000000001
43
0.0000000001
44
0.0000000001
40
-1
40
-1
40
-1
40
-1
40
0
40
0
40
0
40
0
41
1
41
1
41
1
41
1
10
5.0486024220784511
20
-7.8284467061360692
30
0
10
5.0896285374959307
20
-7.9280961354573556
30
0
10
5.1687612533569345
20
-8.0072294871012346
30
0
10
5.2684113184610997
20
-8.0482559204101562
30
0
0
SPLINE
5
500
100
AcDbEntity
8
0
100
AcDbSpline
70
4
71
3
72
8
73
4
74
0
42
0.000000001
43
0.0000000001
44
0.0000000001
40
-1
40
-1
40
-1
40
-1
40
0
40
0
40
0
40
0
41
1
41
1
41
1
41
1
10
5.2684113184610997
20
-8.0482559204101562
30
0
10
5.2927767435709638
20
-8.0584659576415998
30
0
10
5.3181355794270839
20
-8.0661144256591779
30
0
10
5.3440837860107431
20
-8.071077982584633
30
0
0
SPLINE
5
501
100
AcDbEntity
8
0
100
AcDbSpline
70
4
71
3
72
8
73
4
74
0
42
0.000000001
43
0.0000000001
44
0.0000000001
40
-1
40
-1
40
-1
40
-1
40
0
40
0
40
0
40
0
41
1
41
1
41
1
41
1
10
5.3440837860107431
20
-8.071077982584633
30
0
10
5.4270896911621103
20
-8.0872936248779297
30
0
10
5.5042349497477208
20
-8.1254520416259766
30
0
10
5.56749661763509
20
-8.1815834045410138
30
0
0
SPLINE
5
502
100
AcDbEntity
8
0
100
AcDbSpline
70
4
71
3
72
8
73
4
74
0
42
0.000000001
43
0.0000000001
44
0.0000000001
40
-1
40
-1
40
-1
40
-1
40
0
40
0
40
0
40
0
41
1
41
1
41
1
41
1
10
5.56749661763509
20
-8.1815834045410138
30
0
10
5.6185251871744804
20
-8.2242151896158866
30
0
10
5.6626847585042324
20
-8.2744515736897792
30
0
10
5.6984214782714844
20
-8.3305250803629534
30
0
0
SPLINE
5
503
100
AcDbEntity
8
0
100
AcDbSpline
70
4
71
3
72
8
73
4
74
0
42
0.000000001
43
0.0000000001
44
0.0000000001
40
-1
40
-1
40
-1
40
-1
40
0
40
0
40
0
40
0
41
1
41
1
41
1
41
1
10
5.6984214782714844
20
-8.3305250803629534
30
0
10
5.7265618642171212
20
-8.3717002868652326
30
0
10
5.7749087015787763
20
-8.3942623138427717
30
0
10
5.8245410919189453
20
-8.3893814086914062
30
0
0
SPLINE
5
504
100
AcDbEntity
8
0
100
AcDbSpline
70
4
71
3
72
8
73
4
74
0
42
0.000000001
43
0.0000000001
44
0.0000000001
40
-1
40
-1
40
-1
40
-1
40
0
40
0
40
0
40
0
41
1
41
1
41
1
41
1
10
5.8245410919189453
20
-8.3893814086914062
30
0
10
5.9097436269124364
20
-8.3939425150553397
30
0
10
5.9950631459554033
20
-8.3959452311197929
30
0
10
6.0803852081298819
20
-8.3953870137532522
30
0
0
SPLINE
5
505
100
AcDbEntity
8
0
100
AcDbSpline
70
4
71
3
72
8
73
4
74
0
42
0.000000001
43
0.0000000001
44
0.0000000001
40
-1
40
-1
40
-1
40
-1
40
0
40
0
40
0
40
0
41
1
41
1
41
1
41
1
10
6.0803852081298819
20
-8.3953870137532522
30
0
10
6.1009063720703125
20
-8.3995723724365234
30
0
10
6.1222508748372393
20
-8.3961575826009103
30
0
10
6.140442530314127
20
-8.3857777913411446
30
0
0
SPLINE
5
506
100
AcDbEntity
8
0
100
AcDbSpline
70
4
71
3
72
8
73
4
74
0
42
0.000000001
43
0.0000000001
44
0.0000000001
40
-1
40
-1
40
-1
40
-1
40
0
40
0
40
0
40
0
41
1
41
1
41
1
41
1
10
6.140442530314127
20
-8.3857777913411446
30
0
10
6.1581478118896475
20
-8.3760261535644531
30
0
10
6.1717796325683603
20
-8.3602619171142596
30
0
10
6.1788787841796884
20
-8.3413352966308612
30
0
0
SPLINE
5
507
100
AcDbEntity
8
0
100
AcDbSpline
70
4
71
3
72
8
73
4
74
0
42
0.000000001
43
0.0000000001
44
0.0000000001
40
-1
40
-1
40
-1
40
-1
40
0
40
0
40
0
40
0
41
1
41
1
41
1
41
1
10
6.1788787841796884
20
-8.3413352966308612
30
0
10
6.1975180308024083
20
-8.0375493367513027
30
0
10
6.2143338521321612
20
-7.7336540222167969
30
0
10
6.2293268839518223
20
-7.42966651916504
30
0
0
SPLINE
5
508
100
AcDbEntity
8
0
100
AcDbSpline
70
4
71
3
72
8
73
4
74
0
42
0.000000001
43
0.0000000001
44
0.0000000001
40
-1
40
-1
40
-1
40
-1
40
0
40
0
40
0
40
0
41
1
41
1
41
1
41
1
10
6.2293268839518223
20
-7.42966651916504
30
0
10
6.2419897715250654
20
-7.4210720062255868
30
0
10
6.2574570973714199
20
-7.417633056640625
30
0
10
6.2725683848063145
20
-7.4200572967529297
30
0
0
SPLINE
5
509
100
AcDbEntity
8
0
100
AcDbSpline
70
4
71
3
72
8
73
4
74
0
42
0.000000001
43
0.0000000001
44
0.0000000001
40
-1
40
-1
40
-1
40
-1
40
0
40
0
40
0
40
0
41
1
41
1
41
1
41
1
10
6.2725683848063145
20
-7.4200572967529297
30
0
10
6.2880522410074873
20
-7.4219538370768223
30
0
10
6.302223841349285
20
-7.4296868642171212
30
0
10
6.3122062683105451
20
-7.4416777292887364
30
0
0
LINE
5
510
100
AcDbEntity
8
0
100
AcDbLine
10
6.3122062683105451
20
-7.4416777292887364
30
0
11
6.3122062683105451
21
-7.4428780873616542
31
0
0
SPLINE
5
511
100
AcDbEntity
8
0
100
AcDbSpline
70
4
71
3
72
8
73
4
74
0
42
0.000000001
43
0.0000000001
44
0.0000000001
40
-1
40
-1
40
-1
40
-1
40
0
40
0
40
0
40
0
41
1
41
1
41
1
41
1
10
6.3122062683105451
20
-7.4428780873616542
30
0
10
6.2989343007405605
20
-7.7194690704345712
30
0
10
6.2873179117838545
20
-7.9961376190185556
30
0
10
6.2773729960123683
20
-8.2728684743245449
30
0
0
SPLINE
5
512
100
AcDbEntity
8
0
100
AcDbSpline
70
4
71
3
72
8
73
4
74
0
42
0.000000001
43
0.0000000001
44
0.0000000001
40
-1
40
-1
40
-1
40
-1
40
0
40
0
40
0
40
0
41
1
41
1
41
1
41
1
10
6.2773729960123683
20
-8.2728684743245449
30
0
10
6.2823867797851562
20
-8.3548094431559257
30
0
10
6.334360758463542
20
-8.4264481862386056
30
0
10
6.4106998443603516
20
-8.4566434224446621
30
0
0
SPLINE
5
513
100
AcDbEntity
8
0
100
AcDbSpline
70
4
71
3
72
8
73
4
74
0
42
0.000000001
43
0.0000000001
44
0.0000000001
40
-1
40
-1
40
-1
40
-1
40
0
40
0
40
0
40
0
41
1
41
1
41
1
41
1
10
6.4106998443603516
20
-8.4566434224446621
30
0
10
6.4996058146158857
20
-8.4915796915690098
30
0
10
6.5975519816080732
20
-8.496223449707033
30
0
10
6.6893653869628915
20
-8.4698556264241542
30
0
0
SPLINE
5
514
100
AcDbEntity
8
0
100
AcDbSpline
70
4
71
3
72
8
73
4
74
0
42
0.000000001
43
0.0000000001
44
0.0000000001
40
-1
40
-1
40
-1
40
-1
40
0
40
0
40
0
40
0
41
1
41
1
41
1
41
1
10
6.6893653869628915
20
-8.4698556264241542
30
0
10
6.779815673828125
20
-8.4435049692789725
30
0
10
6.8591359456380205
20
-8.3882338205973301
30
0
10
6.915180206298829
20
-8.3125057220458984
30
0
0
SPLINE
5
515
100
AcDbEntity
8
0
100
AcDbSpline
70
4
71
3
72
8
73
4
74
0
42
0.000000001
43
0.0000000001
44
0.0000000001
40
-1
40
-1
40
-1
40
-1
40
0
40
0
40
0
40
0
41
1
41
1
41
1
41
1
10
6.915180206298829
20
-8.3125057220458984
30
0
10
6.9337069193522147
20
-8.2533810933430996
30
0
10
6.9740873972574882
20
-8.2035503387451172
30
0
10
7.0280882517496748
20
-8.1731726328531877
30
0
0
SPLINE
5
516
100
AcDbEntity
8
0
100
AcDbSpline
70
4
71
3
72
8
73
4
74
0
42
0.000000001
43
0.0000000001
44
0.0000000001
40
-1
40
-1
40
-1
40
-1
40
0
40
0
40
0
40
0
41
1
41
1
41
1
41
1
10
7.0280882517496748
20
-8.1731726328531877
30
0
10
7.1213836669921884
20
-8.1178874969482404
30
0
10
7.2163174947102853
20
-8.0654144287109375
30
0
10
7.3127593994140616
20
-8.0158227284749337
30
0
0
SPLINE
5
517
100
AcDbEntity
8
0
100
AcDbSpline
70
4
71
3
72
8
73
4
74
0
42
0.000000001
43
0.0000000001
44
0.0000000001
40
-1
40
-1
40
-1
40
-1
40
0
40
0
40
0
40
0
41
1
41
1
41
1
41
1
10
7.3127593994140616
20
-8.0158227284749337
30
0
10
7.3588835398356132
20
-7.9864762624104806
30
0
10
7.3949292500813799
20
-7.9437255859375018
30
0
10
7.4160582224527998
20
-7.8933060963948574
30
0
0
SPLINE
5
518
100
AcDbEntity
8
0
100
AcDbSpline
70
4
71
3
72
8
73
4
74
0
42
0.000000001
43
0.0000000001
44
0.0000000001
40
-1
40
-1
40
-1
40
-1
40
0
40
0
40
0
40
0
41
1
41
1
41
1
41
1
10
7.4160582224527998
20
-7.8933060963948574
30
0
10
7.4341519673665371
20
-7.8274631500244141
30
0
10
7.4553966522216788
20
-7.7625268300374337
30
0
10
7.4797185262044259
20
-7.6987209320068359
30
0
0
SPLINE
5
519
100
AcDbEntity
8
0
100
AcDbSpline
70
4
71
3
72
8
73
4
74
0
42
0.000000001
43
0.0000000001
44
0.0000000001
40
-1
40
-1
40
-1
40
-1
40
0
40
0
40
0
40
0
41
1
41
1
41
1
41
1
10
7.4797185262044259
20
-7.6987209320068359
30
0
10
7.4901803334554042
20
-7.6783688863118478
30
0
10
7.4931589762369795
20
-7.6549835205078107
30
0
10
7.4881267547607422
20
-7.6326580047607413
30
0
0
SPLINE
5
520
100
AcDbEntity
8
0
100
AcDbSpline
70
4
71
3
72
8
73
4
74
0
42
0.000000001
43
0.0000000001
44
0.0000000001
40
-1
40
-1
40
-1
40
-1
40
0
40
0
40
0
40
0
41
1
41
1
41
1
41
1
10
7.4881267547607422
20
-7.6326580047607413
30
0
10
7.4836279551188163
20
-7.6109110514322929
30
0
10
7.4717451731363935
20
-7.591389338175456
30
0
10
7.4544944763183603
20
-7.5774052937825509
30
0
0
SPLINE
5
521
100
AcDbEntity
8
0
100
AcDbSpline
70
4
71
3
72
8
73
4
74
0
42
0.000000001
43
0.0000000001
44
0.0000000001
40
-1
40
-1
40
-1
40
-1
40
0
40
0
40
0
40
0
41
1
41
1
41
1
41
1
10
7.4544944763183603
20
-7.5774052937825509
30
0
10
7.1735401153564444
20
-7.4614442189534493
30
0
10
6.89166259765625
20
-7.3477319081624346
30
0
10
6.6088886260986337
20
-7.2362804412841779
30
0
0
SPLINE
5
522
100
AcDbEntity
8
0
100
AcDbSpline
70
4
71
3
72
8
73
4
74
0
42
0.000000001
43
0.0000000001
44
0.0000000001
40
-1
40
-1
40
-1
40
-1
40
0
40
0
40
0
40
0
41
1
41
1
41
1
41
1
10
6.6088886260986337
20
-7.2362804412841779
30
0
10
6.6122220357259129
20
-7.2024529774983712
30
0
10
6.6260852813720712
20
-7.1705239613850917
30
0
10
6.6485265096028652
20
-7.1449934641520194
30
0
0
SPLINE
5
523
100
AcDbEntity
8
0
100
AcDbSpline
70
4
71
3
72
8
73
4
74
0
42
0.000000001
43
0.0000000001
44
0.0000000001
40
-1
40
-1
40
-1
40
-1
40
0
40
0
40
0
40
0
41
1
41
1
41
1
41
1
10
6.6485265096028652
20
-7.1449934641520194
30
0
10
6.9074668884277353
20
-7.241120656331379
30
0
10
7.1677398681640634
20
-7.3336181640625
30
0
10
7.429269790649415
20
-7.4224580128987636
30
0
0
SPLINE
5
524
100
AcDbEntity
8
0
100
AcDbSpline
70
4
71
3
72
8
73
4
74
0
42
0.000000001
43
0.0000000001
44
0.0000000001
40
-1
40
-1
40
-1
40
-1
40
0
40
0
40
0
40
0
41
1
41
1
41
1
41
1
10
7.429269790649415
20
-7.4224580128987636
30
0
10
7.5045420328776036
20
-7.4258588155110683
30
0
10
7.5780544281005859
20
-7.3990484873453788
30
0
10
7.6334641774495449
20
-7.3479874928792324
30
0
0
SPLINE
5
525
100
AcDbEntity
8
0
100
AcDbSpline
70
4
71
3
72
8
73
4
74
0
42
0.000000001
43
0.0000000001
44
0.0000000001
40
-1
40
-1
40
-1
40
-1
40
0
40
0
40
0
40
0
41
1
41
1
41
1
41
1
10
7.6334641774495449
20
-7.3479874928792324
30
0
10
7.6891606648763027
20
-7.2976633707682277
30
0
10
7.7224578857421884
20
-7.227182388305665
30
0
10
7.7259527842203779
20
-7.15220069885254
30
0
0
SPLINE
5
526
100
AcDbEntity
8
0
100
AcDbSpline
70
4
71
3
72
8
73
4
74
0
42
0.000000001
43
0.0000000001
44
0.0000000001
40
-1
40
-1
40
-1
40
-1
40
-0.35440164594761736
40
-0.35440164594761736
40
-0.35440164594761736
40
-0.35440164594761736
41
1
41
1
41
1
41
1
10
7.7259527842203779
20
-7.15220069885254
30
0
10
7.7276073500094
20
-7.1236934045882876
30
0
10
7.724756777535946
20
-7.0952025398618455
30
0
10
7.7175935303949759
20
-7.0677583409121887
30
0
0
ARC
5
527
100
AcDbEntity
8
0
100
AcDbCircle
10
4.4097139363971083
20
-8.1379260873106105
30
0
40
3.4766832489916268
210
0
220
-0
230
1
100
AcDbArc
50
17.927471431582831
51
18.486960176281517
0
SPLINE
5
528
100
AcDbEntity
8
0
100
AcDbSpline
70
4
71
3
72
8
73
4
74
0
42
0.000000001
43
0.0000000001
44
0.0000000001
40
-0.097098626797959706
40
-0.097098626797959706
40
-0.097098626797959706
40
-0.097098626797959706
40
0
40
0
40
0
40
0
41
1
41
1
41
1
41
1
10
7.706985885278872
20
-7.0355086940622149
30
0
10
7.7053961008540979
20
-7.0315311509196867
30
0
10
7.7037104968952272
20
-7.0275865718002786
30
0
10
7.7019297281901027
20
-7.0236784617106132
30
0
0
LINE
5
529
100
AcDbEntity
8
0
100
AcDbLine
10
7.7019297281901027
20
-7.0236784617106114
30
0
11
7.7028075849556243
21
-7.0230894913725814
31
0
0
ARC
5
530
100
AcDbEntity
8
0
100
AcDbCircle
10
4.4097139363971083
20
-8.1379260873106105
30
0
40
3.476683248991649
210
0
220
-0
230
1
100
AcDbArc
50
18.702901779588654
51
26.597342312474318
0
SPLINE
5
531
100
AcDbEntity
8
0
100
AcDbSpline
70
4
71
3
72
8
73
4
74
0
42
0.000000001
43
0.0000000001
44
0.0000000001
40
0.097627183603646001
40
0.097627183603646001
40
0.097627183603646001
40
0.097627183603646001
40
0.13917370304679694
40
0.13917370304679694
40
0.13917370304679694
40
0.13917370304679694
41
1
41
1
41
1
41
1
10
7.5184771992021604
20
-6.5813537665838151
30
0
10
7.5179005396147476
20
-6.5802633022292305
30
0
10
7.5173489115331042
20
-6.5791628169799283
30
0
10
7.5168223757347397
20
-6.5780531565233016
30
0
0
SPLINE
5
532
100
AcDbEntity
8
0
100
AcDbSpline
70
4
71
3
72
8
73
4
74
0
42
0.000000001
43
0.0000000001
44
0.0000000001
40
0.13917370305353552
40
0.13917370305353552
40
0.13917370305353552
40
0.13917370305353552
40
1
40
1
40
1
40
1
41
1
41
1
41
1
41
1
10
7.5168223757344856
20
-6.5780531565227625
30
0
10
7.5059127768660323
20
-6.5550614615612472
30
0
10
7.5057753167741446
20
-6.5281308422097766
30
0
10
7.5169506072998047
20
-6.5047836303710929
30
0
0
SPLINE
5
533
100
AcDbEntity
8
0
100
AcDbSpline
70
4
71
3
72
8
73
4
74
0
42
0.000000001
43
0.0000000001
44
0.0000000001
40
0
40
0
40
0
40
0
40
1
40
1
40
1
40
1
41
1
41
1
41
1
41
1
10
7.5169506072998047
20
-6.5047836303710929
30
0
10
7.5422115325927717
20
-6.4069048563639308
30
0
10
7.5050601959228507
20
-6.3035335540771475
30
0
10
7.4232610066731768
20
-6.2441355387369804
30
0
0
SPLINE
5
534
100
AcDbEntity
8
0
100
AcDbSpline
70
4
71
3
72
8
73
4
74
0
42
0.000000001
43
0.0000000001
44
0.0000000001
40
0
40
0
40
0
40
0
40
1
40
1
40
1
40
1
41
1
41
1
41
1
41
1
10
7.2094573974609366
20
-6.0855846405029288
30
0
10
7.1734218597412092
20
-6.0682360331217442
30
0
10
7.1304175059000654
20
-6.0749295552571603
30
0
10
7.1013539632161455
20
-6.1024004618326826
30
0
0
LINE
5
535
100
AcDbEntity
8
0
100
AcDbLine
10
7.4232610066731768
20
-6.2441355387369804
30
0
11
7.2094573974609366
21
-6.0855846405029288
31
0
0
SPLINE
5
536
100
AcDbEntity
8
0
100
AcDbSpline
70
4
71
3
72
8
73
4
74
0
42
0.000000001
43
0.0000000001
44
0.0000000001
40
-1
40
-1
40
-1
40
-1
40
0
40
0
40
0
40
0
41
1
41
1
41
1
41
1
10
6.2868493398030596
20
-7.1920623779296875
30
0
10
6.2039273579915362
20
-7.1920623779296875
30
0
10
6.1367060343424473
20
-7.1248410542805987
30
0
10
6.1367060343424473
20
-7.0419190724690743
30
0
0
SPLINE
5
537
100
AcDbEntity
8
0
100
AcDbSpline
70
4
71
3
72
8
73
4
74
0
42
0.000000001
43
0.0000000001
44
0.0000000001
40
-1
40
-1
40
-1
40
-1
40
0
40
0
40
0
40
0
41
1
41
1
41
1
41
1
10
6.1367060343424473
20
-7.0419190724690743
30
0
10
6.1367060343424473
20
-6.9589970906575509
30
0
10
6.2039273579915362
20
-6.8917757670084638
30
0
10
6.2868493398030596
20
-6.8917757670084638
30
0
0
SPLINE
5
538
100
AcDbEntity
8
0
100
AcDbSpline
70
4
71
3
72
8
73
4
74
0
42
0.000000001
43
0.0000000001
44
0.0000000001
40
-1
40
-1
40
-1
40
-1
40
0
40
0
40
0
40
0
41
1
41
1
41
1
41
1
10
6.4369926452636728
20
-7.0419190724690743
30
0
10
6.4369926452636728
20
-7.1248410542805987
30
0
10
6.3697713216145839
20
-7.1920623779296875
30
0
10
6.2868493398030596
20
-7.1920623779296875
30
0
0
SPLINE
5
539
100
AcDbEntity
8
0
100
AcDbSpline
70
4
71
3
72
8
73
4
74
0
42
0.000000001
43
0.0000000001
44
0.0000000001
40
-1
40
-1
40
-1
40
-1
40
0
40
0
40
0
40
0
41
1
41
1
41
1
41
1
10
6.2868493398030596
20
-6.8917757670084638
30
0
10
6.3697713216145839
20
-6.8917757670084638
30
0
10
6.4369926452636728
20
-6.9589970906575509
30
0
10
6.4369926452636728
20
-7.0419190724690743
30
0
0
LINE
5
540
100
AcDbEntity
8
0
100
AcDbLine
10
4.5417213439941415
20
-5.1426779429117842
30
0
11
4.5465253194173165
21
-5.1258605321248369
31
0
0
SPLINE
5
541
100
AcDbEntity
8
0
100
AcDbSpline
70
4
71
3
72
8
73
4
74
0
42
0.000000001
43
0.0000000001
44
0.0000000001
40
0
40
0
40
0
40
0
40
1
40
1
40
1
40
1
41
1
41
1
41
1
41
1
10
4.5465253194173165
20
-5.1258605321248369
30
0
10
4.5767930348714199
20
-5.0217990875244132
30
0
10
4.551884015401205
20
-4.9094861348470058
30
0
10
4.4804620742797843
20
-4.8279768625895194
30
0
0
SPLINE
5
542
100
AcDbEntity
8
0
100
AcDbSpline
70
4
71
3
72
8
73
4
74
0
42
0.000000001
43
0.0000000001
44
0.0000000001
40
0
40
0
40
0
40
0
40
0.8796529026275125
40
0.8796529026275125
40
0.8796529026275125
40
0.8796529026275125
41
1
41
1
41
1
41
1
10
4.4804620742797843
20
-4.8279768625895194
30
0
10
4.4589389151692895
20
-4.8023377687657316
30
0
10
4.4337203839259285
20
-4.7800804213363204
30
0
10
4.405655980088734
20
-4.7619257913822981
30
0
0
SPLINE
5
543
100
AcDbEntity
8
0
100
AcDbSpline
70
4
71
3
72
8
73
4
74
0
42
0.000000001
43
0.0000000001
44
0.0000000001
40
0.87965290263599505
40
0.87965290263599505
40
0.87965290263599505
40
0.87965290263599505
40
1
40
1
40
1
40
1
41
1
41
1
41
1
41
1
10
4.4056559800879223
20
-4.761925791381775
30
0
10
4.401816432090099
20
-4.7594420196439131
30
0
10
4.3979236163839204
20
-4.7570350406473718
30
0
10
4.3939797083536796
20
-4.7547067006429042
30
0
0
SPLINE
5
544
100
AcDbEntity
8
0
100
AcDbSpline
70
4
71
3
72
8
73
4
74
0
42
0.000000001
43
0.0000000001
44
0.0000000001
40
0
40
0
40
0
40
0
40
0.032803411410156719
40
0.032803411410156719
40
0.032803411410156719
40
0.032803411410156719
41
1
41
1
41
1
41
1
10
4.3939797083536796
20
-4.7547067006429042
30
0
10
4.3937271336149326
20
-4.754294307546286
30
0
10
4.3934800652006327
20
-4.7538792490287767
30
0
10
4.3932385221754506
20
-4.7534616347318526
30
0
0
ARC
5
545
100
AcDbEntity
8
0
100
AcDbCircle
10
17.124219256338087
20
13.910358905771382
30
0
40
22.592389595209504
210
0
220
0
230
1
100
AcDbArc
50
235.23397564881884
51
235.70128724475717
0
SPLINE
5
546
100
AcDbEntity
8
0
100
AcDbSpline
70
4
71
3
72
8
73
4
74
0
42
0.000000001
43
0.0000000001
44
0.0000000001
40
-1
40
-1
40
-1
40
-1
40
0
40
0
40
0
40
0
41
1
41
1
41
1
41
1
10
4.2414391835530587
20
-4.649006525675456
30
0
10
4.1880830128987627
20
-4.5766814549763994
30
0
10
4.0978097915649405
20
-4.541602134704589
30
0
10
4.0096181233723964
20
-4.5589208602905273
30
0
0
SPLINE
5
547
100
AcDbEntity
8
0
100
AcDbSpline
70
4
71
3
72
8
73
4
74
0
42
0.000000001
43
0.0000000001
44
0.0000000001
40
-1
40
-1
40
-1
40
-1
40
0
40
0
40
0
40
0
41
1
41
1
41
1
41
1
10
4.0096181233723964
20
-4.5589208602905273
30
0
10
3.7387568155924478
20
-4.8830801645914717
30
0
10
3.4704920450846353
20
-5.2094017664591474
30
0
10
3.2048514684041347
20
-5.5378532409667969
30
0
0
SPLINE
5
548
100
AcDbEntity
8
0
100
AcDbSpline
70
4
71
3
72
8
73
4
74
0
42
0.000000001
43
0.0000000001
44
0.0000000001
40
-1
40
-1
40
-1
40
-1
40
0
40
0
40
0
40
0
41
1
41
1
41
1
41
1
10
3.2048514684041347
20
-5.5378532409667969
30
0
10
3.1669448216756191
20
-5.5178534189860011
30
0
10
3.1311324437459307
20
-5.4941139221191397
30
0
10
3.0979496637980146
20
-5.4669863382975263
30
0
0
SPLINE
5
549
100
AcDbEntity
8
0
100
AcDbSpline
70
4
71
3
72
8
73
4
74
0
42
0.000000001
43
0.0000000001
44
0.0000000001
40
-1
40
-1
40
-1
40
-1
40
0
40
0
40
0
40
0
41
1
41
1
41
1
41
1
10
3.0979496637980146
20
-5.4669863382975263
30
0
10
3.3421764373779297
20
-5.1311931610107413
30
0
10
3.5884151458740234
20
-4.7968686421712237
30
0
10
3.8366533915201821
20
-4.4640309015909843
30
0
0
SPLINE
5
550
100
AcDbEntity
8
0
100
AcDbSpline
70
4
71
3
72
8
73
4
74
0
42
0.000000001
43
0.0000000001
44
0.0000000001
40
-1
40
-1
40
-1
40
-1
40
0
40
0
40
0
40
0
41
1
41
1
41
1
41
1
10
3.8366533915201821
20
-4.4640309015909843
30
0
10
3.8377122879028325
20
-4.3250818252563477
30
0
10
3.7832276026407876
20
-4.1914656956990566
30
0
10
3.6853090922037754
20
-4.0928767522176113
30
0
0
SPLINE
5
551
100
AcDbEntity
8
0
100
AcDbSpline
70
4
71
3
72
8
73
4
74
0
42
0.000000001
43
0.0000000001
44
0.0000000001
40
-1
40
-1
40
-1
40
-1
40
0
40
0
40
0
40
0
41
1
41
1
41
1
41
1
10
3.6853090922037754
20
-4.0928767522176113
30
0
10
3.5875841776529946
20
-3.9939661026000972
30
0
10
3.4544013341267905
20
-3.9381806055704756
30
0
10
3.3153568903605146
20
-3.9379294713338213
30
0
0
SPLINE
5
552
100
AcDbEntity
8
0
100
AcDbSpline
70
4
71
3
72
8
73
4
74
0
42
0.000000001
43
0.0000000001
44
0.0000000001
40
-1
40
-1
40
-1
40
-1
40
0
40
0
40
0
40
0
41
1
41
1
41
1
41
1
10
3.3153568903605146
20
-3.9379294713338213
30
0
10
3.2490580876668287
20
-3.9373251597086592
30
0
10
3.1833066940307617
20
-3.9499861399332685
30
0
10
3.1219727198282881
20
-3.9751650492350259
30
0
0
SPLINE
5
553
100
AcDbEntity
8
0
100
AcDbSpline
70
4
71
3
72
8
73
4
74
0
42
0.000000001
43
0.0000000001
44
0.0000000001
40
-1
40
-1
40
-1
40
-1
40
0
40
0
40
0
40
0
41
1
41
1
41
1
41
1
10
3.1219727198282881
20
-3.9751650492350259
30
0
10
2.9205919901529946
20
-4.0852375030517569
30
0
10
2.6793766021728516
20
-4.0950101216634112
30
0
10
2.4697511990865073
20
-4.001591046651205
30
0
0
SPLINE
5
554
100
AcDbEntity
8
0
100
AcDbSpline
70
4
71
3
72
8
73
4
74
0
42
0.000000001
43
0.0000000001
44
0.0000000001
40
-1
40
-1
40
-1
40
-1
40
-0.24484240334549831
40
-0.24484240334549831
40
-0.24484240334549831
40
-0.24484240334549831
41
1
41
1
41
1
41
1
10
2.4697511990865073
20
-4.001591046651205
30
0
10
2.3921006744446283
20
-3.9949911283477713
30
0
10
2.3147037629349416
20
-4.0104756748164077
30
0
10
2.2462047796013382
20
-4.0455121050402143
30
0
0
SPLINE
5
555
100
AcDbEntity
8
0
100
AcDbSpline
70
4
71
3
72
8
73
4
74
0
42
0.000000001
43
0.0000000001
44
0.0000000001
40
-0.24484240334549809
40
-0.24484240334549809
40
-0.24484240334549809
40
-0.24484240334549809
40
0
40
0
40
0
40
0
41
1
41
1
41
1
41
1
10
2.2462047796013382
20
-4.0455121050402143
30
0
10
2.223995566874851
20
-4.0568718580489218
30
0
10
2.2027217317630576
20
-4.0702869652960274
30
0
10
2.1826779047648115
20
-4.0856711069742842
30
0
0
SPLINE
5
556
100
AcDbEntity
8
0
100
AcDbSpline
70
4
71
3
72
8
73
4
74
0
42
0.000000001
43
0.0000000001
44
0.0000000001
40
-1
40
-1
40
-1
40
-1
40
-0.9861578344094678
40
-0.9861578344094678
40
-0.9861578344094678
40
-0.9861578344094678
41
1
41
1
41
1
41
1
10
2.1826779047648115
20
-4.0856711069742842
30
0
10
2.1809520497730013
20
-4.0840556226561056
30
0
10
2.1792270531215769
20
-4.0824392386398136
30
0
10
2.1775029155010563
20
-4.0808219556209817
30
0
0
ARC
5
557
100
AcDbEntity
8
0
100
AcDbCircle
10
2.6221763806946989
20
-4.8615256312775985
30
0
40
0.89846130680796299
210
0
220
0
230
1
100
AcDbArc
50
119.66498856372561
51
134.78167168459589
0
SPLINE
5
558
100
AcDbEntity
8
0
100
AcDbSpline
70
4
71
3
72
8
73
4
74
0
42
0.000000001
43
0.0000000001
44
0.0000000001
40
-0.72442183836379215
40
-0.72442183836379215
40
-0.72442183836379215
40
-0.72442183836379215
40
0
40
0
40
0
40
0
41
1
41
1
41
1
41
1
10
1.9892937764917662
20
-4.2238012949626311
30
0
10
1.9458729772550785
20
-4.282435179253139
30
0
10
1.9275205648402696
20
-4.3574661405032602
30
0
10
1.9412419001261394
20
-4.4316104253133135
30
0
0
SPLINE
5
559
100
AcDbEntity
8
0
100
AcDbSpline
70
4
71
3
72
8
73
4
74
0
42
0.000000001
43
0.0000000001
44
0.0000000001
40
-1
40
-1
40
-1
40
-1
40
0
40
0
40
0
40
0
41
1
41
1
41
1
41
1
10
1.9412419001261394
20
-4.4316104253133135
30
0
10
2.1631156603495283
20
-4.7726885477701826
30
0
10
2.3897538185119629
20
-5.1106433868408194
30
0
10
2.6210896174112954
20
-5.4453760782877607
30
0
0
SPLINE
5
560
100
AcDbEntity
8
0
100
AcDbSpline
70
4
71
3
72
8
73
4
74
0
42
0.000000001
43
0.0000000001
44
0.0000000001
40
-1
40
-1
40
-1
40
-1
40
0
40
0
40
0
40
0
41
1
41
1
41
1
41
1
10
2.6210896174112954
20
-5.4453760782877607
30
0
10
2.5882175763448076
20
-5.476551691691081
30
0
10
2.5519561767578121
20
-5.5039494832356777
30
0
10
2.5129865010579424
20
-5.5270538330078116
30
0
0
SPLINE
5
561
100
AcDbEntity
8
0
100
AcDbSpline
70
4
71
3
72
8
73
4
74
0
42
0.000000001
43
0.0000000001
44
0.0000000001
40
-1
40
-1
40
-1
40
-1
40
0
40
0
40
0
40
0
41
1
41
1
41
1
41
1
10
2.5129865010579424
20
-5.5270538330078116
30
0
10
2.3074138959248862
20
-5.2315966288248701
30
0
10
2.1036160786946612
20
-4.9349082310994472
30
0
10
1.9016040166219077
20
-4.6370058059692383
30
0
0
SPLINE
5
562
100
AcDbEntity
8
0
100
AcDbSpline
70
4
71
3
72
8
73
4
74
0
42
0.000000001
43
0.0000000001
44
0.0000000001
40
-1
40
-1
40
-1
40
-1
40
0
40
0
40
0
40
0
41
1
41
1
41
1
41
1
10
1.9016040166219077
20
-4.6370058059692383
30
0
10
1.8840710322062171
20
-4.6074145634969081
30
0
10
1.8602952957153316
20
-4.5820000966389971
30
0
10
1.8319376309712725
20
-4.5625349680582676
30
0
0
LINE
5
563
100
AcDbEntity
8
0
100
AcDbLine
10
1.8319376309712725
20
-4.5625349680582676
30
0
11
1.7298402786254885
21
-4.4892651240030936
31
0
0
SPLINE
5
564
100
AcDbEntity
8
0
100
AcDbSpline
70
4
71
3
72
8
73
4
74
0
42
0.000000001
43
0.0000000001
44
0.0000000001
40
-1
40
-1
40
-1
40
-1
40
0
40
0
40
0
40
0
41
1
41
1
41
1
41
1
10
1.7298402786254885
20
-4.4892651240030919
30
0
10
1.709696133931478
20
-4.4656387964884443
30
0
10
1.6789274215698242
20
-4.4538803100585929
30
0
10
1.6481625239054365
20
-4.4580351511637355
30
0
0
SPLINE
5
565
100
AcDbEntity
8
0
100
AcDbSpline
70
4
71
3
72
8
73
4
74
0
42
0.000000001
43
0.0000000001
44
0.0000000001
40
-1
40
-1
40
-1
40
-1
40
0
40
0
40
0
40
0
41
1
41
1
41
1
41
1
10
1.6481625239054365
20
-4.4580351511637355
30
0
10
1.454996426900228
20
-4.4770765304565421
30
0
10
1.2854674657185872
20
-4.5947920481363935
30
0
10
1.2001358668009441
20
-4.7691316604614267
30
0
0
SPLINE
5
566
100
AcDbEntity
8
0
100
AcDbSpline
70
4
71
3
72
8
73
4
74
0
42
0.000000001
43
0.0000000001
44
0.0000000001
40
-1
40
-1
40
-1
40
-1
40
0
40
0
40
0
40
0
41
1
41
1
41
1
41
1
10
1.2001358668009441
20
-4.7691316604614267
30
0
10
1.1595097382863364
20
-5.0006332397460929
30
0
10
1.1142574946085613
20
-5.2312990824381504
30
0
10
1.0644064744313555
20
-5.4609909057617188
30
0
0
SPLINE
5
567
100
AcDbEntity
8
0
100
AcDbSpline
70
4
71
3
72
8
73
4
74
0
42
0.000000001
43
0.0000000001
44
0.0000000001
40
-1
40
-1
40
-1
40
-1
40
0
40
0
40
0
40
0
41
1
41
1
41
1
41
1
10
1.0644064744313555
20
-5.4609909057617188
30
0
10
1.0643980503082273
20
-5.4934062957763672
30
0
10
1.048742691675822
20
-5.5238234202067069
30
0
10
1.0223663647969561
20
-5.5426686604817714
30
0
0
SPLINE
5
568
100
AcDbEntity
8
0
100
AcDbSpline
70
4
71
3
72
8
73
4
74
0
42
0.000000001
43
0.0000000001
44
0.0000000001
40
-1
40
-1
40
-1
40
-1
40
0
40
0
40
0
40
0
41
1
41
1
41
1
41
1
10
1.0223663647969561
20
-5.5426686604817714
30
0
10
0.92535781860351551
20
-5.6065940856933603
30
0
10
0.87390414873758959
20
-5.7207253774007167
30
0
10
0.89024043083190896
20
-5.8357480367024737
30
0
0
SPLINE
5
569
100
AcDbEntity
8
0
100
AcDbSpline
70
4
71
3
72
8
73
4
74
0
42
0.000000001
43
0.0000000001
44
0.0000000001
40
-1
40
-1
40
-1
40
-1
40
0
40
0
40
0
40
0
41
1
41
1
41
1
41
1
10
0.89024043083190896
20
-5.8357480367024737
30
0
10
0.9267035325368248
20
-5.9681619008382167
30
0
10
0.96554676691691066
20
-6.0999088287353516
30
0
10
1.0067514578501384
20
-6.2309246063232413
30
0
0
SPLINE
5
570
100
AcDbEntity
8
0
100
AcDbSpline
70
4
71
3
72
8
73
4
74
0
42
0.000000001
43
0.0000000001
44
0.0000000001
40
-1
40
-1
40
-1
40
-1
40
0
40
0
40
0
40
0
41
1
41
1
41
1
41
1
10
1.0067514578501384
20
-6.2309246063232413
30
0
10
1.0167404810587566
20
-6.2597376505533848
30
0
10
1.0362221399943037
20
-6.2843030293782558
30
0
10
1.062004089355469
20
-6.3005911509195975
30
0
0
SPLINE
5
571
100
AcDbEntity
8
0
100
AcDbSpline
70
4
71
3
72
8
73
4
74
0
42
0.000000001
43
0.0000000001
44
0.0000000001
40
-1
40
-1
40
-1
40
-1
40
0
40
0
40
0
40
0
41
1
41
1
41
1
41
1
10
1.062004089355469
20
-6.3005911509195975
30
0
10
1.0874776840209963
20
-6.3163623809814435
30
0
10
1.1175085703531902
20
-6.3231366475423183
30
0
10
1.147285302480062
20
-6.3198095957438154
30
0
0
LINE
5
572
100
AcDbEntity
8
0
100
AcDbLine
10
1.147285302480062
20
-6.3198095957438154
30
0
11
2.3436252276102705
21
-6.00030517578125
31
0
0
SPLINE
5
573
100
AcDbEntity
8
0
100
AcDbSpline
70
4
71
3
72
8
73
4
74
0
42
0.000000001
43
0.0000000001
44
0.0000000001
40
-1
40
-1
40
-1
40
-1
40
0
40
0
40
0
40
0
41
1
41
1
41
1
41
1
10
2.3436252276102705
20
-6.00030517578125
30
0
10
2.3622069358825679
20
-6.0392621358235674
30
0
10
2.377090136210124
20
-6.0798784891764317
30
0
10
2.3880674044291181
20
-6.1216208140055342
30
0
0
SPLINE
5
574
100
AcDbEntity
8
0
100
AcDbSpline
70
4
71
3
72
8
73
4
74
0
42
0.000000001
43
0.0000000001
44
0.0000000001
40
-1
40
-1
40
-1
40
-1
40
0
40
0
40
0
40
0
41
1
41
1
41
1
41
1
10
2.3880674044291181
20
-6.1216208140055342
30
0
10
1.9955781300862632
20
-6.2337964375813808
30
0
10
1.6039929389953616
20
-6.3491090138753261
30
0
10
1.2133482297261555
20
-6.46755027770996
30
0
0
SPLINE
5
575
100
AcDbEntity
8
0
100
AcDbSpline
70
4
71
3
72
8
73
4
74
0
42
0.000000001
43
0.0000000001
44
0.0000000001
40
-1
40
-1
40
-1
40
-1
40
0
40
0
40
0
40
0
41
1
41
1
41
1
41
1
10
1.2133482297261555
20
-6.46755027770996
30
0
10
1.1763956546783445
20
-6.4901612599690761
30
0
10
1.1464537779490154
20
-6.5225982666015625
30
0
10
1.1268661022186277
20
-6.5612392425537118
30
0
0
SPLINE
5
576
100
AcDbEntity
8
0
100
AcDbSpline
70
4
71
3
72
8
73
4
74
0
42
0.000000001
43
0.0000000001
44
0.0000000001
40
-1
40
-1
40
-1
40
-1
40
0
40
0
40
0
40
0
41
1
41
1
41
1
41
1
10
1.1268661022186277
20
-6.5612392425537118
30
0
10
1.0777035554250083
20
-6.6972357432047538
30
0
10
1.0828659534454343
20
-6.8469505310058594
30
0
10
1.1412796179453533
20
-6.9792372385660819
30
0
0
SPLINE
5
577
100
AcDbEntity
8
0
100
AcDbSpline
70
4
71
3
72
8
73
4
74
0
42
0.000000001
43
0.0000000001
44
0.0000000001
40
-1
40
-1
40
-1
40
-1
40
0
40
0
40
0
40
0
41
1
41
1
41
1
41
1
10
1.1412796179453533
20
-6.9792372385660819
30
0
10
1.1989304224650066
20
-7.111082712809246
30
0
10
1.3051939010620113
20
-7.2156244913736964
30
0
10
1.4379625320434568
20
-7.2711156209309893
30
0
0
LINE
5
578
100
AcDbEntity
8
0
100
AcDbLine
10
1.4379625320434568
20
-7.2711156209309893
30
0
11
1.6349501609802246
21
-7.3299713134765607
31
0
0
SPLINE
5
579
100
AcDbEntity
8
0
100
AcDbSpline
70
4
71
3
72
8
73
4
74
0
42
0.000000001
43
0.0000000001
44
0.0000000001
40
-1
40
-1
40
-1
40
-1
40
0
40
0
40
0
40
0
41
1
41
1
41
1
41
1
10
1.6349501609802246
20
-7.3299713134765607
30
0
10
1.805765628814697
20
-7.3903700510660819
30
0
10
1.9471019109090166
20
-7.5136629740397147
30
0
10
2.0301267306009922
20
-7.6746997833251953
30
0
0
SPLINE
5
580
100
AcDbEntity
8
0
100
AcDbSpline
70
4
71
3
72
8
73
4
74
0
42
0.000000001
43
0.0000000001
44
0.0000000001
40
-1
40
-1
40
-1
40
-1
40
0
40
0
40
0
40
0
41
1
41
1
41
1
41
1
10
2.0301267306009922
20
-7.6746997833251953
30
0
10
2.0705895423889165
20
-7.7215754191080732
30
0
10
2.1263249715169272
20
-7.7526334126790388
30
0
10
2.1874764760335288
20
-7.7623831431070958
30
0
0
SPLINE
5
581
100
AcDbEntity
8
0
100
AcDbSpline
70
4
71
3
72
8
73
4
74
0
42
0.000000001
43
0.0000000001
44
0.0000000001
40
-1
40
-1
40
-1
40
-1
40
0
40
0
40
0
40
0
41
1
41
1
41
1
41
1
10
2.1874764760335288
20
-7.7623831431070958
30
0
10
2.3135585784912105
20
-7.7666988372802734
30
0
10
2.4396880467732749
20
-7.7695039113362618
30
0
10
2.5658367474873862
20
-7.7707913716634103
30
0
0
SPLINE
5
582
100
AcDbEntity
8
0
100
AcDbSpline
70
4
71
3
72
8
73
4
74
0
42
0.000000001
43
0.0000000001
44
0.0000000001
40
-1
40
-1
40
-1
40
-1
40
0
40
0
40
0
40
0
41
1
41
1
41
1
41
1
10
2.5658367474873862
20
-7.7707913716634103
30
0
10
2.6239109039306636
20
-7.7757714589436819
30
0
10
2.6789738337198896
20
-7.7441705067952453
30
0
10
2.7039690017700191
20
-7.6915156046549464
30
0
0
SPLINE
5
583
100
AcDbEntity
8
0
100
AcDbSpline
70
4
71
3
72
8
73
4
74
0
42
0.000000001
43
0.0000000001
44
0.0000000001
40
-1
40
-1
40
-1
40
-1
40
0
40
0
40
0
40
0
41
1
41
1
41
1
41
1
10
2.7039690017700191
20
-7.6915156046549464
30
0
10
2.7289009094238286
20
-7.2640024820963527
30
0
10
2.7521244684855142
20
-6.8363914489746085
30
0
10
2.773635228474935
20
-6.4086933135986328
30
0
0
LINE
5
584
100
AcDbEntity
8
0
100
AcDbLine
10
2.773635228474935
20
-6.4086933135986328
30
0
11
2.8877436319986978
21
-6.4122975667317714
31
0
0
SPLINE
5
585
100
AcDbEntity
8
0
100
AcDbSpline
70
4
71
3
72
8
73
4
74
0
42
0.000000001
43
0.0000000001
44
0.0000000001
40
-1
40
-1
40
-1
40
-1
40
0
40
0
40
0
40
0
41
1
41
1
41
1
41
1
10
2.8877436319986978
20
-6.4122975667317714
30
0
10
2.8670260111490884
20
-6.8497695922851571
30
0
10
2.8498093287150064
20
-7.2874005635579424
30
0
10
2.8360945383707685
20
-7.725147883097331
30
0
0
SPLINE
5
586
100
AcDbEntity
8
0
100
AcDbSpline
70
4
71
3
72
8
73
4
74
0
42
0.000000001
43
0.0000000001
44
0.0000000001
40
-1
40
-1
40
-1
40
-1
40
0
40
0
40
0
40
0
41
1
41
1
41
1
41
1
10
2.8360945383707685
20
-7.725147883097331
30
0
10
2.9532136917114253
20
-7.8367602030436183
30
0
10
3.1119276682535806
20
-7.893879572550456
30
0
10
3.2733112970987959
20
-7.8824977874755859
30
0
0
SPLINE
5
587
100
AcDbEntity
8
0
100
AcDbSpline
70
4
71
3
72
8
73
4
74
0
42
0.000000001
43
0.0000000001
44
0.0000000001
40
-1
40
-1
40
-1
40
-1
40
0
40
0
40
0
40
0
41
1
41
1
41
1
41
1
10
3.2733112970987959
20
-7.8824977874755859
30
0
10
3.4424025217692051
20
-7.8675613403320295
30
0
10
3.5979061126708984
20
-7.7837289174397792
30
0
10
3.7033208211263027
20
-7.6506767272949219
30
0
0
SPLINE
5
588
100
AcDbEntity
8
0
100
AcDbSpline
70
4
71
3
72
8
73
4
74
0
42
0.000000001
43
0.0000000001
44
0.0000000001
40
-1
40
-1
40
-1
40
-1
40
0
40
0
40
0
40
0
41
1
41
1
41
1
41
1
10
3.7033208211263027
20
-7.6506767272949219
30
0
10
3.804234822591146
20
-7.4548746744791679
30
0
10
3.9884010950724278
20
-7.3153146107991533
30
0
10
4.2041975657145185
20
-7.2711149851481123
30
0
0
SPLINE
5
589
100
AcDbEntity
8
0
100
AcDbSpline
70
4
71
3
72
8
73
4
74
0
42
0.000000001
43
0.0000000001
44
0.0000000001
40
-1
40
-1
40
-1
40
-1
40
0
40
0
40
0
40
0
41
1
41
1
41
1
41
1
10
4.2041975657145185
20
-7.2711149851481123
30
0
10
4.2742859522501631
20
-7.2629343668619795
30
0
10
4.336064338684082
20
-7.2213001251220703
30
0
10
4.3699560165405273
20
-7.1594085693359366
30
0
0
SPLINE
5
590
100
AcDbEntity
8
0
100
AcDbSpline
70
4
71
3
72
8
73
4
74
0
42
0.000000001
43
0.0000000001
44
0.0000000001
40
-1
40
-1
40
-1
40
-1
40
0
40
0
40
0
40
0
41
1
41
1
41
1
41
1
10
4.3699560165405273
20
-7.1594085693359366
30
0
10
4.4179115295410165
20
-7.0338503519693996
30
0
10
4.464359601338705
20
-6.9077212015787763
30
0
10
4.5092884699503575
20
-6.7810484568278007
30
0
0
SPLINE
5
591
100
AcDbEntity
8
0
100
AcDbSpline
70
4
71
3
72
8
73
4
74
0
42
0.000000001
43
0.0000000001
44
0.0000000001
40
-1
40
-1
40
-1
40
-1
40
0
40
0
40
0
40
0
41
1
41
1
41
1
41
1
10
4.5092884699503575
20
-6.7810484568278007
30
0
10
4.5275510152180987
20
-6.7331193288167315
30
0
10
4.5188512802124015
20
-6.6790879567464199
30
0
10
4.4864670435587568
20
-6.6393133799235029
30
0
0
SPLINE
5
592
100
AcDbEntity
8
0
100
AcDbSpline
70
4
71
3
72
8
73
4
74
0
42
0.000000001
43
0.0000000001
44
0.0000000001
40
-1
40
-1
40
-1
40
-1
40
0
40
0
40
0
40
0
41
1
41
1
41
1
41
1
10
4.4864670435587568
20
-6.6393133799235029
30
0
10
4.09163475036621
20
-6.4736042022705087
30
0
10
3.6948280334472656
20
-6.3126398722330723
30
0
10
3.2961327234903965
20
-6.1564534505208339
30
0
0
SPLINE
5
593
100
AcDbEntity
8
0
100
AcDbSpline
70
4
71
3
72
8
73
4
74
0
42
0.000000001
43
0.0000000001
44
0.0000000001
40
-1
40
-1
40
-1
40
-1
40
0
40
0
40
0
40
0
41
1
41
1
41
1
41
1
10
3.2961327234903965
20
-6.1564534505208339
30
0
10
3.2983770370483398
20
-6.1109650929768886
30
0
10
3.3192249933878584
20
-6.068400065104167
30
0
10
3.3537883758544926
20
-6.0387414296468096
30
0
0
SPLINE
5
594
100
AcDbEntity
8
0
100
AcDbSpline
70
4
71
3
72
8
73
4
74
0
42
0.000000001
43
0.0000000001
44
0.0000000001
40
-1
40
-1
40
-1
40
-1
40
0
40
0
40
0
40
0
41
1
41
1
41
1
41
1
10
3.3537883758544926
20
-6.0387414296468096
30
0
10
3.7401507695515956
20
-6.1747907002766924
30
0
10
4.1273266474405927
20
-6.308520634969077
30
0
10
4.5152943929036455
20
-6.4399236043294259
30
0
0
SPLINE
5
595
100
AcDbEntity
8
0
100
AcDbSpline
70
4
71
3
72
8
73
4
74
0
42
0.000000001
43
0.0000000001
44
0.0000000001
40
-1
40
-1
40
-1
40
-1
40
-0.22125150562883761
40
-0.22125150562883761
40
-0.22125150562883761
40
-0.22125150562883761
41
1
41
1
41
1
41
1
10
4.5152943929036455
20
-6.4399236043294259
30
0
10
4.5972074494552615
20
-6.4265827317677626
30
0
10
4.6671641722045845
20
-6.3769242470709209
30
0
10
4.707311578443119
20
-6.3070349913972077
30
0
0
SPLINE
5
596
100
AcDbEntity
8
0
100
AcDbSpline
70
4
71
3
72
8
73
4
74
0
42
0.000000001
43
0.0000000001
44
0.0000000001
40
-0.22125150562843507
40
-0.22125150562843507
40
-0.22125150562843507
40
-0.22125150562843507
40
0
40
0
40
0
40
0
41
1
41
1
41
1
41
1
10
4.7073115784431794
20
-6.3070349913970976
30
0
10
4.7187179235488843
20
-6.287178640910601
30
0
10
4.7277180779325434
20
-6.2656892743364434
30
0
10
4.7339026133219395
20
-6.2429358164469404
30
0
0
SPLINE
5
597
100
AcDbEntity
8
0
100
AcDbSpline
70
4
71
3
72
8
73
4
74
0
42
0.000000001
43
0.0000000001
44
0.0000000001
40
-1
40
-1
40
-1
40
-1
40
-0.96605785683020362
40
-0.96605785683020362
40
-0.96605785683020362
40
-0.96605785683020362
41
1
41
1
41
1
41
1
10
4.7339026133219395
20
-6.2429358164469404
30
0
10
4.7376354929132525
20
-6.2445390685937596
30
0
10
4.7413654572906951
20
-6.2461488719146665
30
0
10
4.7450924894241684
20
-6.2477652180810717
30
0
0
ARC
5
598
100
AcDbEntity
8
0
100
AcDbCircle
10
3.9593854883320354
20
-5.7886007382618248
30
0
40
0.91003709325107685
210
-0
220
0
230
1
100
AcDbArc
50
329.69813118879119
51
340.15399506600443
0
SPLINE
5
599
100
AcDbEntity
8
0
100
AcDbSpline
70
4
71
3
72
8
73
4
74
0
42
0.000000001
43
0.0000000001
44
0.0000000001
40
0.47151129073367032
40
0.47151129073367032
40
0.47151129073367032
40
0.47151129073367032
40
1
40
1
40
1
40
1
41
1
41
1
41
1
41
1
10
4.8153740956167805
20
-6.0975522155063775
30
0
10
4.8140218436992575
20
-6.0941425294784395
30
0
10
4.8132718900023566
20
-6.0904962260289137
30
0
10
4.8131825129191075
20
-6.0867780049641924
30
0
0
SPLINE
5
600
100
AcDbEntity
8
0
100
AcDbSpline
70
4
71
3
72
8
73
4
74
0
42
0.000000001
43
0.0000000001
44
0.0000000001
40
0
40
0
40
0
40
0
40
1
40
1
40
1
40
1
41
1
41
1
41
1
41
1
10
4.8131825129191075
20
-6.0867780049641924
30
0
10
4.8129158020019531
20
-6.0798714955647792
30
0
10
4.8150466283162441
20
-6.0730883280436201
30
0
10
4.8191865285237627
20
-6.0675595601399746
30
0
0
SPLINE
5
601
100
AcDbEntity
8
0
100
AcDbSpline
70
4
71
3
72
8
73
4
74
0
42
0.000000001
43
0.0000000001
44
0.0000000001
40
0
40
0
40
0
40
0
40
0.23787497009521014
40
0.23787497009521014
40
0.23787497009521014
40
0.23787497009521014
41
1
41
1
41
1
41
1
10
4.8191865285237627
20
-6.0675595601399746
30
0
10
4.8271224544800395
20
-6.0530802969856596
30
0
10
4.8336807182933823
20
-6.0380129790091583
30
0
10
4.8388368022656394
20
-6.022551368766031
30
0
0
ARC
5
602
100
AcDbEntity
8
0
100
AcDbCircle
10
3.9593854883320354
20
-5.7886007382618248
30
0
40
0.91003709325107029
210
-0
220
0
230
1
100
AcDbArc
50
345.10324115523065
51
348.15203930055878
0
SPLINE
5
603
100
AcDbEntity
8
0
100
AcDbSpline
70
4
71
3
72
8
73
4
74
0
42
0.000000001
43
0.0000000001
44
0.0000000001
40
0.47442682351958299
40
0.47442682351958299
40
0.47442682351958299
40
0.47442682351958299
40
1
40
1
40
1
40
1
41
1
41
1
41
1
41
1
10
4.8500350311303544
20
-5.9754453341323481
30
0
10
4.8552119459954355
20
-5.9399743701660688
30
0
10
4.8534248524271844
20
-5.9035192240185355
30
0
10
4.8444093068440752
20
-5.8681697845458993
30
0
0
SPLINE
5
604
100
AcDbEntity
8
0
100
AcDbSpline
70
4
71
3
72
8
73
4
74
0
42
0.000000001
43
0.0000000001
44
0.0000000001
40
0
40
0
40
0
40
0
40
1
40
1
40
1
40
1
41
1
41
1
41
1
41
1
10
4.8444093068440752
20
-5.8681697845458993
30
0
10
4.829340934753418
20
-5.8128102620442723
30
0
10
4.8049697875976562
20
-5.7604153951009112
30
0
10
4.7723407745361337
20
-5.7132218678792324
30
0
0
SPLINE
5
605
100
AcDbEntity
8
0
100
AcDbSpline
70
4
71
3
72
8
73
4
74
0
42
0.000000001
43
0.0000000001
44
0.0000000001
40
0
40
0
40
0
40
0
40
1
40
1
40
1
40
1
41
1
41
1
41
1
41
1
10
4.5381174087524405
20
-5.1967296600341806
30
0
10
4.5304177602132158
20
-5.1792043050130205
30
0
10
4.531764030456543
20
-5.1590270996093741
30
0
10
4.5417213439941397
20
-5.1426779429117842
30
0
0
SPLINE
5
606
100
AcDbEntity
8
0
100
AcDbSpline
70
4
71
3
72
8
73
4
74
0
42
0.000000001
43
0.0000000001
44
0.0000000001
40
0
40
0
40
0
40
0
40
1
40
1
40
1
40
1
41
1
41
1
41
1
41
1
10
4.7723407745361337
20
-5.7132218678792324
30
0
10
4.6816323598225917
20
-5.5470708211263036
30
0
10
4.6033452351888027
20
-5.3744360605875636
30
0
10
4.5381174087524405
20
-5.1967296600341806
30
0
0
SPLINE
5
607
100
AcDbEntity
8
0
100
AcDbSpline
70
4
71
3
72
8
73
4
74
0
42
0.000000001
43
0.0000000001
44
0.0000000001
40
-1
40
-1
40
-1
40
-1
40
0
40
0
40
0
40
0
41
1
41
1
41
1
41
1
10
2.8496580123901367
20
-6.0444285074869804
30
0
10
2.7667360305786137
20
-6.0444291432698565
30
0
10
2.6995150248209638
20
-5.9772078196207676
30
0
10
2.6995147069295249
20
-5.8942858378092442
30
0
0
SPLINE
5
608
100
AcDbEntity
8
0
100
AcDbSpline
70
4
71
3
72
8
73
4
74
0
42
0.000000001
43
0.0000000001
44
0.0000000001
40
-1
40
-1
40
-1
40
-1
40
0
40
0
40
0
40
0
41
1
41
1
41
1
41
1
10
2.6995147069295249
20
-5.8942858378092442
30
0
10
2.6995147069295249
20
-5.8113638559977208
30
0
10
2.7667360305786137
20
-5.7441425323486337
30
0
10
2.8496580123901367
20
-5.7441425323486337
30
0
0
SPLINE
5
609
100
AcDbEntity
8
0
100
AcDbSpline
70
4
71
3
72
8
73
4
74
0
42
0.000000001
43
0.0000000001
44
0.0000000001
40
-1
40
-1
40
-1
40
-1
40
0
40
0
40
0
40
0
41
1
41
1
41
1
41
1
10
2.9998006820678706
20
-5.8942858378092442
30
0
10
2.9998006820678706
20
-5.9772071838378906
30
0
10
2.9325793584187823
20
-6.0444285074869804
30
0
10
2.8496580123901367
20
-6.0444285074869804
30
0
0
SPLINE
5
610
100
AcDbEntity
8
0
100
AcDbSpline
70
4
71
3
72
8
73
4
74
0
42
0.000000001
43
0.0000000001
44
0.0000000001
40
-1
40
-1
40
-1
40
-1
40
0
40
0
40
0
40
0
41
1
41
1
41
1
41
1
10
2.8496580123901367
20
-5.7441425323486337
30
0
10
2.9325796763102217
20
-5.7441425323486337
30
0
10
2.99980099995931
20
-5.8113638559977208
30
0
10
2.9998006820678706
20
-5.8942858378092442
30
0
0
ELLIPSE
5
611
100
AcDbEntity
8
0
100
AcDbEllipse
10
10.971773657761847
20
-3.3155850373210507
30
0
11
-0.019568404061562225
21
-0.24146050867670607
31
0.0
40
0.99858558435070854
41
4.8284749476980462
42
5.3183628209867067
0
ENDSEC
0
SECTION
2
OBJECTS
0
DICTIONARY
5
C
100
AcDbDictionary
3
ACAD_GROUP
350
D
3
ACAD_MLINESTYLE
350
17
0
DICTIONARY
5
D
100
AcDbDictionary
0
DICTIONARY
5
1A
330
C
100
AcDbDictionary
0
DICTIONARY
5
17
100
AcDbDictionary
0
ENDSEC
0
EOF
