0
SECTION
2
HEADER
9
$INSUNITS
70
1
9
$ACADVER
1
AC1014
9
$HANDSEED
5
FFFF
0
ENDSEC
0
SECTION
2
TABLES
0
TABLE
2
VPORT
5
8
100
AcDbSymbolTable
0
ENDTAB
0
TABLE
2
LTYPE
5
5
100
AcDbSymbolTable
0
LTYPE
5
14
100
AcDbSymbolTableRecord
100
AcDbLinetypeTableRecord
2
BYBLOCK
70
0
0
LTYPE
5
15
100
AcDbSymbolTableRecord
100
AcDbLinetypeTableRecord
2
BYLAYER
70
0
0
ENDTAB
0
TABLE
2
LAYER
5
2
100
AcDbSymbolTable
70
2
0
LAYER
5
50
100
AcDbSymbolTableRecord
100
AcDbLayerTableRecord
2
0
70
0
6
CONTINUOUS
0
ENDTAB
0
TABLE
2
STYLE
5
3
100
AcDbSymbolTable
70
1
0
STYLE
5
11
100
AcDbSymbolTableRecord
100
AcDbTextStyleTableRecord
2
STANDARD
70
0
0
ENDTAB
0
TABLE
2
VIEW
5
6
100
AcDbSymbolTable
70
0
0
ENDTAB
0
TABLE
2
UCS
5
7
100
AcDbSymbolTable
70
0
0
ENDTAB
0
TABLE
2
APPID
5
9
100
AcDbSymbolTable
70
2
0
APPID
5
12
100
AcDbSymbolTableRecord
100
AcDbRegAppTableRecord
2
ACAD
70
0
0
ENDTAB
0
TABLE
2
DIMSTYLE
5
A
100
AcDbSymbolTable
70
1
0
ENDTAB
0
TABLE
2
BLOCK_RECORD
5
1
100
AcDbSymbolTable
70
1
0
BLOCK_RECORD
5
1F
100
AcDbSymbolTableRecord
100
AcDbBlockTableRecord
2
*MODEL_SPACE
0
BLOCK_RECORD
5
1B
100
AcDbSymbolTableRecord
100
AcDbBlockTableRecord
2
*PAPER_SPACE
0
ENDTAB
0
ENDSEC
0
SECTION
2
BLOCKS
0
BLOCK
5
20
100
AcDbEntity
100
AcDbBlockBegin
2
*MODEL_SPACE
0
ENDBLK
5
21
100
AcDbEntity
100
AcDbBlockEnd
0
BLOCK
5
1C
100
AcDbEntity
100
AcDbBlockBegin
2
*PAPER_SPACE
0
ENDBLK
5
1D
100
AcDbEntity
100
AcDbBlockEnd
0
ENDSEC
0
SECTION
2
ENTITIES
0
LINE
5
100
100
AcDbEntity
8
0
100
AcDbLine
10
-3.542953005912632
20
1.5738611340479443
30
0
11
-4.8346088849062356
21
1.5738611340479443
31
0
0
SPLINE
5
101
100
AcDbEntity
8
0
100
AcDbSpline
70
4
71
3
72
8
73
4
74
0
42
0.000000001
43
0.0000000001
44
0.0000000001
40
-1
40
-1
40
-1
40
-1
40
0
40
0
40
0
40
0
41
1
41
1
41
1
41
1
10
-4.8346088849062356
20
1.5738611340479443
30
0
10
-5.3899959965213231
20
1.5738611340479443
30
0
10
-5.8415925924785812
20
1.1225720148399216
30
0
10
-5.8415925924785812
20
0.56754091571316789
30
0
0
SPLINE
5
102
100
AcDbEntity
8
0
100
AcDbSpline
70
4
71
3
72
8
73
4
74
0
42
0.000000001
43
0.0000000001
44
0.0000000001
40
-1
40
-1
40
-1
40
-1
40
0
40
0
40
0
40
0
41
1
41
1
41
1
41
1
10
-5.8415925924785812
20
0.56754091571316789
30
0
10
-5.8415925924785812
20
0.012503344870686573
30
0
10
-5.3899959965213231
20
-0.43878560615788181
30
0
10
-4.8346088849062356
20
-0.43878560615788181
30
0
0
LINE
5
103
100
AcDbEntity
8
0
100
AcDbLine
10
-4.8346088849062356
20
-0.43878560615788192
30
0
11
-1.7512971269190296
21
-0.43878560615788181
31
0
0
SPLINE
5
104
100
AcDbEntity
8
0
100
AcDbSpline
70
4
71
3
72
8
73
4
74
0
42
0.000000001
43
0.0000000001
44
0.0000000001
40
-1
40
-1
40
-1
40
-1
40
0
40
0
40
0
40
0
41
1
41
1
41
1
41
1
10
-1.7512971269190296
20
-0.43878560615788181
30
0
10
-1.2010525087443247
20
-0.43878560615788181
30
0
10
-0.74945700276024418
20
0.012503344870686573
30
0
10
-0.74431450931986087
20
0.56754091571316789
30
0
0
SPLINE
5
105
100
AcDbEntity
8
0
100
AcDbSpline
70
4
71
3
72
8
73
4
74
0
42
0.000000001
43
0.0000000001
44
0.0000000001
40
-1
40
-1
40
-1
40
-1
40
0
40
0
40
0
40
0
41
1
41
1
41
1
41
1
10
-0.74431450931986087
20
0.56754091571316789
30
0
10
-0.74431450931986087
20
1.1225720148399216
30
0
10
-1.1959100153039415
20
1.5738611340479443
30
0
10
-1.7512971269190296
20
1.5738611340479443
30
0
0
LINE
5
106
100
AcDbEntity
8
0
100
AcDbLine
10
-1.7512971269190296
20
1.5738611340479443
30
0
11
-3.0429530059126324
21
1.5738611340479443
31
0
0
ARC
5
107
100
AcDbEntity
8
0
100
AcDbCircle
10
-3.2929530059126324
20
1.5738611340479443
30
0
40
0.24999999999999989
210
0
220
-0
230
1
100
AcDbArc
50
0
51
180
0
LWPOLYLINE
5
108
100
AcDbEntity
8
0
100
AcDbPolyline
90
14
70
1
43
0.0
10
-5.3696152915749584
20
0.046826736914537447
10
-4.7406016518477001
20
1.0338629371026333
10
-4.3210317559284439
20
1.0338629371026333
10
-4.3683442980013165
20
0.50179571591276773
10
-3.9618006226846276
20
1.0338629371026333
10
-3.5177093849300514
20
1.0338629371026333
10
-3.8770979274362078
20
0.046826758452015525
10
-4.1774981530092283
20
0.046826754117149122
10
-4.0217445627198156
20
0.47459339213606111
10
-4.3835368571745787
20
0.046826751143948249
10
-4.7125709784839538
20
0.046826746395886049
10
-4.6745330640664973
20
0.47459339213606111
10
-4.9471381225413333
20
0.046826736402980573
10
-5.1708416300318563
20
0.046826736402980608
0
LWPOLYLINE
5
109
100
AcDbEntity
8
0
100
AcDbPolyline
90
15
70
1
43
0.0
10
-3.7377770136158501
20
0.046826760462458476
10
-3.3783884718417134
20
1.0338629371026333
10
-2.6077033362688171
20
1.0338629371026338
42
-0.49644190425644891
10
-2.5024322283236824
20
0.74729175008092441
10
-2.788817666843983
20
0.44616803682585676
42
0.33988957627454081
10
-2.7936427175434555
20
0.40040101147197654
10
-2.5656742102804642
20
0.046826777376257227
10
-2.9454010437802833
20
0.046826771896683925
10
-3.1360894367657131
20
0.34318294256727494
42
-0.28588417760937385
10
-3.1082695667322056
20
0.46885201064967524
10
-2.8972222776738827
20
0.6844320361211873
10
-2.9372222769020091
20
0.68443203690963872
10
-3.1170772922028664
20
0.68443203431668154
10
-3.1491872035527839
20
0.68443203431668154
10
-3.3813448824430243
20
0.046826765605882177
0
LINE
5
110
100
AcDbEntity
8
0
100
AcDbLine
10
-1.3216996115305395
20
-0.074426813244267934
30
0
11
-1.3216996115305382
21
-0.079265924761679846
31
0
0
LINE
5
111
100
AcDbEntity
8
0
100
AcDbLine
10
-1.3216996115305382
20
-0.079265924761679846
30
0
11
-1.3289515687462152
21
-0.0792380446127086
31
0
0
SPLINE
5
112
100
AcDbEntity
8
0
100
AcDbSpline
70
4
71
3
72
8
73
4
74
0
42
0.000000001
43
0.0000000001
44
0.0000000001
40
0.36550954825235343
40
0.36550954825235343
40
0.36550954825235343
40
0.36550954825235343
40
0.37280473011362064
40
0.37280473011362064
40
0.37280473011362064
40
0.37280473011362064
41
1
41
1
41
1
41
1
10
-1.3289515687449069
20
-0.079238044611850911
30
0
10
-1.3265248189534045
20
-0.077647515196431788
30
0
10
-1.3241074649655846
20
-0.076043736500950518
30
0
10
-1.3216996115305393
20
-0.074426813244267934
30
0
0
LWPOLYLINE
5
113
100
AcDbEntity
8
0
100
AcDbPolyline
90
4
70
1
43
0.0
10
-2.0993356713590878
20
0.62642614702096622
10
-2.1779698006531745
20
0.41046286130040427
10
-2.5263557978632241
20
0.41046286130040427
10
-2.4477216685691379
20
0.62642614702096622
0
CIRCLE
5
114
100
AcDbEntity
8
0
100
AcDbCircle
10
-3.2929530059126324
20
1.5738611340479443
30
0
40
0.1249999999999996
210
0
220
0
230
1
0
LWPOLYLINE
5
115
100
AcDbEntity
8
0
100
AcDbPolyline
90
6
70
1
43
0.0
10
-2.0101505718002981
20
0.046826785392631839
10
-1.77799289308529
20
0.68443205362216664
10
-1.952866517856866
20
0.6844320511010259
10
-1.7352046657290412
20
1.0338629371026333
10
-1.2087234338654709
20
1.0338629371026333
10
-1.6294375640473417
20
0.046826790886435855
0
SPLINE
5
116
100
AcDbEntity
8
0
100
AcDbSpline
70
6
71
5
72
66
73
60
74
0
42
0.000000001
43
0.0000000001
44
0.0000000001
40
-1
40
-1
40
-1
40
-1
40
-1
40
-1
40
-0.98181818181818203
40
-0.96363636363636385
40
-0.94545454545454566
40
-0.92727272727272747
40
-0.90909090909090928
40
-0.89090909090909109
40
-0.87272727272727291
40
-0.85454545454545472
40
-0.83636363636363653
40
-0.81818181818181834
40
-0.80000000000000016
40
-0.78181818181818197
40
-0.76363636363636378
40
-0.74545454545454559
40
-0.7272727272727274
40
-0.70909090909090922
40
-0.69090909090909103
40
-0.67272727272727284
40
-0.65454545454545465
40
-0.63636363636363646
40
-0.61818181818181828
40
-0.60000000000000009
40
-0.5818181818181819
40
-0.56363636363636371
40
-0.54545454545454553
40
-0.52727272727272734
40
-0.50909090909090915
40
-0.49090909090909102
40
-0.47272727272727283
40
-0.45454545454545464
40
-0.43636363636363645
40
-0.41818181818181827
40
-0.40000000000000008
40
-0.38181818181818189
40
-0.3636363636363637
40
-0.34545454545454551
40
-0.32727272727272733
40
-0.30909090909090914
40
-0.29090909090909095
40
-0.27272727272727276
40
-0.25454545454545457
40
-0.23636363636363641
40
-0.21818181818181823
40
-0.20000000000000004
40
-0.18181818181818185
40
-0.16363636363636366
40
-0.14545454545454548
40
-0.12727272727272729
40
-0.1090909090909091
40
-0.090909090909090912
40
-0.072727272727272724
40
-0.054545454545454543
40
-0.036363636363636362
40
-0.018181818181818181
40
0
40
0
40
0
40
0
40
0
40
0
41
1
41
1
41
1
41
1
41
1
41
1
41
1
41
1
41
1
41
1
41
1
41
1
41
1
41
1
41
1
41
1
41
1
41
1
41
1
41
1
41
1
41
1
41
1
41
1
41
1
41
1
41
1
41
1
41
1
41
1
41
1
41
1
41
1
41
1
41
1
41
1
41
1
41
1
41
1
41
1
41
1
41
1
41
1
41
1
41
1
41
1
41
1
41
1
41
1
41
1
41
1
41
1
41
1
41
1
41
1
41
1
41
1
41
1
41
1
41
1
10
0.56471460168573429
20
0.25310935941333146
30
0
10
0.56582005353466347
20
0.25061203377646196
30
0
10
0.56774465866088808
20
0.24572199480812523
30
0
10
0.56972297537111494
20
0.23880135165627236
30
0
10
0.57035811778885992
20
0.23088424956098319
30
0
10
0.56748650693015656
20
0.22438725904608167
30
0
10
0.56081628308239928
20
0.22217500771164256
30
0
10
0.55049420420771089
20
0.22435284487082974
30
0
10
0.53691173050924901
20
0.23030243890742944
30
0
10
0.52061232420765335
20
0.23898255877380814
30
0
10
0.50221470905860199
20
0.24915969414959327
30
0
10
0.48233548801266291
20
0.25964982999865793
30
0
10
0.46149784868514238
20
0.26959871406669739
30
0
10
0.44011459174470885
20
0.27853813610689188
30
0
10
0.41851612705011459
20
0.28630469923999141
30
0
10
0.39696454984729435
20
0.29300189782794916
30
0
10
0.3756731877207819
20
0.298944243412265
30
0
10
0.35482399007871651
20
0.30461116642764091
30
0
10
0.33458502430502834
20
0.31059356538051558
30
0
10
0.31512968883964027
20
0.31755266863255233
30
0
10
0.29664796216239681
20
0.326138475796663
30
0
10
0.2793496956017964
20
0.3368689800060804
30
0
10
0.26346998463939608
20
0.35002041279814827
30
0
10
0.24927399789589824
20
0.36551113919329098
30
0
10
0.23706144235904422
20
0.38279054403829693
30
0
10
0.22717272140001143
20
0.40071751851499271
30
0
10
0.21999057461946084
20
0.41746114652482452
30
0
10
0.21584819778180231
20
0.43098331018613162
30
0
10
0.21492891567866443
20
0.43954278181915024
30
0
10
0.21718983196949648
20
0.44211977342270209
30
0
10
0.22222446600524592
20
0.43904699127425989
30
0
10
0.22933035729865814
20
0.43193812025703165
30
0
10
0.23780467685433301
20
0.42279323476350017
30
0
10
0.24723641182352532
20
0.41318406531203383
30
0
10
0.25762827065003152
20
0.40381499345269495
30
0
10
0.26918188149669148
20
0.394901808036494
30
0
10
0.28215493839306183
20
0.3863653433946152
30
0
10
0.29670554088775536
20
0.37807739478720609
30
0
10
0.31270253654822466
20
0.37013744912760083
30
0
10
0.32971018817685005
20
0.36291854174213772
30
0
10
0.34714048958258087
20
0.35688189942812659
30
0
10
0.3643563762375881
20
0.35245965347736291
30
0
10
0.38079866110481703
20
0.34990389951123751
30
0
10
0.39609410174358617
20
0.34916312055980026
30
0
10
0.41019503506851573
20
0.34971128236836002
30
0
10
0.42330989416407555
20
0.35069514772806104
30
0
10
0.43578940382875331
20
0.3511518185807575
30
0
10
0.44803138113243179
20
0.3501925837664987
30
0
10
0.46037101117336282
20
0.34722215660738065
30
0
10
0.47299841404337573
20
0.34207879724764523
30
0
10
0.48597232746456387
20
0.33488797654769559
30
0
10
0.49921853159835827
20
0.32595461143760746
30
0
10
0.51253554524811817
20
0.31565089957744397
30
0
10
0.52559302986950607
20
0.30428203051671465
30
0
10
0.53794651637634217
20
0.29204558192044167
30
0
10
0.54907733520505286
20
0.27915445590692356
30
0
10
0.55655694371136111
20
0.26856810253170593
30
0
10
0.56111194756731664
20
0.26070594862933116
30
0
10
0.56360914983680444
20
0.25560668505020095
30
0
10
0.56471460168573429
20
0.25310935941333146
30
0
0
SPLINE
5
117
100
AcDbEntity
8
0
100
AcDbSpline
70
6
71
5
72
36
73
30
74
0
42
0.000000001
43
0.0000000001
44
0.0000000001
40
-1
40
-1
40
-1
40
-1
40
-1
40
-1
40
-0.9600000000000003
40
-0.92000000000000026
40
-0.88000000000000023
40
-0.84000000000000019
40
-0.80000000000000016
40
-0.76000000000000012
40
-0.72000000000000008
40
-0.68000000000000005
40
-0.64000000000000001
40
-0.59999999999999998
40
-0.55999999999999994
40
-0.51999999999999991
40
-0.47999999999999993
40
-0.43999999999999995
40
-0.39999999999999997
40
-0.35999999999999999
40
-0.32000000000000001
40
-0.28000000000000003
40
-0.24000000000000002
40
-0.20000000000000001
40
-0.16
40
-0.12
40
-0.080000000000000002
40
-0.040000000000000001
40
0
40
0
40
0
40
0
40
0
40
0
41
1
41
1
41
1
41
1
41
1
41
1
41
1
41
1
41
1
41
1
41
1
41
1
41
1
41
1
41
1
41
1
41
1
41
1
41
1
41
1
41
1
41
1
41
1
41
1
41
1
41
1
41
1
41
1
41
1
41
1
10
0.70431371853155422
20
0.8318569011979412
30
0
10
0.69974137968404759
20
0.8310120259477014
30
0
10
0.68983150472109722
20
0.83026370711792497
30
0
10
0.67323254762138252
20
0.83178091629679418
30
0
10
0.65002156471871053
20
0.83811995465959666
30
0
10
0.62457981017698494
20
0.85055291547822021
30
0
10
0.60619216979353507
20
0.86535213913679476
30
0
10
0.59501398252407445
20
0.8818144502151033
30
0
10
0.58682012277502571
20
0.90135579747663697
30
0
10
0.57564195205280255
20
0.92614842986317991
30
0
10
0.55597393782244608
20
0.95799111330157261
30
0
10
0.52531482486107228
20
0.9969959190614186
30
0
10
0.48610218645527409
20
1.0405994863141041
30
0
10
0.44389168050988281
20
1.0845852040471586
30
0
10
0.40596348409409444
20
1.1238768308285227
30
0
10
0.37979115484147075
20
1.1534066131345055
30
0
10
0.3715712972567744
20
1.1689525638334637
30
0
10
0.38472278523360681
20
1.1679942400116972
30
0
10
0.41834026130896285
20
1.150596538007143
30
0
10
0.46826471222685545
20
1.1188402204669861
30
0
10
0.52814991442263681
20
1.0762570662205806
30
0
10
0.59050527607069758
20
1.0272838097710146
30
0
10
0.64770696867924216
20
0.97673247728777601
30
0
10
0.69306253533422479
20
0.92924659601100468
30
0
10
0.72175103698369492
20
0.88880349988846319
30
0
10
0.73211088918794287
20
0.85809425281668439
30
0
10
0.72697771949375556
20
0.84228863447793967
30
0
10
0.71726553780613844
20
0.83533295861936208
30
0
10
0.70888605737906152
20
0.83270177644818233
30
0
10
0.70431371853155422
20
0.8318569011979412
30
0
0
SPLINE
5
118
100
AcDbEntity
8
0
100
AcDbSpline
70
4
71
5
72
24
73
18
74
0
42
0.000000001
43
0.0000000001
44
0.0000000001
40
-1
40
-1
40
-1
40
-1
40
-1
40
-1
40
-0.93333333333333324
40
-0.86666666666666659
40
-0.79999999999999993
40
-0.73333333333333328
40
-0.66666666666666663
40
-0.59999999999999998
40
-0.53333333333333333
40
-0.46666666666666662
40
-0.39999999999999997
40
-0.33333333333333331
40
-0.26666666666666666
40
-0.20000000000000001
40
-0.1976836409981147
40
-0.1976836409981147
40
-0.1976836409981147
40
-0.1976836409981147
40
-0.1976836409981147
40
-0.1976836409981147
41
1
41
1
41
1
41
1
41
1
41
1
41
1
41
1
41
1
41
1
41
1
41
1
41
1
41
1
41
1
41
1
41
1
41
1
10
0.81406432844796062
20
0.54842732400696692
30
0
10
0.81523433764340925
20
0.54745828862241264
30
0
10
0.81767379507831239
20
0.54547372561435448
30
0
10
0.82163129812909708
20
0.54235740603329119
30
0
10
0.8275089427572736
20
0.53792132234300349
30
0
10
0.83586703589486844
20
0.53187910395348625
30
0
10
0.84521816374816916
20
0.52527423722707323
30
0
10
0.85548856287853736
20
0.51799223148799822
30
0
10
0.86651481866781666
20
0.50985680445821957
30
0
10
0.87807827763279389
20
0.50065552887086318
30
0
10
0.88993868382253261
20
0.49016825599447467
30
0
10
0.90186473528737621
20
0.47819677240953323
30
0
10
0.91366569535831788
20
0.46460027058374326
30
0
10
0.92298945305153401
20
0.45227803588715787
30
0
10
0.92985619278081166
20
0.44224286490557052
30
0
10
0.93438978488149904
20
0.43517518671184874
30
0
10
0.93667667529747223
20
0.43149407610310209
30
0
10
0.93675344505884484
20
0.43137037128240779
30
0
0
SPLINE
5
119
100
AcDbEntity
8
0
100
AcDbSpline
70
4
71
5
72
36
73
30
74
0
42
0.000000001
43
0.0000000001
44
0.0000000001
40
0
40
0
40
0
40
0
40
0
40
0
40
0.040000000000000001
40
0.080000000000000002
40
0.12
40
0.16
40
0.20000000000000001
40
0.24000000000000002
40
0.28000000000000003
40
0.32000000000000001
40
0.35999999999999999
40
0.39999999999999997
40
0.43999999999999995
40
0.47999999999999993
40
0.51999999999999991
40
0.55999999999999994
40
0.59999999999999998
40
0.64000000000000001
40
0.68000000000000005
40
0.72000000000000008
40
0.76000000000000012
40
0.80000000000000016
40
0.84000000000000019
40
0.88000000000000023
40
0.92000000000000026
40
0.9600000000000003
40
1
40
1
40
1
40
1
40
1
40
1
41
1
41
1
41
1
41
1
41
1
41
1
41
1
41
1
41
1
41
1
41
1
41
1
41
1
41
1
41
1
41
1
41
1
41
1
41
1
41
1
41
1
41
1
41
1
41
1
41
1
41
1
41
1
41
1
41
1
41
1
10
0.93675344506093738
20
0.43137037127903516
30
0
10
0.93593744205112106
20
0.43181717911879225
30
0
10
0.93422401664454513
20
0.43274615300302188
30
0
10
0.93140962589673026
20
0.43424568413642373
30
0
10
0.92716727683231026
20
0.43645779079040414
30
0
10
0.92106041324889576
20
0.43956433404779244
30
0
10
0.91419925809083824
20
0.44296777494912187
30
0
10
0.90669509429356421
20
0.44657315428757866
30
0
10
0.89874050273580308
20
0.45021988668262808
30
0
10
0.89064313308500986
20
0.45365548091694397
30
0
10
0.88281592906789219
20
0.45654385928391528
30
0
10
0.87570070189743354
20
0.45852655104075862
30
0
10
0.86970894782668229
20
0.45927039398679159
30
0
10
0.86515317254888946
20
0.45852274229157064
30
0
10
0.86218588445582833
20
0.45616104026364923
30
0
10
0.86072003875234415
20
0.45225641434594366
30
0
10
0.86048894269528675
20
0.44703446838050725
30
0
10
0.86112710131182557
20
0.44082108067260112
30
0
10
0.86224085975462061
20
0.43399573705703021
30
0
10
0.86348476695251131
20
0.42694180255172803
30
0
10
0.86462858631386574
20
0.42000186703158854
30
0
10
0.86553015729094218
20
0.41347612456700428
30
0
10
0.86611555550609909
20
0.40761777077694372
30
0
10
0.86635703006964604
20
0.40262840033915032
30
0
10
0.86625338948109243
20
0.39865369688228841
30
0
10
0.86580779505419803
20
0.39577510375023028
30
0
10
0.86518032744748585
20
0.3943754596422252
30
0
10
0.86455864841798935
20
0.39383611400840091
30
0
10
0.86407721627539602
20
0.39370278552337579
30
0
10
0.86381975581648052
20
0.39369268086374498
30
0
0
SPLINE
5
120
100
AcDbEntity
8
0
100
AcDbSpline
70
4
71
5
72
20
73
14
74
0
42
0.000000001
43
0.0000000001
44
0.0000000001
40
-0.44643369620886869
40
-0.44643369620886869
40
-0.44643369620886869
40
-0.44643369620886869
40
-0.44643369620886869
40
-0.44643369620886869
40
-0.39999999999999997
40
-0.34999999999999998
40
-0.29999999999999999
40
-0.25
40
-0.20000000000000001
40
-0.15000000000000002
40
-0.10000000000000001
40
-0.050000000000000003
40
0
40
0
40
0
40
0
40
0
40
0
41
1
41
1
41
1
41
1
41
1
41
1
41
1
41
1
41
1
41
1
41
1
41
1
41
1
41
1
10
0.86381975581647996
20
0.39369268086374376
30
0
10
0.86270061572854562
20
0.39575302615847213
30
0
10
0.86042903720055808
20
0.40011511940407235
30
0
10
0.85713775701811268
20
0.40695391793631686
30
0
10
0.85299697496629778
20
0.41634662364560099
30
0
10
0.84809932735242566
20
0.42790189010097113
30
0
10
0.8432513142973489
20
0.43879109734964822
30
0
10
0.8383595257829245
20
0.44835715248318808
30
0
10
0.83331770247722659
20
0.45629785544869633
30
0
10
0.82806561553444014
20
0.46245487229648974
30
0
10
0.82367364621730921
20
0.46590503731754696
30
0
10
0.82026944333173046
20
0.46766069052593606
30
0
10
0.81795118293827018
20
0.46846286189077019
30
0
10
0.81677985489076266
20
0.46877188168477302
30
0
0
SPLINE
5
121
100
AcDbEntity
8
0
100
AcDbSpline
70
4
71
5
72
46
73
40
74
0
42
0.000000001
43
0.0000000001
44
0.0000000001
40
-1
40
-1
40
-1
40
-1
40
-1
40
-1
40
-0.97142857142857164
40
-0.94285714285714306
40
-0.91428571428571448
40
-0.8857142857142859
40
-0.85714285714285732
40
-0.82857142857142874
40
-0.80000000000000016
40
-0.77142857142857157
40
-0.74285714285714299
40
-0.71428571428571441
40
-0.68571428571428583
40
-0.65714285714285725
40
-0.62857142857142867
40
-0.60000000000000009
40
-0.57142857142857151
40
-0.54285714285714293
40
-0.51428571428571435
40
-0.48571428571428582
40
-0.45714285714285724
40
-0.42857142857142866
40
-0.40000000000000008
40
-0.3714285714285715
40
-0.34285714285714292
40
-0.31428571428571433
40
-0.28571428571428575
40
-0.25714285714285717
40
-0.22857142857142859
40
-0.20000000000000001
40
-0.17142857142857143
40
-0.14285714285714285
40
-0.11428571428571428
40
-0.085714285714285715
40
-0.057142857142857141
40
-0.028571428571428571
40
0
40
0
40
0
40
0
40
0
40
0
41
1
41
1
41
1
41
1
41
1
41
1
41
1
41
1
41
1
41
1
41
1
41
1
41
1
41
1
41
1
41
1
41
1
41
1
41
1
41
1
41
1
41
1
41
1
41
1
41
1
41
1
41
1
41
1
41
1
41
1
41
1
41
1
41
1
41
1
41
1
41
1
41
1
41
1
41
1
41
1
10
0.81677985489076266
20
0.46877188168477302
30
0
10
0.81676013853095697
20
0.46745023324695284
30
0
10
0.81674926365263001
20
0.46475641375457022
30
0
10
0.81681862504722258
20
0.46056411654341378
30
0
10
0.81708268074825008
20
0.4546708487516547
30
0
10
0.8176860104511956
20
0.44680888618286407
30
0
10
0.81852212177318706
20
0.43848724905689745
30
0
10
0.81950819601063296
20
0.42978055526605036
30
0
10
0.82050411267454892
20
0.42081642082328324
30
0
10
0.82129785494374985
20
0.41178934688117713
30
0
10
0.82164683558135898
20
0.40293922312095665
30
0
10
0.8213175071776373
20
0.39453075968010465
30
0
10
0.82012733584037434
20
0.38683220216291048
30
0
10
0.81798219397977601
20
0.38009556319385557
30
0
10
0.8149263038957264
20
0.37453294738865728
30
0
10
0.81111448814429932
20
0.37031720310001603
30
0
10
0.80676232436962603
20
0.36758974897991559
30
0
10
0.80210687195236963
20
0.36646421591581663
30
0
10
0.7973568740821817
20
0.36703500780556386
30
0
10
0.79267803506092638
20
0.36936592395758527
30
0
10
0.78819642110720944
20
0.3734657652929731
30
0
10
0.78399686425576531
20
0.37927062309173282
30
0
10
0.78012146715112207
20
0.38661520787654458
30
0
10
0.77657705818447798
20
0.39524920221350596
30
0
10
0.77334741022613063
20
0.40487286787080107
30
0
10
0.77040376038193048
20
0.4151661981087591
30
0
10
0.76771582120061221
20
0.42582021472666498
30
0
10
0.76526273642610732
20
0.43656785177646484
30
0
10
0.76304344772730626
20
0.4472134852159792
30
0
10
0.76107132768337693
20
0.45762012931279811
30
0
10
0.75936953988750666
20
0.46769873938448392
30
0
10
0.75796613092251341
20
0.4773969860001665
30
0
10
0.75688929968363272
20
0.48668859040250184
30
0
10
0.75616242541674672
20
0.49556245256629555
30
0
10
0.75579953981897552
20
0.50401252127507346
30
0
10
0.75580784115788768
20
0.51203666458016639
30
0
10
0.75611337158574499
20
0.51811541039233111
30
0
10
0.7565105603247817
20
0.52248344899274535
30
0
10
0.75684993799314615
20
0.52531068892399779
30
0
10
0.7570382731491172
20
0.52670311246455037
30
0
0
SPLINE
5
122
100
AcDbEntity
8
0
100
AcDbSpline
70
4
71
5
72
21
73
15
74
0
42
0.000000001
43
0.0000000001
44
0.0000000001
40
-1
40
-1
40
-1
40
-1
40
-1
40
-1
40
-0.89999999999999991
40
-0.79999999999999993
40
-0.69999999999999996
40
-0.59999999999999998
40
-0.5
40
-0.40000000000000002
40
-0.30000000000000004
40
-0.20000000000000001
40
-0.10000000000000001
40
0
40
0
40
0
40
0
40
0
40
0
41
1
41
1
41
1
41
1
41
1
41
1
41
1
41
1
41
1
41
1
41
1
41
1
41
1
41
1
41
1
10
0.7570382731491172
20
0.52670311246455037
30
0
10
0.75509051447364772
20
0.52773806264395462
30
0
10
0.75123923126884518
20
0.52988144287252625
30
0
10
0.74559500812332224
20
0.53331695153444336
30
0
10
0.73833915363402947
20
0.53834577070860878
30
0
10
0.72974893651795902
20
0.54542848731655724
30
0
10
0.72167904193233323
20
0.55337554143442691
30
0
10
0.7141686208246294
20
0.56225196893908558
30
0
10
0.7072328717542119
20
0.57208301702560249
30
0
10
0.70084233038464783
20
0.58281974079851306
30
0
10
0.69495297291240821
20
0.59438900979876597
30
0
10
0.69060811969643676
20
0.60425345964047983
30
0
10
0.68754238724543004
20
0.61197224663307903
30
0
10
0.68558289636023928
20
0.61725819125579096
30
0
10
0.68462423467439626
20
0.6199361870007547
30
0
0
SPLINE
5
123
100
AcDbEntity
8
0
100
AcDbSpline
70
4
71
5
72
21
73
15
74
0
42
0.000000001
43
0.0000000001
44
0.0000000001
40
-1
40
-1
40
-1
40
-1
40
-1
40
-1
40
-0.89999999999999991
40
-0.79999999999999993
40
-0.69999999999999996
40
-0.59999999999999998
40
-0.5
40
-0.40000000000000002
40
-0.30000000000000004
40
-0.20000000000000001
40
-0.10000000000000001
40
0
40
0
40
0
40
0
40
0
40
0
41
1
41
1
41
1
41
1
41
1
41
1
41
1
41
1
41
1
41
1
41
1
41
1
41
1
41
1
41
1
10
0.68462423467439626
20
0.6199361870007547
30
0
10
0.68661577536932927
20
0.61914531420033392
30
0
10
0.69055248512442258
20
0.61756308362704238
30
0
10
0.69631844314696389
20
0.61518828293652195
30
0
10
0.70372352510167191
20
0.61201892373510169
30
0
10
0.71247550888227651
20
0.6080519498508431
30
0
10
0.72067461940034649
20
0.60407919380383379
30
0
10
0.72827006828360596
20
0.60010012442921123
30
0
10
0.73522464596255199
20
0.59611435257451573
30
0
10
0.74154946007022438
20
0.59212199440753299
30
0
10
0.7472862377574061
20
0.58812348632701861
30
0
10
0.75144085882998268
20
0.58492013254376185
30
0
10
0.75432736116610899
20
0.5825152173879361
30
0
10
0.75615135856558779
20
0.58091089124873441
30
0
10
0.7570382731491172
20
0.58010846583965769
30
0
0
SPLINE
5
124
100
AcDbEntity
8
0
100
AcDbSpline
70
4
71
5
72
26
73
20
74
0
42
0.000000001
43
0.0000000001
44
0.0000000001
40
-1
40
-1
40
-1
40
-1
40
-1
40
-1
40
-0.93333333333333324
40
-0.86666666666666659
40
-0.79999999999999993
40
-0.73333333333333328
40
-0.66666666666666663
40
-0.59999999999999998
40
-0.53333333333333333
40
-0.46666666666666662
40
-0.39999999999999997
40
-0.33333333333333331
40
-0.26666666666666666
40
-0.20000000000000001
40
-0.13333333333333333
40
-0.066666666666666666
40
0
40
0
40
0
40
0
40
0
40
0
41
1
41
1
41
1
41
1
41
1
41
1
41
1
41
1
41
1
41
1
41
1
41
1
41
1
41
1
41
1
41
1
41
1
41
1
41
1
41
1
10
0.7570382731491172
20
0.58010846583965769
30
0
10
0.75742285670386855
20
0.58449347355158143
30
0
10
0.75812728409100227
20
0.59309280269678
30
0
10
0.75898970528359777
20
0.60547973744652739
30
0
10
0.75974834273738157
20
0.62096408918984358
30
0
10
0.7600333677302098
20
0.63855888638973624
30
0
10
0.75965173414793408
20
0.65434784752395536
30
0
10
0.7586206991734622
20
0.66830369749441942
30
0
10
0.7569950689443512
20
0.68044701590550494
30
0
10
0.75488195543211556
20
0.69087393979915157
30
0
10
0.75246942736747591
20
0.69980929471999997
30
0
10
0.75000867123350934
20
0.70758234152818222
30
0
10
0.74776780442794932
20
0.71455691153031553
30
0
10
0.74599659813078645
20
0.72108213742328275
30
0
10
0.74488331461071644
20
0.72743487593656286
30
0
10
0.74451964769473367
20
0.73377445721535994
30
0
10
0.74485368907711846
20
0.73889804175414198
30
0
10
0.7454549867039566
20
0.74278080246031009
30
0
10
0.74601063453462757
20
0.74538700728280782
30
0
10
0.74632715344349998
20
0.74669453313318768
30
0
0
SPLINE
5
125
100
AcDbEntity
8
0
100
AcDbSpline
70
4
71
5
72
26
73
20
74
0
42
0.000000001
43
0.0000000001
44
0.0000000001
40
-1
40
-1
40
-1
40
-1
40
-1
40
-1
40
-0.93333333333333324
40
-0.86666666666666659
40
-0.79999999999999993
40
-0.73333333333333328
40
-0.66666666666666663
40
-0.59999999999999998
40
-0.53333333333333333
40
-0.46666666666666662
40
-0.39999999999999997
40
-0.33333333333333331
40
-0.26666666666666666
40
-0.20000000000000001
40
-0.13333333333333333
40
-0.066666666666666666
40
0
40
0
40
0
40
0
40
0
40
0
41
1
41
1
41
1
41
1
41
1
41
1
41
1
41
1
41
1
41
1
41
1
41
1
41
1
41
1
41
1
41
1
41
1
41
1
41
1
41
1
10
0.74632715344349998
20
0.74669453313318768
30
0
10
0.74770489458007061
20
0.74511056963504307
30
0
10
0.75048492729305005
20
0.74185460763260347
30
0
10
0.75472863567853599
20
0.73670655531954965
30
0
10
0.76053523485616115
20
0.72931046420055645
30
0
10
0.76802970370030998
20
0.71916131838967268
30
0
10
0.77571443968264098
20
0.70809762999959625
30
0
10
0.78348966056719338
20
0.69612998225203837
30
0
10
0.79117217900181314
20
0.68331339662918233
30
0
10
0.79849320706999161
20
0.66975326739474372
30
0
10
0.80514388405408388
20
0.65557946065139217
30
0
10
0.81081078337110624
20
0.64093045319771269
30
0
10
0.81521459678511388
20
0.62593666361001954
30
0
10
0.81815703428897568
20
0.61070449077314271
30
0
10
0.81955287988281122
20
0.59530499648936475
30
0
10
0.81938369875302608
20
0.57978270183851144
30
0
10
0.81801224332114708
20
0.56728546897278931
30
0
10
0.81630159689448067
20
0.55787203787981254
30
0
10
0.81486023978905764
20
0.55157854118213745
30
0
10
0.81406432844796062
20
0.54842732400696692
30
0
0
SPLINE
5
126
100
AcDbEntity
8
0
100
AcDbSpline
70
4
71
5
72
36
73
30
74
0
42
0.000000001
43
0.0000000001
44
0.0000000001
40
-1
40
-1
40
-1
40
-1
40
-1
40
-1
40
-0.9600000000000003
40
-0.92000000000000026
40
-0.88000000000000023
40
-0.84000000000000019
40
-0.80000000000000016
40
-0.76000000000000012
40
-0.72000000000000008
40
-0.68000000000000005
40
-0.64000000000000001
40
-0.59999999999999998
40
-0.55999999999999994
40
-0.51999999999999991
40
-0.47999999999999993
40
-0.43999999999999995
40
-0.39999999999999997
40
-0.35999999999999999
40
-0.32000000000000001
40
-0.28000000000000003
40
-0.24000000000000002
40
-0.20000000000000001
40
-0.16
40
-0.12
40
-0.080000000000000002
40
-0.040000000000000001
40
0
40
0
40
0
40
0
40
0
40
0
41
1
41
1
41
1
41
1
41
1
41
1
41
1
41
1
41
1
41
1
41
1
41
1
41
1
41
1
41
1
41
1
41
1
41
1
41
1
41
1
41
1
41
1
41
1
41
1
41
1
41
1
41
1
41
1
41
1
41
1
10
0.38340105221834198
20
0.60280939261233768
30
0
10
0.38619558362364825
20
0.60119286471259747
30
0
10
0.39179156790471487
20
0.59790831395803701
30
0
10
0.40020630919768357
20
0.59282700321892623
30
0
10
0.41146759837492947
20
0.58574214472270825
30
0
10
0.4256131796202316
20
0.57636668288269255
30
0
10
0.43982528036059942
20
0.56647075642986855
30
0
10
0.45409825676823268
20
0.55605864268511163
30
0
10
0.46842155749778297
20
0.5451433719335419
30
0
10
0.48277937590306752
20
0.53375077805646698
30
0
10
0.49716984553321786
20
0.52193031533358536
30
0
10
0.51162202605154306
20
0.50976520420648797
30
0
10
0.52621592947055817
20
0.49738448511424316
30
0
10
0.54109728297723592
20
0.48497230925060381
30
0
10
0.55650679670120795
20
0.4727858808071575
30
0
10
0.57270317282293182
20
0.46111155736531978
30
0
10
0.58986759598307925
20
0.45021012780758035
30
0
10
0.6080094905515071
20
0.44026334755433466
30
0
10
0.62687936019891277
20
0.43132383261334201
30
0
10
0.64585251827608625
20
0.42325009193533519
30
0
10
0.66389396508811493
20
0.41568267178540336
30
0
10
0.67975930787664007
20
0.40814079900210282
30
0
10
0.69215709419034299
20
0.40009840868131091
30
0
10
0.69991434321953261
20
0.39106236671930472
30
0
10
0.70217109601496008
20
0.38066228584225714
30
0
10
0.69847487338320391
20
0.36869662542635628
30
0
10
0.69060057807608943
20
0.35779738005829009
30
0
10
0.68191573979965059
20
0.34886726917803945
30
0
10
0.67489377394389849
20
0.34257882447277332
30
0
10
0.67107477983464858
20
0.33935084595111353
30
0
0
SPLINE
5
127
100
AcDbEntity
8
0
100
AcDbSpline
70
4
71
5
72
31
73
25
74
0
42
0.000000001
43
0.0000000001
44
0.0000000001
40
-1
40
-1
40
-1
40
-1
40
-1
40
-1
40
-0.95000000000000029
40
-0.90000000000000024
40
-0.8500000000000002
40
-0.80000000000000016
40
-0.75000000000000011
40
-0.70000000000000007
40
-0.65000000000000002
40
-0.59999999999999998
40
-0.54999999999999993
40
-0.49999999999999994
40
-0.44999999999999996
40
-0.39999999999999997
40
-0.34999999999999998
40
-0.29999999999999999
40
-0.25
40
-0.20000000000000001
40
-0.15000000000000002
40
-0.10000000000000001
40
-0.050000000000000003
40
0
40
0
40
0
40
0
40
0
40
0
41
1
41
1
41
1
41
1
41
1
41
1
41
1
41
1
41
1
41
1
41
1
41
1
41
1
41
1
41
1
41
1
41
1
41
1
41
1
41
1
41
1
41
1
41
1
41
1
41
1
10
0.67107477983464858
20
0.33935084595111353
30
0
10
0.66930266659209026
20
0.33895792195991642
30
0
10
0.66553312375068463
20
0.33841530643086865
30
0
10
0.65920287244740228
20
0.33833107016298286
30
0
10
0.64940504141417243
20
0.3396841744845171
30
0
10
0.63490483705990453
20
0.34382359048547506
30
0
10
0.61823600189570993
20
0.35036784685516714
30
0
10
0.59961641867267335
20
0.35917866556059391
30
0
10
0.57944601076695301
20
0.36998489707883603
30
0
10
0.55824206118018216
20
0.38243902899217552
30
0
10
0.53658853603608214
20
0.39616152728767662
30
0
10
0.51508088791824747
20
0.4107890547693685
30
0
10
0.49427803314605606
20
0.42601530947135957
30
0
10
0.47464088932775644
20
0.44164504941476268
30
0
10
0.45651301806150646
20
0.45760360813830281
30
0
10
0.44014746467754451
20
0.4738971303145289
30
0
10
0.4257186276297264
20
0.49058684778729522
30
0
10
0.41333691297958752
20
0.50775812363116835
30
0
10
0.40305904620315319
20
0.52549238029262035
30
0
10
0.39489664890627285
20
0.54383602263322617
30
0
10
0.38883342789950598
20
0.56280936001668569
30
0
10
0.38563951525675483
20
0.5784949255630526
30
0
10
0.38416399525039802
20
0.59054242456303929
30
0
10
0.38358750199943176
20
0.59869950146524298
30
0
10
0.38340105221834198
20
0.60280939261233768
30
0
0
SPLINE
5
128
100
AcDbEntity
8
0
100
AcDbSpline
70
4
71
5
72
21
73
15
74
0
42
0.000000001
43
0.0000000001
44
0.0000000001
40
-1
40
-1
40
-1
40
-1
40
-1
40
-1
40
-0.89999999999999991
40
-0.79999999999999993
40
-0.69999999999999996
40
-0.59999999999999998
40
-0.5
40
-0.40000000000000002
40
-0.30000000000000004
40
-0.20000000000000001
40
-0.10000000000000001
40
0
40
0
40
0
40
0
40
0
40
0
41
1
41
1
41
1
41
1
41
1
41
1
41
1
41
1
41
1
41
1
41
1
41
1
41
1
41
1
41
1
10
0.38826670815791164
20
0.92837425167132825
30
0
10
0.39673131203405843
20
0.92009576413359873
30
0
10
0.41327653423022837
20
0.90357578297750607
30
0
10
0.436942486619537
20
0.87890678570229608
30
0
10
0.46615477268113303
20
0.84624045274742643
30
0
10
0.49848519856069423
20
0.80581072105607587
30
0
10
0.52620238055198321
20
0.76582543829959304
30
0
10
0.54883329570118422
20
0.7263301764328246
30
0
10
0.56597606773016484
20
0.68736365300094526
30
0
10
0.57758552865214829
20
0.64893021957542019
30
0
10
0.58396729684253046
20
0.61100043228419199
30
0
10
0.58517895410527887
20
0.58103173463778446
30
0
10
0.58402824386267649
20
0.55875362314775512
30
0
10
0.5823604560915393
20
0.54398831897172439
30
0
10
0.58130140910468731
20
0.53662735857346089
30
0
0
SPLINE
5
129
100
AcDbEntity
8
0
100
AcDbSpline
70
4
71
5
72
21
73
15
74
0
42
0.000000001
43
0.0000000001
44
0.0000000001
40
-1
40
-1
40
-1
40
-1
40
-1
40
-1
40
-0.89999999999999991
40
-0.79999999999999993
40
-0.69999999999999996
40
-0.59999999999999998
40
-0.5
40
-0.40000000000000002
40
-0.30000000000000004
40
-0.20000000000000001
40
-0.10000000000000001
40
0
40
0
40
0
40
0
40
0
40
0
41
1
41
1
41
1
41
1
41
1
41
1
41
1
41
1
41
1
41
1
41
1
41
1
41
1
41
1
41
1
10
0.58130140910468731
20
0.53662735857346089
30
0
10
0.57383029990875034
20
0.54354657618941793
30
0
10
0.55919881234996072
20
0.55746382299887121
30
0
10
0.53818372548447202
20
0.57857611576455825
30
0
10
0.5120589850492181
20
0.60720656910048698
30
0
10
0.48278038288877284
20
0.64385123625886576
30
0
10
0.45719586818595975
20
0.68143284571077245
30
0
10
0.43563104513506057
20
0.72003398140696739
30
0
10
0.41830552488000444
20
0.75971034396849002
30
0
10
0.40511002907773508
20
0.80043421680637361
30
0
10
0.39575667651913599
20
0.84213258376034028
30
0
10
0.39110773218452705
20
0.87621000657169712
30
0
10
0.38911546571046024
20
0.90214711335258191
30
0
10
0.38844072129982121
20
0.91960425007127866
30
0
10
0.38826670815791164
20
0.92837425167132825
30
0
0
SPLINE
5
130
100
AcDbEntity
8
0
100
AcDbSpline
70
4
71
5
72
21
73
15
74
0
42
0.000000001
43
0.0000000001
44
0.0000000001
40
-1
40
-1
40
-1
40
-1
40
-1
40
-1
40
-0.89999999999999991
40
-0.79999999999999993
40
-0.69999999999999996
40
-0.59999999999999998
40
-0.5
40
-0.40000000000000002
40
-0.30000000000000004
40
-0.20000000000000001
40
-0.10000000000000001
40
0
40
0
40
0
40
0
40
0
40
0
41
1
41
1
41
1
41
1
41
1
41
1
41
1
41
1
41
1
41
1
41
1
41
1
41
1
41
1
41
1
10
1.0691132730573747
20
0.25501036153924111
30
0
10
1.0699264782841338
20
0.25307414511754833
30
0
10
1.0714809628301458
20
0.24917438627625604
30
0
10
1.0735969136922416
20
0.24324277069140415
30
0
10
1.0759795145644357
20
0.23516729213255058
30
0
10
1.0781778342007393
20
0.2247766333815619
30
0
10
1.0795296770876408
20
0.21406438227361954
30
0
10
1.0799708503529091
20
0.20300615073341904
30
0
10
1.0794754121588768
20
0.1915920829692459
30
0
10
1.0780904397203979
20
0.17984006449365525
30
0
10
1.0758873332370098
20
0.16777722157618427
30
0
10
1.0735261509317442
20
0.15789949099476383
30
0
10
1.0714402212985779
20
0.15037150235828031
30
0
10
1.0699118775921417
20
0.14530051935839478
30
0
10
1.0691132730573747
20
0.14275194623772955
30
0
0
SPLINE
5
131
100
AcDbEntity
8
0
100
AcDbSpline
70
4
71
5
72
31
73
25
74
0
42
0.000000001
43
0.0000000001
44
0.0000000001
40
-1
40
-1
40
-1
40
-1
40
-1
40
-1
40
-0.95000000000000029
40
-0.90000000000000024
40
-0.8500000000000002
40
-0.80000000000000016
40
-0.75000000000000011
40
-0.70000000000000007
40
-0.65000000000000002
40
-0.59999999999999998
40
-0.54999999999999993
40
-0.49999999999999994
40
-0.44999999999999996
40
-0.39999999999999997
40
-0.34999999999999998
40
-0.29999999999999999
40
-0.25
40
-0.20000000000000001
40
-0.15000000000000002
40
-0.10000000000000001
40
-0.050000000000000003
40
0
40
0
40
0
40
0
40
0
40
0
41
1
41
1
41
1
41
1
41
1
41
1
41
1
41
1
41
1
41
1
41
1
41
1
41
1
41
1
41
1
41
1
41
1
41
1
41
1
41
1
41
1
41
1
41
1
41
1
41
1
10
1.0691132730573747
20
0.14275194623772955
30
0
10
1.0666174909236823
20
0.14348588833005435
30
0
10
1.0617348716383155
20
0.14505227321926831
30
0
10
1.0547377802409152
20
0.14769735181067961
30
0
10
1.0460646451906719
20
0.15181754457284677
30
0
10
1.036322401622241
20
0.15797124101231111
30
0
10
1.0276671567963191
20
0.16514687811007064
30
0
10
1.020053494040267
20
0.17336182275379086
30
0
10
1.0133823426449304
20
0.18262663000873378
30
0
10
1.00748885164582
20
0.19293761819446073
30
0
10
1.0021759692866641
20
0.20426505442990456
30
0
10
0.99724128013510849
20
0.21654015904585272
30
0
10
0.9925046092164167
20
0.22964187691613708
30
0
10
0.98783726570635699
20
0.24337945628343463
30
0
10
0.98318446055527242
20
0.25748183767928096
30
0
10
0.97854331143636231
20
0.27163483862245058
30
0
10
0.97394715209220228
20
0.28551094786033809
30
0
10
0.96944750236687038
20
0.29880300175015861
30
0
10
0.96509869961034234
20
0.3112530557247023
30
0
10
0.96093814591042803
20
0.32269348426218836
30
0
10
0.95698462053529154
20
0.33304010763946462
30
0
10
0.95399349602892247
20
0.34041696946334205
30
0
10
0.9518469862500577
20
0.34544281356380335
30
0
10
0.95045884956016391
20
0.34856902644132065
30
0
10
0.94977549823234408
20
0.35007604656935076
30
0
0
SPLINE
5
132
100
AcDbEntity
8
0
100
AcDbSpline
70
4
71
5
72
26
73
20
74
0
42
0.000000001
43
0.0000000001
44
0.0000000001
40
-1
40
-1
40
-1
40
-1
40
-1
40
-1
40
-0.93333333333333324
40
-0.86666666666666659
40
-0.79999999999999993
40
-0.73333333333333328
40
-0.66666666666666663
40
-0.59999999999999998
40
-0.53333333333333333
40
-0.46666666666666662
40
-0.39999999999999997
40
-0.33333333333333331
40
-0.26666666666666666
40
-0.20000000000000001
40
-0.13333333333333333
40
-0.066666666666666666
40
0
40
0
40
0
40
0
40
0
40
0
41
1
41
1
41
1
41
1
41
1
41
1
41
1
41
1
41
1
41
1
41
1
41
1
41
1
41
1
41
1
41
1
41
1
41
1
41
1
41
1
10
0.94977549823234408
20
0.35007604656935076
30
0
10
0.94791189446185098
20
0.35289396415652508
30
0
10
0.94455623982958969
20
0.3580877142772767
30
0
10
0.94063736419226607
20
0.36455214697217636
30
0
10
0.93765807270370949
20
0.3704991762334639
30
0
10
0.93771118200665271
20
0.37343935334936978
30
0
10
0.94147936411190813
20
0.37196178564041893
30
0
10
0.94868204102377418
20
0.36640427627409838
30
0
10
0.95874640776517428
20
0.35745477273390303
30
0
10
0.97094084008563297
20
0.34599153762138912
30
0
10
0.98446071714251826
20
0.33298020611410084
30
0
10
0.99852554534766924
20
0.31935719244275418
30
0
10
1.0124573828021486
20
0.30593546604693805
30
0
10
1.0257878146395922
20
0.29327581021065507
30
0
10
1.0382438774578464
20
0.28170397308136741
30
0
10
1.0496850499005352
20
0.27138676335586787
30
0
10
1.0579871464794799
20
0.26418217671779937
30
0
10
1.0637350089334985
20
0.25936857139934055
30
0
10
1.0673557190448513
20
0.25641972612781083
30
0
10
1.0691132730573747
20
0.25501036153924111
30
0
0
LWPOLYLINE
5
133
100
AcDbEntity
8
0
100
AcDbPolyline
90
7
70
1
43
0.0
10
0.63162845053727468
20
-0.40871855745834013
10
0.73489993909657114
20
0.043222461556039295
10
1.3672249316191851
20
-0.1012679486604743
10
1.4048416529386392
20
0.063351924668191117
10
2.3202707778857503
20
-0.14582963758521064
42
0.46555507486720016
10
2.4585870640470815
20
2.0777532013225515
10
2.5069248284507215
20
2.2974790786658441
42
-0.91854948483595089
0
CIRCLE
5
134
100
AcDbEntity
8
0
100
AcDbCircle
10
1.4606297290758949
20
2.9203801080753031
30
0
40
0.1249999999999996
210
0
220
-0
230
1
0
ARC
5
135
100
AcDbEntity
8
0
100
AcDbCircle
10
1.4541796930124251
20
1.0241382516553286
30
0
40
1.6521710510479284
210
0
220
0
230
1
100
AcDbArc
50
186.70678595766313
51
230.27446072321061
0
SPLINE
5
136
100
AcDbEntity
8
0
100
AcDbSpline
70
4
71
3
72
8
73
4
74
0
42
0.000000001
43
0.0000000001
44
0.0000000001
40
-0.3015622729128159
40
-0.3015622729128159
40
-0.3015622729128159
40
-0.3015622729128159
40
-0.1765198211520774
40
-0.1765198211520774
40
-0.1765198211520774
40
-0.1765198211520774
41
1
41
1
41
1
41
1
10
-0.18668526142105554
20
0.83118389634081291
30
0
10
-0.19563698604129653
20
0.90675909987439596
30
0
10
-0.19937175487847947
20
0.98347170756524127
30
0
10
-0.19758343235572684
20
1.060850097110148
30
0
0
ARC
5
137
100
AcDbEntity
8
0
100
AcDbCircle
10
1.4541796930124251
20
1.0241382516553286
30
0
40
1.6521710510479279
210
0
220
0
230
1
100
AcDbArc
50
154.80482088416744
51
178.72676201835418
0
SPLINE
5
138
100
AcDbEntity
8
0
100
AcDbSpline
70
4
71
3
72
8
73
4
74
0
42
0.000000001
43
0.0000000001
44
0.0000000001
40
-0.86744624782611257
40
-0.86744624782611257
40
-0.86744624782611257
40
-0.86744624782611257
40
0
40
0
40
0
40
0
41
1
41
1
41
1
41
1
10
-0.040808553321123243
20
1.7274726850835496
30
0
10
0.28261159534864239
20
2.4178133454925703
30
0
10
1.0535255601427371
20
2.8116136203725239
30
0
10
1.8244395249368319
20
2.6354048547190363
30
0
0
SPLINE
5
139
100
AcDbEntity
8
0
100
AcDbSpline
70
4
71
3
72
8
73
4
74
0
42
0.000000001
43
0.0000000001
44
0.0000000001
40
-1
40
-1
40
-1
40
-1
40
0
40
0
40
0
40
0
41
1
41
1
41
1
41
1
10
1.8244395249368319
20
2.6354048547190363
30
0
10
1.9513977361998529
20
2.6057806906145746
30
0
10
2.074122746118066
20
2.5634615120333377
30
0
10
2.1968477560362794
20
2.4999815123321558
30
0
0
ARC
5
140
100
AcDbEntity
8
0
100
AcDbCircle
10
1.4541796930124251
20
1.0241382516553286
30
0
40
1.6521710510479288
210
0
220
-0
230
1
100
AcDbArc
50
58.836836710186503
51
63.287724209864734
0
LINE
5
141
100
AcDbEntity
8
0
100
AcDbLine
10
2.3091401623500327
20
2.4378962853339474
30
0
11
2.0324174007965996
21
1.2616283430605926
31
0
0
LINE
5
142
100
AcDbEntity
8
0
100
AcDbLine
10
2.0324174007965996
20
1.2616283430605926
30
0
11
1.8438493433655778
21
1.1452985212666587
31
0
0
LINE
5
143
100
AcDbEntity
8
0
100
AcDbLine
10
1.8438493433655778
20
1.1452985212666587
30
0
11
1.7874622498886734
21
0.89966671609417481
31
0
0
LINE
5
144
100
AcDbEntity
8
0
100
AcDbLine
10
1.7874622498886734
20
0.89966671609417481
30
0
11
1.7985987646455086
21
0.77890910344869213
31
0
0
LINE
5
145
100
AcDbEntity
8
0
100
AcDbLine
10
1.7985987646455086
20
0.77890910344869213
30
0
11
1.7380082202551603
21
0.5149663485152346
31
0
0
LINE
5
146
100
AcDbEntity
8
0
100
AcDbLine
10
1.7380082202551603
20
0.5149663485152346
30
0
11
1.6694299113360058
21
0.46136557337790579
31
0
0
LINE
5
147
100
AcDbEntity
8
0
100
AcDbLine
10
1.6694299113360058
20
0.46136557337790579
30
0
11
1.4361660342647409
21
0.51466790000627394
31
0
0
LINE
5
148
100
AcDbEntity
8
0
100
AcDbLine
10
1.4361660342647409
20
0.51466790000627394
30
0
11
1.4165951296784101
21
0.42902088663238314
31
0
0
LINE
5
149
100
AcDbEntity
8
0
100
AcDbLine
10
1.4165951296784101
20
0.42902088663238314
30
0
11
1.3781890106513803
21
0.41741039425586279
31
0
0
LINE
5
150
100
AcDbEntity
8
0
100
AcDbLine
10
1.3781890106513803
20
0.41741039425586279
30
0
11
1.3665825440160708
21
0.36661768823898155
31
0
0
LINE
5
151
100
AcDbEntity
8
0
100
AcDbLine
10
1.3665825440160708
20
0.36661768823898155
30
0
11
1.4049886630431008
21
0.37822818061550195
31
0
0
LINE
5
152
100
AcDbEntity
8
0
100
AcDbLine
10
1.4049886630431008
20
0.37822818061550195
30
0
11
1.3827696845252673
21
0.28099255505324938
31
0
0
LINE
5
153
100
AcDbEntity
8
0
100
AcDbLine
10
1.3827696845252673
20
0.28099255505324938
30
0
11
1.344363565498238
21
0.26938206267672904
31
0
0
LINE
5
154
100
AcDbEntity
8
0
100
AcDbLine
10
1.344363565498238
20
0.26938206267672904
30
0
11
1.3375225118900673
21
0.23944395699102156
31
0
0
LINE
5
155
100
AcDbEntity
8
0
100
AcDbLine
10
1.3375225118900673
20
0.23944395699102156
30
0
11
1.3759286309170973
21
0.2510544493675419
31
0
0
LINE
5
156
100
AcDbEntity
8
0
100
AcDbLine
10
1.3759286309170973
20
0.2510544493675419
30
0
11
1.3537866657156459
21
0.15415585271005908
31
0
0
LINE
5
157
100
AcDbEntity
8
0
100
AcDbLine
10
1.3537866657156459
20
0.15415585271005908
30
0
11
1.3153805466886153
21
0.14254536033353732
31
0
0
LINE
5
158
100
AcDbEntity
8
0
100
AcDbLine
10
1.3153805466886153
20
0.14254536033353732
30
0
11
1.3055384258165017
21
0.099473858234952528
31
0
0
LINE
5
159
100
AcDbEntity
8
0
100
AcDbLine
10
1.3055384258165017
20
0.099473858234952528
30
0
11
1.3307822782682355
21
0.10710528686846239
31
0
0
LINE
5
160
100
AcDbEntity
8
0
100
AcDbLine
10
1.3307822782682355
20
0.10710528686846239
30
0
11
1.3424272571933011
21
0.10444433276773518
31
0
0
LINE
5
161
100
AcDbEntity
8
0
100
AcDbLine
10
1.3424272571933011
20
0.10444433276773518
30
0
11
1.3156912275694537
21
-0.012559001271190065
31
0
0
LINE
5
162
100
AcDbEntity
8
0
100
AcDbLine
10
1.3156912275694537
20
-0.012559001271190065
30
0
11
1.1325940519389492
21
0.029279904875462472
31
0
0
LINE
5
163
100
AcDbEntity
8
0
100
AcDbLine
10
1.1325940519389492
20
0.029279904875462472
30
0
11
1.1369906421924005
21
0.048520447517513346
31
0
0
LINE
5
164
100
AcDbEntity
8
0
100
AcDbLine
10
1.1369906421924005
20
0.048520447517513346
30
0
11
1.1753967612194296
21
0.060130939894033696
31
0
0
LINE
5
165
100
AcDbEntity
8
0
100
AcDbLine
10
1.1753967612194296
20
0.060130939894033696
30
0
11
1.1852388820915432
21
0.10320244199261849
31
0
0
LINE
5
166
100
AcDbEntity
8
0
100
AcDbLine
10
1.1852388820915432
20
0.10320244199261849
30
0
11
1.1468327630645141
21
0.091591949616098137
31
0
0
LINE
5
167
100
AcDbEntity
8
0
100
AcDbLine
10
1.1468327630645141
20
0.091591949616098137
30
0
11
1.1689747282659662
21
0.18849054627358239
31
0
0
LINE
5
168
100
AcDbEntity
8
0
100
AcDbLine
10
1.1689747282659662
20
0.18849054627358239
30
0
11
1.2073808472929961
21
0.20010103865010273
31
0
0
LINE
5
169
100
AcDbEntity
8
0
100
AcDbLine
10
1.2073808472929961
20
0.20010103865010273
30
0
11
1.2142219009011661
21
0.23003914433581021
31
0
0
LINE
5
170
100
AcDbEntity
8
0
100
AcDbLine
10
1.2142219009011661
20
0.23003914433581021
30
0
11
1.1758157818741368
21
0.21842865195928984
31
0
0
LINE
5
171
100
AcDbEntity
8
0
100
AcDbLine
10
1.1758157818741368
20
0.21842865195928984
30
0
11
1.1980347603919703
21
0.31566427752154241
31
0
0
LINE
5
172
100
AcDbEntity
8
0
100
AcDbLine
10
1.1980347603919703
20
0.31566427752154241
30
0
11
1.2364408794189996
21
0.32727476989806276
31
0
0
LINE
5
173
100
AcDbEntity
8
0
100
AcDbLine
10
1.2364408794189996
20
0.32727476989806276
30
0
11
1.2480473460543089
21
0.37806747591494394
31
0
0
LINE
5
174
100
AcDbEntity
8
0
100
AcDbLine
10
1.2480473460543089
20
0.37806747591494394
30
0
11
1.2096412270272792
21
0.3664569835384236
31
0
0
LINE
5
175
100
AcDbEntity
8
0
100
AcDbLine
10
1.2096412270272792
20
0.3664569835384236
30
0
11
1.2292121316136104
21
0.45210399691231434
31
0
0
LINE
5
176
100
AcDbEntity
8
0
100
AcDbLine
10
1.2292121316136104
20
0.45210399691231434
30
0
11
1.2676182506406404
21
0.46371448928883474
31
0
0
LINE
5
177
100
AcDbEntity
8
0
100
AcDbLine
10
1.2676182506406404
20
0.46371448928883474
30
0
11
1.2786223349593144
21
0.51187102455021949
31
0
0
LINE
5
178
100
AcDbEntity
8
0
100
AcDbLine
10
1.2786223349593144
20
0.51187102455021949
30
0
11
1.2402162159322838
21
0.50026053217369915
31
0
0
LINE
5
179
100
AcDbEntity
8
0
100
AcDbLine
10
1.2402162159322838
20
0.50026053217369915
30
0
11
1.253068858634238
21
0.55650680615292647
31
0
0
LINE
5
180
100
AcDbEntity
8
0
100
AcDbLine
10
1.253068858634238
20
0.55650680615292647
30
0
11
1.0198049815629737
21
0.60980913278129456
31
0
0
LINE
5
181
100
AcDbEntity
8
0
100
AcDbLine
10
1.0198049815629737
20
0.60980913278129456
30
0
11
0.98131360085596053
21
0.68787603460787794
31
0
0
LINE
5
182
100
AcDbEntity
8
0
100
AcDbLine
10
0.98131360085596053
20
0.68787603460787794
30
0
11
1.0413759399181983
21
0.95193948792498218
31
0
0
LINE
5
183
100
AcDbEntity
8
0
100
AcDbLine
10
1.0413759399181983
20
0.95193948792498218
30
0
11
1.1038563428347181
21
1.0558751517952583
31
0
0
LINE
5
184
100
AcDbEntity
8
0
100
AcDbLine
10
1.1038563428347181
20
1.0558751517952583
30
0
11
1.1597518750703315
21
1.3016192819370866
31
0
0
LINE
5
185
100
AcDbEntity
8
0
100
AcDbLine
10
1.1597518750703315
20
1.3016192819370866
30
0
11
1.0404248892853198
21
1.4883051415659871
31
0
0
LINE
5
186
100
AcDbEntity
8
0
100
AcDbLine
10
1.0404248892853198
20
1.4883051415659871
30
0
11
1.2573507892438023
21
2.4664270617735569
31
0
0
ARC
5
187
100
AcDbEntity
8
0
100
AcDbCircle
10
1.4541796930124251
20
1.0241382516553286
30
0
40
1.4556574559802908
210
0
220
0
230
1
100
AcDbArc
50
97.77113911215632
51
226.89121044456675
0
LINE
5
188
100
AcDbEntity
8
0
100
AcDbLine
10
0.45940409081080014
20
-0.038575317663991096
30
0
11
0.39613655016976984
21
-0.23383324059781094
31
0
0
LINE
5
189
100
AcDbEntity
8
0
100
AcDbLine
10
0.39613655016976984
20
-0.23383324059781094
30
0
11
0.39825948012685325
21
-0.2465708755411771
31
0
0
LWPOLYLINE
5
190
100
AcDbEntity
8
0
100
AcDbPolyline
90
2
70
1
43
0.0
10
1.2219361895735146
20
2.8460462498010091
42
15.218776476207289
10
1.6993232760242398
20
2.8460462488182428
42
1.3587888245986983
0
ENDSEC
0
SECTION
2
OBJECTS
0
DICTIONARY
5
C
100
AcDbDictionary
3
ACAD_GROUP
350
D
3
ACAD_MLINESTYLE
350
17
0
DICTIONARY
5
D
100
AcDbDictionary
0
DICTIONARY
5
1A
330
C
100
AcDbDictionary
0
DICTIONARY
5
17
100
AcDbDictionary
0
ENDSEC
0
EOF
