999
"DXF R12 Output" (www.mydxf.blogspot.com)
 0 
SECTION
 2 
HEADER
 9 
$ACADVER
 1 
AC1009
 9 
$EXTMIN
 10 
 0 
 20 
 0 
 9 
$EXTMAX
 10 
 8.5 
 20 
 11 
 0 
ENDSEC
 0 
SECTION
 2 
ENTITIES
0
LINE
8
Layer 1
10
19.499000
20
0.778168
11
83.609500
21
0.787764
0
LINE
8
Layer 1
10
83.609500
20
0.787764
11
83.642054
21
33.239864
0
LINE
8
Layer 1
10
83.642054
20
33.239864
11
99.599454
21
33.272460
0
LINE
8
Layer 1
10
99.599454
20
33.272460
11
99.631966
21
49.278760
0
LINE
8
Layer 1
10
99.631966
20
49.278760
11
131.986366
21
49.246164
0
LINE
8
Layer 1
10
131.986366
20
49.246164
11
131.970788
21
33.321264
0
LINE
8
Layer 1
10
131.970788
20
33.321264
11
147.960788
21
33.272326
0
LINE
8
Layer 1
10
147.960788
20
33.272326
11
147.945209
21
0.787626
0
LINE
8
Layer 1
10
147.945209
20
0.787626
11
212.019009
21
0.772104
0
LINE
8
Layer 1
10
212.019009
20
0.772104
11
212.034588
21
16.908604
0
LINE
8
Layer 1
10
212.034588
20
16.908604
11
196.028388
21
16.876007
0
LINE
8
Layer 1
10
196.028388
20
16.876007
11
196.043966
21
33.012507
0
LINE
8
Layer 1
10
196.043966
20
33.012507
11
180.021466
21
32.865893
0
LINE
8
Layer 1
10
180.021466
20
32.865893
11
180.086575
21
49.262893
0
LINE
8
Layer 1
10
180.086575
20
49.262893
11
212.050175
21
49.230297
0
LINE
8
Layer 1
10
212.050175
20
49.230297
11
212.050000
21
113.370000
0
LINE
8
Layer 1
10
212.050000
20
113.370000
11
196.011000
21
113.370000
0
LINE
8
Layer 1
10
196.011000
20
113.370000
11
196.076109
21
129.311100
0
LINE
8
Layer 1
10
196.076109
20
129.311100
11
147.553000
21
129.311000
0
LINE
8
Layer 1
10
147.553000
20
129.311000
11
147.585597
21
145.708000
0
LINE
8
Layer 1
10
147.585597
20
145.708000
11
180.021397
21
145.740597
0
LINE
8
Layer 1
10
180.021397
20
145.740597
11
180.070334
21
161.730597
0
LINE
8
Layer 1
10
180.070334
20
161.730597
11
196.027734
21
161.698000
0
LINE
8
Layer 1
10
196.027734
20
161.698000
11
196.060331
21
178.257900
0
LINE
8
Layer 1
10
196.060331
20
178.257900
11
212.050331
21
178.192791
0
LINE
8
Layer 1
10
212.050331
20
178.192791
11
212.082927
21
193.791991
0
LINE
8
Layer 1
10
212.082927
20
193.791991
11
196.027827
21
193.807570
0
LINE
8
Layer 1
10
196.027827
20
193.807570
11
196.060424
21
209.797570
0
LINE
8
Layer 1
10
196.060424
20
209.797570
11
164.064224
21
209.813149
0
LINE
8
Layer 1
10
164.064224
20
209.813149
11
164.096820
21
226.210149
0
LINE
8
Layer 1
10
164.096820
20
226.210149
11
196.044120
21
226.177552
0
LINE
8
Layer 1
10
196.044120
20
226.177552
11
196.076632
21
241.792952
0
LINE
8
Layer 1
10
196.076632
20
241.792952
11
147.536832
21
241.760356
0
LINE
8
Layer 1
10
147.536832
20
241.760356
11
147.585770
21
258.255056
0
LINE
8
Layer 1
10
147.585770
20
258.255056
11
67.473170
21
258.320164
0
LINE
8
Layer 1
10
67.473170
20
258.320164
11
67.457591
21
241.792864
0
LINE
8
Layer 1
10
67.457591
20
241.792864
11
51.467591
21
241.808443
0
LINE
8
Layer 1
10
51.467591
20
241.808443
11
51.516528
21
209.877343
0
LINE
8
Layer 1
10
51.516528
20
209.877343
11
35.494028
21
209.844831
0
LINE
8
Layer 1
10
35.494028
20
209.844831
11
35.494000
21
161.679000
0
LINE
8
Layer 1
10
35.494000
20
161.679000
11
67.473900
21
161.744109
0
LINE
8
Layer 1
10
67.473900
20
161.744109
11
67.473900
21
145.364000
0
LINE
8
Layer 1
10
67.473900
20
145.364000
11
51.516500
21
145.331403
0
LINE
8
Layer 1
10
51.516500
20
145.331403
11
51.483946
21
129.357703
0
LINE
8
Layer 1
10
51.483946
20
129.357703
11
35.493946
21
129.373282
0
LINE
8
Layer 1
10
35.493946
20
129.373282
11
35.494000
21
113.367000
0
LINE
8
Layer 1
10
35.494000
20
113.367000
11
19.520200
21
113.367000
0
LINE
8
Layer 1
10
19.520200
20
113.367000
11
19.487646
21
49.276900
0
LINE
8
Layer 1
10
19.487646
20
49.276900
11
51.500146
21
49.179223
0
LINE
8
Layer 1
10
51.500146
20
49.179223
11
51.500200
21
32.879600
0
LINE
8
Layer 1
10
51.500200
20
32.879600
11
35.493900
21
32.912197
0
LINE
8
Layer 1
10
35.493900
20
32.912197
11
35.510269
21
16.889697
0
LINE
8
Layer 1
10
35.510269
20
16.889697
11
19.471469
21
16.954805
0
LINE
8
Layer 1
10
19.471469
20
16.954805
11
19.499000
21
0.778168
 0 
ENDSEC
 0 
EOF