ISO-10303-21;
HEADER;

/* File generated by Shapr3D Version 3.0 */

FILE_DESCRIPTION(('HOOPS Exchange Step'),'2;1');

FILE_NAME('/private/var/mobile/Containers/Data/Application/4EDFADF7-7ACA-4EFA-8402-1C5E5768D572/tmp/export/temp_export',
'2024-02-17T17:51:05+01:00',
('mobile'),
('Shapr3D Limited'),
'HOOPS Exchange 2023.2',
'Shapr3D',
'Authorized');

FILE_SCHEMA( ('AUTOMOTIVE_DESIGN { 1 0 10303 214 1 1 1 1 }') );

ENDSEC;

DATA;
#3=(NAMED_UNIT(*)PLANE_ANGLE_UNIT()SI_UNIT($,.RADIAN.));
#4=PLANE_ANGLE_MEASURE_WITH_UNIT(PLANE_ANGLE_MEASURE(0.0174532925),#3);
#5=(CONVERSION_BASED_UNIT('DEGREE',#4)NAMED_UNIT(#6)PLANE_ANGLE_UNIT());
#6=DIMENSIONAL_EXPONENTS(0.,0.,0.,0.,0.,0.,0.);
#7=(NAMED_UNIT(*)SI_UNIT($,.STERADIAN.)SOLID_ANGLE_UNIT());
#8=(LENGTH_UNIT()NAMED_UNIT(*)SI_UNIT(.MILLI.,.METRE.));
#9=UNCERTAINTY_MEASURE_WITH_UNIT(LENGTH_MEASURE(1.000000E-05),#8,'DISTANCE_ACCURACY_VALUE','Maximum Tolerance applied to model');
#10=(GEOMETRIC_REPRESENTATION_CONTEXT(3)GLOBAL_UNCERTAINTY_ASSIGNED_CONTEXT((#9))GLOBAL_UNIT_ASSIGNED_CONTEXT((#8,#5,#7))REPRESENTATION_CONTEXT('','root'));
#12=CARTESIAN_POINT('',(0.,0.,0.));
#13=DIRECTION('',(0.,0.,1.));
#14=DIRECTION('',(1.,0.,0.));
#15=AXIS2_PLACEMENT_3D('TS3D_PRODUCT_CSYS',#12,#13,#14);
#27=CARTESIAN_POINT('',(22.5,-5.,-7.65820957));
#28=DIRECTION('',(1.,0.,0.));
#29=DIRECTION('',(0.,0.,-1.));
#30=AXIS2_PLACEMENT_3D('',#27,#28,#29);
#31=PLANE('',#30);
#32=CARTESIAN_POINT('',(22.5,0.,11.09179043));
#33=VERTEX_POINT('',#32);
#34=CARTESIAN_POINT('',(22.5,0.,-26.40820957));
#35=VERTEX_POINT('',#34);
#36=CARTESIAN_POINT('',(22.5,0.,11.09179043));
#37=DIRECTION('',(0.,0.,-1.));
#38=VECTOR('',#37,37.5);
#39=LINE('',#36,#38);
#40=EDGE_CURVE('',#33,#35,#39,.T.);
#41=ORIENTED_EDGE('',*,*,#40,.F.);
#42=CARTESIAN_POINT('',(22.5,-5.,11.09179043));
#43=VERTEX_POINT('',#42);
#44=CARTESIAN_POINT('',(22.5,-5.,11.09179043));
#45=DIRECTION('',(-0.,1.,0.));
#46=VECTOR('',#45,5.);
#47=LINE('',#44,#46);
#48=EDGE_CURVE('',#43,#33,#47,.T.);
#49=ORIENTED_EDGE('',*,*,#48,.F.);
#50=CARTESIAN_POINT('',(22.5,-5.,-26.40820957));
#51=VERTEX_POINT('',#50);
#52=CARTESIAN_POINT('',(22.5,-5.,11.09179043));
#53=DIRECTION('',(0.,0.,-1.));
#54=VECTOR('',#53,37.5);
#55=LINE('',#52,#54);
#56=EDGE_CURVE('',#43,#51,#55,.T.);
#57=ORIENTED_EDGE('',*,*,#56,.T.);
#58=CARTESIAN_POINT('',(22.5,-5.,-26.40820957));
#59=DIRECTION('',(-0.,1.,0.));
#60=VECTOR('',#59,5.);
#61=LINE('',#58,#60);
#62=EDGE_CURVE('',#51,#35,#61,.T.);
#63=ORIENTED_EDGE('',*,*,#62,.T.);
#64=EDGE_LOOP('',(#41,#49,#57,#63));
#65=FACE_BOUND('',#64,.T.);
#66=ADVANCED_FACE('',(#65),#31,.T.);
#67=CARTESIAN_POINT('',(0.,-5.,11.09179043));
#68=DIRECTION('',(-0.,1.,0.));
#69=DIRECTION('',(0.,0.,1.));
#70=AXIS2_PLACEMENT_3D('',#67,#68,#69);
#71=CYLINDRICAL_SURFACE('',#70,22.5);
#72=CARTESIAN_POINT('',(0.,0.,33.59179043));
#73=VERTEX_POINT('',#72);
#74=CARTESIAN_POINT('',(0.,-5.,33.59179043));
#75=VERTEX_POINT('',#74);
#76=CARTESIAN_POINT('',(0.,0.,33.59179043));
#77=DIRECTION('',(0.,-1.,-0.));
#78=VECTOR('',#77,5.);
#79=LINE('',#76,#78);
#80=EDGE_CURVE('',#73,#75,#79,.T.);
#81=ORIENTED_EDGE('',*,*,#80,.T.);
#82=CARTESIAN_POINT('',(0.,-5.,11.09179043));
#83=DIRECTION('',(0.,-1.,0.));
#84=DIRECTION('',(0.,0.,-1.));
#85=AXIS2_PLACEMENT_3D('',#82,#83,#84);
#86=CIRCLE('',#85,22.5);
#87=EDGE_CURVE('',#43,#75,#86,.T.);
#88=ORIENTED_EDGE('',*,*,#87,.F.);
#89=ORIENTED_EDGE('',*,*,#48,.T.);
#90=CARTESIAN_POINT('',(0.,0.,11.09179043));
#91=DIRECTION('',(0.,-1.,0.));
#92=DIRECTION('',(0.,0.,-1.));
#93=AXIS2_PLACEMENT_3D('',#90,#91,#92);
#94=CIRCLE('',#93,22.5);
#95=EDGE_CURVE('',#33,#73,#94,.T.);
#96=ORIENTED_EDGE('',*,*,#95,.T.);
#97=EDGE_LOOP('',(#81,#88,#89,#96));
#98=FACE_BOUND('',#97,.T.);
#99=ADVANCED_FACE('',(#98),#71,.T.);
#100=CARTESIAN_POINT('',(-22.5,-5.,-7.65820957));
#101=DIRECTION('',(-1.,-0.,-0.));
#102=DIRECTION('',(-0.,-0.,1.));
#103=AXIS2_PLACEMENT_3D('',#100,#101,#102);
#104=PLANE('',#103);
#105=CARTESIAN_POINT('',(-22.5,-0.,-26.40820957));
#106=VERTEX_POINT('',#105);
#107=CARTESIAN_POINT('',(-22.5,-0.,11.09179043));
#108=VERTEX_POINT('',#107);
#109=CARTESIAN_POINT('',(-22.5,-0.,-26.40820957));
#110=DIRECTION('',(-0.,-0.,1.));
#111=VECTOR('',#110,37.5);
#112=LINE('',#109,#111);
#113=EDGE_CURVE('',#106,#108,#112,.T.);
#114=ORIENTED_EDGE('',*,*,#113,.F.);
#115=CARTESIAN_POINT('',(-22.5,-5.,-26.40820957));
#116=VERTEX_POINT('',#115);
#117=CARTESIAN_POINT('',(-22.5,-5.,-26.40820957));
#118=DIRECTION('',(-0.,1.,0.));
#119=VECTOR('',#118,5.);
#120=LINE('',#117,#119);
#121=EDGE_CURVE('',#116,#106,#120,.T.);
#122=ORIENTED_EDGE('',*,*,#121,.F.);
#123=CARTESIAN_POINT('',(-22.5,-5.,11.09179043));
#124=VERTEX_POINT('',#123);
#125=CARTESIAN_POINT('',(-22.5,-5.,-26.40820957));
#126=DIRECTION('',(-0.,-0.,1.));
#127=VECTOR('',#126,37.5);
#128=LINE('',#125,#127);
#129=EDGE_CURVE('',#116,#124,#128,.T.);
#130=ORIENTED_EDGE('',*,*,#129,.T.);
#131=CARTESIAN_POINT('',(-22.5,-5.,11.09179043));
#132=DIRECTION('',(-0.,1.,0.));
#133=VECTOR('',#132,5.);
#134=LINE('',#131,#133);
#135=EDGE_CURVE('',#124,#108,#134,.T.);
#136=ORIENTED_EDGE('',*,*,#135,.T.);
#137=EDGE_LOOP('',(#114,#122,#130,#136));
#138=FACE_BOUND('',#137,.T.);
#139=ADVANCED_FACE('',(#138),#104,.T.);
#140=CARTESIAN_POINT('',(0.,-5.,11.59179043));
#141=DIRECTION('',(-0.,1.,0.));
#142=DIRECTION('',(0.,0.,1.));
#143=AXIS2_PLACEMENT_3D('',#140,#141,#142);
#144=CYLINDRICAL_SURFACE('',#143,12.5);
#145=CARTESIAN_POINT('',(0.,0.,24.09179043));
#146=VERTEX_POINT('',#145);
#147=CARTESIAN_POINT('',(0.,-5.,24.09179043));
#148=VERTEX_POINT('',#147);
#149=CARTESIAN_POINT('',(0.,0.,24.09179043));
#150=DIRECTION('',(0.,-1.,-0.));
#151=VECTOR('',#150,5.);
#152=LINE('',#149,#151);
#153=EDGE_CURVE('',#146,#148,#152,.T.);
#154=ORIENTED_EDGE('',*,*,#153,.F.);
#155=CARTESIAN_POINT('',(12.498684556,0.,11.41044995));
#156=VERTEX_POINT('',#155);
#157=CARTESIAN_POINT('',(0.,0.,11.59179043));
#158=DIRECTION('',(0.,-1.,0.));
#159=DIRECTION('',(0.,0.,-1.));
#160=AXIS2_PLACEMENT_3D('',#157,#158,#159);
#161=CIRCLE('',#160,12.5);
#162=EDGE_CURVE('',#156,#146,#161,.T.);
#163=ORIENTED_EDGE('',*,*,#162,.F.);
#164=CARTESIAN_POINT('',(12.498684556,-5.,11.41044995));
#165=VERTEX_POINT('',#164);
#166=CARTESIAN_POINT('',(12.498684556,-5.,11.41044995));
#167=DIRECTION('',(-0.,1.,0.));
#168=VECTOR('',#167,5.);
#169=LINE('',#166,#168);
#170=EDGE_CURVE('',#165,#156,#169,.T.);
#171=ORIENTED_EDGE('',*,*,#170,.F.);
#172=CARTESIAN_POINT('',(0.,-5.,11.59179043));
#173=DIRECTION('',(0.,-1.,0.));
#174=DIRECTION('',(0.,0.,-1.));
#175=AXIS2_PLACEMENT_3D('',#172,#173,#174);
#176=CIRCLE('',#175,12.5);
#177=EDGE_CURVE('',#165,#148,#176,.T.);
#178=ORIENTED_EDGE('',*,*,#177,.T.);
#179=EDGE_LOOP('',(#154,#163,#171,#178));
#180=FACE_BOUND('',#179,.T.);
#181=ADVANCED_FACE('',(#180),#144,.F.);
#182=CARTESIAN_POINT('',(12.498684556,-5.,5.34179043));
#183=DIRECTION('',(-1.,-0.,0.));
#184=DIRECTION('',(0.,0.,1.));
#185=AXIS2_PLACEMENT_3D('',#182,#183,#184);
#186=PLANE('',#185);
#187=CARTESIAN_POINT('',(12.498684556,0.,-0.72686909));
#188=VERTEX_POINT('',#187);
#189=CARTESIAN_POINT('',(12.498684556,0.,-0.72686909));
#190=DIRECTION('',(0.,0.,1.));
#191=VECTOR('',#190,12.13731904);
#192=LINE('',#189,#191);
#193=EDGE_CURVE('',#188,#156,#192,.T.);
#194=ORIENTED_EDGE('',*,*,#193,.F.);
#195=CARTESIAN_POINT('',(12.498684556,-5.,-0.72686909));
#196=VERTEX_POINT('',#195);
#197=CARTESIAN_POINT('',(12.498684556,-5.,-0.72686909));
#198=DIRECTION('',(-0.,1.,0.));
#199=VECTOR('',#198,5.);
#200=LINE('',#197,#199);
#201=EDGE_CURVE('',#196,#188,#200,.T.);
#202=ORIENTED_EDGE('',*,*,#201,.F.);
#203=CARTESIAN_POINT('',(12.498684556,-5.,-0.72686909));
#204=DIRECTION('',(0.,0.,1.));
#205=VECTOR('',#204,12.13731904);
#206=LINE('',#203,#205);
#207=EDGE_CURVE('',#196,#165,#206,.T.);
#208=ORIENTED_EDGE('',*,*,#207,.T.);
#209=ORIENTED_EDGE('',*,*,#170,.T.);
#210=EDGE_LOOP('',(#194,#202,#208,#209));
#211=FACE_BOUND('',#210,.T.);
#212=ADVANCED_FACE('',(#211),#186,.T.);
#213=CARTESIAN_POINT('',(-0.,-5.,-0.90820957));
#214=DIRECTION('',(-0.,1.,0.));
#215=DIRECTION('',(0.,0.,1.));
#216=AXIS2_PLACEMENT_3D('',#213,#214,#215);
#217=CYLINDRICAL_SURFACE('',#216,12.5);
#218=CARTESIAN_POINT('',(-12.476955058,-0.,-0.149531463));
#219=VERTEX_POINT('',#218);
#220=CARTESIAN_POINT('',(-0.,0.,-0.90820957));
#221=DIRECTION('',(0.,-1.,0.));
#222=DIRECTION('',(0.,0.,-1.));
#223=AXIS2_PLACEMENT_3D('',#220,#221,#222);
#224=CIRCLE('',#223,12.5);
#225=EDGE_CURVE('',#219,#188,#224,.T.);
#226=ORIENTED_EDGE('',*,*,#225,.F.);
#227=CARTESIAN_POINT('',(-12.476955058,-5.,-0.149531463));
#228=VERTEX_POINT('',#227);
#229=CARTESIAN_POINT('',(-12.476955058,-5.,-0.149531463));
#230=DIRECTION('',(-0.,1.,0.));
#231=VECTOR('',#230,5.);
#232=LINE('',#229,#231);
#233=EDGE_CURVE('',#228,#219,#232,.T.);
#234=ORIENTED_EDGE('',*,*,#233,.F.);
#235=CARTESIAN_POINT('',(-0.,-5.,-0.90820957));
#236=DIRECTION('',(0.,-1.,0.));
#237=DIRECTION('',(0.,0.,-1.));
#238=AXIS2_PLACEMENT_3D('',#235,#236,#237);
#239=CIRCLE('',#238,12.5);
#240=EDGE_CURVE('',#228,#196,#239,.T.);
#241=ORIENTED_EDGE('',*,*,#240,.T.);
#242=ORIENTED_EDGE('',*,*,#201,.T.);
#243=EDGE_LOOP('',(#226,#234,#241,#242));
#244=FACE_BOUND('',#243,.T.);
#245=ADVANCED_FACE('',(#244),#217,.F.);
#246=CARTESIAN_POINT('',(-12.476955058,-5.,5.34179043));
#247=DIRECTION('',(-1.,-0.,0.));
#248=DIRECTION('',(0.,0.,1.));
#249=AXIS2_PLACEMENT_3D('',#246,#247,#248);
#250=PLANE('',#249);
#251=CARTESIAN_POINT('',(-12.476955058,-0.,10.833112324));
#252=VERTEX_POINT('',#251);
#253=CARTESIAN_POINT('',(-12.476955058,-0.,-0.149531463));
#254=DIRECTION('',(0.,0.,1.));
#255=VECTOR('',#254,10.982643787);
#256=LINE('',#253,#255);
#257=EDGE_CURVE('',#219,#252,#256,.T.);
#258=ORIENTED_EDGE('',*,*,#257,.T.);
#259=CARTESIAN_POINT('',(-12.476955058,-5.,10.833112324));
#260=VERTEX_POINT('',#259);
#261=CARTESIAN_POINT('',(-12.476955058,-5.,10.833112324));
#262=DIRECTION('',(-0.,1.,0.));
#263=VECTOR('',#262,5.);
#264=LINE('',#261,#263);
#265=EDGE_CURVE('',#260,#252,#264,.T.);
#266=ORIENTED_EDGE('',*,*,#265,.F.);
#267=CARTESIAN_POINT('',(-12.476955058,-5.,-0.149531463));
#268=DIRECTION('',(0.,0.,1.));
#269=VECTOR('',#268,10.982643787);
#270=LINE('',#267,#269);
#271=EDGE_CURVE('',#228,#260,#270,.T.);
#272=ORIENTED_EDGE('',*,*,#271,.F.);
#273=ORIENTED_EDGE('',*,*,#233,.T.);
#274=EDGE_LOOP('',(#258,#266,#272,#273));
#275=FACE_BOUND('',#274,.T.);
#276=ADVANCED_FACE('',(#275),#250,.F.);
#277=CARTESIAN_POINT('',(-11.25,-5.,-26.40820957));
#278=DIRECTION('',(0.,0.,-1.));
#279=DIRECTION('',(-1.,-0.,-0.));
#280=AXIS2_PLACEMENT_3D('',#277,#278,#279);
#281=PLANE('',#280);
#282=CARTESIAN_POINT('',(22.5,0.,-26.40820957));
#283=DIRECTION('',(-1.,-0.,-0.));
#284=VECTOR('',#283,45.);
#285=LINE('',#282,#284);
#286=EDGE_CURVE('',#35,#106,#285,.T.);
#287=ORIENTED_EDGE('',*,*,#286,.F.);
#288=ORIENTED_EDGE('',*,*,#62,.F.);
#289=CARTESIAN_POINT('',(22.5,-5.,-26.40820957));
#290=DIRECTION('',(-1.,-0.,-0.));
#291=VECTOR('',#290,45.);
#292=LINE('',#289,#291);
#293=EDGE_CURVE('',#51,#116,#292,.T.);
#294=ORIENTED_EDGE('',*,*,#293,.T.);
#295=ORIENTED_EDGE('',*,*,#121,.T.);
#296=EDGE_LOOP('',(#287,#288,#294,#295));
#297=FACE_BOUND('',#296,.T.);
#298=ADVANCED_FACE('',(#297),#281,.T.);
#299=CARTESIAN_POINT('',(0.,-5.,-0.));
#300=DIRECTION('',(0.,-1.,0.));
#301=DIRECTION('',(0.,0.,-1.));
#302=AXIS2_PLACEMENT_3D('',#299,#300,#301);
#303=PLANE('',#302);
#304=CARTESIAN_POINT('',(0.,-5.,11.59179043));
#305=DIRECTION('',(0.,-1.,0.));
#306=DIRECTION('',(0.,0.,-1.));
#307=AXIS2_PLACEMENT_3D('',#304,#305,#306);
#308=CIRCLE('',#307,12.5);
#309=EDGE_CURVE('',#148,#260,#308,.T.);
#310=ORIENTED_EDGE('',*,*,#309,.F.);
#311=ORIENTED_EDGE('',*,*,#177,.F.);
#312=ORIENTED_EDGE('',*,*,#207,.F.);
#313=ORIENTED_EDGE('',*,*,#240,.F.);
#314=ORIENTED_EDGE('',*,*,#271,.T.);
#315=EDGE_LOOP('',(#310,#311,#312,#313,#314));
#316=FACE_BOUND('',#315,.T.);
#317=ORIENTED_EDGE('',*,*,#56,.F.);
#318=ORIENTED_EDGE('',*,*,#87,.T.);
#319=CARTESIAN_POINT('',(0.,-5.,11.09179043));
#320=DIRECTION('',(0.,-1.,0.));
#321=DIRECTION('',(0.,0.,-1.));
#322=AXIS2_PLACEMENT_3D('',#319,#320,#321);
#323=CIRCLE('',#322,22.5);
#324=EDGE_CURVE('',#75,#124,#323,.T.);
#325=ORIENTED_EDGE('',*,*,#324,.T.);
#326=ORIENTED_EDGE('',*,*,#129,.F.);
#327=ORIENTED_EDGE('',*,*,#293,.F.);
#328=EDGE_LOOP('',(#317,#318,#325,#326,#327));
#329=FACE_BOUND('',#328,.T.);
#330=ADVANCED_FACE('',(#316,#329),#303,.T.);
#331=CARTESIAN_POINT('',(0.,0.,-0.));
#332=DIRECTION('',(0.,-1.,0.));
#333=DIRECTION('',(0.,0.,-1.));
#334=AXIS2_PLACEMENT_3D('',#331,#332,#333);
#335=PLANE('',#334);
#336=ORIENTED_EDGE('',*,*,#162,.T.);
#337=CARTESIAN_POINT('',(0.,0.,11.59179043));
#338=DIRECTION('',(0.,-1.,0.));
#339=DIRECTION('',(0.,0.,-1.));
#340=AXIS2_PLACEMENT_3D('',#337,#338,#339);
#341=CIRCLE('',#340,12.5);
#342=EDGE_CURVE('',#146,#252,#341,.T.);
#343=ORIENTED_EDGE('',*,*,#342,.T.);
#344=ORIENTED_EDGE('',*,*,#257,.F.);
#345=ORIENTED_EDGE('',*,*,#225,.T.);
#346=ORIENTED_EDGE('',*,*,#193,.T.);
#347=EDGE_LOOP('',(#336,#343,#344,#345,#346));
#348=FACE_BOUND('',#347,.T.);
#349=ORIENTED_EDGE('',*,*,#40,.T.);
#350=ORIENTED_EDGE('',*,*,#286,.T.);
#351=ORIENTED_EDGE('',*,*,#113,.T.);
#352=CARTESIAN_POINT('',(0.,0.,11.09179043));
#353=DIRECTION('',(0.,-1.,0.));
#354=DIRECTION('',(0.,0.,-1.));
#355=AXIS2_PLACEMENT_3D('',#352,#353,#354);
#356=CIRCLE('',#355,22.5);
#357=EDGE_CURVE('',#73,#108,#356,.T.);
#358=ORIENTED_EDGE('',*,*,#357,.F.);
#359=ORIENTED_EDGE('',*,*,#95,.F.);
#360=EDGE_LOOP('',(#349,#350,#351,#358,#359));
#361=FACE_BOUND('',#360,.T.);
#362=ADVANCED_FACE('',(#348,#361),#335,.F.);
#363=CARTESIAN_POINT('',(0.,-5.,11.09179043));
#364=DIRECTION('',(-0.,1.,0.));
#365=DIRECTION('',(0.,0.,1.));
#366=AXIS2_PLACEMENT_3D('',#363,#364,#365);
#367=CYLINDRICAL_SURFACE('',#366,22.5);
#368=ORIENTED_EDGE('',*,*,#80,.F.);
#369=ORIENTED_EDGE('',*,*,#357,.T.);
#370=ORIENTED_EDGE('',*,*,#135,.F.);
#371=ORIENTED_EDGE('',*,*,#324,.F.);
#372=EDGE_LOOP('',(#368,#369,#370,#371));
#373=FACE_BOUND('',#372,.T.);
#374=ADVANCED_FACE('',(#373),#367,.T.);
#375=CARTESIAN_POINT('',(0.,-5.,11.59179043));
#376=DIRECTION('',(-0.,1.,0.));
#377=DIRECTION('',(0.,0.,1.));
#378=AXIS2_PLACEMENT_3D('',#375,#376,#377);
#379=CYLINDRICAL_SURFACE('',#378,12.5);
#380=ORIENTED_EDGE('',*,*,#153,.T.);
#381=ORIENTED_EDGE('',*,*,#309,.T.);
#382=ORIENTED_EDGE('',*,*,#265,.T.);
#383=ORIENTED_EDGE('',*,*,#342,.F.);
#384=EDGE_LOOP('',(#380,#381,#382,#383));
#385=FACE_BOUND('',#384,.T.);
#386=ADVANCED_FACE('',(#385),#379,.F.);
#387=CLOSED_SHELL('',(#66,#99,#139,#181,#212,#245,#276,#298,#330,#362,#374,#386));
#388=MANIFOLD_SOLID_BREP('Body 01',#387);
#389=COLOUR_RGB('',0.137254909,0.137254909,0.886274517);
#390=FILL_AREA_STYLE_COLOUR('',#389);
#391=FILL_AREA_STYLE('',(#390));
#392=SURFACE_STYLE_FILL_AREA(#391);
#393=SURFACE_SIDE_STYLE('',(#392));
#394=SURFACE_STYLE_USAGE(.BOTH.,#393);
#395=PRESENTATION_STYLE_ASSIGNMENT((#394));
#26=STYLED_ITEM('',(#395),#388);
#16=SHAPE_REPRESENTATION('root',(#15),#10);
#17=ADVANCED_BREP_SHAPE_REPRESENTATION('root',(#388),#10);
#403=SHAPE_REPRESENTATION_RELATIONSHIP('','',#16,#17);
#404=APPLICATION_CONTEXT('data for automotive mechanical design processes');
#405=APPLICATION_PROTOCOL_DEFINITION('international standard','automotive_design',1994,#404);
#406=PRODUCT_CONTEXT('',#404,'mechanical');
#407=PRODUCT_DEFINITION_CONTEXT('part definition',#404,'design');
#24=PRODUCT('root','root','',(#406));
#408=PRODUCT_RELATED_PRODUCT_CATEGORY('part','',(#24));
#409=PRODUCT_DEFINITION_FORMATION_WITH_SPECIFIED_SOURCE('','',#24,.NOT_KNOWN.);
#25=PRODUCT_DEFINITION('design','',#409,#407);
#23=PRODUCT_DEFINITION_SHAPE('','',#25);
#410=SHAPE_DEFINITION_REPRESENTATION(#23,#16);
#11=DRAUGHTING_MODEL('',(),#10);
#1=MECHANICAL_DESIGN_GEOMETRIC_PRESENTATION_REPRESENTATION('',(#26),#10);
ENDSEC;
END-ISO-10303-21;
