0
SECTION
2
HEADER
9
$INSUNITS
70
1
9
$ACADVER
1
AC1014
9
$HANDSEED
5
FFFF
0
ENDSEC
0
SECTION
2
TABLES
0
TABLE
2
VPORT
5
8
100
AcDbSymbolTable
0
ENDTAB
0
TABLE
2
LTYPE
5
5
100
AcDbSymbolTable
0
LTYPE
5
14
100
AcDbSymbolTableRecord
100
AcDbLinetypeTableRecord
2
BYBLOCK
70
0
0
LTYPE
5
15
100
AcDbSymbolTableRecord
100
AcDbLinetypeTableRecord
2
BYLAYER
70
0
0
ENDTAB
0
TABLE
2
LAYER
5
2
100
AcDbSymbolTable
70
2
0
LAYER
5
50
100
AcDbSymbolTableRecord
100
AcDbLayerTableRecord
2
0
70
0
6
CONTINUOUS
0
ENDTAB
0
TABLE
2
STYLE
5
3
100
AcDbSymbolTable
70
1
0
STYLE
5
11
100
AcDbSymbolTableRecord
100
AcDbTextStyleTableRecord
2
STANDARD
70
0
0
ENDTAB
0
TABLE
2
VIEW
5
6
100
AcDbSymbolTable
70
0
0
ENDTAB
0
TABLE
2
UCS
5
7
100
AcDbSymbolTable
70
0
0
ENDTAB
0
TABLE
2
APPID
5
9
100
AcDbSymbolTable
70
2
0
APPID
5
12
100
AcDbSymbolTableRecord
100
AcDbRegAppTableRecord
2
ACAD
70
0
0
ENDTAB
0
TABLE
2
DIMSTYLE
5
A
100
AcDbSymbolTable
70
1
0
ENDTAB
0
TABLE
2
BLOCK_RECORD
5
1
100
AcDbSymbolTable
70
1
0
BLOCK_RECORD
5
1F
100
AcDbSymbolTableRecord
100
AcDbBlockTableRecord
2
*MODEL_SPACE
0
BLOCK_RECORD
5
1B
100
AcDbSymbolTableRecord
100
AcDbBlockTableRecord
2
*PAPER_SPACE
0
ENDTAB
0
ENDSEC
0
SECTION
2
BLOCKS
0
BLOCK
5
20
100
AcDbEntity
100
AcDbBlockBegin
2
*MODEL_SPACE
0
ENDBLK
5
21
100
AcDbEntity
100
AcDbBlockEnd
0
BLOCK
5
1C
100
AcDbEntity
100
AcDbBlockBegin
2
*PAPER_SPACE
0
ENDBLK
5
1D
100
AcDbEntity
100
AcDbBlockEnd
0
ENDSEC
0
SECTION
2
ENTITIES
0
SPLINE
5
100
100
AcDbEntity
8
0
100
AcDbSpline
70
0
71
2
72
6
73
3
74
0
42
0.000000001
43
0.0000000001
44
0.0000000001
40
0
40
0
40
0
40
0.85024425517791902
40
0.85024425517791902
40
0.85024425517791902
10
-0.29387934799123472
20
-8.19702299914095
30
1.4228338311511572e-16
10
-0.41451823378605535
20
-7.9197926624705204
30
1.2886229846833588e-16
10
-0.40008757919032689
20
-7.5987880934920993
30
9.2394445868446195e-17
0
CIRCLE
5
101
100
AcDbEntity
8
0
100
AcDbCircle
10
-3.0000000957428945
20
6.6500002122300836
30
0
40
0.099999999999999839
210
0
220
0
230
1
0
SPLINE
5
102
100
AcDbEntity
8
0
100
AcDbSpline
70
4
71
3
72
8
73
4
74
0
42
0.000000001
43
0.0000000001
44
0.0000000001
40
0.17034216516171966
40
0.17034216516171966
40
0.17034216516171966
40
0.17034216516171966
40
1
40
1
40
1
40
1
41
1
41
1
41
1
41
1
10
7.3137290348884223
20
-2.1276323953732676
30
0
10
7.2753416940035676
20
-2.224227391871731
30
0
10
7.2516320261980063
20
-2.3258014487249188
30
0
10
7.2586739507913309
20
-2.3718732760751693
30
0
0
SPLINE
5
103
100
AcDbEntity
8
0
100
AcDbSpline
70
0
71
2
72
6
73
3
74
0
42
0.000000001
43
0.0000000001
44
0.0000000001
40
0.1745477292019906
40
0.1745477292019906
40
0.1745477292019906
40
1
40
1
40
1
10
-0.08160525727926432
20
-7.6499911549899435
30
5.465235042454711e-17
10
-0.088608224687270629
20
-8.0529692956240737
30
9.8923847038494231e-17
10
0.12188095985630751
20
-8.2063206212751876
30
8.6827103990264575e-17
0
SPLINE
5
104
100
AcDbEntity
8
0
100
AcDbSpline
70
0
71
2
72
6
73
3
74
0
42
0.000000001
43
0.0000000001
44
0.0000000001
40
0
40
0
40
0
40
1
40
1
40
1
10
-1.9044934398389088
20
-6.7229549127736243
30
2.2523742612854902e-17
10
-1.8710260132096137
20
-6.8113593052166816
30
2.498538617730638e-17
10
-1.775404309502933
20
-6.8752950905581667
30
1.5987992447717023e-17
0
ARC
5
105
100
AcDbEntity
8
0
100
AcDbCircle
10
1.521846640645675
20
3.5711012755703568
30
0
40
9.6833686554025977
210
0
220
0
230
1
100
AcDbArc
50
-34.310113443741187
51
209.84168761088944
0
SPLINE
5
106
100
AcDbEntity
8
0
100
AcDbSpline
70
0
71
2
72
6
73
3
74
0
42
0.000000001
43
0.0000000001
44
0.0000000001
40
0
40
0
40
0
40
1
40
1
40
1
10
-2.1470473793847602
20
-7.7133375116407876
30
1.4328675475660495e-16
10
-2.0290131325420457
20
-7.7848457235718529
30
1.3155052751140298e-16
10
-1.8877138675463359
20
-7.8243417193563571
30
1.1358306993419431e-16
0
LINE
5
107
100
AcDbEntity
8
0
100
AcDbLine
10
-1.3383780583238436
20
-6.3161303474289365
30
-9.7479901144774178e-17
11
-1.2950395488929858
21
-6.3282443353243396
31
-1.0299077786222927e-16
0
SPLINE
5
108
100
AcDbEntity
8
0
100
AcDbSpline
70
4
71
5
72
16
73
10
74
0
42
0.000000001
43
0.0000000001
44
0.0000000001
40
0
40
0
40
0
40
0
40
0
40
0
40
0.20000000000000001
40
0.40000000000000002
40
0.60000000000000009
40
0.80000000000000004
40
1
40
1
40
1
40
1
40
1
40
1
41
1
41
1
41
1
41
1
41
1
41
1
41
1
41
1
41
1
41
1
10
0.87538441682410695
20
14.54194120251946
30
0
10
0.87123376375763928
20
14.540445938776562
30
0
10
0.86293245762470594
20
14.537455411291283
30
0
10
0.8504804984253177
20
14.532969620064982
30
0
10
0.83387788615948333
20
14.526988565099407
30
0
10
0.81312462082719705
20
14.51951224639555
30
0
10
0.79652200856134825
20
14.513531191433778
30
0
10
0.78407004936193925
20
14.509045400212795
30
0
10
0.77576874322898703
20
14.506054872732234
30
0
10
0.77161809016250849
20
14.504559608991984
30
0
0
SPLINE
5
109
100
AcDbEntity
8
0
100
AcDbSpline
70
0
71
2
72
6
73
3
74
0
42
0.000000001
43
0.0000000001
44
0.0000000001
40
0
40
0
40
0
40
1
40
1
40
1
10
-2.241954265538578
20
-6.6341725042075046
30
6.5906053477924465e-17
10
-2.1789812178884551
20
-6.4088826951835429
30
3.7258451621408437e-17
10
-1.7455113271717115
20
-6.3061884725135275
30
-3.6883661517621871e-17
0
LINE
5
110
100
AcDbEntity
8
0
100
AcDbLine
10
5.0136136012646197
20
-2.2081953910293373
30
0
11
5.0169152156729524
21
-2.2167395247095265
31
0
0
SPLINE
5
111
100
AcDbEntity
8
0
100
AcDbSpline
70
4
71
5
72
21
73
15
74
0
42
0.000000001
43
0.0000000001
44
0.0000000001
40
0
40
0
40
0
40
0
40
0
40
0
40
0.10000000000000001
40
0.20000000000000001
40
0.30000000000000004
40
0.40000000000000002
40
0.5
40
0.59999999999999998
40
0.69999999999999996
40
0.79999999999999982
40
0.8999999999999998
40
0.96682341628829083
40
0.96682341628829083
40
0.96682341628829083
40
0.96682341628829083
40
0.96682341628829083
40
0.96682341628829083
41
1
41
1
41
1
41
1
41
1
41
1
41
1
41
1
41
1
41
1
41
1
41
1
41
1
41
1
41
1
10
0.42726516922710467
20
14.980671679043338
30
0
10
0.43230775189274046
20
14.984014594874774
30
0
10
0.44250570964527691
20
14.990477922832191
30
0
10
0.45814102599187939
20
14.999505398811015
30
0
10
0.47967598644317327
20
15.010185079987654
30
0
10
0.50781682349489365
20
15.0211237934378
30
0
10
0.53728063709576135
20
15.029452693378872
30
0
10
0.56816240846261967
20
15.034984411966274
30
0
10
0.60048976009955435
20
15.037664458750939
30
0
10
0.63418056912506249
20
15.037654836153274
30
0
10
0.66680259551692511
20
15.035344304377579
30
0
10
0.6932038572917536
20
15.032015036417016
30
0
10
0.71279030948447175
20
15.028838894751482
30
0
10
0.72518301014639786
20
15.026563411770526
30
0
10
0.73017055474621306
20
15.025605621626889
30
0
0
LINE
5
112
100
AcDbEntity
8
0
100
AcDbLine
10
-2.0727129414281751
20
-7.540248778655962
30
1.1736043321706083e-16
11
-2.1470473793847602
21
-7.7133375116407876
31
1.4328675475660495e-16
0
SPLINE
5
113
100
AcDbEntity
8
0
100
AcDbSpline
70
4
71
5
72
21
73
15
74
0
42
0.000000001
43
0.0000000001
44
0.0000000001
40
0
40
0
40
0
40
0
40
0
40
0
40
0.10000000000000001
40
0.20000000000000001
40
0.30000000000000004
40
0.40000000000000002
40
0.5
40
0.59999999999999998
40
0.69999999999999996
40
0.79999999999999982
40
0.8999999999999998
40
0.99809019620754913
40
0.99809019620754913
40
0.99809019620754913
40
0.99809019620754913
40
0.99809019620754913
40
0.99809019620754913
41
1
41
1
41
1
41
1
41
1
41
1
41
1
41
1
41
1
41
1
41
1
41
1
41
1
41
1
41
1
10
4.3121559344103169
20
14.470039853053187
30
0
10
4.3176319107631329
20
14.471563496373571
30
0
10
4.3286367741479435
20
14.474339905570114
30
0
10
4.3453028046116327
20
14.477691869887281
30
0
10
4.3678468432580084
20
14.480509266285058
30
0
10
4.3965997454018799
20
14.481098273335443
30
0
10
4.4259711577382044
20
14.478520803165068
30
0
10
4.4560029012256237
20
14.472562752408216
30
0
10
4.4867018118344593
20
14.463189124154766
30
0
10
4.5180260217612771
20
14.450614261589312
30
0
10
4.5497995136766658
20
14.435174789101016
30
0
10
4.5756060817293367
20
14.420725090406203
30
0
10
4.5951460319060926
20
14.40879945593522
30
0
10
4.608224729868418
20
14.400394320686468
30
0
10
4.6147240251838042
20
14.396114558532481
30
0
0
SPLINE
5
114
100
AcDbEntity
8
0
100
AcDbSpline
70
0
71
2
72
6
73
3
74
0
42
0.000000001
43
0.0000000001
44
0.0000000001
40
0
40
0
40
0
40
0.89038076715440106
40
0.89038076715440106
40
0.89038076715440106
10
0.024804279479422424
20
-7.1035907920796779
30
-1.8535528284757577e-17
10
-0.038813409549077242
20
-7.2578554546099356
30
6.6866819479954668e-18
10
-0.062711939009104656
20
-7.4203261256615187
30
2.7397611469748413e-17
0
SPLINE
5
115
100
AcDbEntity
8
0
100
AcDbSpline
70
4
71
5
72
21
73
15
74
0
42
0.000000001
43
0.0000000001
44
0.0000000001
40
0
40
0
40
0
40
0
40
0
40
0
40
0.10000000000000001
40
0.20000000000000001
40
0.30000000000000004
40
0.40000000000000002
40
0.5
40
0.59999999999999998
40
0.69999999999999996
40
0.79999999999999982
40
0.8999999999999998
40
1
40
1
40
1
40
1
40
1
40
1
41
1
41
1
41
1
41
1
41
1
41
1
41
1
41
1
41
1
41
1
41
1
41
1
41
1
41
1
41
1
10
-0.40008757919032689
20
-7.5987880934920993
30
9.2394445868446269e-17
10
-0.39513699119307122
20
-7.6030472946055339
30
8.5916518190437883e-17
10
-0.3851094363622326
20
-7.6112775809931481
30
7.347035073651869e-17
10
-0.36968896601003332
20
-7.6227586594161076
30
5.6330169702503125e-17
10
-0.34835760160192603
20
-7.6363096531980563
30
3.6584990941644449e-17
10
-0.32032383404684794
20
-7.650126096395736
30
1.742698348975648e-17
10
-0.29080671997183172
20
-7.6605608370864049
30
4.2513366749622465e-18
10
-0.25969853791747838
20
-7.6673682941296324
30
-2.5075071052960994e-18
10
-0.22696537222697447
20
-7.67047114731671
30
-2.7127654556357278e-18
10
-0.19269746628362588
20
-7.670075131633233
30
3.2716085914754247e-18
10
-0.15702195759178456
20
-7.666470092513662
30
1.4932867413419315e-17
10
-0.12745335151938283
20
-7.6612419942759828
30
2.8408618237932931e-17
10
-0.10473614496515438
20
-7.6560881254477078
30
4.0696292965577155e-17
10
-0.089354953290444447
20
-7.6521133020390524
30
4.9841429963369103e-17
10
-0.081605257279247362
20
-7.6499911549889656
30
5.4652350424439905e-17
0
CIRCLE
5
116
100
AcDbEntity
8
0
100
AcDbCircle
10
-2.5610611689042551
20
6.4346027712531981
30
0
40
0.10000000000000019
210
0
220
0
230
1
0
CIRCLE
5
117
100
AcDbEntity
8
0
100
AcDbCircle
10
-3.4697867571921361
20
5.9146011636838951
30
0
40
0.099999999999999797
210
0
220
0
230
1
0
SPLINE
5
118
100
AcDbEntity
8
0
100
AcDbSpline
70
0
71
2
72
6
73
3
74
0
42
0.000000001
43
0.0000000001
44
0.0000000001
40
0
40
0
40
0
40
1
40
1
40
1
10
-0.74983704814131313
20
-7.8572037836291901
30
-5.5343051222682797e-17
10
-0.83680635719193841
20
-8.1683416395548143
30
-1.5779107084848755e-17
10
-1.6614594558371556
20
-8.1455877739616085
30
1.067369316268839e-16
0
SPLINE
5
119
100
AcDbEntity
8
0
100
AcDbSpline
70
4
71
5
72
21
73
15
74
0
42
0.000000001
43
0.0000000001
44
0.0000000001
40
0
40
0
40
0
40
0
40
0
40
0
40
0.10000000000000001
40
0.20000000000000001
40
0.30000000000000004
40
0.40000000000000002
40
0.5
40
0.59999999999999998
40
0.69999999999999996
40
0.79999999999999982
40
0.8999999999999998
40
0.98992347661018676
40
0.98992347661018676
40
0.98992347661018676
40
0.98992347661018676
40
0.98992347661018676
40
0.98992347661018676
41
1
41
1
41
1
41
1
41
1
41
1
41
1
41
1
41
1
41
1
41
1
41
1
41
1
41
1
41
1
10
-0.37221452399417282
20
-7.3376172885373316
30
6.0533451491930145e-17
10
-0.3665913109745369
20
-7.342538566270159
30
6.1152129448188731e-17
10
-0.35529660517316208
20
-7.352103796482357
30
6.2354621443139452e-17
10
-0.33820971326574767
20
-7.3656197009700897
30
6.4053772074063132e-17
10
-0.31513270616328581
20
-7.3819493492184174
30
6.6106652230652851e-17
10
-0.28576202317257443
20
-7.3993490489932459
30
6.8294053811551051e-17
10
-0.25581887336346132
20
-7.4134604246602818
30
7.0068064043822561e-17
10
-0.2252546716845856
20
-7.4240043973434222
30
7.1393598553551934e-17
10
-0.19403956642870318
20
-7.430809494939858
30
7.2249100741955943e-17
10
-0.16219495462262831
20
-7.4339986247630865
30
7.2650021890199529e-17
10
-0.13042008456583659
20
-7.4338377022385247
30
7.262979153044901e-17
10
-0.10472264059654178
20
-7.4313645611128019
30
7.2318880832198522e-17
10
-0.085403617200310464
20
-7.4283081529904749
30
7.1934644779746418e-17
10
-0.072658650684714637
20
-7.4257922383528507
30
7.1618356813636956e-17
10
-0.066604244665334378
20
-7.4244860291716428
30
7.1454146852356019e-17
0
SPLINE
5
120
100
AcDbEntity
8
0
100
AcDbSpline
70
4
71
5
72
21
73
15
74
0
42
0.000000001
43
0.0000000001
44
0.0000000001
40
0
40
0
40
0
40
0
40
0
40
0
40
0.10000000000000001
40
0.20000000000000001
40
0.30000000000000004
40
0.40000000000000002
40
0.5
40
0.59999999999999998
40
0.69999999999999996
40
0.79999999999999982
40
0.8999999999999998
40
1
40
1
40
1
40
1
40
1
40
1
41
1
41
1
41
1
41
1
41
1
41
1
41
1
41
1
41
1
41
1
41
1
41
1
41
1
41
1
41
1
10
4.3835401505935732
20
14.668082003669033
30
0
10
4.3887274254551336
20
14.669511635958635
30
0
10
4.3991632135296408
20
14.672079887894693
30
0
10
4.4150006162588564
20
14.675059201432006
30
0
10
4.4364905913292763
20
14.677256992870124
30
0
10
4.4640156415132601
20
14.676855559078971
30
0
10
4.4922545734242494
20
14.673061666084925
30
0
10
4.5212531268685723
20
14.665657952350834
30
0
10
4.5510135050988527
20
14.654633947728625
30
0
10
4.5814845215325501
20
14.640232897539587
30
0
10
4.6126027737687405
20
14.622756098269123
30
0
10
4.6379681740608127
20
14.606537362861355
30
0
10
4.657239476382717
20
14.593198337010046
30
0
10
4.6701950920761481
20
14.583792038969083
30
0
10
4.6766999219125793
20
14.578960477923085
30
0
0
SPLINE
5
121
100
AcDbEntity
8
0
100
AcDbSpline
70
0
71
2
72
6
73
3
74
0
42
0.000000001
43
0.0000000001
44
0.0000000001
40
0.81910166946530805
40
0.81910166946530805
40
0.81910166946530805
40
1
40
1
40
1
10
0.42726516922704533
20
14.980671679044242
30
0
10
0.42189937036447051
20
15.062560337661241
30
0
10
0.41630059754686827
20
15.152305079845858
30
0
0
SPLINE
5
122
100
AcDbEntity
8
0
100
AcDbSpline
70
4
71
5
72
21
73
15
74
0
42
0.000000001
43
0.0000000001
44
0.0000000001
40
0
40
0
40
0
40
0
40
0
40
0
40
0.10000000000000001
40
0.20000000000000001
40
0.30000000000000004
40
0.40000000000000002
40
0.5
40
0.59999999999999998
40
0.69999999999999996
40
0.79999999999999982
40
0.8999999999999998
40
1
40
1
40
1
40
1
40
1
40
1
41
1
41
1
41
1
41
1
41
1
41
1
41
1
41
1
41
1
41
1
41
1
41
1
41
1
41
1
41
1
10
7.3695695107331929
20
-3.5057785204243359
30
0
10
7.4374962635818784
20
-3.4478359472437594
30
0
10
7.5680925803377788
20
-3.3375905360513221
30
0
10
7.7482160075779731
20
-3.1891410680774555
30
0
10
7.9563150678413663
20
-3.0256072422193085
30
0
10
8.1593630740005256
20
-2.8824189756734384
30
0
10
8.3002100363153382
20
-2.8059578932502558
30
0
10
8.3737415250270431
20
-2.8017105828739859
30
0
10
8.3770958596788763
20
-2.8727469589189436
30
0
10
8.3129628553949058
20
-3.0161814783452345
30
0
10
8.1863987930684168
20
-3.2265899333685297
30
0
10
8.039281936855124
20
-3.4441197745443302
30
0
10
7.904781894764036
20
-3.6331877639745889
30
0
10
7.804551443330876
20
-3.7705655325333045
30
0
10
7.7517952035873572
20
-3.8420876076777315
30
0
0
SPLINE
5
123
100
AcDbEntity
8
0
100
AcDbSpline
70
4
71
5
72
16
73
10
74
0
42
0.000000001
43
0.0000000001
44
0.0000000001
40
0
40
0
40
0
40
0
40
0
40
0
40
0.20000000000000001
40
0.40000000000000002
40
0.60000000000000009
40
0.80000000000000004
40
1
40
1
40
1
40
1
40
1
40
1
41
1
41
1
41
1
41
1
41
1
41
1
41
1
41
1
41
1
41
1
10
0.90859550979668902
20
14.248982780150252
30
0
10
0.90384384190008282
20
14.247676094832045
30
0
10
0.89434050610690274
20
14.245062724195845
30
0
10
0.8800855024172346
20
14.24114266824226
30
0
10
0.86107883083118741
20
14.235915926972044
30
0
10
0.83732049134883735
20
14.229382500385633
30
0
10
0.81831381976306694
20
14.224155759117068
30
0
10
0.8040588160737876
20
14.220235703165793
30
0
10
0.7945554802809548
20
14.217622332531624
30
0
10
0.78980381238454367
20
14.216315647214554
30
0
0
SPLINE
5
124
100
AcDbEntity
8
0
100
AcDbSpline
70
0
71
2
72
6
73
3
74
0
42
0.000000001
43
0.0000000001
44
0.0000000001
40
0.18197628877566696
40
0.18197628877566696
40
0.18197628877566696
40
1
40
1
40
1
10
0.87538441682410695
20
14.54194120251946
30
0
10
1.0970232201383914
20
14.624549697373219
30
0
10
1.2144852326643047
20
14.694474699202699
30
0
0
SPLINE
5
125
100
AcDbEntity
8
0
100
AcDbSpline
70
0
71
2
72
6
73
3
74
0
42
0.000000001
43
0.0000000001
44
0.0000000001
40
0
40
0
40
0
40
1
40
1
40
1
10
-1.7455113271717115
20
-6.3061884725135275
30
-3.6883661517621871e-17
10
-1.5388590056342704
20
-6.2600918772352907
30
-7.1986966585291058e-17
10
-1.3383780583238434
20
-6.3161303474289365
30
-9.7479901144774116e-17
0
SPLINE
5
126
100
AcDbEntity
8
0
100
AcDbSpline
70
0
71
2
72
6
73
3
74
0
42
0.000000001
43
0.0000000001
44
0.0000000001
40
0
40
0
40
0
40
1
40
1
40
1
10
-1.6614594558371556
20
-8.1455877739616085
30
1.067369316268839e-16
10
-1.8916253244529884
20
-8.1315018344991135
30
1.4027462242129147e-16
10
-2.0562595173211555
20
-8.0854832555086009
30
1.6120932350559359e-16
0
SPLINE
5
127
100
AcDbEntity
8
0
100
AcDbSpline
70
0
71
2
72
6
73
3
74
0
42
0.000000001
43
0.0000000001
44
0.0000000001
40
0.15372876752299164
40
0.15372876752299164
40
0.15372876752299164
40
1
40
1
40
1
10
0.75219029997849818
20
14.816103859925882
30
0
10
0.76510548896102104
20
14.551105163349343
30
0
10
0.77161809016250849
20
14.504559608991984
30
0
0
SPLINE
5
128
100
AcDbEntity
8
0
100
AcDbSpline
70
0
71
2
72
6
73
3
74
0
42
0.000000001
43
0.0000000001
44
0.0000000001
40
0
40
0
40
0
40
1
40
1
40
1
10
-1.4532613461063795
20
-6.5798085418381067
30
-5.7736355713185928e-17
10
-1.5859788077062609
20
-6.5427113332713249
30
-4.086015072285508e-17
10
-1.7974744488763919
20
-6.643795075680262
30
-3.5334002607630037e-19
0
SPLINE
5
129
100
AcDbEntity
8
0
100
AcDbSpline
70
4
71
3
72
8
73
4
74
0
42
0.000000001
43
0.0000000001
44
0.0000000001
40
0.80808134012047739
40
0.80808134012047739
40
0.80808134012047739
40
0.80808134012047739
40
1
40
1
40
1
40
1
41
1
41
1
41
1
41
1
10
-1.7195278202882194
20
-2.4276071347570243
30
0
10
-1.7285252761664602
20
-2.4602447270858687
30
0
10
-1.7331078809774061
20
-2.494320166197824
30
0
10
-1.7333586656152242
20
-2.5299338715579922
30
0
0
CIRCLE
5
130
100
AcDbEntity
8
0
100
AcDbCircle
10
12.674046340590264
20
3.482893349202028
30
0
40
0.10000000000000037
210
0
220
0
230
1
0
SPLINE
5
131
100
AcDbEntity
8
0
100
AcDbSpline
70
4
71
5
72
66
73
60
74
0
42
0.000000001
43
0.0000000001
44
0.0000000001
40
0
40
0
40
0
40
0
40
0
40
0
40
0.018181818181818181
40
0.036363636363636362
40
0.054545454545454543
40
0.072727272727272724
40
0.090909090909090912
40
0.1090909090909091
40
0.12727272727272729
40
0.14545454545454548
40
0.16363636363636366
40
0.18181818181818185
40
0.20000000000000004
40
0.21818181818181825
40
0.23636363636363639
40
0.25454545454545457
40
0.27272727272727282
40
0.29090909090909089
40
0.30909090909090914
40
0.32727272727272733
40
0.34545454545454551
40
0.3636363636363637
40
0.38181818181818172
40
0.40000000000000008
40
0.41818181818181832
40
0.43636363636363651
40
0.45454545454545459
40
0.47272727272727277
40
0.49090909090909102
40
0.50909090909090915
40
0.52727272727272745
40
0.54545454545454553
40
0.56363636363636371
40
0.5818181818181819
40
0.60000000000000009
40
0.61818181818181828
40
0.63636363636363646
40
0.65454545454545465
40
0.67272727272727284
40
0.69090909090909103
40
0.70909090909090922
40
0.7272727272727274
40
0.74545454545454559
40
0.76363636363636378
40
0.78181818181818175
40
0.80000000000000016
40
0.81818181818181823
40
0.83636363636363653
40
0.85454545454545472
40
0.87272727272727302
40
0.89090909090909121
40
0.90909090909090917
40
0.92727272727272725
40
0.94545454545454555
40
0.96363636363636385
40
0.98181818181818203
40
0.99994127182315695
40
0.99994127182315695
40
0.99994127182315695
40
0.99994127182315695
40
0.99994127182315695
40
0.99994127182315695
41
1
41
1
41
1
41
1
41
1
41
1
41
1
41
1
41
1
41
1
41
1
41
1
41
1
41
1
41
1
41
1
41
1
41
1
41
1
41
1
41
1
41
1
41
1
41
1
41
1
41
1
41
1
41
1
41
1
41
1
41
1
41
1
41
1
41
1
41
1
41
1
41
1
41
1
41
1
41
1
41
1
41
1
41
1
41
1
41
1
41
1
41
1
41
1
41
1
41
1
41
1
41
1
41
1
41
1
41
1
41
1
41
1
41
1
41
1
41
1
10
-2.7908911420742357
20
-2.0166180295947864
30
0
10
-2.7877452099588682
20
-2.0144498930827202
30
0
10
-2.7813940028387361
20
-2.0103735941213592
30
0
10
-2.7716890616095649
20
-2.0050390359443666
30
0
10
-2.7583935698700999
20
-1.9994871884835272
30
0
10
-2.7413107971652209
20
-1.9951760770428757
30
0
10
-2.7241708478046447
20
-1.9935720371403607
30
0
10
-2.7077590907791791
20
-1.9948164293069022
30
0
10
-2.6934559088529988
20
-1.9991608526549391
30
0
10
-2.68296512779441
20
-2.006863263277002
30
0
10
-2.6777843274821689
20
-2.018008527351165
30
0
10
-2.6787146981390841
20
-2.0323320492989825
30
0
10
-2.6854646592116413
20
-2.0490971106786957
30
0
10
-2.6969228607014792
20
-2.0672941947240959
30
0
10
-2.7113359125108389
20
-2.085802450910164
30
0
10
-2.7265266465046798
20
-2.1035535515364558
30
0
10
-2.7400816866750128
20
-2.1197237963536244
30
0
10
-2.7496080060485366
20
-2.1337917115606189
30
0
10
-2.7530630312418363
20
-2.1454816585606831
30
0
10
-2.7490278793053857
20
-2.1547394896669765
30
0
10
-2.737090801021135
20
-2.1616982566511584
30
0
10
-2.717858805506153
20
-2.1666385444452376
30
0
10
-2.6925706088101449
20
-2.1699343247924441
30
0
10
-2.662814013866738
20
-2.1720029300194974
30
0
10
-2.6302071800543541
20
-2.1732543016145649
30
0
10
-2.59608313334292
20
-2.1740386774745857
30
0
10
-2.5612088710494199
20
-2.1746003988412501
30
0
10
-2.5259304730117642
20
-2.1750961328692635
30
0
10
-2.4902826883791178
20
-2.1756078044469787
30
0
10
-2.4541107706683336
20
-2.1761573053606846
30
0
10
-2.4171879879035481
20
-2.1767204593027909
30
0
10
-2.3793315217826527
20
-2.1772408216281174
30
0
10
-2.3405266068437678
20
-2.1776443227680264
30
0
10
-2.3010298476577931
20
-2.1778514913683882
30
0
10
-2.2615263346883596
20
-2.1777957477512948
30
0
10
-2.22305604985584
20
-2.1774153720188214
30
0
10
-2.1867994065816001
20
-2.176629508143606
30
0
10
-2.1539051083074243
20
-2.1753186863830773
30
0
10
-2.1253021463590649
20
-2.1733040579420853
30
0
10
-2.101514399057296
20
-2.1703255747397905
30
0
10
-2.0824819831208399
20
-2.1660239381219082
30
0
10
-2.0673576033967511
20
-2.1599124941492338
30
0
10
-2.0543705682974709
20
-2.1513761214160003
30
0
10
-2.041384272811654
20
-2.1399191744006569
30
0
10
-2.0264320276216039
20
-2.1254159887799373
30
0
10
-2.0082015524657413
20
-2.1083198599382369
30
0
10
-1.9866870355011887
20
-2.089991025293561
30
0
10
-1.963180894302198
20
-2.0725655037359916
30
0
10
-1.9396611305881735
20
-2.0584015027557161
30
0
10
-1.9183580758803715
20
-2.0496557583682096
30
0
10
-1.9012288593131712
20
-2.0477814989969407
30
0
10
-1.8895167750357122
20
-2.0531165544752437
30
0
10
-1.8831540177448534
20
-2.0642799938963368
30
0
10
-1.8811784006710168
20
-2.078834477025298
30
0
10
-1.8823093173466048
20
-2.0941306453684998
30
0
10
-1.8855663728379111
20
-2.1082404958212693
30
0
10
-1.8895132742499847
20
-2.1178766057515919
30
0
10
-1.8931525424509665
20
-2.1240319280715942
30
0
10
-1.895879849538239
20
-2.1276597422006907
30
0
10
-1.8973166173478406
20
-2.1293526468275203
30
0
0
SPLINE
5
132
100
AcDbEntity
8
0
100
AcDbSpline
70
0
71
2
72
6
73
3
74
0
42
0.000000001
43
0.0000000001
44
0.0000000001
40
0
40
0
40
0
40
0.73107960850846077
40
0.73107960850846077
40
0.73107960850846077
10
0.7267905324532552
20
15.402885221440586
30
0
10
0.7347881529107303
20
15.200765507682938
30
0
10
0.74204678536870683
20
15.035865939039596
30
0
0
SPLINE
5
133
100
AcDbEntity
8
0
100
AcDbSpline
70
0
71
2
72
6
73
3
74
0
42
0.000000001
43
0.0000000001
44
0.0000000001
40
0
40
0
40
0
40
1
40
1
40
1
10
-2.0562595173211555
20
-8.0854832555086009
30
1.6120932350559359e-16
10
-2.4348997825101448
20
-7.9796456609662529
30
2.0935679902156837e-16
10
-2.4858246398307475
20
-7.7859440830032671
30
2.0058193691610233e-16
0
SPLINE
5
134
100
AcDbEntity
8
0
100
AcDbSpline
70
4
71
3
72
8
73
4
74
0
42
0.000000001
43
0.0000000001
44
0.0000000001
40
0
40
0
40
0
40
0
40
0.28376166476697984
40
0.28376166476697984
40
0.28376166476697984
40
0.28376166476697984
41
1
41
1
41
1
41
1
10
-2.5623629030254316
20
-1.780737743542443
30
0
10
-2.5992868008003724
20
-1.7974127613644759
30
0
10
-2.6429278246689401
20
-1.8344598280119673
30
0
10
-2.6852465395884222
20
-1.8801416677991873
30
0
0
SPLINE
5
135
100
AcDbEntity
8
0
100
AcDbSpline
70
0
71
2
72
6
73
3
74
0
42
0.000000001
43
0.0000000001
44
0.0000000001
40
0.83227952647765024
40
0.83227952647765024
40
0.83227952647765024
40
1
40
1
40
1
10
4.3835401505949889
20
14.668082003673025
30
0
10
4.4033042398067046
20
14.723882932405305
30
0
10
4.4252030559485611
20
14.786562030727945
30
0
0
SPLINE
5
136
100
AcDbEntity
8
0
100
AcDbSpline
70
0
71
2
72
6
73
3
74
0
42
0.000000001
43
0.0000000001
44
0.0000000001
40
0
40
0
40
0
40
1
40
1
40
1
10
-2.0671380670757342
20
-7.4459910365571371
30
1.0850946558065121e-16
10
-2.060732018743169
20
-7.4973863178992168
30
1.1191009032019643e-16
10
-2.0727129414281751
20
-7.540248778655962
30
1.1736043321706083e-16
0
SPLINE
5
137
100
AcDbEntity
8
0
100
AcDbSpline
70
4
71
5
72
26
73
20
74
0
42
0.000000001
43
0.0000000001
44
0.0000000001
40
0.061926409255320662
40
0.061926409255320662
40
0.061926409255320662
40
0.061926409255320662
40
0.061926409255320662
40
0.061926409255320662
40
0.066666666666666666
40
0.13333333333333333
40
0.20000000000000001
40
0.26666666666666666
40
0.33333333333333331
40
0.40000000000000002
40
0.46666666666666662
40
0.53333333333333333
40
0.59999999999999998
40
0.66666666666666663
40
0.73333333333333295
40
0.79999999999999982
40
0.8666666666666667
40
0.93333333333333324
40
1
40
1
40
1
40
1
40
1
40
1
41
1
41
1
41
1
41
1
41
1
41
1
41
1
41
1
41
1
41
1
41
1
41
1
41
1
41
1
41
1
41
1
41
1
41
1
41
1
41
1
10
-6.408279830325478
20
-1.4973245749984914
30
0
10
-6.4037843362441143
20
-1.4970040360244981
30
0
10
-6.3361654931858853
20
-1.4922055189688692
30
0
10
-6.2083365971609634
20
-1.4838059841360971
30
0
10
-6.0262072036922669
20
-1.474019967693718
30
0
10
-5.7941841374744323
20
-1.4670984834553078
30
0
10
-5.5092325138682599
20
-1.4705289646023108
30
0
10
-5.2096550128321484
20
-1.4878942109684885
30
0
10
-4.884917441369911
20
-1.5202275106832657
30
0
10
-4.5318751715488199
20
-1.5669328369147104
30
0
10
-4.1595639723785434
20
-1.6247710611890487
30
0
10
-3.7903387406287385
20
-1.6876312061127481
30
0
10
-3.4516114241364781
20
-1.7483558516128255
30
0
10
-3.1696491106851807
20
-1.8001008419688382
30
0
10
-2.9623691917638082
20
-1.8379043244814013
30
0
10
-2.8324854560514918
20
-1.8601742162585704
30
0
10
-2.7738446981483773
20
-1.8684231082633447
30
0
10
-2.7323636911265763
20
-1.8738171251557407
30
0
10
-2.7014900862981399
20
-1.877944644935085
30
0
10
-2.6852465395884222
20
-1.8801416677991873
30
0
0
SPLINE
5
138
100
AcDbEntity
8
0
100
AcDbSpline
70
4
71
5
72
61
73
55
74
0
42
0.000000001
43
0.0000000001
44
0.0000000001
40
0
40
0
40
0
40
0
40
0
40
0
40
0.02
40
0.040000000000000001
40
0.059999999999999998
40
0.080000000000000002
40
0.10000000000000001
40
0.12
40
0.14000000000000001
40
0.16
40
0.17999999999999999
40
0.20000000000000001
40
0.22
40
0.23999999999999999
40
0.25999999999999995
40
0.28000000000000003
40
0.29999999999999999
40
0.32000000000000001
40
0.34000000000000002
40
0.36000000000000004
40
0.38000000000000012
40
0.40000000000000008
40
0.4200000000000001
40
0.44000000000000011
40
0.46000000000000008
40
0.4800000000000002
40
0.50000000000000011
40
0.52000000000000013
40
0.54000000000000015
40
0.56000000000000016
40
0.58000000000000018
40
0.6000000000000002
40
0.62000000000000022
40
0.64000000000000024
40
0.66000000000000025
40
0.68000000000000016
40
0.70000000000000018
40
0.72000000000000031
40
0.74000000000000032
40
0.76000000000000034
40
0.78000000000000025
40
0.80000000000000016
40
0.8200000000000004
40
0.8400000000000003
40
0.86000000000000032
40
0.88000000000000034
40
0.90000000000000036
40
0.92000000000000037
40
0.94000000000000039
40
0.96000000000000041
40
0.98000000000000043
40
1
40
1
40
1
40
1
40
1
40
1
41
1
41
1
41
1
41
1
41
1
41
1
41
1
41
1
41
1
41
1
41
1
41
1
41
1
41
1
41
1
41
1
41
1
41
1
41
1
41
1
41
1
41
1
41
1
41
1
41
1
41
1
41
1
41
1
41
1
41
1
41
1
41
1
41
1
41
1
41
1
41
1
41
1
41
1
41
1
41
1
41
1
41
1
41
1
41
1
41
1
41
1
41
1
41
1
41
1
41
1
41
1
41
1
41
1
41
1
41
1
10
-1.7195278202880793
20
-2.4276071347565136
30
0
10
-1.7162190686634189
20
-2.4225927430972893
30
0
10
-1.7095446968742665
20
-2.4131095744865849
30
0
10
-1.6993624131942795
20
-2.400521626805546
30
0
10
-1.6854454036362034
20
-2.3870137764136814
30
0
10
-1.6675990118288666
20
-2.3756056749331047
30
0
10
-1.6496771804261599
20
-2.3697088781398707
30
0
10
-1.632397283585358
20
-2.3693653192007806
30
0
10
-1.6170374124773024
20
-2.374655916245334
30
0
10
-1.605163299882219
20
-2.3855753490703044
30
0
10
-1.597963242221663
20
-2.40178941725252
30
0
10
-1.5956330641342984
20
-2.4223935537976158
30
0
10
-1.5969023135887899
20
-2.445754836010297
30
0
10
-1.5996275672549645
20
-2.4698963152441977
30
0
10
-1.6012655169614654
20
-2.4928280983807456
30
0
10
-1.5993571241095157
20
-2.5128681572435592
30
0
10
-1.5920915805545899
20
-2.5290438462245306
30
0
10
-1.5784348707235183
20
-2.5410987885317526
30
0
10
-1.5579918445047283
20
-2.5492562511928569
30
0
10
-1.5309487822176209
20
-2.5540651977163922
30
0
10
-1.497991920854902
20
-2.5561967008124737
30
0
10
-1.460190920595706
20
-2.5563667682049416
30
0
10
-1.4188601532940124
20
-2.5552912657786404
30
0
10
-1.3754285521163907
20
-2.5536307128954396
30
0
10
-1.3313069842929759
20
-2.5519395434863523
30
0
10
-1.2877554335333998
20
-2.5506124552576397
30
0
10
-1.2457532165198013
20
-2.5498333980959753
30
0
10
-1.2058595297143078
20
-2.5495186375396997
30
0
10
-1.168099176910167
20
-2.5492738451396995
30
0
10
-1.1321322236836819
20
-2.5485075964318198
30
0
10
-1.0974019848695495
20
-2.5465330027217243
30
0
10
-1.0632903942544438
20
-2.5426734506286079
30
0
10
-1.0292701592356981
20
-2.5363667519081869
30
0
10
-0.99505779490158919
20
-2.5272698250370658
30
0
10
-0.96076825370885077
20
-2.515364755038052
30
0
10
-0.92706598557218955
20
-2.5010624099140566
30
0
10
-0.89493755829471899
20
-2.4850440208246196
30
0
10
-0.86546499359726103
20
-2.4681029778903616
30
0
10
-0.83960659825715389
20
-2.4509929495072309
30
0
10
-0.81795769284328468
20
-2.4342599350507186
30
0
10
-0.80055803443748663
20
-2.418112145204415
30
0
10
-0.7865800832928026
20
-2.402194254009268
30
0
10
-0.77450367276569565
20
-2.3857537233311468
30
0
10
-0.76263566181028175
20
-2.368086594082885
30
0
10
-0.74951913948157023
20
-2.3488923962895809
30
0
10
-0.73440595547431453
20
-2.328685851619225
30
0
10
-0.71765485823374453
20
-2.309134774914805
30
0
10
-0.70033473820049974
20
-2.292574589180874
30
0
10
-0.6838566022186876
20
-2.2815479442453452
30
0
10
-0.66962713144559327
20
-2.2783782973901761
30
0
10
-0.65861803174526157
20
-2.2846256856466352
30
0
10
-0.65274783554886551
20
-2.2977369235091984
30
0
10
-0.65006721596033334
20
-2.3122428455750872
30
0
10
-0.64904444183853016
20
-2.3239880321776885
30
0
10
-0.64872416241087028
20
-2.3303793111181728
30
0
0
SPLINE
5
139
100
AcDbEntity
8
0
100
AcDbSpline
70
0
71
2
72
6
73
3
74
0
42
0.000000001
43
0.0000000001
44
0.0000000001
40
0
40
0
40
0
40
1
40
1
40
1
10
-1.8760160466445568
20
-7.1755520427898292
30
5.6686118065895619e-17
10
-2.3119261996008311
20
-6.8845012440440545
30
9.7737577962541274e-17
10
-2.2489574729060786
20
-6.6592268934939387
30
6.9091941788387732e-17
0
SPLINE
5
140
100
AcDbEntity
8
0
100
AcDbSpline
70
0
71
2
72
6
73
3
74
0
42
0.000000001
43
0.0000000001
44
0.0000000001
40
0
40
0
40
0
40
0.5864634325127287
40
0.5864634325127287
40
0.5864634325127287
10
0.47108094445587917
20
14.400162628760963
30
0
10
0.45710521848981062
20
14.550318660869259
30
0
10
0.44068087963850011
20
14.783044040478059
30
0
0
CIRCLE
5
141
100
AcDbEntity
8
0
100
AcDbCircle
10
-9.5696202537601529
20
3.482893349202028
30
0
40
0.10000000000000037
210
0
220
0
230
1
0
SPLINE
5
142
100
AcDbEntity
8
0
100
AcDbSpline
70
4
71
3
72
8
73
4
74
0
42
0.000000001
43
0.0000000001
44
0.0000000001
40
0
40
0
40
0
40
0
40
0.26336881492701991
40
0.26336881492701991
40
0.26336881492701991
40
0.26336881492701991
41
1
41
1
41
1
41
1
10
-1.3115795396725525
20
6.6719480261066417
30
0
10
-1.4879204489856408
20
6.7545793007093478
30
0
10
-1.6381520692236882
20
6.8305088406229988
30
0
10
-1.7730466624632857
20
6.9077156468744976
30
0
0
SPLINE
5
143
100
AcDbEntity
8
0
100
AcDbSpline
70
0
71
2
72
6
73
3
74
0
42
0.000000001
43
0.0000000001
44
0.0000000001
40
0
40
0
40
0
40
1
40
1
40
1
10
-2.2213138933298766
20
-7.440186118274676
30
1.3128307975791574e-16
10
-2.1424700125412999
20
-7.4249342377079959
30
1.1808859208496994e-16
10
-2.0671380670757342
20
-7.4459910365571371
30
1.0850946558065121e-16
0
CIRCLE
5
144
100
AcDbEntity
8
0
100
AcDbCircle
10
-3.4377632026888136
20
6.1537280261486309
30
0
40
0.10000000000000044
210
0
220
0
230
1
0
SPLINE
5
145
100
AcDbEntity
8
0
100
AcDbSpline
70
0
71
2
72
6
73
3
74
0
42
0.000000001
43
0.0000000001
44
0.0000000001
40
0
40
0
40
0
40
1
40
1
40
1
10
-1.1838889164042352
20
-7.8248414820381136
30
7.4103121357897816e-18
10
-1.1242121081800025
20
-7.800590779476166
30
-3.6563301273405685e-18
10
-1.084010160210136
20
-7.778923753891041
30
-1.1564442700023908e-17
0
ARC
5
146
100
AcDbEntity
8
0
100
AcDbCircle
10
1.521846640645675
20
3.5711012755703568
30
0
40
9.683368655360189
210
0
220
0
230
1
100
AcDbArc
50
228.67956601795393
51
310.04326170097636
0
SPLINE
5
147
100
AcDbEntity
8
0
100
AcDbSpline
70
0
71
2
72
6
73
3
74
0
42
0.000000001
43
0.0000000001
44
0.0000000001
40
0
40
0
40
0
40
1
40
1
40
1
10
-2.4858246398307475
20
-7.7859440830032671
30
2.0058193691610233e-16
10
-2.4968835801789693
20
-7.7208183073130199
30
1.9671672286279569e-16
10
-2.4815726412221424
20
-7.666042516045529
30
1.8975149409188488e-16
0
SPLINE
5
148
100
AcDbEntity
8
0
100
AcDbSpline
70
4
71
5
72
16
73
10
74
0
42
0.000000001
43
0.0000000001
44
0.0000000001
40
0.014413244051996463
40
0.014413244051996463
40
0.014413244051996463
40
0.014413244051996463
40
0.014413244051996463
40
0.014413244051996463
40
0.20000000000000001
40
0.40000000000000002
40
0.60000000000000009
40
0.80000000000000004
40
1
40
1
40
1
40
1
40
1
40
1
41
1
41
1
41
1
41
1
41
1
41
1
41
1
41
1
41
1
41
1
10
-1.7393376492559032
20
-1.9630089841130831
30
0
10
-1.7159417010263507
20
-1.9639168137525269
30
0
10
-1.6673660298987423
20
-1.9656428734267852
30
0
10
-1.5936982526549284
20
-1.9677631487179095
30
0
10
-1.4950457616571609
20
-1.9697017176394269
30
0
10
-1.3714301096480908
20
-1.9709465432459168
30
0
10
-1.2710978248350313
20
-1.9711013385246439
30
0
10
-1.195797945177081
20
-1.9707042350611177
30
0
10
-1.1455673685970853
20
-1.9701918712553248
30
0
10
-1.1204444069437001
20
-1.9698737350245448
30
0
0
SPLINE
5
149
100
AcDbEntity
8
0
100
AcDbSpline
70
4
71
5
72
26
73
20
74
0
42
0.000000001
43
0.0000000001
44
0.0000000001
40
0
40
0
40
0
40
0
40
0
40
0
40
0.066666666666666666
40
0.13333333333333333
40
0.20000000000000001
40
0.26666666666666666
40
0.33333333333333331
40
0.40000000000000002
40
0.46666666666666662
40
0.53333333333333333
40
0.59999999999999998
40
0.66666666666666663
40
0.73333333333333295
40
0.79999999999999982
40
0.8666666666666667
40
0.93333333333333324
40
1
40
1
40
1
40
1
40
1
40
1
41
1
41
1
41
1
41
1
41
1
41
1
41
1
41
1
41
1
41
1
41
1
41
1
41
1
41
1
41
1
41
1
41
1
41
1
41
1
41
1
10
-3.9576383606518033
20
6.3714482588032757
30
0
10
-3.9597644833263015
20
6.3699954278062014
30
0
10
-3.9636592047968735
20
6.3670937770818643
30
0
10
-3.9684288715679417
20
6.3627543374205766
30
0
10
-3.9726266513391586
20
6.3569859855872455
30
0
10
-3.9741156855761122
20
6.3493872878634035
30
0
10
-3.9715180433403185
20
6.3399652050741118
30
0
10
-3.9643793261410765
20
6.3263221186888217
30
0
10
-3.9522747164131675
20
6.3059198758436921
30
0
10
-3.9349934323477198
20
6.2768723663702177
30
0
10
-3.9125816651457646
20
6.2382213540703972
30
0
10
-3.8852252368693097
20
6.1895731408432386
30
0
10
-3.8531969275900719
20
6.1309604334441721
30
0
10
-3.8167978135374265
20
6.0626602795755202
30
0
10
-3.7763193717898353
20
5.9850752033007115
30
0
10
-3.7320124800327918
20
5.8986266074037772
30
0
10
-3.6936562989857809
20
5.8226675408318398
30
0
10
-3.6633043997752872
20
5.761983869472755
30
0
10
-3.6423705635898918
20
5.7198892198327087
30
0
10
-3.6317288351385342
20
5.6984321748928783
30
0
0
SPLINE
5
150
100
AcDbEntity
8
0
100
AcDbSpline
70
4
71
5
72
51
73
45
74
0
42
0.000000001
43
0.0000000001
44
0.0000000001
40
0
40
0
40
0
40
0
40
0
40
0
40
0.025000000000000001
40
0.050000000000000003
40
0.075000000000000011
40
0.10000000000000001
40
0.125
40
0.14999999999999999
40
0.17499999999999999
40
0.20000000000000001
40
0.22500000000000001
40
0.25
40
0.27500000000000002
40
0.29999999999999999
40
0.32500000000000001
40
0.35000000000000003
40
0.37500000000000011
40
0.40000000000000008
40
0.4250000000000001
40
0.45000000000000012
40
0.4750000000000002
40
0.50000000000000011
40
0.52500000000000013
40
0.55000000000000016
40
0.57500000000000018
40
0.6000000000000002
40
0.62500000000000022
40
0.65000000000000024
40
0.67500000000000016
40
0.70000000000000018
40
0.72500000000000031
40
0.75000000000000033
40
0.77500000000000036
40
0.80000000000000016
40
0.8250000000000004
40
0.85000000000000031
40
0.87500000000000033
40
0.90000000000000036
40
0.92500000000000038
40
0.9500000000000004
40
0.97500000000000042
40
1
40
1
40
1
40
1
40
1
40
1
41
1
41
1
41
1
41
1
41
1
41
1
41
1
41
1
41
1
41
1
41
1
41
1
41
1
41
1
41
1
41
1
41
1
41
1
41
1
41
1
41
1
41
1
41
1
41
1
41
1
41
1
41
1
41
1
41
1
41
1
41
1
41
1
41
1
41
1
41
1
41
1
41
1
41
1
41
1
41
1
41
1
41
1
41
1
41
1
41
1
10
5.0136136012646197
20
-2.2081953910293373
30
0
10
5.0116914520237552
20
-2.203221127520993
30
0
10
5.0084189988981489
20
-2.193771643215507
30
0
10
5.0052258302915167
20
-2.1810944251734528
30
0
10
5.0044030040312313
20
-2.1671895722566781
30
0
10
5.0090856762340117
20
-2.154698395701816
30
0
10
5.0194082660252137
20
-2.1467646770214581
30
0
10
5.035193307863743
20
-2.142661093712857
30
0
10
5.0561616179637268
20
-2.141353145909453
30
0
10
5.0819667350618047
20
-2.1417378130739926
30
0
10
5.1122180797080192
20
-2.1428219150512788
30
0
10
5.1465117675562544
20
-2.1439581895881648
30
0
10
5.1844316895172522
20
-2.1448175218268326
30
0
10
5.2255440069707397
20
-2.145300023767684
30
0
10
5.2693933569058817
20
-2.1454670574469303
30
0
10
5.3154983620330016
20
-2.1454665164229958
30
0
10
5.3633463533674544
20
-2.145458696745707
30
0
10
5.4123899540338734
20
-2.1455486343294607
30
0
10
5.462038036700247
20
-2.1456991351374319
30
0
10
5.5116687527281103
20
-2.1457233267820088
30
0
10
5.5606589943308462
20
-2.1453362290481728
30
0
10
5.608408908402934
20
-2.1441885727076992
30
0
10
5.6543687959736406
20
-2.1419078251016543
30
0
10
5.698064678177337
20
-2.1381355783498504
30
0
10
5.7391261643342046
20
-2.1325676066096029
30
0
10
5.7773108115644307
20
-2.1249906721946581
30
0
10
5.8125382805377672
20
-2.1153270638388606
30
0
10
5.8448921648916734
20
-2.1036540719115262
30
0
10
5.8745869672488764
20
-2.0901966176790641
30
0
10
5.9019436115371846
20
-2.0753266042176506
30
0
10
5.9273650593242149
20
-2.0595625284146641
30
0
10
5.9513057079825495
20
-2.0435645359691934
30
0
10
5.9742606297368805
20
-2.0281450771277107
30
0
10
5.9966741552740119
20
-2.0142168937544853
30
0
10
6.0187956236434381
20
-2.0026971540196343
30
0
10
6.0405404300535235
20
-1.994421546081856
30
0
10
6.0613688997032353
20
-1.9900603567741446
30
0
10
6.0801009409344591
20
-1.990016038540835
30
0
10
6.0952234546079405
20
-1.9944782044758387
30
0
10
6.1052507084793914
20
-2.0035031732034061
30
0
10
6.1091403919810645
20
-2.0170927390687527
30
0
10
6.1069643692342099
20
-2.0316114708389081
30
0
10
6.1022883753707662
20
-2.0445463176709948
30
0
10
6.0978201479311736
20
-2.0540779416935497
30
0
10
6.0952482748117403
20
-2.0590708476425226
30
0
0
SPLINE
5
151
100
AcDbEntity
8
0
100
AcDbSpline
70
4
71
5
72
26
73
20
74
0
42
0.000000001
43
0.0000000001
44
0.0000000001
40
0
40
0
40
0
40
0
40
0
40
0
40
0.066666666666666666
40
0.13333333333333333
40
0.20000000000000001
40
0.26666666666666666
40
0.33333333333333331
40
0.40000000000000002
40
0.46666666666666662
40
0.53333333333333333
40
0.59999999999999998
40
0.66666666666666663
40
0.73333333333333295
40
0.79999999999999982
40
0.8666666666666667
40
0.93333333333333324
40
1
40
1
40
1
40
1
40
1
40
1
41
1
41
1
41
1
41
1
41
1
41
1
41
1
41
1
41
1
41
1
41
1
41
1
41
1
41
1
41
1
41
1
41
1
41
1
41
1
41
1
10
-3.8699999532303
20
6.3499999232590163
30
0
10
-3.8716689933914457
20
6.3488645492123181
30
0
10
-3.8749746853497884
20
6.3467328319787812
30
0
10
-3.8798360571787605
20
6.3439523399555817
30
0
10
-3.886122150948597
20
6.3410853249926404
30
0
10
-3.893636059008001
20
6.3389296448220405
30
0
10
-3.9007687392327486
20
6.3382217945438644
30
0
10
-3.9074562514834326
20
6.338946979196626
30
0
10
-3.9136039051938956
20
6.3410313291779747
30
0
10
-3.9190782765796954
20
6.3442967434037065
30
0
10
-3.9237160846302581
20
6.3484738771078035
30
0
10
-3.9273450272531956
20
6.3532557330724195
30
0
10
-3.9298048697881045
20
6.3583366016709615
30
0
10
-3.9309684839735128
20
6.3634505320931742
30
0
10
-3.9307764357115875
20
6.3684190045016305
30
0
10
-3.9292254056624403
20
6.3731458271439108
30
0
10
-3.9269148659976496
20
6.3766993883160357
30
0
10
-3.9245926659497816
20
6.3792321425135787
30
0
10
-3.9227845000642789
20
6.3808621973337631
30
0
10
-3.9218154097869764
20
6.3816626139811357
30
0
0
LINE
5
152
100
AcDbEntity
8
0
100
AcDbLine
10
-2.2489574729060786
20
-6.6592268934939387
30
6.9091941788387732e-17
11
-2.241954265538578
21
-6.6341725042075046
31
6.5906053477924465e-17
0
SPLINE
5
153
100
AcDbEntity
8
0
100
AcDbSpline
70
4
71
3
72
8
73
4
74
0
42
0.000000001
43
0.0000000001
44
0.0000000001
40
0
40
0
40
0
40
0
40
0.2581837007879616
40
0.2581837007879616
40
0.2581837007879616
40
0.2581837007879616
41
1
41
1
41
1
41
1
10
5.9977389869206972
20
-2.1169311089334037
30
0
10
6.0366570590182542
20
-2.0964831923462404
30
0
10
6.0687936320905678
20
-2.077611896510434
30
0
10
6.0952482748117403
20
-2.0590708476425226
30
0
0
SPLINE
5
154
100
AcDbEntity
8
0
100
AcDbSpline
70
0
71
2
72
6
73
3
74
0
42
0.000000001
43
0.0000000001
44
0.0000000001
40
0
40
0
40
0
40
1
40
1
40
1
10
-1.7974744488763919
20
-6.643795075680262
30
-3.5334002607630037e-19
10
-1.8469682243765595
20
-6.6747818144210243
30
9.7489683575712624e-18
10
-1.9044934398389088
20
-6.7229549127736243
30
2.2523742612854902e-17
0
SPLINE
5
155
100
AcDbEntity
8
0
100
AcDbSpline
70
0
71
2
72
6
73
3
74
0
42
0.000000001
43
0.0000000001
44
0.0000000001
40
0
40
0
40
0
40
1
40
1
40
1
10
-1.8877138675463359
20
-7.8243417193563571
30
1.1358306993419431e-16
10
-1.5262064278019587
20
-7.9253903434708883
30
6.7614185470077728e-17
10
-1.1838889164042352
20
-7.8248414820381136
30
7.4103121357897816e-18
0
SPLINE
5
156
100
AcDbEntity
8
0
100
AcDbSpline
70
0
71
2
72
6
73
3
74
0
42
0.000000001
43
0.0000000001
44
0.0000000001
40
0
40
0
40
0
40
0.49213837962135681
40
0.49213837962135681
40
0.49213837962135681
10
4.2399558619336855
20
14.283650995040739
30
0
10
4.2668659165383076
20
14.347234961314467
30
0
10
4.3121559344105274
20
14.470039853053761
30
0
0
SPLINE
5
157
100
AcDbEntity
8
0
100
AcDbSpline
70
0
71
2
72
6
73
3
74
0
42
0.000000001
43
0.0000000001
44
0.0000000001
40
0
40
0
40
0
40
1
40
1
40
1
10
-2.4815726412221424
20
-7.666042516045529
30
1.8975149409188488e-16
10
-2.4345413414753785
20
-7.4977852546697319
30
1.6835608764077026e-16
10
-2.2213138933298766
20
-7.440186118274676
30
1.3128307975791574e-16
0
SPLINE
5
158
100
AcDbEntity
8
0
100
AcDbSpline
70
4
71
5
72
21
73
15
74
0
42
0.000000001
43
0.0000000001
44
0.0000000001
40
0
40
0
40
0
40
0
40
0
40
0
40
0.10000000000000001
40
0.20000000000000001
40
0.30000000000000004
40
0.40000000000000002
40
0.5
40
0.59999999999999998
40
0.69999999999999996
40
0.79999999999999982
40
0.8999999999999998
40
1
40
1
40
1
40
1
40
1
40
1
41
1
41
1
41
1
41
1
41
1
41
1
41
1
41
1
41
1
41
1
41
1
41
1
41
1
41
1
41
1
10
-3.3169122764794614
20
6.6461595409123353
30
0
10
-3.296916266619041
20
6.6576252812570731
30
0
10
-3.2569055847081607
20
6.6810192785499396
30
0
10
-3.1968335389793672
20
6.7174977732054346
30
0
10
-3.1168860346329894
20
6.7686660133865795
30
0
10
-3.0186781044812538
20
6.8355135524846418
30
0
10
-2.9240871978330647
20
6.9036064256611107
30
0
10
-2.8349509147172838
20
6.9713731160872019
30
0
10
-2.7526460676196649
20
7.0376196901277774
30
0
10
-2.6773346560547173
20
7.1020132843449044
30
0
10
-2.608089511190872
20
7.1650079398840676
30
0
10
-2.556545770135612
20
7.2148899069739372
30
0
10
-2.5195470875133843
20
7.2523476351542788
30
0
10
-2.4955498498318756
20
7.2773888496804791
30
0
10
-2.4837183318316303
20
7.2899268335467164
30
0
0
ARC
5
159
100
AcDbEntity
8
0
100
AcDbCircle
10
1.5251943946630375
20
3.5720911659688426
30
0
40
9.1789411042289331
210
0
220
0
230
1
100
AcDbArc
50
229.06859514789366
51
309.54734476631671
0
SPLINE
5
160
100
AcDbEntity
8
0
100
AcDbSpline
70
4
71
3
72
8
73
4
74
0
42
0.000000001
43
0.0000000001
44
0.0000000001
40
0
40
0
40
0
40
0
40
0.39888816529449678
40
0.39888816529449678
40
0.39888816529449678
40
0.39888816529449678
41
1
41
1
41
1
41
1
10
-0.83153934204857083
20
-2.5373253991496121
30
0
10
-0.74892202539211616
20
-2.4768556197653626
30
0
10
-0.69085554273300342
20
-2.4161850875041422
30
0
10
-0.64872416241087028
20
-2.3303793111181728
30
0
0
SPLINE
5
161
100
AcDbEntity
8
0
100
AcDbSpline
70
4
71
5
72
15
73
9
74
0
42
0.000000001
43
0.0000000001
44
0.0000000001
40
0.092794748187354295
40
0.092794748187354295
40
0.092794748187354295
40
0.092794748187354295
40
0.092794748187354295
40
0.092794748187354295
40
0.20000000000000001
40
0.40000000000000002
40
0.60000000000000009
40
0.65843206396721654
40
0.65843206396721654
40
0.65843206396721654
40
0.65843206396721654
40
0.65843206396721654
40
0.65843206396721654
41
1
41
1
41
1
41
1
41
1
41
1
41
1
41
1
41
1
10
8.5153613441005724
20
-2.0006235615010466
30
0
10
8.5331952969433242
20
-2.0038492093174605
30
0
10
8.5845556986554286
20
-2.0131994891644416
30
0
10
8.670539390102233
20
-2.0291346299995068
30
0
10
8.7684365804556013
20
-2.0477619004097471
30
0
10
8.8682609117712357
20
-2.067261591410539
30
0
10
8.9504253550162858
20
-2.0836784560984771
30
0
10
8.9971640878473629
20
-2.0931445417187744
30
0
10
9.0077535663716297
20
-2.0952958606083856
30
0
0
SPLINE
5
162
100
AcDbEntity
8
0
100
AcDbSpline
70
4
71
5
72
26
73
20
74
0
42
0.000000001
43
0.0000000001
44
0.0000000001
40
0.0040770268011634568
40
0.0040770268011634568
40
0.0040770268011634568
40
0.0040770268011634568
40
0.0040770268011634568
40
0.0040770268011634568
40
0.066666666666666666
40
0.13333333333333333
40
0.20000000000000001
40
0.26666666666666666
40
0.33333333333333331
40
0.40000000000000002
40
0.46666666666666662
40
0.53333333333333333
40
0.59999999999999998
40
0.66666666666666663
40
0.73333333333333295
40
0.79999999999999982
40
0.8666666666666667
40
0.93333333333333324
40
0.99894390549920131
40
0.99894390549920131
40
0.99894390549920131
40
0.99894390549920131
40
0.99894390549920131
40
0.99894390549920131
41
1
41
1
41
1
41
1
41
1
41
1
41
1
41
1
41
1
41
1
41
1
41
1
41
1
41
1
41
1
41
1
41
1
41
1
41
1
41
1
10
-2.2894876331015075
20
7.1671890750966787
30
0
10
-2.2886134041290069
20
7.1664843988774063
30
0
10
-2.2867920908608452
20
7.165097500566783
30
0
10
-2.2839815807491552
20
7.163209340515456
30
0
10
-2.2801129404462697
20
7.1611167709450116
30
0
10
-2.2751007535925281
20
7.159246874586934
30
0
10
-2.2698991446340995
20
7.1581504820195079
30
0
10
-2.2646553322637888
20
7.1578653610677119
30
0
10
-2.2595183618539485
20
7.1583884008808578
30
0
10
-2.2547257953603093
20
7.1596826206825641
30
0
10
-2.2505703046786105
20
7.161688005973387
30
0
10
-2.2473580938743702
20
7.1643339785960132
30
0
10
-2.2453698648583602
20
7.1675484101179601
30
0
10
-2.2448154006171301
20
7.1712657412675043
30
0
10
-2.2457904811437976
20
7.1754332314239377
30
0
10
-2.2483109327682973
20
7.1799968642221179
30
0
10
-2.2515453358660453
20
7.1839497916416288
30
0
10
-2.2546395604070222
20
7.1870752419527806
30
0
10
-2.2569916732328155
20
7.1892256165138075
30
0
10
-2.2582308534641444
20
7.1903099981436016
30
0
0
CIRCLE
5
163
100
AcDbEntity
8
0
100
AcDbCircle
10
-2.7672185347745479
20
6.2708895689444315
30
0
40
0.099999999999999881
210
0
220
0
230
1
0
LINE
5
164
100
AcDbEntity
8
0
100
AcDbLine
10
0.17631897763825202
20
-6.9726855869580895
30
-5.318204210751145e-17
11
0.090104662130815236
21
-6.9525833159730315
31
-4.363607930854864e-17
0
CIRCLE
5
165
100
AcDbEntity
8
0
100
AcDbCircle
10
-3.1886729604178363
20
6.5198067992243098
30
0
40
0.10000000000000037
210
0
220
0
230
1
0
CIRCLE
5
166
100
AcDbEntity
8
0
100
AcDbCircle
10
-2.4262164289360562
20
7.1048079644046123
30
0
40
0.099999999999999839
210
0
220
0
230
1
0
LINE
5
167
100
AcDbEntity
8
0
100
AcDbLine
10
2.205686371124997
20
15.164993066253105
30
0
11
2.1692106074679249
21
15.169543933336499
31
0
0
SPLINE
5
168
100
AcDbEntity
8
0
100
AcDbSpline
70
0
71
2
72
6
73
3
74
0
42
0.000000001
43
0.0000000001
44
0.0000000001
40
0
40
0
40
0
40
1
40
1
40
1
10
0.62404271686158674
20
-8.3972474159546451
30
3.9163761096393626e-17
10
0.41227080467465815
20
-8.5921737113133769
30
8.8874890950876798e-17
10
0.18472437810162604
20
-8.5657160887729464
30
1.1692902916219006e-16
0
SPLINE
5
169
100
AcDbEntity
8
0
100
AcDbSpline
70
4
71
5
72
21
73
15
74
0
42
0.000000001
43
0.0000000001
44
0.0000000001
40
0
40
0
40
0
40
0
40
0
40
0
40
0.10000000000000001
40
0.20000000000000001
40
0.30000000000000004
40
0.40000000000000002
40
0.5
40
0.59999999999999998
40
0.69999999999999996
40
0.79999999999999982
40
0.8999999999999998
40
1
40
1
40
1
40
1
40
1
40
1
41
1
41
1
41
1
41
1
41
1
41
1
41
1
41
1
41
1
41
1
41
1
41
1
41
1
41
1
41
1
10
-3.6317288351385342
20
5.6984321748928783
30
0
10
-3.6314619601732927
20
5.6974957734212959
30
0
10
-3.6308891435073107
20
5.6956585697938307
30
0
10
-3.629912720714068
20
5.6930095601016113
30
0
10
-3.6283725509825278
20
5.6896946716459871
30
0
10
-3.6260234647398715
20
5.6859373136494975
30
0
10
-3.6232134040263024
20
5.6826000157236862
30
0
10
-3.6199059643974807
20
5.679715951187557
30
0
10
-3.6160835136713754
20
5.6773011872546366
30
0
10
-3.6117690401691767
20
5.6753347759616783
30
0
10
-3.607000763425297
20
5.6737818899987165
30
0
10
-3.602853432266345
20
5.6728427608926095
30
0
10
-3.5995677607944914
20
5.6722980394424667
30
0
10
-3.5973007315445469
20
5.6720046763084326
30
0
10
-3.596148070755961
20
5.671875441561637
30
0
0
CIRCLE
5
170
100
AcDbEntity
8
0
100
AcDbCircle
10
-2.387416178619564
20
6.8505608092934587
30
0
40
0.099999999999999839
210
0
220
0
230
1
0
SPLINE
5
171
100
AcDbEntity
8
0
100
AcDbSpline
70
4
71
3
72
8
73
4
74
0
42
0.000000001
43
0.0000000001
44
0.0000000001
40
0.54044477396359347
40
0.54044477396359347
40
0.54044477396359347
40
0.54044477396359347
40
1
40
1
40
1
40
1
41
1
41
1
41
1
41
1
10
-2.7908911420745879
20
-2.0166180295953327
30
0
10
-2.8448988977125467
20
-2.100345715862121
30
0
10
-2.8763646858846625
20
-2.178873803377289
30
0
10
-2.8511395460997462
20
-2.2023460819050831
30
0
0
LINE
5
172
100
AcDbEntity
8
0
100
AcDbLine
10
0.090104662130815236
20
-6.9525833159730315
30
-4.363607930854864e-17
11
0.082282787224570428
21
-6.9516738390942079
31
-4.2671722438628905e-17
0
SPLINE
5
173
100
AcDbEntity
8
0
100
AcDbSpline
70
0
71
2
72
6
73
3
74
0
42
0.000000001
43
0.0000000001
44
0.0000000001
40
0
40
0
40
0
40
1
40
1
40
1
10
2.4262561459872929
20
13.626463425286472
30
0
10
2.2637919079180961
20
13.646733135338563
30
0
10
2.1938773774591276
20
13.962020996677715
30
0
0
LINE
5
174
100
AcDbEntity
8
0
100
AcDbLine
10
0.54328957203830019
20
-7.8426984687124603
30
-9.4854174831536061e-18
11
0.54895078699416355
21
-7.7940096936231669
31
-1.5488243571288725e-17
0
SPLINE
5
175
100
AcDbEntity
8
0
100
AcDbSpline
70
0
71
2
72
6
73
3
74
0
42
0.000000001
43
0.0000000001
44
0.0000000001
40
0
40
0
40
0
40
1
40
1
40
1
10
-0.10994857913220424
20
-6.6573764728408307
30
-4.8206040780398446e-17
10
0.00036075638558237587
20
-6.5681063623776135
30
-7.2781493097176739e-17
10
0.10971830614436627
20
-6.5633456739430951
30
-8.8142852446725837e-17
0
LINE
5
176
100
AcDbEntity
8
0
100
AcDbLine
10
2.0419180187115198
20
14.645370455445452
30
0
11
2.0446631221054408
21
14.667372799345223
31
0
0
CIRCLE
5
177
100
AcDbEntity
8
0
100
AcDbCircle
10
-2.9915915380624165
20
6.1250070601009785
30
0
40
0.1000000000000001
210
0
220
0
230
1
0
CIRCLE
5
178
100
AcDbEntity
8
0
100
AcDbCircle
10
-2.791175697649666
20
6.5305332948770927
30
0
40
0.099999999999999881
210
0
220
0
230
1
0
LINE
5
179
100
AcDbEntity
8
0
100
AcDbLine
10
2.183366889190931
20
14.906529145687292
30
0
11
2.2323877796505558
21
15.191283681275111
31
0
0
SPLINE
5
180
100
AcDbEntity
8
0
100
AcDbSpline
70
4
71
3
72
8
73
4
74
0
42
0.000000001
43
0.0000000001
44
0.0000000001
40
0.73085652825125225
40
0.73085652825125225
40
0.73085652825125225
40
0.73085652825125225
40
1
40
1
40
1
40
1
41
1
41
1
41
1
41
1
10
-2.4066495810897965
20
7.3755457141755807
30
0
10
-2.5235453979965432
20
7.4847700852851862
30
0
10
-2.6443930421285242
20
7.6101192059872442
30
0
10
-2.7806890073691686
20
7.7601085149008009
30
0
0
LINE
5
181
100
AcDbEntity
8
0
100
AcDbLine
10
0.22236081924145804
20
-8.2420272283242362
30
7.7021515933999839e-17
11
0.23825789516514129
21
-8.2438756371989417
31
7.5061569685511461e-17
0
SPLINE
5
182
100
AcDbEntity
8
0
100
AcDbSpline
70
0
71
2
72
6
73
3
74
0
42
0.000000001
43
0.0000000001
44
0.0000000001
40
0
40
0
40
0
40
1
40
1
40
1
10
-1.0548208773440126
20
-6.6908992180696565
30
-1.0842552174759699e-16
10
-1.0759769604027407
20
-6.6935759088469906
30
-1.0500537237943935e-16
10
-1.1432951787862156
20
-6.6747591084229052
30
-9.644526250898055e-17
0
CIRCLE
5
183
100
AcDbEntity
8
0
100
AcDbCircle
10
-3.4000001085086113
20
6.4000002042515067
30
0
40
0.1000000000000001
210
0
220
0
230
1
0
CIRCLE
5
184
100
AcDbEntity
8
0
100
AcDbCircle
10
-2.1583067266556006
20
6.7891445002904831
30
0
40
0.10000000000000044
210
0
220
0
230
1
0
SPLINE
5
185
100
AcDbEntity
8
0
100
AcDbSpline
70
4
71
3
72
8
73
4
74
0
42
0.000000001
43
0.0000000001
44
0.0000000001
40
0.65124767274857298
40
0.65124767274857298
40
0.65124767274857298
40
0.65124767274857298
40
1
40
1
40
1
40
1
41
1
41
1
41
1
41
1
10
5.0169152156729524
20
-2.2167395247095265
30
0
10
5.083136040763514
20
-2.2211321697201014
30
0
10
5.1863880559876723
20
-2.2211137173188393
30
0
10
5.3439757149869616
20
-2.2208546894155297
30
0
0
SPLINE
5
186
100
AcDbEntity
8
0
100
AcDbSpline
70
4
71
3
72
8
73
4
74
0
42
0.000000001
43
0.0000000001
44
0.0000000001
40
0.81079036384787584
40
0.81079036384787584
40
0.81079036384787584
40
0.81079036384787584
40
1
40
1
40
1
40
1
41
1
41
1
41
1
41
1
10
-0.55969504982797169
20
-1.9567017042666981
30
0
10
-0.55096312510223366
20
-1.8787651218555679
30
0
10
-0.54381481855959779
20
-1.7893797656216859
30
0
10
-0.53733059478145528
20
-1.6858844398882189
30
0
0
LINE
5
187
100
AcDbEntity
8
0
100
AcDbLine
10
3.2806093252462256
20
15.55384438373831
30
0
11
3.3004606144934647
21
15.551367654816399
31
0
0
LINE
5
188
100
AcDbEntity
8
0
100
AcDbLine
10
2.0754754287125001
20
-8.233483093771488
30
3.8574200077869686e-17
11
2.1283347527277976
21
-8.287712766241718
31
3.900563861839592e-17
0
SPLINE
5
189
100
AcDbEntity
8
0
100
AcDbSpline
70
0
71
2
72
6
73
3
74
0
42
0.000000001
43
0.0000000001
44
0.0000000001
40
0
40
0
40
0
40
1
40
1
40
1
10
0.27771343208201688
20
-6.8565742591284646
30
-7.9432408108799251e-17
10
0.23255565189777488
20
-6.8513236053569599
30
-7.3864917440259929e-17
10
0.17631897763825202
20
-6.9726855869580895
30
-5.318204210751145e-17
0
LINE
5
190
100
AcDbEntity
8
0
100
AcDbLine
10
2.0395598494445126
20
15.272818674150052
30
0
11
2.0443889630062402
21
15.311524617813747
31
0
0
SPLINE
5
191
100
AcDbEntity
8
0
100
AcDbSpline
70
0
71
2
72
6
73
3
74
0
42
0.000000001
43
0.0000000001
44
0.0000000001
40
0
40
0
40
0
40
1
40
1
40
1
10
1.776595246451707
20
-7.7386559933680639
30
1.2628365404931592e-17
10
1.9352900875261623
20
-8.0823821287628927
30
3.652054480821618e-17
10
2.0754754287124988
20
-8.233483093771488
30
3.8574200077869686e-17
0
SPLINE
5
192
100
AcDbEntity
8
0
100
AcDbSpline
70
0
71
2
72
6
73
3
74
0
42
0.000000001
43
0.0000000001
44
0.0000000001
40
0
40
0
40
0
40
1
40
1
40
1
10
2.1795712138065957
20
14.555378145801123
30
0
10
2.1231492593776853
20
14.562417582113007
30
0
10
2.0419180187115198
20
14.645370455445452
30
0
0
SPLINE
5
193
100
AcDbEntity
8
0
100
AcDbSpline
70
4
71
5
72
76
73
70
74
0
42
0.000000001
43
0.0000000001
44
0.0000000001
40
0.003525067505663866
40
0.003525067505663866
40
0.003525067505663866
40
0.003525067505663866
40
0.003525067505663866
40
0.003525067505663866
40
0.015384615384615384
40
0.030769230769230767
40
0.046153846153846163
40
0.061538461538461535
40
0.076923076923076927
40
0.092307692307692327
40
0.1076923076923077
40
0.12307692307692307
40
0.13846153846153847
40
0.15384615384615385
40
0.16923076923076924
40
0.18461538461538465
40
0.20000000000000001
40
0.2153846153846154
40
0.23076923076923081
40
0.24615384615384611
40
0.26153846153846155
40
0.27692307692307688
40
0.29230769230769232
40
0.30769230769230771
40
0.32307692307692309
40
0.33846153846153848
40
0.35384615384615392
40
0.36923076923076931
40
0.38461538461538464
40
0.40000000000000002
40
0.41538461538461535
40
0.43076923076923079
40
0.44615384615384612
40
0.46153846153846162
40
0.47692307692307701
40
0.49230769230769222
40
0.50769230769230766
40
0.52307692307692299
40
0.53846153846153832
40
0.55384615384615365
40
0.56923076923076898
40
0.58461538461538431
40
0.59999999999999964
40
0.61538461538461497
40
0.6307692307692303
40
0.64615384615384563
40
0.66153846153846096
40
0.67692307692307618
40
0.69230769230769162
40
0.70769230769230695
40
0.72307692307692206
40
0.73846153846153761
40
0.75384615384615306
40
0.76923076923076816
40
0.7846153846153836
40
0.79999999999999893
40
0.81538461538461415
40
0.83076923076922959
40
0.84615384615384504
40
0.86153846153846025
40
0.87692307692307536
40
0.89230769230769091
40
0.90769230769230624
40
0.92307692307692157
40
0.93846153846153701
40
0.95384615384615223
40
0.96923076923076756
40
0.98461538461538278
40
1
40
1
40
1
40
1
40
1
40
1
41
1
41
1
41
1
41
1
41
1
41
1
41
1
41
1
41
1
41
1
41
1
41
1
41
1
41
1
41
1
41
1
41
1
41
1
41
1
41
1
41
1
41
1
41
1
41
1
41
1
41
1
41
1
41
1
41
1
41
1
41
1
41
1
41
1
41
1
41
1
41
1
41
1
41
1
41
1
41
1
41
1
41
1
41
1
41
1
41
1
41
1
41
1
41
1
41
1
41
1
41
1
41
1
41
1
41
1
41
1
41
1
41
1
41
1
41
1
41
1
41
1
41
1
41
1
41
1
41
1
41
1
41
1
41
1
41
1
41
1
10
7.3173238643071583
20
-2.1201436765164567
30
0
10
7.3189120219778392
20
-2.1173493679905437
30
0
10
7.3227399611945492
20
-2.1111162960595684
30
0
10
7.3293746569634219
20
-2.1020325299958986
30
0
10
7.3397700593214612
20
-2.0910974118447214
30
0
10
7.3551125161126967
20
-2.0797566145350439
30
0
10
7.3730072227841772
20
-2.0707778193227955
30
0
10
7.3915221667624751
20
-2.0649590506858777
30
0
10
7.4085434615602308
20
-2.0627415245757064
30
0
10
7.421558497030067
20
-2.0646512526343606
30
0
10
7.4284934534844549
20
-2.0711283671534089
30
0
10
7.4286260420135131
20
-2.0823508940089441
30
0
10
7.4228879866761339
20
-2.0981487807291068
30
0
10
7.4130002895464875
20
-2.1180914963146318
30
0
10
7.4009252823396849
20
-2.1415340985091564
30
0
10
7.3880882944062476
20
-2.1676807096406634
30
0
10
7.3753763536680355
20
-2.1956334355001585
30
0
10
7.3633441955482244
20
-2.2244421163997341
30
0
10
7.3523482257917312
20
-2.2531530322638464
30
0
10
7.3427194816306676
20
-2.2808588141596382
30
0
10
7.334897951407287
20
-2.3067460433109717
30
0
10
7.329637461257283
20
-2.3301485310675267
30
0
10
7.3279662811330493
20
-2.3505806214593301
30
0
10
7.3309017286117406
20
-2.3677521123043768
30
0
10
7.3392400640866908
20
-2.3815864160873814
30
0
10
7.3532960557510521
20
-2.3922423411516518
30
0
10
7.3727196748167572
20
-2.4001213763399716
30
0
10
7.3967223415146011
20
-2.4057767042862843
30
0
10
7.4242598876354107
20
-2.4098329623871573
30
0
10
7.4542290099879294
20
-2.4129030905767568
30
0
10
7.4856637194025906
20
-2.4155039796018967
30
0
10
7.5179148433427052
20
-2.4179796185063789
30
0
10
7.5505821552498444
20
-2.4205269495132029
30
0
10
7.5834637497592752
20
-2.4232145385238613
30
0
10
7.6164993990263801
20
-2.4260037679180626
30
0
10
7.649716221828327
20
-2.4287687666052218
30
0
10
7.6831746969852652
20
-2.4313167350172158
30
0
10
7.7169118177317788
20
-2.4334079624799161
30
0
10
7.7508937125666488
20
-2.4347759406928717
30
0
10
7.7850293873074916
20
-2.4351477719327654
30
0
10
7.819177563948605
20
-2.4342645548016133
30
0
10
7.8531560980944004
20
-2.4319017934621701
30
0
10
7.8867502246691741
20
-2.4278898704206866
30
0
10
7.9197212551394722
20
-2.4221345514710064
30
0
10
7.9518150294994179
20
-2.4146376888641923
30
0
10
7.9827704739678849
20
-2.4055178091641509
30
0
10
8.0123359328918884
20
-2.3949612529695621
30
0
10
8.0402856660664632
20
-2.3831723875931505
30
0
10
8.0664360669839663
20
-2.3703262983455047
30
0
10
8.0906626717014802
20
-2.3565157352458037
30
0
10
8.1129155454933795
20
-2.3417113523187401
30
0
10
8.1332389678211072
20
-2.3256887751760056
30
0
10
8.151774379820365
20
-2.3080888989299786
30
0
10
8.168751159272464
20
-2.2885786097934462
30
0
10
8.1844806489125848
20
-2.266980798083575
30
0
10
8.199349961815912
20
-2.2434204501643107
30
0
10
8.2138137717704378
20
-2.218456752539101
30
0
10
8.2283930842017519
20
-2.1932421501548673
30
0
10
8.2435640933763512
20
-2.1692864234083413
30
0
10
8.2596433801212115
20
-2.1481992891929886
30
0
10
8.2766662204973009
20
-2.1314304761007721
30
0
10
8.2942854947051394
20
-2.1200344876137871
30
0
10
8.3116174772778262
20
-2.1143668349688256
30
0
10
8.3272541539031604
20
-2.1139977383291102
30
0
10
8.3396837247718612
20
-2.1181508518110896
30
0
10
8.3476076024618759
20
-2.1260180254105547
30
0
10
8.3498027007615097
20
-2.1349379475251178
30
0
10
8.3490225359977064
20
-2.1430423895958919
30
0
10
8.3474239698330894
20
-2.1490734252056334
30
0
10
8.3463550975885337
20
-2.1522459817621256
30
0
0
CIRCLE
5
194
100
AcDbEntity
8
0
100
AcDbCircle
10
-3.1946918963585413
20
6.2557309391010323
30
0
40
0.10000000000000013
210
0
220
0
230
1
0
SPLINE
5
195
100
AcDbEntity
8
0
100
AcDbSpline
70
4
71
5
72
15
73
9
74
0
42
0.000000001
43
0.0000000001
44
0.0000000001
40
0.02189546705188658
40
0.02189546705188658
40
0.02189546705188658
40
0.02189546705188658
40
0.02189546705188658
40
0.02189546705188658
40
0.066666666666666666
40
0.13333333333333333
40
0.20000000000000001
40
0.21978343827944202
40
0.21978343827944202
40
0.21978343827944202
40
0.21978343827944202
40
0.21978343827944202
40
0.21978343827944202
41
1
41
1
41
1
41
1
41
1
41
1
41
1
41
1
41
1
10
-3.9218154097869764
20
6.3816626139811357
30
0
10
-3.9071247006609187
20
6.3859837808043851
30
0
10
-3.8704549645089545
20
6.3971059472116041
30
0
10
-3.811434582692721
20
6.4163421385790365
30
0
10
-3.745121599378392
20
6.4403258477813532
30
0
10
-3.6779998641578335
20
6.4672591851667578
30
0
10
-3.6256127523340695
20
6.4898793714534273
30
0
10
-3.5959024189337891
20
6.5032168577286749
30
0
10
-3.5890966573630241
20
6.5062986512960261
30
0
0
SPLINE
5
196
100
AcDbEntity
8
0
100
AcDbSpline
70
4
71
5
72
31
73
25
74
0
42
0.000000001
43
0.0000000001
44
0.0000000001
40
0.018581448321791455
40
0.018581448321791455
40
0.018581448321791455
40
0.018581448321791455
40
0.018581448321791455
40
0.018581448321791455
40
0.050000000000000003
40
0.10000000000000001
40
0.15000000000000002
40
0.20000000000000001
40
0.25
40
0.29999999999999999
40
0.34999999999999998
40
0.40000000000000002
40
0.45000000000000001
40
0.5
40
0.54999999999999993
40
0.59999999999999998
40
0.65000000000000002
40
0.70000000000000007
40
0.75000000000000022
40
0.80000000000000016
40
0.8500000000000002
40
0.90000000000000024
40
0.9500000000000004
40
1
40
1
40
1
40
1
40
1
40
1
41
1
41
1
41
1
41
1
41
1
41
1
41
1
41
1
41
1
41
1
41
1
41
1
41
1
41
1
41
1
41
1
41
1
41
1
41
1
41
1
41
1
41
1
41
1
41
1
41
1
10
-3.5843762958458045
20
6.5081212158643993
30
0
10
-3.5832751813674326
20
6.5084760559803785
30
0
10
-3.5804741347136431
20
6.5092905222349247
30
0
10
-3.5761723207513554
20
6.51016546224223
30
0
10
-3.5707248296559868
20
6.510392573365376
30
0
10
-3.5646511549365809
20
6.5089883426433879
30
0
10
-3.5591548703192308
20
6.5056245287607295
30
0
10
-3.5547385407796357
20
6.5008296533906176
30
0
10
-3.5514467647841088
20
6.4952220103035998
30
0
10
-3.5494533205821357
20
6.4893860426952186
30
0
10
-3.549152743306689
20
6.4836751353274025
30
0
10
-3.5512370717736679
20
6.478026177608367
30
0
10
-3.5565152875710044
20
6.4721422019653136
30
0
10
-3.5657690500668906
20
6.4656274109744745
30
0
10
-3.5795593435242186
20
6.4581631900082375
30
0
10
-3.5982193765211274
20
6.4495351691796765
30
0
10
-3.6219225396420289
20
6.4396009164425969
30
0
10
-3.650718769803992
20
6.4282787787568525
30
0
10
-3.6845762303124836
20
6.4155304320823845
30
0
10
-3.723413403569384
20
6.4013484945130159
30
0
10
-3.7671286151795065
20
6.3857441406027338
30
0
10
-3.8059253682348628
20
6.3721381919018283
30
0
10
-3.8371419533738278
20
6.3613104549070139
30
0
10
-3.8588909611061233
20
6.3538160810202067
30
0
10
-3.8699999532303
20
6.3499999232590163
30
0
0
LINE
5
197
100
AcDbEntity
8
0
100
AcDbLine
10
2.7388190090915558
20
15.503498592870132
30
0
11
2.7370790430208598
21
15.503715678231025
31
0
0
SPLINE
5
198
100
AcDbEntity
8
0
100
AcDbSpline
70
0
71
2
72
6
73
3
74
0
42
0.000000001
43
0.0000000001
44
0.0000000001
40
0
40
0
40
0
40
1
40
1
40
1
10
2.0446631221054408
20
14.667372799345223
30
0
10
2.0547733116418838
20
14.748407221423903
30
0
10
2.1677471539458053
20
14.847514992308506
30
0
0
CIRCLE
5
199
100
AcDbEntity
8
0
100
AcDbCircle
10
-2.6141988084927097
20
6.9408873294312174
30
0
40
0.10000000000000019
210
0
220
0
230
1
0
SPLINE
5
200
100
AcDbEntity
8
0
100
AcDbSpline
70
0
71
2
72
6
73
3
74
0
42
0.000000001
43
0.0000000001
44
0.0000000001
40
0
40
0
40
0
40
1
40
1
40
1
10
1.1001596008862446
20
-8.328795005293637
30
1.6749521503844266e-16
10
1.0938718180373077
20
-8.0160917125597528
30
1.2919236534073903e-16
10
1.0845452369736948
20
-7.6513773930360278
30
8.4757826718677368e-17
0
SPLINE
5
201
100
AcDbEntity
8
0
100
AcDbSpline
70
0
71
2
72
6
73
3
74
0
42
0.000000001
43
0.0000000001
44
0.0000000001
40
0
40
0
40
0
40
1
40
1
40
1
10
0.49875601741929182
20
-8.0548396256447177
30
1.936715561433345e-17
10
0.52726696405568452
20
-7.9804994818327035
30
7.5040326521733777e-18
10
0.54328957203830019
20
-7.8426984687124603
30
-9.4854174831536061e-18
0
LINE
5
202
100
AcDbEntity
8
0
100
AcDbLine
10
2.1283347527277976
20
-8.287712766241718
30
3.900563861839592e-17
11
2.10409426669634
21
-8.288200189674285
31
4.1974842060242608e-17
0
SPLINE
5
203
100
AcDbEntity
8
0
100
AcDbSpline
70
0
71
2
72
6
73
3
74
0
42
0.000000001
43
0.0000000001
44
0.0000000001
40
0
40
0
40
0
40
1
40
1
40
1
10
2.0934620396666181
20
-6.5732471576882645
30
-1.7095046936697954e-16
10
2.1575652059970589
20
-6.5103041942412387
30
-1.8650313214271003e-16
10
2.2255053669035596
20
-6.5089380654270297
30
-1.9482508407640488e-16
0
LINE
5
204
100
AcDbEntity
8
0
100
AcDbLine
10
0.18472437810162604
20
-8.5657160887729464
30
1.1692902916219006e-16
11
0.14198913957512885
21
-8.5607471124319936
31
1.2219784531620256e-16
0
LINE
5
205
100
AcDbEntity
8
0
100
AcDbLine
10
2.232834640692889
20
15.165637976215782
30
0
11
2.205686371124997
21
15.164993066253105
31
0
0
SPLINE
5
206
100
AcDbEntity
8
0
100
AcDbSpline
70
0
71
2
72
6
73
3
74
0
42
0.000000001
43
0.0000000001
44
0.0000000001
40
0
40
0
40
0
40
1
40
1
40
1
10
0.85054137470485414
20
-7.5164177118922595
30
-8.628243179996074e-17
10
0.86123486161021334
20
-7.6875109610414478
30
-6.9341790362360367e-17
10
0.84485144199500894
20
-7.8284151024770239
30
-5.1969756365107678e-17
0
LINE
5
207
100
AcDbEntity
8
0
100
AcDbLine
10
0.29063371641494423
20
-6.8580765459854556
30
-8.1025346516421692e-17
11
0.27771343208201688
21
-6.8565742591284646
31
-7.9432408108799251e-17
0
CIRCLE
5
208
100
AcDbEntity
8
0
100
AcDbCircle
10
-3.6649336828719434
20
6.2518562363434969
30
0
40
0.099999999999999423
210
0
220
0
230
1
0
LINE
5
209
100
AcDbEntity
8
0
100
AcDbLine
10
2.4709255053898702
20
13.620890291321345
30
0
11
2.4262561459872929
21
13.626463425286472
31
0
0
SPLINE
5
210
100
AcDbEntity
8
0
100
AcDbSpline
70
0
71
2
72
6
73
3
74
0
42
0.000000001
43
0.0000000001
44
0.0000000001
40
0
40
0
40
0
40
1
40
1
40
1
10
0.84300304396134651
20
-7.8443120851632751
30
-5.0009821611837807e-17
10
0.80303029275323012
20
-8.1880941723027938
30
-7.6250198268254486e-18
10
0.62404271686158674
20
-8.3972474159546451
30
3.9163761096393626e-17
0
SPLINE
5
211
100
AcDbEntity
8
0
100
AcDbSpline
70
0
71
2
72
6
73
3
74
0
42
0.000000001
43
0.0000000001
44
0.0000000001
40
0
40
0
40
0
40
1
40
1
40
1
10
2.7383288329005593
20
13.681036282467071
30
0
10
2.5835005324161235
20
13.606844965506586
30
0
10
2.4709255053898698
20
13.620890291321345
30
0
0
LINE
5
212
100
AcDbEntity
8
0
100
AcDbLine
10
2.2323877796505558
20
15.191283681275111
30
0
11
2.232834640692889
21
15.165637976215782
31
0
0
SPLINE
5
213
100
AcDbEntity
8
0
100
AcDbSpline
70
0
71
2
72
6
73
3
74
0
42
0.000000001
43
0.0000000001
44
0.0000000001
40
0
40
0
40
0
40
1
40
1
40
1
10
0.12188095985630751
20
-8.2063206212751876
30
8.6827103990264575e-17
10
0.17926139529342122
20
-8.2370159068646966
30
8.2335232411450838e-17
10
0.22236081924145804
20
-8.2420272283242362
30
7.7021515933999839e-17
0
CIRCLE
5
214
100
AcDbEntity
8
0
100
AcDbCircle
10
-3.2259071954359828
20
6.0102402075098427
30
0
40
0.09999999999999995
210
0
220
0
230
1
0
CIRCLE
5
215
100
AcDbEntity
8
0
100
AcDbCircle
10
-2.208087097384245
20
7.0277073347764043
30
0
40
0.099999999999999603
210
0
220
0
230
1
0
SPLINE
5
216
100
AcDbEntity
8
0
100
AcDbSpline
70
0
71
2
72
6
73
3
74
0
42
0.000000001
43
0.0000000001
44
0.0000000001
40
0
40
0
40
0
40
1
40
1
40
1
10
0.23825789516514129
20
-8.2438756371989417
30
7.5061569685511461e-17
10
0.3780221157190623
20
-8.2601265142079328
30
5.7830076229569507e-17
10
0.49875601741929182
20
-8.0548396256447177
30
1.936715561433345e-17
0
SPLINE
5
217
100
AcDbEntity
8
0
100
AcDbSpline
70
0
71
2
72
6
73
3
74
0
42
0.000000001
43
0.0000000001
44
0.0000000001
40
0
40
0
40
0
40
1
40
1
40
1
10
-1.2950395488929858
20
-6.3282443353243396
30
-1.0299077786222927e-16
10
-0.97731575030588991
20
-6.4170545482438035
30
-1.4339218315302502e-16
10
-0.90883167413701749
20
-6.5913997553124348
30
-1.3891203669707538e-16
0
SPLINE
5
218
100
AcDbEntity
8
0
100
AcDbSpline
70
4
71
3
72
8
73
4
74
0
42
0.000000001
43
0.0000000001
44
0.0000000001
40
0.82526808409340846
40
0.82526808409340846
40
0.82526808409340846
40
0.82526808409340846
40
1
40
1
40
1
40
1
41
1
41
1
41
1
41
1
10
-3.596148070755961
20
5.671875441561637
30
0
10
-3.548360487966892
20
5.5694816789505399
30
0
10
-3.5092009793257137
20
5.4785494236824919
30
0
10
-3.4828867764424167
20
5.4067344361757854
30
0
0
SPLINE
5
219
100
AcDbEntity
8
0
100
AcDbSpline
70
4
71
5
72
36
73
30
74
0
42
0.000000001
43
0.0000000001
44
0.0000000001
40
0
40
0
40
0
40
0
40
0
40
0
40
0.040000000000000001
40
0.080000000000000002
40
0.12
40
0.16
40
0.20000000000000001
40
0.23999999999999999
40
0.28000000000000003
40
0.32000000000000001
40
0.35999999999999999
40
0.40000000000000002
40
0.44
40
0.47999999999999993
40
0.51999999999999991
40
0.56000000000000005
40
0.59999999999999998
40
0.64000000000000001
40
0.68000000000000005
40
0.72000000000000008
40
0.76000000000000023
40
0.80000000000000016
40
0.8400000000000003
40
0.88000000000000023
40
0.92000000000000004
40
0.96000000000000041
40
1
40
1
40
1
40
1
40
1
40
1
41
1
41
1
41
1
41
1
41
1
41
1
41
1
41
1
41
1
41
1
41
1
41
1
41
1
41
1
41
1
41
1
41
1
41
1
41
1
41
1
41
1
41
1
41
1
41
1
41
1
41
1
41
1
41
1
41
1
41
1
10
-5.7693833680611855
20
8.1711815192593811
30
0
10
-5.7667946748379073
20
8.1728115413321394
30
0
10
-5.7615864639848962
20
8.1761180903072326
30
0
10
-5.7536816758796201
20
8.1812174282753123
30
0
10
-5.7429565198181836
20
8.1882963023555497
30
0
10
-5.7292529993916377
20
8.1976149177388287
30
0
10
-5.7152931875834678
20
8.2074073995978694
30
0
10
-5.7011631711100321
20
8.2176757223419497
30
0
10
-5.6870099069503244
20
8.2284177414544626
30
0
10
-5.6730606196526363
20
8.2396250791177739
30
0
10
-5.6596315270715998
20
8.2512796841627072
30
0
10
-5.6471237801127252
20
8.2633486041443476
30
0
10
-5.6360219125630859
20
8.275779061213731
30
0
10
-5.6268947573576105
20
8.2884926500589717
30
0
10
-5.6203888349306474
20
8.3013803186663448
30
0
10
-5.6172431085580365
20
8.314294325058647
30
0
10
-5.6181286396357439
20
8.3270608220661799
30
0
10
-5.623444098506365
20
8.3394967056156144
30
0
10
-5.6331369114493475
20
8.3514242895110211
30
0
10
-5.6464742411983408
20
8.3626884159353381
30
0
10
-5.6619278694548472
20
8.3731686917394139
30
0
10
-5.6775146382275326
20
8.382773163886192
30
0
10
-5.6910586865622665
20
8.3914352934799847
30
0
10
-5.7004890694534378
20
8.3991103823116795
30
0
10
-5.7041046473016008
20
8.4057727254679175
30
0
10
-5.7009064808043792
20
8.4114135978090392
30
0
10
-5.6925430451390806
20
8.4151107290739535
30
0
10
-5.6829550329775227
20
8.4174275278921282
30
0
10
-5.6750935288475439
20
8.418769901831892
30
0
10
-5.6707953914923666
20
8.4193905489939027
30
0
0
LINE
5
220
100
AcDbEntity
8
0
100
AcDbLine
10
0.33333194227084845
20
-6.5601391541951752
30
-1.1885188608820675e-16
11
0.34922901819453173
21
-6.5619875630698834
31
-1.2081183233669512e-16
0
SPLINE
5
221
100
AcDbEntity
8
0
100
AcDbSpline
70
4
71
3
72
8
73
4
74
0
42
0.000000001
43
0.0000000001
44
0.0000000001
40
0.29229541468266057
40
0.29229541468266057
40
0.29229541468266057
40
0.29229541468266057
40
1
40
1
40
1
40
1
41
1
41
1
41
1
41
1
10
-1.7432691895477568
20
-1.9551876770840519
30
0
10
-1.6278763871852016
20
-1.7866810613602493
30
0
10
-1.541680882683045
20
-1.5658224890228216
30
0
10
-1.5393188199389896
20
-1.4034004585805109
30
0
0
SPLINE
5
222
100
AcDbEntity
8
0
100
AcDbSpline
70
0
71
2
72
6
73
3
74
0
42
0.000000001
43
0.0000000001
44
0.0000000001
40
0
40
0
40
0
40
1
40
1
40
1
10
2.4478939894905367
20
15.577096207149504
30
0
10
2.4621616320983142
20
15.575316117067999
30
0
10
2.5404309199514712
20
15.629051792047489
30
0
0
LINE
5
223
100
AcDbEntity
8
0
100
AcDbLine
10
4.1672048022228356
20
13.983064587446767
30
0
11
4.0595035340524968
21
14.020693244096652
31
0
0
SPLINE
5
224
100
AcDbEntity
8
0
100
AcDbSpline
70
0
71
2
72
6
73
3
74
0
42
0.000000001
43
0.0000000001
44
0.0000000001
40
0
40
0
40
0
40
1
40
1
40
1
10
6.0604559359882364
20
12.889725724912699
30
0
10
6.0102143013064904
20
12.745923414335362
30
0
10
5.7978412323143438
20
12.794861808181695
30
0
0
SPLINE
5
225
100
AcDbEntity
8
0
100
AcDbSpline
70
0
71
2
72
6
73
3
74
0
42
0.000000001
43
0.0000000001
44
0.0000000001
40
0
40
0
40
0
40
1
40
1
40
1
10
2.1692106074679249
20
15.169543933336492
30
0
10
2.0288595823742761
20
15.187054707510375
30
0
10
2.0395598494445126
20
15.272818674150052
30
0
0
SPLINE
5
226
100
AcDbEntity
8
0
100
AcDbSpline
70
0
71
2
72
6
73
3
74
0
42
0.000000001
43
0.0000000001
44
0.0000000001
40
0
40
0
40
0
40
1
40
1
40
1
10
4.9810129064610127
20
14.680953478172862
30
0
10
4.8580607075306839
20
14.756752394393787
30
0
10
4.7584554271953214
20
14.791552475747766
30
0
0
SPLINE
5
227
100
AcDbEntity
8
0
100
AcDbSpline
70
0
71
2
72
6
73
3
74
0
42
0.000000001
43
0.0000000001
44
0.0000000001
40
0
40
0
40
0
40
1
40
1
40
1
10
3.3847342817166943
20
-8.055351404455628
30
1.9362063232540486e-16
10
3.2405351308576025
20
-7.9171457879985514
30
1.8588043040926717e-16
10
3.1940257147492002
20
-7.7326038964110095
30
1.6257387491217219e-16
0
SPLINE
5
228
100
AcDbEntity
8
0
100
AcDbSpline
70
0
71
2
72
6
73
3
74
0
42
0.000000001
43
0.0000000001
44
0.0000000001
40
0
40
0
40
0
40
1
40
1
40
1
10
4.2016495781409358
20
15.123197669168285
30
0
10
4.2496883150943239
20
15.260694815009048
30
0
10
4.6210371656183531
20
15.162511549900005
30
0
0
LINE
5
229
100
AcDbEntity
8
0
100
AcDbLine
10
4.4653594836417598
20
13.837576976313677
30
0
11
4.3659874508004393
21
13.536092709560744
31
0
0
SPLINE
5
230
100
AcDbEntity
8
0
100
AcDbSpline
70
0
71
2
72
6
73
3
74
0
42
0.000000001
43
0.0000000001
44
0.0000000001
40
0
40
0
40
0
40
1
40
1
40
1
10
2.5569130246100111
20
15.626995416524803
30
0
10
2.6658499619301383
20
15.613403993823518
30
0
10
2.7388190090915558
20
15.503498592870132
30
0
0
SPLINE
5
231
100
AcDbEntity
8
0
100
AcDbSpline
70
0
71
2
72
6
73
3
74
0
42
0.000000001
43
0.0000000001
44
0.0000000001
40
0
40
0
40
0
40
1
40
1
40
1
10
4.05204393446175
20
-6.3626822010316477
30
-1.1731749857598486e-16
10
4.2599183424719405
20
-6.3266325339649807
30
-1.411413618957581e-16
10
4.291589477046573
20
-6.4522985081303785
30
-1.2527048848166975e-16
0
SPLINE
5
232
100
AcDbEntity
8
0
100
AcDbSpline
70
0
71
2
72
6
73
3
74
0
42
0.000000001
43
0.0000000001
44
0.0000000001
40
0
40
0
40
0
40
1
40
1
40
1
10
4.3560255778635204
20
13.494337497746475
30
0
10
4.3000478766286809
20
13.334117337129314
30
0
10
4.1275119337355246
20
13.382392398804962
30
0
0
SPLINE
5
233
100
AcDbEntity
8
0
100
AcDbSpline
70
0
71
2
72
6
73
3
74
0
42
0.000000001
43
0.0000000001
44
0.0000000001
40
0
40
0
40
0
40
1
40
1
40
1
10
3.5682022878647386
20
13.967065486981765
30
0
10
3.1293155488257285
20
13.916186287166298
30
0
10
2.7383288329005593
20
13.681036282467071
30
0
0
LINE
5
234
100
AcDbEntity
8
0
100
AcDbLine
10
2.10409426669634
20
-8.288200189674285
30
4.1974842060242608e-17
11
2.0934620396666181
21
-6.5732471576882645
31
-1.7095046936697954e-16
0
SPLINE
5
235
100
AcDbEntity
8
0
100
AcDbSpline
70
0
71
2
72
6
73
3
74
0
42
0.000000001
43
0.0000000001
44
0.0000000001
40
0
40
0
40
0
40
1
40
1
40
1
10
5.7490749667319285
20
12.807374521025373
30
0
10
5.4901975955648927
20
12.8978210671019
30
0
10
4.8575055273049434
20
13.55606483510679
30
0
0
LINE
5
236
100
AcDbEntity
8
0
100
AcDbLine
10
6.0684685221433412
20
12.912659461247179
30
0
11
6.0604559359882364
21
12.889725724912699
31
0
0
LINE
5
237
100
AcDbEntity
8
0
100
AcDbLine
10
4.19472008182096
20
15.10336396773198
30
0
11
4.2016495781409358
21
15.123197669168285
31
0
0
SPLINE
5
238
100
AcDbEntity
8
0
100
AcDbSpline
70
0
71
2
72
6
73
3
74
0
42
0.000000001
43
0.0000000001
44
0.0000000001
40
0
40
0
40
0
40
1
40
1
40
1
10
4.2935450517559399
20
-6.4600579144227765
30
-1.2429052110503475e-16
10
4.3290689093705996
20
-6.6010108746881979
30
-1.0648899125918143e-16
10
3.9639406132536505
20
-6.7854519660399362
30
-4.6634572567118679e-17
0
LINE
5
239
100
AcDbEntity
8
0
100
AcDbLine
10
4.0704996800972379
20
13.615994665123448
30
0
11
4.1672048022228356
21
13.983064587446767
31
0
0
SPLINE
5
240
100
AcDbEntity
8
0
100
AcDbSpline
70
0
71
2
72
6
73
3
74
0
42
0.000000001
43
0.0000000001
44
0.0000000001
40
0
40
0
40
0
40
1
40
1
40
1
10
3.9701225909441038
20
14.157251483814388
30
0
10
4.020616608096006
20
14.301776167033211
30
0
10
4.2431840170076907
20
14.292890665713974
30
0
0
LINE
5
241
100
AcDbEntity
8
0
100
AcDbLine
10
2.1826401429345927
20
14.860275333295062
30
0
11
2.183366889190931
21
14.906529145687292
31
0
0
SPLINE
5
242
100
AcDbEntity
8
0
100
AcDbSpline
70
0
71
2
72
6
73
3
74
0
42
0.000000001
43
0.0000000001
44
0.0000000001
40
0
40
0
40
0
40
1
40
1
40
1
10
0.47259521186187775
20
-7.0801843303380876
30
-8.1856945107951321e-17
10
0.36693643618588201
20
-6.8669485313157113
30
-9.0432688475562237e-17
10
0.29063371641494423
20
-6.8580765459854556
30
-8.1025346516421692e-17
0
SPLINE
5
243
100
AcDbEntity
8
0
100
AcDbSpline
70
0
71
2
72
6
73
3
74
0
42
0.000000001
43
0.0000000001
44
0.0000000001
40
0
40
0
40
0
40
1
40
1
40
1
10
2.1677471539458053
20
14.847514992308506
30
0
10
2.1828631259331637
20
14.862062569662642
30
0
10
2.1826401429345927
20
14.860275333295068
30
0
0
SPLINE
5
244
100
AcDbEntity
8
0
100
AcDbSpline
70
0
71
2
72
6
73
3
74
0
42
0.000000001
43
0.0000000001
44
0.0000000001
40
0
40
0
40
0
40
1
40
1
40
1
10
4.0015688554373119
20
-7.9512479620091954
30
1.233535228551313e-16
10
4.1043363519751743
20
-7.9463237915234011
30
1.1349329227775419e-16
10
4.2189196184693101
20
-7.9174457911160641
30
9.9022099657962838e-17
0
SPLINE
5
245
100
AcDbEntity
8
0
100
AcDbSpline
70
0
71
2
72
6
73
3
74
0
42
0.000000001
43
0.0000000001
44
0.0000000001
40
0
40
0
40
0
40
1
40
1
40
1
10
4.5575015410305681
20
14.201445652648465
30
0
10
5.0112573675485237
20
14.152818977794832
30
0
10
5.2256884751225359
20
14.189563273300935
30
0
0
SPLINE
5
246
100
AcDbEntity
8
0
100
AcDbSpline
70
0
71
2
72
6
73
3
74
0
42
0.000000001
43
0.0000000001
44
0.0000000001
40
0
40
0
40
0
40
1
40
1
40
1
10
5.1662325685927
20
-7.5671438482567321
30
-3.7203803352686789e-17
10
4.8277603374355191
20
-8.0959515571783367
30
7.1483315082183862e-17
10
4.2558645147988639
20
-8.2400843638643853
30
1.4371039379138283e-16
0
SPLINE
5
247
100
AcDbEntity
8
0
100
AcDbSpline
70
0
71
2
72
6
73
3
74
0
42
0.000000001
43
0.0000000001
44
0.0000000001
40
0
40
0
40
0
40
1
40
1
40
1
10
3.5244158691323038
20
-7.6895628099599342
30
1.2682832623961996e-16
10
3.5921639964883632
20
-7.9583764958737859
30
1.6077791370311351e-16
10
4.0015688554373119
20
-7.9512479620091954
30
1.233535228551313e-16
0
LINE
5
248
100
AcDbEntity
8
0
100
AcDbLine
10
4.3659874508004393
20
13.536092709560744
30
0
11
4.3560255778635204
21
13.494337497746475
31
0
0
LINE
5
249
100
AcDbEntity
8
0
100
AcDbLine
10
5.7978412323143438
20
12.794861808181695
30
0
11
5.7490749667319285
21
12.807374521025373
31
0
0
LINE
5
250
100
AcDbEntity
8
0
100
AcDbLine
10
5.506171099438312
20
14.317155825490435
30
0
11
5.5008293650150488
21
14.301866638396472
31
0
0
LINE
5
251
100
AcDbEntity
8
0
100
AcDbLine
10
4.2431840170076907
20
14.292890665713974
30
0
11
4.2399558619336855
21
14.283650995040739
31
0
0
LINE
5
252
100
AcDbEntity
8
0
100
AcDbLine
10
5.8567572005954167
20
14.299120466773079
30
0
11
5.8541178657127677
21
14.291566125499811
31
0
0
SPLINE
5
253
100
AcDbEntity
8
0
100
AcDbSpline
70
0
71
2
72
6
73
3
74
0
42
0.000000001
43
0.0000000001
44
0.0000000001
40
0
40
0
40
0
40
1
40
1
40
1
10
4.910987913091633
20
15.046366537762866
30
0
10
5.0350769472105563
20
15.003012325336211
30
0
10
5.7363032764197532
20
14.496127178253399
30
0
0
SPLINE
5
254
100
AcDbEntity
8
0
100
AcDbSpline
70
0
71
2
72
6
73
3
74
0
42
0.000000001
43
0.0000000001
44
0.0000000001
40
0
40
0
40
0
40
1
40
1
40
1
10
4.8175189324684649
20
15.195581837766143
30
0
10
4.9472811438755953
20
15.150245531312947
30
0
10
4.910987913091633
20
15.046366537762866
30
0
0
SPLINE
5
255
100
AcDbEntity
8
0
100
AcDbSpline
70
0
71
2
72
6
73
3
74
0
42
0.000000001
43
0.0000000001
44
0.0000000001
40
0
40
0
40
0
40
1
40
1
40
1
10
5.5008293650150488
20
14.301866638396472
30
0
10
5.0572630959586702
20
14.654313195761713
30
0
10
4.9810129064610127
20
14.680953478172862
30
0
0
LINE
5
256
100
AcDbEntity
8
0
100
AcDbLine
10
4.4614343368250395
20
14.934533341681085
30
0
11
4.2582738643333524
21
14.983258696634586
31
0
0
SPLINE
5
257
100
AcDbEntity
8
0
100
AcDbSpline
70
0
71
2
72
6
73
3
74
0
42
0.000000001
43
0.0000000001
44
0.0000000001
40
0
40
0
40
0
40
1
40
1
40
1
10
4.1275119337355246
20
13.382392398804962
30
0
10
4.0648226671454202
20
13.454612900177112
30
0
10
4.0704996800972379
20
13.615994665123448
30
0
0
SPLINE
5
258
100
AcDbEntity
8
0
100
AcDbSpline
70
0
71
2
72
6
73
3
74
0
42
0.000000001
43
0.0000000001
44
0.0000000001
40
0
40
0
40
0
40
1
40
1
40
1
10
5.6420327134210124
20
13.269674337377158
30
0
10
5.9608852389750036
20
13.021283371023321
30
0
10
6.0684685221433412
20
12.912659461247179
30
0
0
LINE
5
259
100
AcDbEntity
8
0
100
AcDbLine
10
4.4252030559485611
20
14.786562030727945
30
0
11
4.4752186547600132
21
14.929717378271
31
0
0
SPLINE
5
260
100
AcDbEntity
8
0
100
AcDbSpline
70
0
71
2
72
6
73
3
74
0
42
0.000000001
43
0.0000000001
44
0.0000000001
40
0
40
0
40
0
40
1
40
1
40
1
10
4.6221357001665071
20
15.162127744026284
30
0
10
4.6944231164251233
20
15.238589039776118
30
0
10
4.8014773329482381
20
15.201186449956102
30
0
0
SPLINE
5
261
100
AcDbEntity
8
0
100
AcDbSpline
70
0
71
2
72
6
73
3
74
0
42
0.000000001
43
0.0000000001
44
0.0000000001
40
0
40
0
40
0
40
1
40
1
40
1
10
3.6059245613351263
20
-7.2003816910060312
30
4.6857125744776577e-17
10
3.4666716132355337
20
-7.4604428789191299
30
9.7891826551906328e-17
10
3.5158611645550062
20
-7.6556191164724066
30
1.2254143739699567e-16
0
SPLINE
5
262
100
AcDbEntity
8
0
100
AcDbSpline
70
0
71
2
72
6
73
3
74
0
42
0.000000001
43
0.0000000001
44
0.0000000001
40
0
40
0
40
0
40
1
40
1
40
1
10
3.9639406132536505
20
-6.7854519660399362
30
-4.6634572567118679e-17
10
3.8015999903285076
20
-6.908050796816485
30
-1.3987037007250445e-17
10
3.6059245613351263
20
-7.2003816910060312
30
4.6857125744776577e-17
0
SPLINE
5
263
100
AcDbEntity
8
0
100
AcDbSpline
70
0
71
2
72
6
73
3
74
0
42
0.000000001
43
0.0000000001
44
0.0000000001
40
0
40
0
40
0
40
1
40
1
40
1
10
5.2256884751225359
20
14.189563273300935
30
0
10
5.4097176363145358
20
14.236625739365936
30
0
10
5.506171099438312
20
14.317155825490435
30
0
0
SPLINE
5
264
100
AcDbEntity
8
0
100
AcDbSpline
70
0
71
2
72
6
73
3
74
0
42
0.000000001
43
0.0000000001
44
0.0000000001
40
0
40
0
40
0
40
1
40
1
40
1
10
5.7363032764197532
20
14.496127178253399
30
0
10
5.8837917841768155
20
14.37649923060366
30
0
10
5.8567572005954167
20
14.299120466773079
30
0
0
SPLINE
5
265
100
AcDbEntity
8
0
100
AcDbSpline
70
0
71
2
72
6
73
3
74
0
42
0.000000001
43
0.0000000001
44
0.0000000001
40
0
40
0
40
0
40
1
40
1
40
1
10
4.9114591478831997
20
13.910430045558188
30
0
10
5.1269148162652494
20
13.710489948377365
30
0
10
5.6420327134210124
20
13.269674337377158
30
0
0
LINE
5
266
100
AcDbEntity
8
0
100
AcDbLine
10
3.5158611645550062
20
-7.6556191164724066
30
1.2254143739699567e-16
11
3.5244158691323038
21
-7.6895628099599342
31
1.2682832623961996e-16
0
LINE
5
267
100
AcDbEntity
8
0
100
AcDbLine
10
4.291589477046573
20
-6.4522985081303785
30
-1.2527048848166975e-16
11
4.2935450517559399
21
-6.4600579144227765
31
-1.2429052110503475e-16
0
LINE
5
268
100
AcDbEntity
8
0
100
AcDbLine
10
5.3737352405063126
20
-6.8857656801291824
30
-1.5694197653440953e-16
11
5.3975878622640288
21
-6.9073551783724971
31
-1.5585071245231331e-16
0
SPLINE
5
269
100
AcDbEntity
8
0
100
AcDbSpline
70
0
71
2
72
6
73
3
74
0
42
0.000000001
43
0.0000000001
44
0.0000000001
40
0
40
0
40
0
40
1
40
1
40
1
10
4.0595035340524968
20
14.020693244096652
30
0
10
3.9373256870884759
20
14.063379726175578
30
0
10
3.9701225909441038
20
14.157251483814388
30
0
0
SPLINE
5
270
100
AcDbEntity
8
0
100
AcDbSpline
70
0
71
2
72
6
73
3
74
0
42
0.000000001
43
0.0000000001
44
0.0000000001
40
0
40
0
40
0
40
1
40
1
40
1
10
3.1232788529146545
20
15.544188815994664
30
0
10
3.2053168238010463
20
15.563238187516463
30
0
10
3.2806093252462256
20
15.55384438373831
30
0
0
SPLINE
5
271
100
AcDbEntity
8
0
100
AcDbSpline
70
0
71
2
72
6
73
3
74
0
42
0.000000001
43
0.0000000001
44
0.0000000001
40
0
40
0
40
0
40
1
40
1
40
1
10
1.348123520073526
20
-6.9717739247993356
30
-3.1749534838706586e-17
10
1.5678637234618615
20
-7.1948390221646337
30
-3.0252248144174843e-17
10
1.776595246451707
20
-7.7386559933680639
30
1.2628365404931592e-17
0
SPLINE
5
272
100
AcDbEntity
8
0
100
AcDbSpline
70
0
71
2
72
6
73
3
74
0
42
0.000000001
43
0.0000000001
44
0.0000000001
40
0
40
0
40
0
40
1
40
1
40
1
10
4.8575055273049434
20
13.55606483510679
30
0
10
4.5189317180401778
20
13.818859915239177
30
0
10
4.4653594836417598
20
13.837576976313677
30
0
0
LINE
5
273
100
AcDbEntity
8
0
100
AcDbLine
10
4.6210371656183531
20
15.162511549900005
30
0
11
4.6221357001665071
21
15.162127744026284
31
0
0
SPLINE
5
274
100
AcDbEntity
8
0
100
AcDbSpline
70
0
71
2
72
6
73
3
74
0
42
0.000000001
43
0.0000000001
44
0.0000000001
40
0
40
0
40
0
40
1
40
1
40
1
10
4.2582738643333524
20
14.983258696634586
30
0
10
4.1686581243046339
20
15.028769067849508
30
0
10
4.19472008182096
20
15.103363967731974
30
0
0
SPLINE
5
275
100
AcDbEntity
8
0
100
AcDbSpline
70
0
71
2
72
6
73
3
74
0
42
0.000000001
43
0.0000000001
44
0.0000000001
40
0
40
0
40
0
40
1
40
1
40
1
10
4.2189196184693101
20
-7.9174457911160641
30
9.9022099657962838e-17
10
4.6322413925122197
20
-7.8132778203087092
30
4.682199060944889e-17
10
4.8540909651989379
20
-7.4704750325764495
30
-2.3851187454134127e-17
0
SPLINE
5
276
100
AcDbEntity
8
0
100
AcDbSpline
70
0
71
2
72
6
73
3
74
0
42
0.000000001
43
0.0000000001
44
0.0000000001
40
0
40
0
40
0
40
1
40
1
40
1
10
0.10971830614436627
20
-6.5633456739430951
30
-8.8142852446725837e-17
10
0.25283330482637489
20
-6.550779294773954
30
-1.0892723055877859e-16
10
0.33333194227084845
20
-6.5601391541951752
30
-1.1885188608820675e-16
0
LINE
5
277
100
AcDbEntity
8
0
100
AcDbLine
10
5.3975878622640288
20
-6.9073551783724971
30
-1.5585071245231331e-16
11
5.4004316463897792
21
-6.9186388569422155
31
-1.5442565021558099e-16
0
LINE
5
278
100
AcDbEntity
8
0
100
AcDbLine
10
4.8014773329482381
20
15.201186449956102
30
0
11
4.8175189324684649
21
15.195581837766143
31
0
0
SPLINE
5
279
100
AcDbEntity
8
0
100
AcDbSpline
70
0
71
2
72
6
73
3
74
0
42
0.000000001
43
0.0000000001
44
0.0000000001
40
0
40
0
40
0
40
1
40
1
40
1
10
5.0598336266355215
20
-7.1516884372352063
30
-8.952297987436418e-17
10
5.2151611919125651
20
-6.9257305160078797
30
-1.3691500687372459e-16
10
5.3737352405063126
20
-6.8857656801291824
30
-1.5694197653440953e-16
0
SPLINE
5
280
100
AcDbEntity
8
0
100
AcDbSpline
70
0
71
2
72
6
73
3
74
0
42
0.000000001
43
0.0000000001
44
0.0000000001
40
0
40
0
40
0
40
1
40
1
40
1
10
2.1938773774591276
20
13.962020996677715
30
0
10
2.1440715133002324
20
14.154191641192327
30
0
10
2.1795712138065957
20
14.555378145801123
30
0
0
SPLINE
5
281
100
AcDbEntity
8
0
100
AcDbSpline
70
0
71
2
72
6
73
3
74
0
42
0.000000001
43
0.0000000001
44
0.0000000001
40
0
40
0
40
0
40
1
40
1
40
1
10
4.7584554271953214
20
14.791552475747766
30
0
10
4.7364315647143904
20
14.749925222678929
30
0
10
4.7030931159411979
20
14.654503447591038
30
0
0
LINE
5
282
100
AcDbEntity
8
0
100
AcDbLine
10
0.84485144199500894
20
-7.8284151024770239
30
-5.1969756365107678e-17
11
0.84300304396134651
21
-7.8443120851632751
31
-5.0009821611837807e-17
0
SPLINE
5
283
100
AcDbEntity
8
0
100
AcDbSpline
70
0
71
2
72
6
73
3
74
0
42
0.000000001
43
0.0000000001
44
0.0000000001
40
0
40
0
40
0
40
1
40
1
40
1
10
4.8540909651989379
20
-7.4704750325764495
30
-2.3851187454134127e-17
10
4.9021183724347557
20
-7.4170270739804796
30
-3.6063753563300921e-17
10
5.0598336266355215
20
-7.1516884372352063
30
-8.952297987436418e-17
0
SPLINE
5
284
100
AcDbEntity
8
0
100
AcDbSpline
70
0
71
2
72
6
73
3
74
0
42
0.000000001
43
0.0000000001
44
0.0000000001
40
0
40
0
40
0
40
1
40
1
40
1
10
5.2206613186453836
20
13.93729754629989
30
0
10
5.0329856378179114
20
13.922037762625518
30
0
10
4.9114591478831997
20
13.910430045558188
30
0
0
SPLINE
5
285
100
AcDbEntity
8
0
100
AcDbSpline
70
0
71
2
72
6
73
3
74
0
42
0.000000001
43
0.0000000001
44
0.0000000001
40
0
40
0
40
0
40
1
40
1
40
1
10
-0.90883167413701749
20
-6.5913997553124348
30
-1.3891203669707538e-16
10
-0.90511954278418361
20
-6.6254905765053662
30
-1.3657533466243791e-16
10
-0.91027325490959643
20
-6.643928286983499
30
-1.3423081587922435e-16
0
SPLINE
5
286
100
AcDbEntity
8
0
100
AcDbSpline
70
4
71
5
72
16
73
10
74
0
42
0.000000001
43
0.0000000001
44
0.0000000001
40
0
40
0
40
0
40
0
40
0
40
0
40
0.20000000000000001
40
0.40000000000000002
40
0.60000000000000009
40
0.80000000000000004
40
1
40
1
40
1
40
1
40
1
40
1
41
1
41
1
41
1
41
1
41
1
41
1
41
1
41
1
41
1
41
1
10
6.2086398033372303
20
-1.8778695388651565
30
0
10
6.2491584146345724
20
-1.8709088077939222
30
0
10
6.3324473355293955
20
-1.8581928121572169
30
0
10
6.4641308936655699
20
-1.8427325149984324
30
0
10
6.6523498228350508
20
-1.8288252371629992
30
0
10
6.9087443881289916
20
-1.8222503954150997
30
0
10
7.1346628650630484
20
-1.8272501082637953
30
0
10
7.3197801491886256
20
-1.8385877707465712
30
0
10
7.4511213032854107
20
-1.8499708208378225
30
0
10
7.5187759965468723
20
-1.8566193153229238
30
0
0
SPLINE
5
287
100
AcDbEntity
8
0
100
AcDbSpline
70
4
71
5
72
21
73
15
74
0
42
0.000000001
43
0.0000000001
44
0.0000000001
40
0
40
0
40
0
40
0
40
0
40
0
40
0.10000000000000001
40
0.20000000000000001
40
0.30000000000000004
40
0.40000000000000002
40
0.5
40
0.59999999999999998
40
0.69999999999999996
40
0.79999999999999982
40
0.8999999999999998
40
1
40
1
40
1
40
1
40
1
40
1
41
1
41
1
41
1
41
1
41
1
41
1
41
1
41
1
41
1
41
1
41
1
41
1
41
1
41
1
41
1
10
-0.55969504982797169
20
-1.9567017042666981
30
0
10
-0.48640699228625245
20
-1.9546462228678121
30
0
10
-0.33920278370431745
20
-1.95071481545998
30
0
10
-0.11650886653630251
20
-1.9453570688217967
30
0
10
0.19020084616750038
20
-1.9405073656217808
30
0
10
0.61997883848403557
20
-1.9441814461590361
30
0
10
1.1263075741377502
20
-1.9631565597484768
30
0
10
1.7247977533389978
20
-1.9994923357062782
30
0
10
2.3979176781051814
20
-2.0477216622642982
30
0
10
3.1060454166067522
20
-2.0973315615980468
30
0
10
3.7993300714487406
20
-2.135466111994214
30
0
10
4.3019731903947367
20
-2.146520361143323
30
0
10
4.6317624347480715
20
-2.1392630072078886
30
0
10
4.8282493618268152
20
-2.126895690928988
30
0
10
4.9206492403298538
20
-2.1188296313346893
30
0
0
SPLINE
5
288
100
AcDbEntity
8
0
100
AcDbSpline
70
4
71
5
72
21
73
15
74
0
42
0.000000001
43
0.0000000001
44
0.0000000001
40
0
40
0
40
0
40
0
40
0
40
0
40
0.10000000000000001
40
0.20000000000000001
40
0.30000000000000004
40
0.40000000000000002
40
0.5
40
0.59999999999999998
40
0.69999999999999996
40
0.79999999999999982
40
0.8999999999999998
40
1
40
1
40
1
40
1
40
1
40
1
41
1
41
1
41
1
41
1
41
1
41
1
41
1
41
1
41
1
41
1
41
1
41
1
41
1
41
1
41
1
10
0.44068087963850011
20
14.783044040478053
30
0
10
0.44538749113956971
20
14.787341821351543
30
0
10
0.45493709632711332
20
14.79561185615122
30
0
10
0.46967065597222618
20
14.807040314840336
30
0
10
0.49014712237508168
20
14.820293049300918
30
0
10
0.51721999259190687
20
14.833332870507677
30
0
10
0.54589040500699637
20
14.842559561475332
30
0
10
0.57627045488586592
20
14.847705565047304
30
0
10
0.60838731418202396
20
14.848706025222151
30
0
10
0.64213812813590287
20
14.845806443240871
30
0
10
0.67738443077177724
20
14.839337319792593
30
0
10
0.7066724538043927
20
14.831557988187624
30
0
10
0.72921200199086
20
14.82435454406871
30
0
10
0.74448907944161535
20
14.818953830316836
30
0
10
0.7521902999787643
20
14.816103859920425
30
0
0
SPLINE
5
289
100
AcDbEntity
8
0
100
AcDbSpline
70
0
71
2
72
6
73
3
74
0
42
0.000000001
43
0.0000000001
44
0.0000000001
40
0.46176468702170448
40
0.46176468702170448
40
0.46176468702170448
40
1
40
1
40
1
10
4.615126879760485
20
14.394975841651865
30
0
10
4.5825076707523849
20
14.292579929311401
30
0
10
4.5575015410305681
20
14.201445652648465
30
0
0
SPLINE
5
290
100
AcDbEntity
8
0
100
AcDbSpline
70
0
71
2
72
6
73
3
74
0
42
0.000000001
43
0.0000000001
44
0.0000000001
40
0
40
0
40
0
40
1
40
1
40
1
10
3.1869357757729788
20
-7.70447215752049
30
1.590210017512799e-16
10
3.0797447961453956
20
-7.279155570111814
30
1.0530601832393794e-16
10
3.5886448404028828
20
-6.6861895244169611
30
-2.8058040837992119e-17
0
SPLINE
5
291
100
AcDbEntity
8
0
100
AcDbSpline
70
0
71
2
72
6
73
3
74
0
42
0.000000001
43
0.0000000001
44
0.0000000001
40
0
40
0
40
0
40
1
40
1
40
1
10
1.4093399893560004
20
-7.7619524399308419
30
5.9600661743802079e-17
10
1.40409763226007
20
-7.8302965278250847
30
6.8765937391890789e-17
10
1.4064132931478377
20
-7.9454587084946011
30
8.2872087853178559e-17
0
LINE
5
292
100
AcDbEntity
8
0
100
AcDbLine
10
1.556490279798715
20
-7.8867657549057366
30
5.7535298594112151e-17
11
1.4083105710825179
21
-7.5886500430242458
31
3.8078365323338628e-17
0
LINE
5
293
100
AcDbEntity
8
0
100
AcDbLine
10
3.1940257147492002
20
-7.7326038964110095
30
1.6257387491217219e-16
11
3.1869357757729788
21
-7.70447215752049
31
1.590210017512799e-16
0
LINE
5
294
100
AcDbEntity
8
0
100
AcDbLine
10
4.7030931159411979
20
14.654503447591038
30
0
11
4.6766999219125793
21
14.578960477923085
31
0
0
LINE
5
295
100
AcDbEntity
8
0
100
AcDbLine
10
4.4752186547600132
20
14.929717378271
30
0
11
4.4614343368250395
21
14.934533341681085
31
0
0
LINE
5
296
100
AcDbEntity
8
0
100
AcDbLine
10
2.8370900323126631
20
-6.5707647313547755
30
-1.4078609067297478e-16
11
2.839123246866075
21
-6.5891435646082925
31
-1.385216016009182e-16
0
LINE
5
297
100
AcDbEntity
8
0
100
AcDbLine
10
2.3639552783623721
20
-8.7169602556403287
30
6.4350215887992197e-17
11
2.2841753530601649
21
-8.726568114796585
31
7.5122086263274441e-17
0
LINE
5
298
100
AcDbEntity
8
0
100
AcDbLine
10
2.839123246866075
20
-6.5891435646082925
30
-1.385216016009182e-16
11
2.8187135217008086
21
-6.7267752494654731
31
-1.1770597373738883e-16
0
SPLINE
5
299
100
AcDbEntity
8
0
100
AcDbSpline
70
0
71
2
72
6
73
3
74
0
42
0.000000001
43
0.0000000001
44
0.0000000001
40
0
40
0
40
0
40
1
40
1
40
1
10
2.4473409606139982
20
-8.5147925173112089
30
2.9094633660929696e-17
10
2.4513707697297198
20
-8.7152025203042349
30
5.3642741726714766e-17
10
2.3639552783623721
20
-8.7169602556403287
30
6.4350215887992197e-17
0
SPLINE
5
300
100
AcDbEntity
8
0
100
AcDbSpline
70
0
71
2
72
6
73
3
74
0
42
0.000000001
43
0.0000000001
44
0.0000000001
40
0
40
0
40
0
40
1
40
1
40
1
10
5.3144019288246849
20
-7.2812787405588448
30
-9.2867007905652901e-17
10
5.3195986420893124
20
-7.3018984639640356
30
-9.0262858117528281e-17
10
5.1662325685927
20
-7.5671438482567321
30
-3.7203803352686789e-17
0
SPLINE
5
301
100
AcDbEntity
8
0
100
AcDbSpline
70
0
71
2
72
6
73
3
74
0
42
0.000000001
43
0.0000000001
44
0.0000000001
40
0
40
0
40
0
40
1
40
1
40
1
10
-1.084010160210136
20
-7.778923753891041
30
-1.1564442700023908e-17
10
-1.1477138054033955
20
-7.6592433228552723
30
-1.2120811275145691e-17
10
-1.2351590023571413
20
-7.5908069411332786
30
-4.7397889560792631e-18
0
SPLINE
5
302
100
AcDbEntity
8
0
100
AcDbSpline
70
0
71
2
72
6
73
3
74
0
42
0.000000001
43
0.0000000001
44
0.0000000001
40
0.091253878537420799
40
0.091253878537420799
40
0.091253878537420799
40
1
40
1
40
1
10
-0.37221452399403132
20
-7.3376172885364017
30
6.0533451491811261e-17
10
-0.30797760098993804
20
-6.9168891232099625
30
6.5820524902978574e-18
10
-0.10994857913220424
20
-6.6573764728408307
30
-4.8206040780398446e-17
0
SPLINE
5
303
100
AcDbEntity
8
0
100
AcDbSpline
70
0
71
2
72
6
73
3
74
0
42
0.000000001
43
0.0000000001
44
0.0000000001
40
0
40
0
40
0
40
1
40
1
40
1
10
2.8898414633181249
20
-8.6000742168428612
30
1.2784147169063387e-16
10
2.7620132728404316
20
-8.6013053286975847
30
1.4184609925598509e-16
10
2.7560065612686802
20
-8.547008869824646
30
1.3515613498713764e-16
0
SPLINE
5
304
100
AcDbEntity
8
0
100
AcDbSpline
70
0
71
2
72
6
73
3
74
0
42
0.000000001
43
0.0000000001
44
0.0000000001
40
0
40
0
40
0
40
1
40
1
40
1
10
5.4004316463897792
20
-6.9186388569422155
30
-1.5442565021558099e-16
10
5.4406496861821676
20
-7.0782175779894017
30
-1.3427179633315642e-16
10
5.3144019288246849
20
-7.2812787405588448
30
-9.2867007905652901e-17
0
SPLINE
5
305
100
AcDbEntity
8
0
100
AcDbSpline
70
4
71
5
72
21
73
15
74
0
42
0.000000001
43
0.0000000001
44
0.0000000001
40
0
40
0
40
0
40
0
40
0
40
0
40
0.10000000000000001
40
0.20000000000000001
40
0.30000000000000004
40
0.40000000000000002
40
0.5
40
0.59999999999999998
40
0.69999999999999996
40
0.79999999999999982
40
0.8999999999999998
40
1
40
1
40
1
40
1
40
1
40
1
41
1
41
1
41
1
41
1
41
1
41
1
41
1
41
1
41
1
41
1
41
1
41
1
41
1
41
1
41
1
10
-4.4884348772742175
20
-3.362548173939393
30
0
10
-4.5427528687119443
20
-3.3168774396470835
30
0
10
-4.6473156023274651
20
-3.2301153363367203
30
0
10
-4.7919403332166404
20
-3.1137098519499102
30
0
10
-4.9599292353384712
20
-2.9864335780585067
30
0
10
-5.1256977360815439
20
-2.8770500633414953
30
0
10
-5.2432943631376761
20
-2.8218239525718385
30
0
10
-5.3087839121007256
20
-2.8251794135941606
30
0
10
-5.3200107699741528
20
-2.8895399021475026
30
0
10
-5.2791126081368756
20
-3.0125021334192126
30
0
10
-5.1900185611918914
20
-3.1896487635606707
30
0
10
-5.083347826995773
20
-3.3711595833195123
30
0
10
-4.9846998979004695
20
-3.5282542704473321
30
0
10
-4.9107831746548012
20
-3.6421483447217078
30
0
10
-4.871786891910733
20
-3.7013865220806248
30
0
0
LINE
5
306
100
AcDbEntity
8
0
100
AcDbLine
10
2.3898288534906142
20
-6.7987731959746913
30
-1.7833930843462207e-16
11
2.3921323804462515
21
-7.7094106426016236
31
-6.4875305973591176e-17
0
LINE
5
307
100
AcDbEntity
8
0
100
AcDbLine
10
2.4463299050108414
20
-8.4645108164573521
30
2.293565652476868e-17
11
2.4473409606139982
21
-8.5147925173112089
31
2.9094633660929696e-17
0
SPLINE
5
308
100
AcDbEntity
8
0
100
AcDbSpline
70
0
71
2
72
6
73
3
74
0
42
0.000000001
43
0.0000000001
44
0.0000000001
40
0
40
0
40
0
40
1
40
1
40
1
10
2.4102125606449816
20
-6.6683272046270803
30
-1.9707785952081584e-16
10
2.3891728692114582
20
-6.7661498613268609
30
-1.8233532226846767e-16
10
2.3898288534906147
20
-6.7987731959746913
30
-1.7833930843462207e-16
0
LINE
5
309
100
AcDbEntity
8
0
100
AcDbLine
10
-0.74202713609435333
20
-7.8292633605559869
30
-5.8895924383575078e-17
11
-0.74983704814131313
21
-7.8572037836291901
31
-5.5343051222682797e-17
0
SPLINE
5
310
100
AcDbEntity
8
0
100
AcDbSpline
70
0
71
2
72
6
73
3
74
0
42
0.000000001
43
0.0000000001
44
0.0000000001
40
0
40
0
40
0
40
1
40
1
40
1
10
4.2558645147988639
20
-8.2400843638643853
30
1.4371039379138283e-16
10
3.6830722873191513
20
-8.3844430881753684
30
2.1605068315992238e-16
10
3.3847342817166943
20
-8.055351404455628
30
1.9362063232540486e-16
0
SPLINE
5
311
100
AcDbEntity
8
0
100
AcDbSpline
70
0
71
2
72
6
73
3
74
0
42
0.000000001
43
0.0000000001
44
0.0000000001
40
0
40
0
40
0
40
1
40
1
40
1
10
2.3921323804462515
20
-7.7094106426016236
30
-6.4875305973591188e-17
10
2.4002945448128803
20
-8.1153304611766597
30
-1.5154416678606412e-17
10
2.4463299050108414
20
-8.4645108164573521
30
2.293565652476868e-17
0
SPLINE
5
312
100
AcDbEntity
8
0
100
AcDbSpline
70
0
71
2
72
6
73
3
74
0
42
0.000000001
43
0.0000000001
44
0.0000000001
40
0
40
0
40
0
40
1
40
1
40
1
10
5.8541178657127677
20
14.291566125499811
30
0
10
5.7374201371864491
20
13.957552252195063
30
0
10
5.2206613186453836
20
13.93729754629989
30
0
0
SPLINE
5
313
100
AcDbEntity
8
0
100
AcDbSpline
70
0
71
2
72
6
73
3
74
0
42
0.000000001
43
0.0000000001
44
0.0000000001
40
0
40
0
40
0
40
1
40
1
40
1
10
-1.2351590023571413
20
-7.5908069411332786
30
-4.7397889560792631e-18
10
-1.3657500978728947
20
-7.4755194293639518
30
5.1712160013870029e-18
10
-1.8760160466445568
20
-7.1755520427898292
30
5.6686118065895619e-17
0
LINE
5
314
100
AcDbEntity
8
0
100
AcDbLine
10
2.4041419686837147
20
-6.6352227754058752
30
-2.0048432957896528e-16
11
2.4102125606449816
21
-6.6683272046270803
31
-1.9707785952081584e-16
0
LINE
5
315
100
AcDbEntity
8
0
100
AcDbLine
10
1.4083105710825179
20
-7.5886500430242458
30
3.8078365323338628e-17
11
1.4093399893560004
21
-7.7619524399308419
31
5.9600661743802079e-17
0
SPLINE
5
316
100
AcDbEntity
8
0
100
AcDbSpline
70
0
71
2
72
6
73
3
74
0
42
0.000000001
43
0.0000000001
44
0.0000000001
40
0
40
0
40
0
40
1
40
1
40
1
10
2.2841753530601649
20
-8.726568114796585
30
7.5122086263274441e-17
10
2.0630788352318974
20
-8.7310138847167096
30
1.0220407384652891e-16
10
1.8470734428088262
20
-8.3812814423832069
30
8.4437696378830938e-17
0
SPLINE
5
317
100
AcDbEntity
8
0
100
AcDbSpline
70
0
71
2
72
6
73
3
74
0
42
0.000000001
43
0.0000000001
44
0.0000000001
40
0
40
0
40
0
40
1
40
1
40
1
10
-1.775404309502933
20
-6.8752950905581667
30
1.5987992447717023e-17
10
-1.5905301155985931
20
-6.9986553112431924
30
-1.4289648634111494e-18
10
-1.1849697416076821
20
-7.2573556638513148
30
-4.0649311172842759e-17
0
SPLINE
5
318
100
AcDbEntity
8
0
100
AcDbSpline
70
0
71
2
72
6
73
3
74
0
42
0.000000001
43
0.0000000001
44
0.0000000001
40
0
40
0
40
0
40
1
40
1
40
1
10
2.6361932916277047
20
-6.4415140326292084
30
-1.3651090971038691e-16
10
2.7676487981833033
20
-6.4269713657815295
30
-1.5270777889955834e-16
10
2.8370900323126631
20
-6.5707647313547755
30
-1.4078609067297478e-16
0
SPLINE
5
319
100
AcDbEntity
8
0
100
AcDbSpline
70
0
71
2
72
6
73
3
74
0
42
0.000000001
43
0.0000000001
44
0.0000000001
40
0
40
0
40
0
40
1
40
1
40
1
10
1.4275937049510086
20
-8.366853124489392
30
1.3296388186809888e-16
10
1.4256001895179349
20
-8.5967682319232352
30
1.6191990043681572e-16
10
1.3930564837203823
20
-8.5974226150394664
30
1.6590616057776907e-16
0
SPLINE
5
320
100
AcDbEntity
8
0
100
AcDbSpline
70
0
71
2
72
6
73
3
74
0
42
0.000000001
43
0.0000000001
44
0.0000000001
40
0
40
0
40
0
40
1
40
1
40
1
10
-1.1849697416076821
20
-7.2573556638513148
30
-4.0649311172842759e-17
10
-0.67398623951383207
20
-7.5858430217213133
30
-8.9848984270861208e-17
10
-0.74202713609435333
20
-7.8292633605559869
30
-5.8895924383575078e-17
0
SPLINE
5
321
100
AcDbEntity
8
0
100
AcDbSpline
70
0
71
2
72
6
73
3
74
0
42
0.000000001
43
0.0000000001
44
0.0000000001
40
0
40
0
40
0
40
1
40
1
40
1
10
0.082282787224570428
20
-6.9516738390942079
30
-4.2671722438628905e-17
10
0.070522757192328644
20
-6.9528900333464367
30
-4.0944094555909356e-17
10
0.024804279479422424
20
-7.1035907920796779
30
-1.8535528284757577e-17
0
SPLINE
5
322
100
AcDbEntity
8
0
100
AcDbSpline
70
0
71
2
72
6
73
3
74
0
42
0.000000001
43
0.0000000001
44
0.0000000001
40
0
40
0
40
0
40
1
40
1
40
1
10
2.8187135217008086
20
-6.7267752494654731
30
-1.1770597373738883e-16
10
2.8176012010508997
20
-6.8222580571836957
30
-1.0467743103862609e-16
10
2.8289433333197871
20
-6.9247829763366768
30
-9.204515151179722e-17
0
LINE
5
323
100
AcDbEntity
8
0
100
AcDbLine
10
2.618289873562222
20
-6.4434946529256356
30
-1.3430499739797247e-16
11
2.6361932916277047
21
-6.4415140326292084
31
-1.3651090971038691e-16
0
SPLINE
5
324
100
AcDbEntity
8
0
100
AcDbSpline
70
0
71
2
72
6
73
3
74
0
42
0.000000001
43
0.0000000001
44
0.0000000001
40
0
40
0
40
0
40
1
40
1
40
1
10
3.5886448404028828
20
-6.6861895244169611
30
-2.8058040837992119e-17
10
3.858351495634325
20
-6.4114977960002451
30
-9.2855282782788829e-17
10
4.0267407153359525
20
-6.3690592785454845
30
-1.1412185082501988e-16
0
LINE
5
325
100
AcDbEntity
8
0
100
AcDbLine
10
2.5102733824115733
20
-6.8261864935727727
30
-7.0876207331079696e-17
11
2.4894856384489903
21
-6.6382798708486757
31
-9.402851998641879e-17
0
SPLINE
5
326
100
AcDbEntity
8
0
100
AcDbSpline
70
0
71
2
72
6
73
3
74
0
42
0.000000001
43
0.0000000001
44
0.0000000001
40
0
40
0
40
0
40
1
40
1
40
1
10
1.4064132931478377
20
-7.9454587084946011
30
8.2872087853178559e-17
10
1.4098643474409667
20
-8.1170861432822647
30
1.038946353972137e-16
10
1.4275937049510086
20
-8.366853124489392
30
1.3296388186809888e-16
0
SPLINE
5
327
100
AcDbEntity
8
0
100
AcDbSpline
70
0
71
2
72
6
73
3
74
0
42
0.000000001
43
0.0000000001
44
0.0000000001
40
0
40
0
40
0
40
1
40
1
40
1
10
2.3758332598592093
20
15.513509697601652
30
0
10
2.3744571120734701
20
15.51368139148911
30
0
10
2.4478939894905367
20
15.577096207149504
30
0
0
SPLINE
5
328
100
AcDbEntity
8
0
100
AcDbSpline
70
0
71
2
72
6
73
3
74
0
42
0.000000001
43
0.0000000001
44
0.0000000001
40
0
40
0
40
0
40
1
40
1
40
1
10
0.54895078699416355
20
-7.7940096936231669
30
-1.5488243571288725e-17
10
0.58960283803095614
20
-7.4443853487996607
30
-5.8593335747150881e-17
10
0.47259521186187775
20
-7.0801843303380876
30
-8.1856945107951321e-17
0
LINE
5
329
100
AcDbEntity
8
0
100
AcDbLine
10
-1.1432951787862156
20
-6.6747591084229052
30
-9.644526250898055e-17
11
-1.4532613461063795
21
-6.5798085418381067
31
-5.7736355713185928e-17
0
SPLINE
5
330
100
AcDbEntity
8
0
100
AcDbSpline
70
0
71
2
72
6
73
3
74
0
42
0.000000001
43
0.0000000001
44
0.0000000001
40
0
40
0
40
0
40
1
40
1
40
1
10
2.0443889630062402
20
15.311524617813747
30
0
10
2.0659671235347261
20
15.484476248606045
30
0
10
2.3758332598592093
20
15.513509697601652
30
0
0
LINE
5
331
100
AcDbEntity
8
0
100
AcDbLine
10
1.2617039976754312
20
-8.6310742722881368
30
1.8586871678162141e-16
11
1.2437109509893776
21
-8.6314360733084072
31
1.8807267490689198e-16
0
SPLINE
5
332
100
AcDbEntity
8
0
100
AcDbSpline
70
0
71
2
72
6
73
3
74
0
42
0.000000001
43
0.0000000001
44
0.0000000001
40
0
40
0
40
0
40
1
40
1
40
1
10
2.5477469629959959
20
-7.09214693878641
30
-3.8978302270365528e-17
10
2.5397934089439693
20
-7.0930268249917452
30
-3.7998330583023651e-17
10
2.5102733824115733
20
-6.8261864935727727
30
-7.0876207331079696e-17
0
SPLINE
5
333
100
AcDbEntity
8
0
100
AcDbSpline
70
0
71
2
72
6
73
3
74
0
42
0.000000001
43
0.0000000001
44
0.0000000001
40
0
40
0
40
0
40
1
40
1
40
1
10
2.7370790430208598
20
15.503715678231025
30
0
10
2.8542886548688604
20
15.489092122452149
30
0
10
3.1232788529146545
20
15.544188815994664
30
0
0
SPLINE
5
334
100
AcDbEntity
8
0
100
AcDbSpline
70
0
71
2
72
6
73
3
74
0
42
0.000000001
43
0.0000000001
44
0.0000000001
40
0
40
0
40
0
40
1
40
1
40
1
10
1.0845452369736948
20
-7.6513773930360278
30
8.4757826718677368e-17
10
1.093715923705151
20
-7.5072221497201559
30
6.5652278568384955e-17
10
1.0959845138568958
20
-7.22121177889621
30
2.9656850428460437e-17
0
LINE
5
335
100
AcDbEntity
8
0
100
AcDbLine
10
1.1647023964547336
20
-6.9857616358995092
30
-7.995956158611809e-18
11
1.1835880972159061
21
-6.9750823741630859
31
-1.1595683830086673e-17
0
LINE
5
336
100
AcDbEntity
8
0
100
AcDbLine
10
1.2826702583586522
20
-6.9770919705865415
30
-2.3232353861714567e-17
11
1.348123520073526
21
-6.9717739247993356
31
-3.1749534838706586e-17
0
SPLINE
5
337
100
AcDbEntity
8
0
100
AcDbSpline
70
0
71
2
72
6
73
3
74
0
42
0.000000001
43
0.0000000001
44
0.0000000001
40
0
40
0
40
0
40
1
40
1
40
1
10
0.14198913957512885
20
-8.5607471124319936
30
1.2219784531620256e-16
10
-0.1235424511552884
20
-8.5298728213876949
30
1.5493516428012009e-16
10
-0.29387934799123472
20
-8.19702299914095
30
1.4228338311511572e-16
0
SPLINE
5
338
100
AcDbEntity
8
0
100
AcDbSpline
70
0
71
2
72
6
73
3
74
0
42
0.000000001
43
0.0000000001
44
0.0000000001
40
0
40
0
40
0
40
1
40
1
40
1
10
1.1476282399777158
20
-8.5859197715705111
30
1.9391540565015531e-16
10
1.1033148674552218
20
-8.4857123590376791
30
1.8671593306437784e-16
10
1.1010642645439124
20
-8.3737856341632675
30
1.7300609175589782e-16
0
LINE
5
339
100
AcDbEntity
8
0
100
AcDbLine
10
1.1964820460596577
20
-6.9788250280108368
30
-1.2675208420295699e-17
11
1.2826702583586522
21
-6.9770919705865415
31
-2.3232353861714567e-17
0
SPLINE
5
340
100
AcDbEntity
8
0
100
AcDbSpline
70
0
71
2
72
6
73
3
74
0
42
0.000000001
43
0.0000000001
44
0.0000000001
40
0
40
0
40
0
40
1
40
1
40
1
10
2.5013912090640078
20
-6.5117728245588697
30
-1.1241960294783334e-16
10
2.555612038281053
20
-6.4504285798573502
30
-1.2658234868047535e-16
10
2.618289873562222
20
-6.4434946529256356
30
-1.3430499739797247e-16
0
LINE
5
341
100
AcDbEntity
8
0
100
AcDbLine
10
2.5404309199514712
20
15.629051792047489
30
0
11
2.5569130246100111
21
15.626995416524803
31
0
0
LINE
5
342
100
AcDbEntity
8
0
100
AcDbLine
10
1.1835880972159061
20
-6.9750823741630859
30
-1.1595683830086673e-17
11
1.1964820460596577
21
-6.9788250280108368
31
-1.2675208420295699e-17
0
SPLINE
5
343
100
AcDbEntity
8
0
100
AcDbSpline
70
0
71
2
72
6
73
3
74
0
42
0.000000001
43
0.0000000001
44
0.0000000001
40
0
40
0
40
0
40
1
40
1
40
1
10
1.0959845138568958
20
-7.22121177889621
30
2.9656850428460437e-17
10
1.1142689617302646
20
-7.0585221328393155
30
7.1428694114605964e-18
10
1.1647023964547336
20
-6.9857616358995092
30
-7.995956158611809e-18
0
SPLINE
5
344
100
AcDbEntity
8
0
100
AcDbSpline
70
0
71
2
72
6
73
3
74
0
42
0.000000001
43
0.0000000001
44
0.0000000001
40
0
40
0
40
0
40
1
40
1
40
1
10
-0.91027325490959643
20
-6.643928286983499
30
-1.3423081587922435e-16
10
-0.92704316065679404
20
-6.7039236183850699
30
-1.266018761828924e-16
10
-1.0548208773440126
20
-6.6908992180696565
30
-1.0842552174759699e-16
0
SPLINE
5
345
100
AcDbEntity
8
0
100
AcDbSpline
70
0
71
2
72
6
73
3
74
0
42
0.000000001
43
0.0000000001
44
0.0000000001
40
0
40
0
40
0
40
1
40
1
40
1
10
2.8397210610654962
20
-7.0222060745324955
30
-8.0041476513107935e-17
10
2.8672131368566891
20
-7.2707151538677284
30
-4.9422226275676409e-17
10
2.9837719449923661
20
-8.1728323535976575
30
5.9914952512653432e-17
0
SPLINE
5
346
100
AcDbEntity
8
0
100
AcDbSpline
70
0
71
2
72
6
73
3
74
0
42
0.000000001
43
0.0000000001
44
0.0000000001
40
0
40
0
40
0
40
1
40
1
40
1
10
0.34922901819453173
20
-6.5619875630698834
30
-1.2081183233669512e-16
10
0.74464455171770272
20
-6.6079639165118556
30
-1.6956250794793734e-16
10
0.85054137470485414
20
-7.5164177118922595
30
-8.628243179996074e-17
0
SPLINE
5
347
100
AcDbEntity
8
0
100
AcDbSpline
70
0
71
2
72
6
73
3
74
0
42
0.000000001
43
0.0000000001
44
0.0000000001
40
0
40
0
40
0
40
1
40
1
40
1
10
3.0508464070491761
20
-8.5029724078964239
30
9.7284689344304664e-17
10
3.0047560992475075
20
-8.5873614343202327
30
1.1368263289537763e-16
10
2.8898414633181249
20
-8.6000742168428612
30
1.2784147169063387e-16
0
LINE
5
348
100
AcDbEntity
8
0
100
AcDbLine
10
2.8289433333197871
20
-6.9247829763366768
30
-9.204515151179722e-17
11
2.8397210610654962
21
-7.0222060745324955
31
-8.0041476513107935e-17
0
LINE
5
349
100
AcDbEntity
8
0
100
AcDbLine
10
4.0267407153359525
20
-6.3690592785454845
30
-1.1412185082501988e-16
11
4.05204393446175
21
-6.3626822010316477
31
-1.1731749857598486e-16
0
LINE
5
350
100
AcDbEntity
8
0
100
AcDbLine
10
-0.28713065946626393
20
14.592512071711436
30
0
11
-0.29375646537763922
21
14.626900445661045
31
0
0
LINE
5
351
100
AcDbEntity
8
0
100
AcDbLine
10
2.2255053669035596
20
-6.5089380654270297
30
-1.9482508407640488e-16
11
2.2394981782917118
21
-6.5086567004350417
31
-1.9653905563955323e-16
0
SPLINE
5
352
100
AcDbEntity
8
0
100
AcDbSpline
70
0
71
2
72
6
73
3
74
0
42
0.000000001
43
0.0000000001
44
0.0000000001
40
0
40
0
40
0
40
1
40
1
40
1
10
0.50271843507139391
20
13.93199803831725
30
0
10
0.49356332591504226
20
14.130133062058166
30
0
10
0.48037947459271207
20
14.148848124257007
30
0
0
SPLINE
5
353
100
AcDbEntity
8
0
100
AcDbSpline
70
0
71
2
72
6
73
3
74
0
42
0.000000001
43
0.0000000001
44
0.0000000001
40
0
40
0
40
0
40
1
40
1
40
1
10
3.3004606144934647
20
15.551367654816399
30
0
10
3.3894830181691478
20
15.540260851669498
30
0
10
3.4362982771109296
20
15.489440862144814
30
0
0
LINE
5
354
100
AcDbEntity
8
0
100
AcDbLine
10
2.5188463928036806
20
14.93884074280184
30
0
11
2.5156749860785315
21
14.913421524871
31
0
0
SPLINE
5
355
100
AcDbEntity
8
0
100
AcDbSpline
70
0
71
2
72
6
73
3
74
0
42
0.000000001
43
0.0000000001
44
0.0000000001
40
0
40
0
40
0
40
1
40
1
40
1
10
3.4274572772429064
20
14.804547365846082
30
0
10
3.3573409835018442
20
14.702983944058724
30
0
10
3.1766336126373234
20
14.671538712807266
30
0
0
SPLINE
5
356
100
AcDbEntity
8
0
100
AcDbSpline
70
0
71
2
72
6
73
3
74
0
42
0.000000001
43
0.0000000001
44
0.0000000001
40
0
40
0
40
0
40
1
40
1
40
1
10
-0.933226348600938
20
14.746268754280678
30
0
10
-0.7881092899671186
20
13.993101555374446
30
0
10
-0.46551350088560722
20
13.855000275400695
30
0
0
SPLINE
5
357
100
AcDbEntity
8
0
100
AcDbSpline
70
0
71
2
72
6
73
3
74
0
42
0.000000001
43
0.0000000001
44
0.0000000001
40
0
40
0
40
0
40
1
40
1
40
1
10
1.4533180166527702
20
15.073360493882111
30
0
10
1.4438833181253659
20
15.277546395414332
30
0
10
0.7267905324532552
20
15.402885221440586
30
0
0
SPLINE
5
358
100
AcDbEntity
8
0
100
AcDbSpline
70
0
71
2
72
6
73
3
74
0
42
0.000000001
43
0.0000000001
44
0.0000000001
40
0
40
0
40
0
40
1
40
1
40
1
10
-0.97272907672756725
20
15.071267443121846
30
0
10
-0.96219925249232563
20
14.915765581110856
30
0
10
-0.933226348600938
20
14.746268754280678
30
0
0
SPLINE
5
359
100
AcDbEntity
8
0
100
AcDbSpline
70
0
71
2
72
6
73
3
74
0
42
0.000000001
43
0.0000000001
44
0.0000000001
40
0
40
0
40
0
40
1
40
1
40
1
10
-0.41849082585959096
20
13.563430717915535
30
0
10
-0.69701152922492637
20
13.509766531132453
30
0
10
-0.89860244217934004
20
13.804833565584925
30
0
0
LINE
5
360
100
AcDbEntity
8
0
100
AcDbLine
10
1.4535026924251178
20
15.069363737763364
30
0
11
1.4533180166527702
21
15.073360493882111
31
0
0
SPLINE
5
361
100
AcDbEntity
8
0
100
AcDbSpline
70
0
71
2
72
6
73
3
74
0
42
0.000000001
43
0.0000000001
44
0.0000000001
40
0
40
0
40
0
40
1
40
1
40
1
10
-1.2272817991322695
20
14.634465882508113
30
0
10
-1.3012849241268545
20
15.018547029736455
30
0
10
-1.2500163847914143
20
15.342317933719315
30
0
0
SPLINE
5
362
100
AcDbEntity
8
0
100
AcDbSpline
70
4
71
5
72
61
73
55
74
0
42
0.000000001
43
0.0000000001
44
0.0000000001
40
0
40
0
40
0
40
0
40
0
40
0
40
0.02
40
0.040000000000000001
40
0.059999999999999998
40
0.080000000000000002
40
0.10000000000000001
40
0.12
40
0.14000000000000001
40
0.16
40
0.17999999999999999
40
0.20000000000000001
40
0.22
40
0.23999999999999999
40
0.25999999999999995
40
0.28000000000000003
40
0.29999999999999999
40
0.32000000000000001
40
0.34000000000000002
40
0.36000000000000004
40
0.38000000000000012
40
0.40000000000000008
40
0.4200000000000001
40
0.44000000000000011
40
0.46000000000000008
40
0.4800000000000002
40
0.50000000000000011
40
0.52000000000000013
40
0.54000000000000015
40
0.56000000000000016
40
0.58000000000000018
40
0.6000000000000002
40
0.62000000000000022
40
0.64000000000000024
40
0.66000000000000025
40
0.68000000000000016
40
0.70000000000000018
40
0.72000000000000031
40
0.74000000000000032
40
0.76000000000000034
40
0.78000000000000025
40
0.80000000000000016
40
0.8200000000000004
40
0.8400000000000003
40
0.86000000000000032
40
0.88000000000000034
40
0.90000000000000036
40
0.92000000000000037
40
0.94000000000000039
40
0.96000000000000041
40
0.98000000000000043
40
1
40
1
40
1
40
1
40
1
40
1
41
1
41
1
41
1
41
1
41
1
41
1
41
1
41
1
41
1
41
1
41
1
41
1
41
1
41
1
41
1
41
1
41
1
41
1
41
1
41
1
41
1
41
1
41
1
41
1
41
1
41
1
41
1
41
1
41
1
41
1
41
1
41
1
41
1
41
1
41
1
41
1
41
1
41
1
41
1
41
1
41
1
41
1
41
1
41
1
41
1
41
1
41
1
41
1
41
1
41
1
41
1
41
1
41
1
41
1
41
1
10
-3.7600078291469088
20
9.1567527676067808
30
0
10
-3.7584078580686713
20
9.1580462148114847
30
0
10
-3.7541083121228893
20
9.1596883664975959
30
0
10
-3.7443733762431992
20
9.1592213787993462
30
0
10
-3.7252107745858645
20
9.1526848072387157
30
0
10
-3.6931256858822081
20
9.1357804571788961
30
0
10
-3.655798672260635
20
9.1121196641818543
30
0
10
-3.6163664816629746
20
9.084142657307817
30
0
10
-3.5777187539988322
20
9.0543463675609317
30
0
10
-3.5420584423296875
20
9.0249137252768517
30
0
10
-3.510323009243884
20
8.9972538654098759
30
0
10
-3.4823626396587488
20
8.9720266907364081
30
0
10
-3.4573923570703
20
8.9493402684080259
30
0
10
-3.4343439859344156
20
8.928888515584946
30
0
10
-3.4122769456274407
20
8.9101154876328916
30
0
10
-3.3907215403250781
20
8.8923603736835908
30
0
10
-3.3701555881066336
20
8.8750273963266757
30
0
10
-3.3520502172810902
20
8.8576829854911967
30
0
10
-3.3383265280901795
20
8.8400567657090399
30
0
10
-3.3309632203393722
20
8.8220666467042808
30
0
10
-3.3315327612441323
20
8.8038342634367055
30
0
10
-3.340797470689397
20
8.7857063098810535
30
0
10
-3.3587352444414549
20
8.7682971027604246
30
0
10
-3.3845403792025182
20
8.7525291594181684
30
0
10
-3.4166285540230068
20
8.7396789252542249
30
0
10
-3.4526450250226257
20
8.7314106214919978
30
0
10
-3.489726180732998
20
8.7293257923052145
30
0
10
-3.5247532709482794
20
8.7345453242193649
30
0
10
-3.5546048861009361
20
8.7472427581462089
30
0
10
-3.5764172923673994
20
8.7662762861298518
30
0
10
-3.5878236938353614
20
8.7885804899597471
30
0
10
-3.5872685412852841
20
8.809297086268284
30
0
10
-3.5745816762385965
20
8.8238752076929341
30
0
10
-3.5514261179131985
20
8.8296342419651186
30
0
10
-3.5219896292563382
20
8.8279134962647863
30
0
10
-3.4920030294123534
20
8.8229252640360567
30
0
10
-3.4673474656505592
20
8.8198670658457452
30
0
10
-3.4529012104031627
20
8.8234129448963738
30
0
10
-3.451057937583685
20
8.8357598746650332
30
0
10
-3.4611247436290342
20
8.8558009086108598
30
0
10
-3.4806829762137199
20
8.8807765736156998
30
0
10
-3.5064958358408878
20
8.9073545952093927
30
0
10
-3.5357088856134391
20
8.9330854127296568
30
0
10
-3.5665616948422967
20
8.9572242937620441
30
0
10
-3.5979640012262344
20
8.9800727756969785
30
0
10
-3.6292700665886874
20
9.0025790196510833
30
0
10
-3.6599849432763238
20
9.0258503251436561
30
0
10
-3.6894809507913395
20
9.0506766813321047
30
0
10
-3.7167550936456757
20
9.0771127222368229
30
0
10
-3.740056211949824
20
9.1038762050204394
30
0
10
-3.7569902893541873
20
9.1284156473999207
30
0
10
-3.7635466403664815
20
9.1438919864535357
30
0
10
-3.763708138592321
20
9.1519276832693741
30
0
10
-3.761607800225145
20
9.1554593204020769
30
0
10
-3.7600078291469088
20
9.1567527676067808
30
0
0
LINE
5
363
100
AcDbEntity
8
0
100
AcDbLine
10
0.37898886847157159
20
14.258609730700892
30
0
11
0.3658743710591274
21
14.271679341485164
31
0
0
SPLINE
5
364
100
AcDbEntity
8
0
100
AcDbSpline
70
0
71
2
72
6
73
3
74
0
42
0.000000001
43
0.0000000001
44
0.0000000001
40
0
40
0
40
0
40
1
40
1
40
1
10
0.78980381238454367
20
14.216315647214554
30
0
10
0.80398418218207413
20
13.909423849584885
30
0
10
0.84192805841210983
20
13.759948651089344
30
0
0
SPLINE
5
365
100
AcDbEntity
8
0
100
AcDbSpline
70
0
71
2
72
6
73
3
74
0
42
0.000000001
43
0.0000000001
44
0.0000000001
40
0
40
0
40
0
40
1
40
1
40
1
10
1.5285786804742707
20
14.576972367725453
30
0
10
1.3388620518069458
20
14.422578902784453
30
0
10
1.1038760041014914
20
14.3026839562945
30
0
0
LINE
5
366
100
AcDbEntity
8
0
100
AcDbLine
10
1.1038760041014914
20
14.3026839562945
30
0
11
0.90859550979668902
21
14.248982780150252
31
0
0
LINE
5
367
100
AcDbEntity
8
0
100
AcDbLine
10
0.41630059754686827
20
15.152305079845858
30
0
11
0.40366771163858928
21
15.384954736358443
31
0
0
LINE
5
368
100
AcDbEntity
8
0
100
AcDbLine
10
0.2063499187977785
20
15.470353007920359
30
0
11
0.20505496578322466
21
15.4983784024733
31
0
0
SPLINE
5
369
100
AcDbEntity
8
0
100
AcDbSpline
70
0
71
2
72
6
73
3
74
0
42
0.000000001
43
0.0000000001
44
0.0000000001
40
0
40
0
40
0
40
1
40
1
40
1
10
-0.63977968443393951
20
15.603335614891979
30
0
10
-0.65654785924140946
20
15.690363558880154
30
0
10
-0.54968736914848249
20
15.727040550515801
30
0
0
SPLINE
5
370
100
AcDbEntity
8
0
100
AcDbSpline
70
0
71
2
72
6
73
3
74
0
42
0.000000001
43
0.0000000001
44
0.0000000001
40
0
40
0
40
0
40
1
40
1
40
1
10
0.36511506226948487
20
14.288112314865723
30
0
10
0.36394372612617137
20
14.313462391047292
30
0
10
0.47108094445587917
20
14.400162628760963
30
0
0
LINE
5
371
100
AcDbEntity
8
0
100
AcDbLine
10
-0.54968736914848249
20
15.727040550515801
30
0
11
-0.42218209619682256
21
15.751607725238648
31
0
0
SPLINE
5
372
100
AcDbEntity
8
0
100
AcDbSpline
70
0
71
2
72
6
73
3
74
0
42
0.000000001
43
0.0000000001
44
0.0000000001
40
0
40
0
40
0
40
1
40
1
40
1
10
0.5861717771934527
20
15.818732125467207
30
0
10
0.70004008569939213
20
15.8239935717988
30
0
10
0.73741525173096656
20
15.718598482229805
30
0
0
SPLINE
5
373
100
AcDbEntity
8
0
100
AcDbSpline
70
0
71
2
72
6
73
3
74
0
42
0.000000001
43
0.0000000001
44
0.0000000001
40
0
40
0
40
0
40
1
40
1
40
1
10
0.74813227171503038
20
13.504349377155455
30
0
10
0.56155764821477916
20
13.495728432651555
30
0
10
0.50271843507139391
20
13.93199803831725
30
0
0
SPLINE
5
374
100
AcDbEntity
8
0
100
AcDbSpline
70
0
71
2
72
6
73
3
74
0
42
0.000000001
43
0.0000000001
44
0.0000000001
40
0
40
0
40
0
40
1
40
1
40
1
10
2.5156749860785315
20
14.913421524871
30
0
10
2.9822726688138919
20
14.977180794481702
30
0
10
3.2122313462097645
20
14.948490199122551
30
0
0
SPLINE
5
375
100
AcDbEntity
8
0
100
AcDbSpline
70
0
71
2
72
6
73
3
74
0
42
0.000000001
43
0.0000000001
44
0.0000000001
40
0
40
0
40
0
40
1
40
1
40
1
10
3.1766336126373234
20
14.671538712807266
30
0
10
3.0318278339074358
20
14.655919085267971
30
0
10
2.6564526616960209
20
14.659331460673814
30
0
0
SPLINE
5
376
100
AcDbEntity
8
0
100
AcDbSpline
70
0
71
2
72
6
73
3
74
0
42
0.000000001
43
0.0000000001
44
0.0000000001
40
0
40
0
40
0
40
1
40
1
40
1
10
0.40366771163858928
20
15.384954736358443
30
0
10
0.20858221454537185
20
15.42204162644007
30
0
10
0.2063499187977785
20
15.470353007920359
30
0
0
LINE
5
377
100
AcDbEntity
8
0
100
AcDbLine
10
0.56319429733917814
20
15.817670418494695
30
0
11
0.5861717771934527
21
15.818732125467207
31
0
0
SPLINE
5
378
100
AcDbEntity
8
0
100
AcDbSpline
70
0
71
2
72
6
73
3
74
0
42
0.000000001
43
0.0000000001
44
0.0000000001
40
0
40
0
40
0
40
1
40
1
40
1
10
1.2144852326643047
20
14.694474699202699
30
0
10
1.3979094167699708
20
14.827912469068901
30
0
10
1.4505088849400147
20
15.021225453597006
30
0
0
LINE
5
379
100
AcDbEntity
8
0
100
AcDbLine
10
3.4362982771109296
20
15.489440862144814
30
0
11
3.4311237885899817
21
15.447966695381036
31
0
0
LINE
5
380
100
AcDbEntity
8
0
100
AcDbLine
10
0.48037947459271207
20
14.148848124257007
30
0
11
0.4415691382515457
21
14.144054887787096
31
0
0
SPLINE
5
381
100
AcDbEntity
8
0
100
AcDbSpline
70
0
71
2
72
6
73
3
74
0
42
0.000000001
43
0.0000000001
44
0.0000000001
40
0
40
0
40
0
40
1
40
1
40
1
10
2.599567470960245
20
15.222226602497724
30
0
10
2.5400357508419025
20
15.108676073450816
30
0
10
2.5188463928036806
20
14.93884074280184
30
0
0
LINE
5
382
100
AcDbEntity
8
0
100
AcDbLine
10
-1.215357120838402
20
14.57257600799575
30
0
11
-1.2272817991322695
21
14.634465882508113
31
0
0
SPLINE
5
383
100
AcDbEntity
8
0
100
AcDbSpline
70
0
71
2
72
6
73
3
74
0
42
0.000000001
43
0.0000000001
44
0.0000000001
40
0
40
0
40
0
40
1
40
1
40
1
10
2.5043303618551453
20
14.631034639279294
30
0
10
2.4923049720525574
20
14.572632431633592
30
0
10
2.4833374251217823
20
14.500756431645716
30
0
0
SPLINE
5
384
100
AcDbEntity
8
0
100
AcDbSpline
70
0
71
2
72
6
73
3
74
0
42
0.000000001
43
0.0000000001
44
0.0000000001
40
0
40
0
40
0
40
1
40
1
40
1
10
1.4505088849400147
20
15.021225453597006
30
0
10
1.4549322843675654
20
15.038424485306704
30
0
10
1.4535026924251178
20
15.069363737763364
30
0
0
SPLINE
5
385
100
AcDbEntity
8
0
100
AcDbSpline
70
0
71
2
72
6
73
3
74
0
42
0.000000001
43
0.0000000001
44
0.0000000001
40
0
40
0
40
0
40
1
40
1
40
1
10
0.75765729320995334
20
15.701502146303952
30
0
10
1.1224214934079884
20
15.637053306587662
30
0
10
1.4596767308451528
20
15.477599927663242
30
0
0
SPLINE
5
386
100
AcDbEntity
8
0
100
AcDbSpline
70
0
71
2
72
6
73
3
74
0
42
0.000000001
43
0.0000000001
44
0.0000000001
40
0
40
0
40
0
40
1
40
1
40
1
10
3.4116576266047862
20
14.847610218120394
30
0
10
3.4093920621641725
20
14.829451438360085
30
0
10
3.4274572772429064
20
14.804547365846082
30
0
0
SPLINE
5
387
100
AcDbEntity
8
0
100
AcDbSpline
70
0
71
2
72
6
73
3
74
0
42
0.000000001
43
0.0000000001
44
0.0000000001
40
0
40
0
40
0
40
1
40
1
40
1
10
0.73741525173096656
20
15.718598482229805
30
0
10
0.73824665447607807
20
15.700605250272913
30
0
10
0.75765729320995334
20
15.701502146303952
30
0
0
LINE
5
388
100
AcDbEntity
8
0
100
AcDbLine
10
0.27078180903758498
20
15.647952332204364
30
0
11
0.40030517803368848
21
15.693256163634604
31
0
0
SPLINE
5
389
100
AcDbEntity
8
0
100
AcDbSpline
70
0
71
2
72
6
73
3
74
0
42
0.000000001
43
0.0000000001
44
0.0000000001
40
0
40
0
40
0
40
1
40
1
40
1
10
3.2122313462097645
20
14.948490199122551
30
0
10
3.4201278428910511
20
14.915500051358904
30
0
10
3.4154960648670953
20
14.878375776486006
30
0
0
LINE
5
390
100
AcDbEntity
8
0
100
AcDbLine
10
0.84192805841210983
20
13.759948651089344
30
0
11
0.84366077424280372
21
13.72244918643111
31
0
0
SPLINE
5
391
100
AcDbEntity
8
0
100
AcDbSpline
70
0
71
2
72
6
73
3
74
0
42
0.000000001
43
0.0000000001
44
0.0000000001
40
0
40
0
40
0
40
1
40
1
40
1
10
-0.42218209619682256
20
15.751607725238648
30
0
10
-0.3617923325029746
20
15.702399802639732
30
0
10
-0.26082068700811673
20
15.508707675781835
30
0
0
SPLINE
5
392
100
AcDbEntity
8
0
100
AcDbSpline
70
0
71
2
72
6
73
3
74
0
42
0.000000001
43
0.0000000001
44
0.0000000001
40
0
40
0
40
0
40
1
40
1
40
1
10
3.4311237885899817
20
15.447966695381036
30
0
10
3.4017385038066306
20
15.212439996158118
30
0
10
2.8748245647748316
20
15.220815540724013
30
0
0
SPLINE
5
393
100
AcDbEntity
8
0
100
AcDbSpline
70
0
71
2
72
6
73
3
74
0
42
0.000000001
43
0.0000000001
44
0.0000000001
40
0
40
0
40
0
40
1
40
1
40
1
10
-0.26082068700811673
20
15.508707675781835
30
0
10
-0.063096196178302574
20
15.115331863032983
30
0
10
0.01238774394191757
20
14.72356518668235
30
0
0
LINE
5
394
100
AcDbEntity
8
0
100
AcDbLine
10
3.4154960648670953
20
14.878375776486006
30
0
11
3.4116576266047862
21
14.847610218120394
31
0
0
SPLINE
5
395
100
AcDbEntity
8
0
100
AcDbSpline
70
0
71
2
72
6
73
3
74
0
42
0.000000001
43
0.0000000001
44
0.0000000001
40
0
40
0
40
0
40
1
40
1
40
1
10
-0.89860244217934004
20
13.804833565584925
30
0
10
-1.122013272366525
20
14.088115217854664
30
0
10
-1.215357120838402
20
14.57257600799575
30
0
0
SPLINE
5
396
100
AcDbEntity
8
0
100
AcDbSpline
70
0
71
2
72
6
73
3
74
0
42
0.000000001
43
0.0000000001
44
0.0000000001
40
0
40
0
40
0
40
1
40
1
40
1
10
-0.084191129953097993
20
13.776752760640006
30
0
10
-0.23498093702452727
20
13.598788624282994
30
0
10
-0.41849082585959096
20
13.563430717915535
30
0
0
SPLINE
5
397
100
AcDbEntity
8
0
100
AcDbSpline
70
0
71
2
72
6
73
3
74
0
42
0.000000001
43
0.0000000001
44
0.0000000001
40
0
40
0
40
0
40
1
40
1
40
1
10
0.84366077424280372
20
13.72244918643111
30
0
10
0.85168722306481859
20
13.548740648308264
30
0
10
0.74813227171503038
20
13.504349377155455
30
0
0
SPLINE
5
398
100
AcDbEntity
8
0
100
AcDbSpline
70
0
71
2
72
6
73
3
74
0
42
0.000000001
43
0.0000000001
44
0.0000000001
40
0
40
0
40
0
40
1
40
1
40
1
10
2.8748245647748316
20
15.220815540724013
30
0
10
2.6004733016238188
20
15.229486947524814
30
0
10
2.599567470960245
20
15.222226602497724
30
0
0
SPLINE
5
399
100
AcDbEntity
8
0
100
AcDbSpline
70
0
71
2
72
6
73
3
74
0
42
0.000000001
43
0.0000000001
44
0.0000000001
40
0
40
0
40
0
40
1
40
1
40
1
10
-0.29375646537763905
20
14.626900445661045
30
0
10
-0.40864561984721065
20
15.223182808817954
30
0
10
-0.61748569144598964
20
15.537843014143942
30
0
0
SPLINE
5
400
100
AcDbEntity
8
0
100
AcDbSpline
70
0
71
2
72
6
73
3
74
0
42
0.000000001
43
0.0000000001
44
0.0000000001
40
0
40
0
40
0
40
1
40
1
40
1
10
0.01238774394191757
20
14.72356518668235
30
0
10
0.13106172860919746
20
14.107639302734848
30
0
10
-0.084191129953097993
20
13.776752760640006
30
0
0
SPLINE
5
401
100
AcDbEntity
8
0
100
AcDbSpline
70
0
71
2
72
6
73
3
74
0
42
0.000000001
43
0.0000000001
44
0.0000000001
40
0
40
0
40
0
40
1
40
1
40
1
10
0.4415691382515457
20
14.144054887787096
30
0
10
0.40136341231915007
20
14.171877893142462
30
0
10
0.37898886847157159
20
14.258609730700892
30
0
0
SPLINE
5
402
100
AcDbEntity
8
0
100
AcDbSpline
70
0
71
2
72
6
73
3
74
0
42
0.000000001
43
0.0000000001
44
0.0000000001
40
0
40
0
40
0
40
1
40
1
40
1
10
0.20505496578322466
20
15.4983784024733
30
0
10
0.24476296186664051
20
15.646750094551098
30
0
10
0.27078180903758498
20
15.647952332204364
30
0
0
SPLINE
5
403
100
AcDbEntity
8
0
100
AcDbSpline
70
0
71
2
72
6
73
3
74
0
42
0.000000001
43
0.0000000001
44
0.0000000001
40
0
40
0
40
0
40
1
40
1
40
1
10
2.6564526616960209
20
14.659331460673814
30
0
10
2.5591339724910345
20
14.645401531497807
30
0
10
2.5043303618551453
20
14.631034639279294
30
0
0
LINE
5
404
100
AcDbEntity
8
0
100
AcDbLine
10
-0.63656179204289431
20
15.586634539075247
30
0
11
-0.63977968443393951
21
15.603335614891979
31
0
0
SPLINE
5
405
100
AcDbEntity
8
0
100
AcDbSpline
70
0
71
2
72
6
73
3
74
0
42
0.000000001
43
0.0000000001
44
0.0000000001
40
0
40
0
40
0
40
1
40
1
40
1
10
-0.42126614717642685
20
13.853006337717018
30
0
10
-0.33708695704208264
20
13.869225626725106
30
0
10
-0.27126126195237482
20
14.074390279664506
30
0
0
SPLINE
5
406
100
AcDbEntity
8
0
100
AcDbSpline
70
0
71
2
72
6
73
3
74
0
42
0.000000001
43
0.0000000001
44
0.0000000001
40
0
40
0
40
0
40
1
40
1
40
1
10
1.4596767308451528
20
15.477599927663242
30
0
10
1.7590063648111385
20
15.344973913897952
30
0
10
1.7703246175742631
20
15.100024100451805
30
0
0
SPLINE
5
407
100
AcDbEntity
8
0
100
AcDbSpline
70
0
71
2
72
6
73
3
74
0
42
0.000000001
43
0.0000000001
44
0.0000000001
40
0
40
0
40
0
40
1
40
1
40
1
10
0.40030517803368848
20
15.693256163634599
30
0
10
0.44138020325532756
20
15.812041825896259
30
0
10
0.56319429733917814
20
15.817670418494695
30
0
0
SPLINE
5
408
100
AcDbEntity
8
0
100
AcDbSpline
70
0
71
2
72
6
73
3
74
0
42
0.000000001
43
0.0000000001
44
0.0000000001
40
0
40
0
40
0
40
1
40
1
40
1
10
-2.9933026867519956
20
14.673812119206568
30
0
10
-2.8515934020494296
20
14.831128859327086
30
0
10
-2.6557298533402069
20
14.901629856931091
30
0
0
SPLINE
5
409
100
AcDbEntity
8
0
100
AcDbSpline
70
0
71
2
72
6
73
3
74
0
42
0.000000001
43
0.0000000001
44
0.0000000001
40
0
40
0
40
0
40
1
40
1
40
1
10
-1.1181146336849543
20
15.398494867342693
30
0
10
-0.99422501765080429
20
15.422365392639408
30
0
10
-0.9711024297261398
20
15.30235762137781
30
0
0
SPLINE
5
410
100
AcDbEntity
8
0
100
AcDbSpline
70
4
71
3
72
8
73
4
74
0
42
0.000000001
43
0.0000000001
44
0.0000000001
40
0
40
0
40
0
40
0
40
1
40
1
40
1
40
1
41
1
41
1
41
1
41
1
10
5.3439757149869616
20
-2.2208546894155297
30
0
10
5.7272008686721279
20
-2.2202470033749493
30
0
10
5.8332182519280593
20
-2.2033721313200028
30
0
10
5.9977389869206972
20
-2.1169311089334037
30
0
0
LINE
5
411
100
AcDbEntity
8
0
100
AcDbLine
10
0.3658743710591274
20
14.271679341485164
30
0
11
0.36511506226948487
21
14.288112314865723
31
0
0
LINE
5
412
100
AcDbEntity
8
0
100
AcDbLine
10
1.7703246175742631
20
15.100024100451805
30
0
11
1.7710633206636526
21
15.084037075976834
31
0
0
SPLINE
5
413
100
AcDbEntity
8
0
100
AcDbSpline
70
4
71
3
72
8
73
4
74
0
42
0.000000001
43
0.0000000001
44
0.0000000001
40
0
40
0
40
0
40
0
40
0.53353502539374575
40
0.53353502539374575
40
0.53353502539374575
40
0.53353502539374575
41
1
41
1
41
1
41
1
10
-3.5614821616253707
20
8.4702598218580967
30
0
10
-3.6491435390146201
20
8.5229794146241016
30
0
10
-3.7336147054099715
20
8.5705848711600776
30
0
10
-3.7968108865575876
20
8.6035261936542771
30
0
0
SPLINE
5
414
100
AcDbEntity
8
0
100
AcDbSpline
70
0
71
2
72
6
73
3
74
0
42
0.000000001
43
0.0000000001
44
0.0000000001
40
0
40
0
40
0
40
1
40
1
40
1
10
-0.61748569144598964
20
15.537843014143942
30
0
10
-0.63018322670739824
20
15.553529360180333
30
0
10
-0.63656179204289431
20
15.586634539075247
30
0
0
SPLINE
5
415
100
AcDbEntity
8
0
100
AcDbSpline
70
0
71
2
72
6
73
3
74
0
42
0.000000001
43
0.0000000001
44
0.0000000001
40
0
40
0
40
0
40
1
40
1
40
1
10
1.7710633206636526
20
15.084037075976831
30
0
10
1.7837250815470367
20
14.810011037577214
30
0
10
1.5285786804742707
20
14.576972367725453
30
0
0
SPLINE
5
416
100
AcDbEntity
8
0
100
AcDbSpline
70
4
71
3
72
8
73
4
74
0
42
0.000000001
43
0.0000000001
44
0.0000000001
40
0
40
0
40
0
40
0
40
1
40
1
40
1
40
1
41
1
41
1
41
1
41
1
10
0.52093279996399899
20
2.3503530022907841
30
0
10
1.0479885676817611
20
2.567288975169145
30
0
10
1.9995335557323142
20
3.1583980290072922
30
0
10
2.5379215427623563
20
3.6033261536853125
30
0
0
SPLINE
5
417
100
AcDbEntity
8
0
100
AcDbSpline
70
4
71
3
72
8
73
4
74
0
42
0.000000001
43
0.0000000001
44
0.0000000001
40
0
40
0
40
0
40
0
40
1
40
1
40
1
40
1
41
1
41
1
41
1
41
1
10
-2.1214846946832107
20
-1.5360123807038322
30
0
10
-2.1434408282277957
20
-1.6093001115585088
30
0
10
-2.2072399188802247
20
-1.6637416315468552
30
0
10
-2.3007361894372944
20
-1.6889705317413566
30
0
0
SPLINE
5
418
100
AcDbEntity
8
0
100
AcDbSpline
70
4
71
5
72
66
73
60
74
0
42
0.000000001
43
0.0000000001
44
0.0000000001
40
0
40
0
40
0
40
0
40
0
40
0
40
0.018181818181818181
40
0.036363636363636362
40
0.054545454545454543
40
0.072727272727272724
40
0.090909090909090912
40
0.1090909090909091
40
0.12727272727272729
40
0.14545454545454548
40
0.16363636363636366
40
0.18181818181818185
40
0.20000000000000004
40
0.21818181818181825
40
0.23636363636363639
40
0.25454545454545457
40
0.27272727272727282
40
0.29090909090909089
40
0.30909090909090914
40
0.32727272727272733
40
0.34545454545454551
40
0.3636363636363637
40
0.38181818181818172
40
0.40000000000000008
40
0.41818181818181832
40
0.43636363636363651
40
0.45454545454545459
40
0.47272727272727277
40
0.49090909090909102
40
0.50909090909090915
40
0.52727272727272745
40
0.54545454545454553
40
0.56363636363636371
40
0.5818181818181819
40
0.60000000000000009
40
0.61818181818181828
40
0.63636363636363646
40
0.65454545454545465
40
0.67272727272727284
40
0.69090909090909103
40
0.70909090909090922
40
0.7272727272727274
40
0.74545454545454559
40
0.76363636363636378
40
0.78181818181818175
40
0.80000000000000016
40
0.81818181818181823
40
0.83636363636363653
40
0.85454545454545472
40
0.87272727272727302
40
0.89090909090909121
40
0.90909090909090917
40
0.92727272727272725
40
0.94545454545454555
40
0.96363636363636385
40
0.98181818181818203
40
1
40
1
40
1
40
1
40
1
40
1
41
1
41
1
41
1
41
1
41
1
41
1
41
1
41
1
41
1
41
1
41
1
41
1
41
1
41
1
41
1
41
1
41
1
41
1
41
1
41
1
41
1
41
1
41
1
41
1
41
1
41
1
41
1
41
1
41
1
41
1
41
1
41
1
41
1
41
1
41
1
41
1
41
1
41
1
41
1
41
1
41
1
41
1
41
1
41
1
41
1
41
1
41
1
41
1
41
1
41
1
41
1
41
1
41
1
41
1
41
1
41
1
41
1
41
1
41
1
41
1
10
7.3107558053631232
20
1.1933399801816857
30
0
10
7.3139220858972998
20
1.1956482017878989
30
0
10
7.3213274675199056
20
1.1962167536250174
30
0
10
7.3356338053016463
20
1.184756160368134
30
0
10
7.3609690775128653
20
1.1456095017031642
30
0
10
7.4024432311982009
20
1.0640864317075851
30
0
10
7.4527945538180127
20
0.9605219987696183
30
0
10
7.5107869747290259
20
0.84694855406242364
30
0
10
7.5748584815969098
20
0.73491607589599384
30
0
10
7.6431222371811964
20
0.63373912404378696
30
0
10
7.7133184016962302
20
0.54820676484919639
30
0
10
7.7829867210046189
20
0.47869508274882422
30
0
10
7.8497657137462893
20
0.42260602877440051
30
0
10
7.9116444412923395
20
0.37537646245889095
30
0
10
7.9672530516137394
20
0.33168837957681846
30
0
10
8.016095358904602
20
0.28652415781370727
30
0
10
8.0589114545787641
20
0.23644766794336905
30
0
10
8.0976507067415131
20
0.18026904051441628
30
0
10
8.1345773225126567
20
0.11833912121343253
30
0
10
8.1715220434979496
20
0.05210913183609784
30
0
10
8.2091352666852231
20
-0.016388709437310311
30
0
10
8.2459952535825742
20
-0.085080797181452353
30
0
10
8.2782158750089536
20
-0.15221048598130235
30
0
10
8.3007460118491636
20
-0.21605254145434241
30
0
10
8.3084096531493934
20
-0.27470602449245252
30
0
10
8.2969948539018628
20
-0.32592032252917891
30
0
10
8.2644495305293759
20
-0.36674974436492885
30
0
10
8.211574760349059
20
-0.39390584871476991
30
0
10
8.1423160042146172
20
-0.40498370792443328
30
0
10
8.0639356297155
20
-0.39929321403555412
30
0
10
7.9877797047916195
20
-0.37923044302172026
30
0
10
7.927712834191567
20
-0.34999379431427513
30
0
10
7.8953423369351059
20
-0.31728068134597492
30
0
10
7.8967123653158779
20
-0.28572319849823541
30
0
10
7.9269388504977636
20
-0.25653184063475509
30
0
10
7.9709554043949185
20
-0.22725627413200811
30
0
10
8.0112608754107875
20
-0.19397423734419689
30
0
10
8.0345737754672069
20
-0.15300298007131538
30
0
10
8.0370004804409927
20
-0.10242470777694351
30
0
10
8.0201083248854772
20
-0.041886023863651874
30
0
10
7.9886682757249758
20
0.027356109800022638
30
0
10
7.9473649081455369
20
0.10237183523434544
30
0
10
7.8992912004168625
20
0.17889091834921295
30
0
10
7.8466112112661239
20
0.25234215713722624
30
0
10
7.7907172607288278
20
0.31868807564796031
30
0
10
7.7325976830832159
20
0.37540770594155004
30
0
10
7.6730918572957316
20
0.42227025799158491
30
0
10
7.6132462638439087
20
0.46256860623088342
30
0
10
7.5544288907690325
20
0.5027952625019011
30
0
10
7.4981762005184125
20
0.55042771452646733
30
0
10
7.4461079610104672
20
0.6122086503049885
30
0
10
7.3998143405028012
20
0.69220642821533451
30
0
10
7.3607558186356172
20
0.79000668493504334
30
0
10
7.3301544893768638
20
0.89872295581721029
30
0
10
7.308987071543747
20
1.0071867378143859
30
0
10
7.29798007206512
20
1.1022741843542252
30
0
10
7.2976788315197521
20
1.157396994866613
30
0
10
7.3023297843148249
20
1.1823674239877409
30
0
10
7.3075895248289457
20
1.1910317585754735
30
0
10
7.3107558053631232
20
1.1933399801816857
30
0
0
SPLINE
5
419
100
AcDbEntity
8
0
100
AcDbSpline
70
4
71
3
72
8
73
4
74
0
42
0.000000001
43
0.0000000001
44
0.0000000001
40
0
40
0
40
0
40
0
40
1
40
1
40
1
40
1
41
1
41
1
41
1
41
1
10
6.2642890827820432
20
1.2953279518922951
30
0
10
6.2683869917517683
20
1.2135590951640938
30
0
10
6.6737374116431374
20
0.70756845291834136
30
0
10
7.2097353655037777
20
0.11514737976382231
30
0
0
CIRCLE
5
420
100
AcDbEntity
8
0
100
AcDbCircle
10
-2.5903877723198936
20
6.688978188334592
30
0
40
0.10000000000000002
210
0
220
0
230
1
0
SPLINE
5
421
100
AcDbEntity
8
0
100
AcDbSpline
70
0
71
2
72
6
73
3
74
0
42
0.000000001
43
0.0000000001
44
0.0000000001
40
0
40
0
40
0
40
1
40
1
40
1
10
2.5379433089718741
20
14.004441867746818
30
0
10
2.6538242761896229
20
13.989984079165314
30
0
10
3.0117541407187121
20
14.108890851437266
30
0
0
SPLINE
5
422
100
AcDbEntity
8
0
100
AcDbSpline
70
4
71
3
72
8
73
4
74
0
42
0.000000001
43
0.0000000001
44
0.0000000001
40
0
40
0
40
0
40
0
40
1
40
1
40
1
40
1
41
1
41
1
41
1
41
1
10
-2.7806890073691686
20
7.7601085149008009
30
0
10
-3.1080596717265361
20
8.1203677038268935
30
0
10
-3.3586129952418999
20
8.3482526169135092
30
0
10
-3.5614821616253707
20
8.4702598218580967
30
0
0
SPLINE
5
423
100
AcDbEntity
8
0
100
AcDbSpline
70
4
71
5
72
46
73
40
74
0
42
0.000000001
43
0.0000000001
44
0.0000000001
40
0
40
0
40
0
40
0
40
0
40
0
40
0.028571428571428567
40
0.057142857142857134
40
0.085714285714285715
40
0.11428571428571427
40
0.14285714285714285
40
0.17142857142857146
40
0.20000000000000001
40
0.22857142857142851
40
0.25714285714285717
40
0.2857142857142857
40
0.31428571428571433
40
0.34285714285714292
40
0.3714285714285715
40
0.40000000000000008
40
0.42857142857142871
40
0.4571428571428573
40
0.48571428571428582
40
0.51428571428571435
40
0.54285714285714293
40
0.57142857142857151
40
0.60000000000000009
40
0.62857142857142867
40
0.65714285714285725
40
0.68571428571428583
40
0.71428571428571441
40
0.74285714285714299
40
0.77142857142857135
40
0.80000000000000016
40
0.82857142857142863
40
0.85714285714285732
40
0.8857142857142859
40
0.91428571428571459
40
0.94285714285714284
40
0.97142857142857164
40
1
40
1
40
1
40
1
40
1
40
1
41
1
41
1
41
1
41
1
41
1
41
1
41
1
41
1
41
1
41
1
41
1
41
1
41
1
41
1
41
1
41
1
41
1
41
1
41
1
41
1
41
1
41
1
41
1
41
1
41
1
41
1
41
1
41
1
41
1
41
1
41
1
41
1
41
1
41
1
41
1
41
1
41
1
41
1
41
1
41
1
10
-5.6707953914923666
20
8.4193905489939027
30
0
10
-5.6694493136218771
20
8.4182146659707922
30
0
10
-5.6663220447756366
20
8.415931907258857
30
0
10
-5.660325773149065
20
8.4127147990045614
30
0
10
-5.6497167865811351
20
8.4088398640837294
30
0
10
-5.6321545138421554
20
8.4046731355737254
30
0
10
-5.6104979638289869
20
8.4011345567008249
30
0
10
-5.5851798927815564
20
8.398124351632033
30
0
10
-5.5569675798947893
20
8.3954666366762183
30
0
10
-5.5269363624449834
20
8.3929205457284102
30
0
10
-5.4963566679295282
20
8.3902145844725204
30
0
10
-5.466608307649893
20
8.3870738846962887
30
0
10
-5.4390844778856913
20
8.3832501531009864
30
0
10
-5.415100118774328
20
8.3785510317683762
30
0
10
-5.3957984817903375
20
8.3728690471369589
30
0
10
-5.3820554965724563
20
8.366214023747899
30
0
10
-5.3744228101601195
20
8.3587022956358759
30
0
10
-5.3730831038063052
20
8.3505385791988722
30
0
10
-5.377780072857111
20
8.3420069168116022
30
0
10
-5.3878121249984527
20
8.3334398994840093
30
0
10
-5.4022707603566174
20
8.3250961527341172
30
0
10
-5.4202190864678945
20
8.3170683936284124
30
0
10
-5.440934307492225
20
8.3091430119456984
30
0
10
-5.4639485913388874
20
8.3008292097935481
30
0
10
-5.4889401290638524
20
8.2915182287460691
30
0
10
-5.5156677602771751
20
8.2806041300360871
30
0
10
-5.5438875928228004
20
8.2676210765446339
30
0
10
-5.5732782327079082
20
8.2523724689083231
30
0
10
-5.603359477533826
20
8.2350694066489272
30
0
10
-5.6334195053857297
20
8.2164553697880063
30
0
10
-5.6625936757784565
20
8.1976524578741081
30
0
10
-5.6899362002613936
20
8.1800214798634112
30
0
10
-5.7144938336869053
20
8.1650187149022813
30
0
10
-5.7353791195006547
20
8.1540540913051416
30
0
10
-5.7518434599949329
20
8.1483500635513249
30
0
10
-5.7633534988859871
20
8.148795161195725
30
0
10
-5.7683999403745485
20
8.1544056374436806
30
0
10
-5.769812821445707
20
8.1616243152711156
30
0
10
-5.7697019808749639
20
8.167773065637622
30
0
10
-5.7693833680611855
20
8.1711815192593811
30
0
0
SPLINE
5
424
100
AcDbEntity
8
0
100
AcDbSpline
70
0
71
2
72
6
73
3
74
0
42
0.000000001
43
0.0000000001
44
0.0000000001
40
0
40
0
40
0
40
1
40
1
40
1
10
3.7491924888856496
20
13.998073977118104
30
0
10
3.7457586111366434
20
13.970551021403326
30
0
10
3.5682022878647386
20
13.967065486981765
30
0
0
SPLINE
5
425
100
AcDbEntity
8
0
100
AcDbSpline
70
4
71
5
72
71
73
65
74
0
42
0.000000001
43
0.0000000001
44
0.0000000001
40
0
40
0
40
0
40
0
40
0
40
0
40
0.016666666666666666
40
0.033333333333333333
40
0.050000000000000003
40
0.066666666666666666
40
0.083333333333333329
40
0.10000000000000001
40
0.11666666666666665
40
0.13333333333333333
40
0.14999999999999999
40
0.16666666666666666
40
0.18333333333333326
40
0.20000000000000001
40
0.21666666666666665
40
0.23333333333333331
40
0.25
40
0.26666666666666666
40
0.28333333333333333
40
0.29999999999999999
40
0.31666666666666665
40
0.33333333333333331
40
0.34999999999999998
40
0.36666666666666647
40
0.3833333333333333
40
0.40000000000000002
40
0.41666666666666657
40
0.43333333333333329
40
0.45000000000000001
40
0.46666666666666662
40
0.48333333333333328
40
0.5
40
0.51666666666666661
40
0.53333333333333333
40
0.55000000000000004
40
0.56666666666666676
40
0.58333333333333348
40
0.6000000000000002
40
0.61666666666666692
40
0.63333333333333364
40
0.65000000000000036
40
0.66666666666666707
40
0.68333333333333379
40
0.70000000000000051
40
0.71666666666666723
40
0.73333333333333395
40
0.75000000000000056
40
0.7666666666666675
40
0.7833333333333341
40
0.80000000000000082
40
0.81666666666666754
40
0.83333333333333415
40
0.85000000000000098
40
0.8666666666666677
40
0.88333333333333441
40
0.90000000000000113
40
0.91666666666666785
40
0.93333333333333435
40
0.9500000000000014
40
0.96666666666666801
40
0.98333333333333484
40
1
40
1
40
1
40
1
40
1
40
1
41
1
41
1
41
1
41
1
41
1
41
1
41
1
41
1
41
1
41
1
41
1
41
1
41
1
41
1
41
1
41
1
41
1
41
1
41
1
41
1
41
1
41
1
41
1
41
1
41
1
41
1
41
1
41
1
41
1
41
1
41
1
41
1
41
1
41
1
41
1
41
1
41
1
41
1
41
1
41
1
41
1
41
1
41
1
41
1
41
1
41
1
41
1
41
1
41
1
41
1
41
1
41
1
41
1
41
1
41
1
41
1
41
1
41
1
41
1
41
1
41
1
41
1
41
1
41
1
41
1
10
-0.57317108721277921
20
2.4328943080719716
30
0
10
-0.57507937916549956
20
2.4194792198273629
30
0
10
-0.57887292883204611
20
2.3953374059108312
30
0
10
-0.58449418021590438
20
2.3671899844937037
30
0
10
-0.59185071670685907
20
2.3457961489418366
30
0
10
-0.60066228727216364
20
2.3448896558769361
30
0
10
-0.60862516471355566
20
2.3665358971177759
30
0
10
-0.61482395268072743
20
2.4041962686572425
30
0
10
-0.61844267732217173
20
2.4503496709885133
30
0
10
-0.61920459360799274
20
2.4983839349996471
30
0
10
-0.61802641061312857
20
2.5451323748925008
30
0
10
-0.61673431463967587
20
2.590678232668131
30
0
10
-0.61726831758601097
20
2.6367057304018595
30
0
10
-0.621078096264852
20
2.6853546610421248
30
0
10
-0.62836582890355253
20
2.7377554496822039
30
0
10
-0.63760986945818676
20
2.7930343996918148
30
0
10
-0.64634245052315176
20
2.8492359383845587
30
0
10
-0.65177300082792688
20
2.9040127021618205
30
0
10
-0.65145724055197352
20
2.9553873434948255
30
0
10
-0.64397735503082165
20
3.0025228434971982
30
0
10
-0.62953293247871167
20
3.0463809869152767
30
0
10
-0.60941744485467542
20
3.0889788669201974
30
0
10
-0.58556162733719608
20
3.1327202513879233
30
0
10
-0.56008527098082239
20
3.1797587800805553
30
0
10
-0.53476758194065543
20
3.2312038001632697
30
0
10
-0.51086940404958325
20
3.2869729547769326
30
0
10
-0.48929045855364955
20
3.346258143087506
30
0
10
-0.47063202075712501
20
3.4078157216752087
30
0
10
-0.45529969293136552
20
3.4703370210540103
30
0
10
-0.44358390034267181
20
3.532762278460889
30
0
10
-0.43576172461651691
20
3.5946760877773039
30
0
10
-0.43209536891188766
20
3.6562252038088041
30
0
10
-0.43280801964564203
20
3.7179268513881549
30
0
10
-0.43806727388199079
20
3.7805156310970256
30
0
10
-0.44796508138269481
20
3.8447733341059216
30
0
10
-0.46249936628211485
20
3.9113696088536125
30
0
10
-0.48155365641691372
20
3.9806887912462954
30
0
10
-0.50489845532059574
20
4.0528418720796804
30
0
10
-0.53219406985405715
20
4.1276906437329606
30
0
10
-0.56299218386316996
20
4.2048664736301529
30
0
10
-0.59673875983716584
20
4.2837919684032757
30
0
10
-0.63277364875630293
20
4.3636983631536941
30
0
10
-0.67033713061675182
20
4.4436503803512295
30
0
10
-0.70855891237274171
20
4.5225525082726925
30
0
10
-0.74651444512808673
20
4.5992258030603157
30
0
10
-0.78333555987075099
20
4.6725414659967717
30
0
10
-0.81830774786671545
20
4.7415405855312232
30
0
10
-0.85096873613994373
20
4.8055549584849855
30
0
10
-0.88121718517462344
20
4.8643392806014685
30
0
10
-0.90939387307387232
20
4.9181729591178094
30
0
10
-0.93643328739986198
20
4.9680397368283256
30
0
10
-0.96379417644468113
20
5.0155634487079244
30
0
10
-0.99291438057244896
20
5.0624190096742456
30
0
10
-1.0247667570518586
20
5.109854919572169
30
0
10
-1.0593688253126976
20
5.1581652217968603
30
0
10
-1.0953229104303115
20
5.2061943769217924
30
0
10
-1.1293060986124486
20
5.2507894084572566
30
0
10
-1.1568662453272729
20
5.287608906690429
30
0
10
-1.1733024200743492
20
5.3120185932126711
30
0
10
-1.1744450118761331
20
5.3198850915072198
30
0
10
-1.157650513610323
20
5.3085864808317833
30
0
10
-1.1288594399007283
20
5.2832196324687208
30
0
10
-1.0984410896199359
20
5.2548247212300812
30
0
10
-1.0742425641335398
20
5.2317331698043867
30
0
10
-1.061163346429876
20
5.219146942374989
30
0
0
SPLINE
5
426
100
AcDbEntity
8
0
100
AcDbSpline
70
4
71
3
72
8
73
4
74
0
42
0.000000001
43
0.0000000001
44
0.0000000001
40
0
40
0
40
0
40
0
40
1
40
1
40
1
40
1
41
1
41
1
41
1
41
1
10
7.9791180228068539
20
2.2375047778009387
30
0
10
7.8486349877276531
20
2.5094356753843408
30
0
10
7.6642289185983214
20
3.1871035817999633
30
0
10
7.5206862603692679
20
3.9221772980620115
30
0
0
SPLINE
5
427
100
AcDbEntity
8
0
100
AcDbSpline
70
0
71
2
72
6
73
3
74
0
42
0.000000001
43
0.0000000001
44
0.0000000001
40
0
40
0
40
0
40
1
40
1
40
1
10
-0.27126126195237482
20
14.074390279664506
30
0
10
-0.22801078847156206
20
14.285676003946763
30
0
10
-0.28713065946626393
20
14.592512071711436
30
0
0
SPLINE
5
428
100
AcDbEntity
8
0
100
AcDbSpline
70
4
71
5
72
31
73
25
74
0
42
0.000000001
43
0.0000000001
44
0.0000000001
40
0
40
0
40
0
40
0
40
0
40
0
40
0.050000000000000003
40
0.10000000000000001
40
0.15000000000000002
40
0.20000000000000001
40
0.25
40
0.29999999999999999
40
0.34999999999999998
40
0.40000000000000002
40
0.45000000000000001
40
0.5
40
0.54999999999999993
40
0.59999999999999998
40
0.65000000000000002
40
0.70000000000000007
40
0.75000000000000022
40
0.80000000000000016
40
0.8500000000000002
40
0.90000000000000024
40
0.9500000000000004
40
1
40
1
40
1
40
1
40
1
40
1
41
1
41
1
41
1
41
1
41
1
41
1
41
1
41
1
41
1
41
1
41
1
41
1
41
1
41
1
41
1
41
1
41
1
41
1
41
1
41
1
41
1
41
1
41
1
41
1
41
1
10
-1.4489788097234522
20
0.8305958965360668
30
0
10
-1.4530193183865732
20
0.84892251031790045
30
0
10
-1.4613585172679771
20
0.88627375746849224
30
0
10
-1.4746418458800079
20
0.94439476423363744
30
0
10
-1.4939084555742599
20
1.0260941367122711
30
0
10
-1.5206411547108032
20
1.1351692586550584
30
0
10
-1.5501313341021559
20
1.2508335500154606
30
0
10
-1.5825409411618212
20
1.3722425567088474
30
0
10
-1.6181009632991861
20
1.4977928185112375
30
0
10
-1.657081159538853
20
1.6251090648760722
30
0
10
-1.6996703984868669
20
1.7515653791661339
30
0
10
-1.7458735640939063
20
1.8746806893334165
30
0
10
-1.795392238290739
20
1.9925734986370294
30
0
10
-1.8475108394594308
20
2.1043829428462502
30
0
10
-1.9009506343508153
20
2.2107769283262195
30
0
10
-1.9540768162984661
20
2.3135111899147409
30
0
10
-2.0051283939644646
20
2.4149316264557381
30
0
10
-2.0524357491518006
20
2.5175148786610286
30
0
10
-2.0946476734129198
20
2.6233958998413351
30
0
10
-2.1309564798259686
20
2.7339074642831318
30
0
10
-2.1609532800872464
20
2.8497798972811066
30
0
10
-2.1797899207506126
20
2.947011105570708
30
0
10
-2.191017958944943
20
3.0225086394336707
30
0
10
-2.1972199314931151
20
3.0739797140739871
30
0
10
-2.2000000702114555
20
3.1000000989343226
30
0
0
SPLINE
5
429
100
AcDbEntity
8
0
100
AcDbSpline
70
4
71
3
72
8
73
4
74
0
42
0.000000001
43
0.0000000001
44
0.0000000001
40
0
40
0
40
0
40
0
40
1
40
1
40
1
40
1
41
1
41
1
41
1
41
1
10
7.347465950272829
20
1.9579943538944078
30
0
10
7.2504324571037406
20
2.6199643662291017
30
0
10
7.2795014299794998
20
2.6433980109311705
30
0
10
7.5288188604254049
20
2.1041911702712843
30
0
0
SPLINE
5
430
100
AcDbEntity
8
0
100
AcDbSpline
70
4
71
3
72
8
73
4
74
0
42
0.000000001
43
0.0000000001
44
0.0000000001
40
0
40
0
40
0
40
0
40
1
40
1
40
1
40
1
41
1
41
1
41
1
41
1
10
3.6402904990673988
20
3.9938657157641377
30
0
10
3.658265560882088
20
3.9411691417485195
30
0
10
3.733676883041968
20
3.8938424469934403
30
0
10
3.8276901501106866
20
3.8762592698585161
30
0
0
SPLINE
5
431
100
AcDbEntity
8
0
100
AcDbSpline
70
4
71
3
72
8
73
4
74
0
42
0.000000001
43
0.0000000001
44
0.0000000001
40
0
40
0
40
0
40
0
40
1
40
1
40
1
40
1
41
1
41
1
41
1
41
1
10
9.6127818203398512
20
1.8348988746026385
30
0
10
9.504553548832531
20
1.7016157175717526
30
0
10
9.3484235811681735
20
1.5555102526911702
30
0
10
9.2658261895374192
20
1.5102197695491875
30
0
0
SPLINE
5
432
100
AcDbEntity
8
0
100
AcDbSpline
70
4
71
5
72
36
73
30
74
0
42
0.000000001
43
0.0000000001
44
0.0000000001
40
0
40
0
40
0
40
0
40
0
40
0
40
0.040000000000000001
40
0.080000000000000002
40
0.12
40
0.16
40
0.20000000000000001
40
0.23999999999999999
40
0.28000000000000003
40
0.32000000000000001
40
0.35999999999999999
40
0.40000000000000002
40
0.44
40
0.47999999999999993
40
0.51999999999999991
40
0.56000000000000005
40
0.59999999999999998
40
0.64000000000000001
40
0.68000000000000005
40
0.72000000000000008
40
0.76000000000000023
40
0.80000000000000016
40
0.8400000000000003
40
0.88000000000000023
40
0.92000000000000004
40
0.96000000000000041
40
1
40
1
40
1
40
1
40
1
40
1
41
1
41
1
41
1
41
1
41
1
41
1
41
1
41
1
41
1
41
1
41
1
41
1
41
1
41
1
41
1
41
1
41
1
41
1
41
1
41
1
41
1
41
1
41
1
41
1
41
1
41
1
41
1
41
1
41
1
41
1
10
-1.061163346429876
20
5.219146942374989
30
0
10
-1.045107749700374
20
5.1971613007076414
30
0
10
-1.0130583971232787
20
5.1526539144300418
30
0
10
-0.96516987230438545
20
5.0842845218668256
30
0
10
-0.90169064002858945
20
4.9899003503192221
30
0
10
-0.82308831053642584
20
4.866547116339258
30
0
10
-0.74560621116543968
20
4.7379135051478523
30
0
10
-0.66998133687673156
20
4.6042505443237483
30
0
10
-0.59745209032367397
20
4.4660440198690114
30
0
10
-0.5298555465797542
20
4.3240809571476699
30
0
10
-0.46983453347425358
20
4.1795520766869272
30
0
10
-0.42069795729442766
20
4.0340520622762375
30
0
10
-0.38571992113450565
20
3.8894129557267885
30
0
10
-0.36756687160266177
20
3.7475794845525496
30
0
10
-0.36766129843547235
20
3.6104689288700058
30
0
10
-0.3855560735175011
20
3.4798368157392403
30
0
10
-0.41827145715995612
20
3.3571366925775741
30
0
10
-0.45963032635218037
20
3.2433773191788635
30
0
10
-0.50195129473594469
20
3.1390619735509242
30
0
10
-0.53771586395028481
20
3.0441199463047197
30
0
10
-0.56122883176695781
20
2.9578320568564198
30
0
10
-0.5703260736507958
20
2.8787447981286363
30
0
10
-0.56801551846073961
20
2.8045867507433129
30
0
10
-0.56006555638231836
20
2.7328039482950777
30
0
10
-0.55295801209417095
20
2.6610171982447928
30
0
10
-0.55128046662502694
20
2.5876223821698887
30
0
10
-0.55593965702377601
20
2.5270276654160484
30
0
10
-0.56312596672682624
20
2.4804134256456427
30
0
10
-0.56955034462231724
20
2.4488202192203015
30
0
10
-0.57317108721277921
20
2.4328943080719716
30
0
0
LINE
5
433
100
AcDbEntity
8
0
100
AcDbLine
10
2.5302238080872876
20
14.007332607294266
30
0
11
2.5379433089718741
21
14.004441867746818
31
0
0
SPLINE
5
434
100
AcDbEntity
8
0
100
AcDbSpline
70
4
71
5
72
27
73
21
74
0
42
0.000000001
43
0.0000000001
44
0.0000000001
40
0.21036977567418
40
0.21036977567418
40
0.21036977567418
40
0.21036977567418
40
0.21036977567418
40
0.21036977567418
40
0.25
40
0.29999999999999999
40
0.34999999999999998
40
0.40000000000000002
40
0.45000000000000001
40
0.5
40
0.54999999999999993
40
0.59999999999999998
40
0.65000000000000002
40
0.70000000000000007
40
0.75000000000000022
40
0.80000000000000016
40
0.8500000000000002
40
0.90000000000000024
40
0.9500000000000004
40
1
40
1
40
1
40
1
40
1
40
1
41
1
41
1
41
1
41
1
41
1
41
1
41
1
41
1
41
1
41
1
41
1
41
1
41
1
41
1
41
1
41
1
41
1
41
1
41
1
41
1
41
1
10
-2.2584278825093334
20
7.1904778489807146
30
0
10
-2.2612960017215404
20
7.1928562557043847
30
0
10
-2.267740881141652
20
7.1981863578220651
30
0
10
-2.2776292234951567
20
7.2063076303845657
30
0
10
-2.2907172445169675
20
7.2169100285073666
30
0
10
-2.3066288163462865
20
7.229500451430714
30
0
10
-2.3225187282880886
20
7.2417465799334844
30
0
10
-2.337708842800891
20
7.2531584377662339
30
0
10
-2.3522371244910434
20
7.2637946300830141
30
0
10
-2.3661691828048528
20
7.2736704457215131
30
0
10
-2.3795973081402879
20
7.2827159542484372
30
0
10
-2.3926438170626634
20
7.2907147343133181
30
0
10
-2.4054515665592437
20
7.2973243370765903
30
0
10
-2.4181648106446461
20
7.3021585796140309
30
0
10
-2.4309141647122496
20
7.3048481753161241
30
0
10
-2.4437978061575891
20
7.3051207457313021
30
0
10
-2.4568701544490223
20
7.3028496143517296
30
0
10
-2.4674993071623668
20
7.2989660763801298
30
0
10
-2.4755703848839854
20
7.2948951117013312
30
0
10
-2.4809950289733278
20
7.2916683833952858
30
0
10
-2.4837183318316303
20
7.2899268335467164
30
0
0
SPLINE
5
435
100
AcDbEntity
8
0
100
AcDbSpline
70
4
71
3
72
8
73
4
74
0
42
0.000000001
43
0.0000000001
44
0.0000000001
40
0
40
0
40
0
40
0
40
1
40
1
40
1
40
1
41
1
41
1
41
1
41
1
10
-2.356418236266653
20
1.2499752438180545
30
0
10
-2.1412563359250609
20
-0.11234035290411257
30
0
10
-2.0432295607255888
20
-1.2747947629469334
30
0
10
-2.1214846946832107
20
-1.5360123807038322
30
0
0
SPLINE
5
436
100
AcDbEntity
8
0
100
AcDbSpline
70
4
71
3
72
8
73
4
74
0
42
0.000000001
43
0.0000000001
44
0.0000000001
40
0
40
0
40
0
40
0
40
1
40
1
40
1
40
1
41
1
41
1
41
1
41
1
10
9.8560531718624169
20
1.6343346785822346
30
0
10
9.9341479028530397
20
1.7829238450142855
30
0
10
10.035213397866128
20
1.9427148231878197
30
0
10
10.080643059646489
20
1.9894232404244878
30
0
0
SPLINE
5
437
100
AcDbEntity
8
0
100
AcDbSpline
70
4
71
3
72
8
73
4
74
0
42
0.000000001
43
0.0000000001
44
0.0000000001
40
0
40
0
40
0
40
0
40
1
40
1
40
1
40
1
41
1
41
1
41
1
41
1
10
3.5030659883484838
20
4.082011966081601
30
0
10
3.5658343958144436
20
4.0820331490372643
30
0
10
3.6226702517600637
20
4.0455243249522761
30
0
10
3.6402904990673988
20
3.9938657157641377
30
0
0
SPLINE
5
438
100
AcDbEntity
8
0
100
AcDbSpline
70
4
71
3
72
8
73
4
74
0
42
0.000000001
43
0.0000000001
44
0.0000000001
40
0
40
0
40
0
40
0
40
1
40
1
40
1
40
1
41
1
41
1
41
1
41
1
10
4.156829591265903
20
3.6053279429954554
30
0
10
4.156829591265903
20
3.3537618094124602
30
0
10
4.2845257437407058
20
2.6606065145378093
30
0
10
4.381917030270289
20
2.3835149193810343
30
0
0
SPLINE
5
439
100
AcDbEntity
8
0
100
AcDbSpline
70
0
71
2
72
6
73
3
74
0
42
0.000000001
43
0.0000000001
44
0.0000000001
40
0
40
0
40
0
40
1
40
1
40
1
10
3.0117541407187121
20
14.108890851437266
30
0
10
3.3885636105815649
20
14.22087970101861
30
0
10
3.5969783960998249
20
14.194877010683623
30
0
0
SPLINE
5
440
100
AcDbEntity
8
0
100
AcDbSpline
70
4
71
5
72
36
73
30
74
0
42
0.000000001
43
0.0000000001
44
0.0000000001
40
0
40
0
40
0
40
0
40
0
40
0
40
0.040000000000000001
40
0.080000000000000002
40
0.12
40
0.16
40
0.20000000000000001
40
0.23999999999999999
40
0.28000000000000003
40
0.32000000000000001
40
0.35999999999999999
40
0.40000000000000002
40
0.44
40
0.47999999999999993
40
0.51999999999999991
40
0.56000000000000005
40
0.59999999999999998
40
0.64000000000000001
40
0.68000000000000005
40
0.72000000000000008
40
0.76000000000000023
40
0.80000000000000016
40
0.8400000000000003
40
0.88000000000000023
40
0.92000000000000004
40
0.96000000000000041
40
1
40
1
40
1
40
1
40
1
40
1
41
1
41
1
41
1
41
1
41
1
41
1
41
1
41
1
41
1
41
1
41
1
41
1
41
1
41
1
41
1
41
1
41
1
41
1
41
1
41
1
41
1
41
1
41
1
41
1
41
1
41
1
41
1
41
1
41
1
41
1
10
7.3000002329743747
20
2.8000000893600343
30
0
10
7.3010897558642496
20
2.8262498745166398
30
0
10
7.3030608625089721
20
2.8790062029966177
30
0
10
7.3053937072080828
20
2.9589109690538216
30
0
10
7.307253264205869
20
3.0669952328202919
30
0
10
7.3074272762729242
20
3.2046960453655058
30
0
10
7.3052865987003255
20
3.3450150361944022
30
0
10
7.30052776262675
20
3.487965708536251
30
0
10
7.2926654712116381
20
3.633541356490122
30
0
10
7.2809941293749629
20
3.7817013141663445
30
0
10
7.2646844399992379
20
3.9322865024616735
30
0
10
7.2428737625674735
20
4.0849398998703199
30
0
10
7.2147637990459019
20
4.2390137126592524
30
0
10
7.1797095918288347
20
4.3934976484206389
30
0
10
7.1373373748132698
20
4.5468851184156813
30
0
10
7.0875587247231655
20
4.6972848522485
30
0
10
7.030520237955006
20
4.8426878533599398
30
0
10
6.966578422958035
20
4.9811889055450314
30
0
10
6.8962692613947478
20
5.1112248943399274
30
0
10
6.8202867655857196
20
5.231822155236233
30
0
10
6.7394585434730185
20
5.3428200226558937
30
0
10
6.6546647429681043
20
5.4446164448172585
30
0
10
6.5667599103493046
20
5.5379455441513983
30
0
10
6.4765001329851088
20
5.6236606356172061
30
0
10
6.3844579050918302
20
5.7024992466722315
30
0
10
6.2909755779225396
20
5.7749274976934002
30
0
10
6.2151820550021988
20
5.8279615353943077
30
0
10
6.1577995215035051
20
5.8650305586782654
30
0
10
6.1193063333307487
20
5.8885435910420156
30
0
10
6.1000001946772162
20
5.9000001882943565
30
0
0
SPLINE
5
441
100
AcDbEntity
8
0
100
AcDbSpline
70
4
71
5
72
101
73
95
74
0
42
0.000000001
43
0.0000000001
44
0.0000000001
40
0
40
0
40
0
40
0
40
0
40
0
40
0.011111111111111113
40
0.022222222222222227
40
0.033333333333333333
40
0.044444444444444453
40
0.055555555555555559
40
0.066666666666666666
40
0.077777777777777793
40
0.088888888888888906
40
0.10000000000000001
40
0.11111111111111112
40
0.12222222222222225
40
0.13333333333333333
40
0.14444444444444446
40
0.15555555555555553
40
0.16666666666666666
40
0.17777777777777773
40
0.18888888888888888
40
0.20000000000000001
40
0.21111111111111105
40
0.22222222222222213
40
0.23333333333333325
40
0.24444444444444435
40
0.25555555555555542
40
0.2666666666666665
40
0.27777777777777768
40
0.28888888888888881
40
0.29999999999999993
40
0.31111111111111106
40
0.32222222222222208
40
0.33333333333333331
40
0.34444444444444444
40
0.35555555555555562
40
0.3666666666666667
40
0.37777777777777777
40
0.38888888888888895
40
0.40000000000000008
40
0.4111111111111112
40
0.42222222222222228
40
0.43333333333333351
40
0.44444444444444448
40
0.45555555555555571
40
0.4666666666666669
40
0.47777777777777802
40
0.48888888888888898
40
0.50000000000000022
40
0.51111111111111129
40
0.52222222222222237
40
0.53333333333333344
40
0.54444444444444451
40
0.55555555555555558
40
0.56666666666666665
40
0.57777777777777772
40
0.5888888888888888
40
0.59999999999999987
40
0.61111111111111094
40
0.62222222222222201
40
0.63333333333333297
40
0.64444444444444415
40
0.65555555555555522
40
0.6666666666666663
40
0.67777777777777737
40
0.68888888888888855
40
0.69999999999999951
40
0.71111111111111058
40
0.72222222222222165
40
0.73333333333333262
40
0.7444444444444438
40
0.75555555555555487
40
0.76666666666666594
40
0.77777777777777701
40
0.78888888888888775
40
0.79999999999999905
40
0.81111111111111023
40
0.8222222222222213
40
0.83333333333333215
40
0.84444444444444344
40
0.85555555555555463
40
0.86666666666666559
40
0.87777777777777655
40
0.88888888888888773
40
0.8999999999999988
40
0.91111111111110965
40
0.92222222222222083
40
0.93333333333333202
40
0.9444444444444432
40
0.95555555555555405
40
0.96666666666666523
40
0.97777777777777641
40
0.98888888888888715
40
1
40
1
40
1
40
1
40
1
40
1
41
1
41
1
41
1
41
1
41
1
41
1
41
1
41
1
41
1
41
1
41
1
41
1
41
1
41
1
41
1
41
1
41
1
41
1
41
1
41
1
41
1
41
1
41
1
41
1
41
1
41
1
41
1
41
1
41
1
41
1
41
1
41
1
41
1
41
1
41
1
41
1
41
1
41
1
41
1
41
1
41
1
41
1
41
1
41
1
41
1
41
1
41
1
41
1
41
1
41
1
41
1
41
1
41
1
41
1
41
1
41
1
41
1
41
1
41
1
41
1
41
1
41
1
41
1
41
1
41
1
41
1
41
1
41
1
41
1
41
1
41
1
41
1
41
1
41
1
41
1
41
1
41
1
41
1
41
1
41
1
41
1
41
1
41
1
41
1
41
1
41
1
41
1
41
1
41
1
41
1
41
1
41
1
41
1
41
1
41
1
10
4.5000001436143409
20
5.1000001627629183
30
0
10
4.4938273503736772
20
5.0975242936541116
30
0
10
4.4821587316655087
20
5.0911529544533272
30
0
10
4.4666867192218991
20
5.0773371425959617
30
0
10
4.4501199099395059
20
5.050396742402957
30
0
10
4.4363180468154928
20
5.0029135961226894
30
0
10
4.4298199976602843
20
4.9428138655207281
30
0
10
4.431417523691044
20
4.8724931027780913
30
0
10
4.4416928353855774
20
4.7952137685903011
30
0
10
4.4604490589168
20
4.714773569030549
30
0
10
4.4860615226334861
20
4.6351636371181311
30
0
10
4.5150112558885835
20
4.5602506133829035
30
0
10
4.5409673580654877
20
4.4934006257516588
30
0
10
4.5555995988646441
20
4.4373227684112004
30
0
10
4.5511443569120233
20
4.3941179752876014
30
0
10
4.5222442636064644
20
4.3652647691711586
30
0
10
4.4686382231086492
20
4.3516433892299116
30
0
10
4.3954887131508729
20
4.3534955868060727
30
0
10
4.3107524914657214
20
4.3703188297347744
30
0
10
4.223272741089942
20
4.4007733806891602
30
0
10
4.140608082847109
20
4.4425880988491553
30
0
10
4.0669085923674668
20
4.4924551249086884
30
0
10
4.0009527809300405
20
4.5459590345626708
30
0
10
3.9382094092692683
20
4.5981698081725391
30
0
10
3.8727149033559529
20
4.6442075315305722
30
0
10
3.7989890859477233
20
4.6798110476606913
30
0
10
3.7140027974980301
20
4.7019203619523608
30
0
10
3.6189645418055121
20
4.7092187083496579
30
0
10
3.5216123519173088
20
4.7027875825104086
30
0
10
3.4335549405635204
20
4.6856172285095923
30
0
10
3.3670586739831507
20
4.6619541342817001
30
0
10
3.3318113960567977
20
4.6367225859181342
30
0
10
3.3321935410193237
20
4.6148811295985741
30
0
10
3.3630649655749409
20
4.600899219098685
30
0
10
3.4125424023502173
20
4.5975923564283114
30
0
10
3.4699145489864089
20
4.6040757264878946
30
0
10
3.5297098858121703
20
4.6151121118913725
30
0
10
3.5896475850881955
20
4.6236686941958292
30
0
10
3.649586203746201
20
4.6229271332117152
30
0
10
3.7101245405369565
20
4.6084216401191247
30
0
10
3.7712526744270165
20
4.5803548150007583
30
0
10
3.8325210873079878
20
4.5422662906574631
30
0
10
3.8933775348884474
20
4.4993773997020483
30
0
10
3.9534580576644962
20
4.4569968867251841
30
0
10
4.0128594620839451
20
4.4190340013579021
30
0
10
4.072518246475699
20
4.3861221697991981
30
0
10
4.1338677669126254
20
4.3562851875820199
30
0
10
4.1983052582935114
20
4.3262942154325019
30
0
10
4.2666934511151977
20
4.2928469698742857
30
0
10
4.3389137996605793
20
4.2536947660981284
30
0
10
4.4132353015168606
20
4.209099459397132
30
0
10
4.4863380109604032
20
4.1620544980535286
30
0
10
4.554342652403923
20
4.1165886473362745
30
0
10
4.6135775232094209
20
4.0765727941926411
30
0
10
4.6614974637158797
20
4.0442322894603961
30
0
10
4.6974318667070056
20
4.0189962416698704
30
0
10
4.7236843252744789
20
3.9956510068550486
30
0
10
4.7444063422305582
20
3.9668563805074446
30
0
10
4.7640326793598655
20
3.9264479683859874
30
0
10
4.7856851868077124
20
3.8729775999249245
30
0
10
4.8111258843136318
20
3.8088844234879904
30
0
10
4.841062394796027
20
3.7387234885157281
30
0
10
4.8753271720037938
20
3.6677104027639023
30
0
10
4.9131104172137867
20
3.6001739101183921
30
0
10
4.9531659137924775
20
3.5379400414343558
30
0
10
4.9940748966182449
20
3.4808278380539153
30
0
10
5.0345013595499619
20
3.4272986121900746
30
0
10
5.0734654406105442
20
3.3750632749206293
30
0
10
5.110576013046507
20
3.3216710651228829
30
0
10
5.1463662196093614
20
3.265196475057198
30
0
10
5.182104913845591
20
3.2043710061510287
30
0
10
5.2193955125250158
20
3.1384826857263755
30
0
10
5.259839387086112
20
3.0673518380579257
30
0
10
5.3046822039201258
20
2.9912741464849817
30
0
10
5.3544442567618118
20
2.910981520739627
30
0
10
5.4086247134917755
20
2.8275859479235885
30
0
10
5.4660084615838862
20
2.7424387271388033
30
0
10
5.5249120301398209
20
2.6569977573077241
30
0
10
5.5834539763105324
20
2.5726910280187161
30
0
10
5.6398112072027358
20
2.4907837407863682
30
0
10
5.6924892498284745
20
2.4122391063942592
30
0
10
5.7405681064772285
20
2.3375925885651636
30
0
10
5.784008050068393
20
2.2667912075471568
30
0
10
5.8234966434910191
20
2.1993023994132082
30
0
10
5.8602066036608731
20
2.134275314210857
30
0
10
5.895584642014791
20
2.0706838876918048
30
0
10
5.9311283763100633
20
2.0074768413692117
30
0
10
5.9681666100769188
20
1.9437259063034911
30
0
10
6.0076432822179182
20
1.878771340255913
30
0
10
6.050186395371143
20
1.8121739869957871
30
0
10
6.0961704521930518
20
1.7436717072996031
30
0
10
6.1358589813013404
20
1.687241797736833
30
0
10
6.1672845020151845
20
1.6439844364727247
30
0
10
6.1889720921882763
20
1.6147307531980546
30
0
10
6.2000001978686479
20
1.6000000510628767
30
0
0
SPLINE
5
442
100
AcDbEntity
8
0
100
AcDbSpline
70
4
71
5
72
46
73
40
74
0
42
0.000000001
43
0.0000000001
44
0.0000000001
40
0
40
0
40
0
40
0
40
0
40
0
40
0.028571428571428567
40
0.057142857142857134
40
0.085714285714285715
40
0.11428571428571427
40
0.14285714285714285
40
0.17142857142857146
40
0.20000000000000001
40
0.22857142857142851
40
0.25714285714285717
40
0.2857142857142857
40
0.31428571428571433
40
0.34285714285714292
40
0.3714285714285715
40
0.40000000000000008
40
0.42857142857142871
40
0.4571428571428573
40
0.48571428571428582
40
0.51428571428571435
40
0.54285714285714293
40
0.57142857142857151
40
0.60000000000000009
40
0.62857142857142867
40
0.65714285714285725
40
0.68571428571428583
40
0.71428571428571441
40
0.74285714285714299
40
0.77142857142857135
40
0.80000000000000016
40
0.82857142857142863
40
0.85714285714285732
40
0.8857142857142859
40
0.91428571428571459
40
0.94285714285714284
40
0.97142857142857164
40
1
40
1
40
1
40
1
40
1
40
1
41
1
41
1
41
1
41
1
41
1
41
1
41
1
41
1
41
1
41
1
41
1
41
1
41
1
41
1
41
1
41
1
41
1
41
1
41
1
41
1
41
1
41
1
41
1
41
1
41
1
41
1
41
1
41
1
41
1
41
1
41
1
41
1
41
1
41
1
41
1
41
1
41
1
41
1
41
1
41
1
10
-2.4066495810897965
20
7.3755457141755807
30
0
10
-2.4052628385658368
20
7.3764065586477559
30
0
10
-2.4026508315147206
20
7.3779907802762734
30
0
10
-2.3992183117890318
20
7.3799553003442702
30
0
10
-2.3956047025560836
20
7.3817448139016015
30
0
10
-2.3923258152257443
20
7.3824049775020271
30
0
10
-2.3889873320520358
20
7.3808161956515947
30
0
10
-2.3835513451099426
20
7.3759589817422331
30
0
10
-2.3742554287537261
20
7.3670569223835907
30
0
10
-2.3604541708385076
20
7.3540730082151127
30
0
10
-2.3424073619606713
20
7.3375525946777085
30
0
10
-2.3209853180857745
20
7.3184175112647027
30
0
10
-2.297415022901522
20
7.2977850337435166
30
0
10
-2.2730030749365184
20
7.2767715234154782
30
0
10
-2.2488900252954287
20
7.2563183264415372
30
0
10
-2.2257415263315607
20
7.2369705642071791
30
0
10
-2.2036397948100093
20
7.2188055427074813
30
0
10
-2.1822741089855811
20
7.2015849957436844
30
0
10
-2.1610579185357213
20
7.1848522299302635
30
0
10
-2.1392736876095988
20
7.1680499586000339
30
0
10
-2.1162050072720358
20
7.1506285832215735
30
0
10
-2.0912736368551257
20
7.1321581015290398
30
0
10
-2.0641759824699508
20
7.1124397802375672
30
0
10
-2.0350188938015448
20
7.0916169820091737
30
0
10
-2.0042344298382626
20
7.0700902195130899
30
0
10
-1.9724989908229169
20
7.0484358138905812
30
0
10
-1.9406526674989333
20
7.027324660183532
30
0
10
-1.9096192404327053
20
7.0074410107425793
30
0
10
-1.8803276132110649
20
6.9894029166856111
30
0
10
-1.8536302712288637
20
6.9736781289419385
30
0
10
-1.8302282783690755
20
6.960509120908374
30
0
10
-1.8105786593574862
20
6.9498133363919203
30
0
10
-1.7948513840533147
20
6.9411534463893547
30
0
10
-1.7830292825050347
20
6.9339061735626837
30
0
10
-1.7749836349583126
20
6.927400765182167
30
0
10
-1.7705527514187358
20
6.9210553614202004
30
0
10
-1.7698162910820945
20
6.9158496729606229
30
0
10
-1.7708252541417355
20
6.9118284417064766
30
0
10
-1.7721907163440938
20
6.9090952849671083
30
0
10
-1.7730466624632855
20
6.9077156468744976
30
0
0
SPLINE
5
443
100
AcDbEntity
8
0
100
AcDbSpline
70
4
71
3
72
8
73
4
74
0
42
0.000000001
43
0.0000000001
44
0.0000000001
40
0
40
0
40
0
40
0
40
1
40
1
40
1
40
1
41
1
41
1
41
1
41
1
10
7.2097353655037777
20
0.11514737976382231
30
0
10
7.7537874762878705
20
-0.48617715444274967
30
0
10
7.7748744466829107
20
-0.53397649389605795
30
0
10
7.7962434151752147
20
-1.2143677340490917
30
0
0
SPLINE
5
444
100
AcDbEntity
8
0
100
AcDbSpline
70
4
71
3
72
8
73
4
74
0
42
0.000000001
43
0.0000000001
44
0.0000000001
40
0
40
0
40
0
40
0
40
1
40
1
40
1
40
1
41
1
41
1
41
1
41
1
10
4.381917030270289
20
2.3835149193810343
30
0
10
4.4232827089083555
20
2.2658277134569484
30
0
10
4.7098490429527216
20
1.7985184721863594
30
0
10
5.0187329447226672
20
1.3450509685067384
30
0
0
SPLINE
5
445
100
AcDbEntity
8
0
100
AcDbSpline
70
4
71
5
72
46
73
40
74
0
42
0.000000001
43
0.0000000001
44
0.0000000001
40
0.0015108158309287028
40
0.0015108158309287028
40
0.0015108158309287028
40
0.0015108158309287028
40
0.0015108158309287028
40
0.0015108158309287028
40
0.028571428571428567
40
0.057142857142857134
40
0.085714285714285715
40
0.11428571428571427
40
0.14285714285714285
40
0.17142857142857146
40
0.20000000000000001
40
0.22857142857142851
40
0.25714285714285717
40
0.2857142857142857
40
0.31428571428571433
40
0.34285714285714292
40
0.3714285714285715
40
0.40000000000000008
40
0.42857142857142871
40
0.4571428571428573
40
0.48571428571428582
40
0.51428571428571435
40
0.54285714285714293
40
0.57142857142857151
40
0.60000000000000009
40
0.62857142857142867
40
0.65714285714285725
40
0.68571428571428583
40
0.71428571428571441
40
0.74285714285714299
40
0.77142857142857135
40
0.80000000000000016
40
0.82857142857142863
40
0.85714285714285732
40
0.8857142857142859
40
0.91428571428571459
40
0.94285714285714284
40
0.97142857142857164
40
1
40
1
40
1
40
1
40
1
40
1
41
1
41
1
41
1
41
1
41
1
41
1
41
1
41
1
41
1
41
1
41
1
41
1
41
1
41
1
41
1
41
1
41
1
41
1
41
1
41
1
41
1
41
1
41
1
41
1
41
1
41
1
41
1
41
1
41
1
41
1
41
1
41
1
41
1
41
1
41
1
41
1
41
1
41
1
41
1
41
1
10
-4.7382988269169886
20
9.1537814326184339
30
0
10
-4.7198798789121774
20
9.1587887631289391
30
0
10
-4.6827271957078258
20
9.1690707543501162
30
0
10
-4.628714161865747
20
9.1845952723579511
30
0
10
-4.5608800830603675
20
9.2053094523869383
30
0
10
-4.4833579580017071
20
9.2310626920219274
30
0
10
-4.4124170005742238
20
9.256636112567957
30
0
10
-4.3482941463237035
20
9.2812690064467862
30
0
10
-4.2899654621923959
20
9.3041572550201987
30
0
10
-4.2358292775022681
20
9.3240769514147637
30
0
10
-4.1836526483822354
20
9.3393548110383868
30
0
10
-4.1310563806697118
20
9.3482546909532775
30
0
10
-4.0759335141486126
20
9.3493133792602112
30
0
10
-4.016897103235161
20
9.34170001893151
30
0
10
-3.9537114500559758
20
9.3255627809241517
30
0
10
-3.8869395811169918
20
9.301700355117779
30
0
10
-3.8176062294973594
20
9.2712473871140197
30
0
10
-3.7468500905112818
20
9.235350392645028
30
0
10
-3.6756017440194078
20
9.1948666520409059
30
0
10
-3.6041976805693761
20
9.1500058660502717
30
0
10
-3.5327374771746847
20
9.1006334610776296
30
0
10
-3.4615364771692874
20
9.0466568216783845
30
0
10
-3.3915215991375156
20
8.9883649892636122
30
0
10
-3.3247063998186301
20
8.9268286797725747
30
0
10
-3.2645149531459405
20
8.8641887633391949
30
0
10
-3.2164846760646109
20
8.8042240159967555
30
0
10
-3.1874443709520697
20
8.7518015191222212
30
0
10
-3.183434132923884
20
8.7114129641721441
30
0
10
-3.2081871432367985
20
8.68611087315956
30
0
10
-3.2609067410066048
20
8.6759612603470249
30
0
10
-3.3360673394239475
20
8.6778694030223154
30
0
10
-3.4253753848880355
20
8.6868661098867612
30
0
10
-3.5191564257661625
20
8.6970063073972277
30
0
10
-3.6079469719399815
20
8.7024066376382692
30
0
10
-3.6840359166893495
20
8.698247255361407
30
0
10
-3.7429229250292608
20
8.6817215080404928
30
0
10
-3.7745115038646575
20
8.6575142471866045
30
0
10
-3.7891697057255684
20
8.6329927729770777
30
0
10
-3.7949321040466888
20
8.6138193427398591
30
0
10
-3.7968108865575854
20
8.6035261936542771
30
0
0
SPLINE
5
446
100
AcDbEntity
8
0
100
AcDbSpline
70
4
71
5
72
136
73
130
74
0
42
0.000000001
43
0.0000000001
44
0.0000000001
40
0
40
0
40
0
40
0
40
0
40
0
40
0.0080000000000000002
40
0.016
40
0.024
40
0.032000000000000001
40
0.040000000000000001
40
0.048000000000000001
40
0.056000000000000001
40
0.064000000000000001
40
0.072000000000000008
40
0.080000000000000016
40
0.088000000000000009
40
0.096000000000000044
40
0.10400000000000004
40
0.11200000000000004
40
0.12000000000000005
40
0.12800000000000006
40
0.13600000000000007
40
0.14400000000000007
40
0.15200000000000008
40
0.16000000000000009
40
0.16800000000000007
40
0.1760000000000001
40
0.18400000000000008
40
0.19200000000000009
40
0.20000000000000007
40
0.20800000000000013
40
0.21600000000000014
40
0.22400000000000009
40
0.2320000000000001
40
0.24000000000000016
40
0.24800000000000011
40
0.25600000000000017
40
0.26400000000000012
40
0.27200000000000008
40
0.28000000000000008
40
0.2880000000000002
40
0.29600000000000021
40
0.30400000000000021
40
0.31200000000000028
40
0.32000000000000023
40
0.32800000000000024
40
0.33600000000000024
40
0.34400000000000025
40
0.35200000000000026
40
0.36000000000000026
40
0.36800000000000027
40
0.37600000000000017
40
0.38400000000000017
40
0.39200000000000013
40
0.4000000000000003
40
0.40800000000000031
40
0.41600000000000031
40
0.42400000000000032
40
0.43200000000000027
40
0.44000000000000022
40
0.44800000000000023
40
0.45600000000000041
40
0.46400000000000041
40
0.47200000000000042
40
0.48000000000000043
40
0.48800000000000038
40
0.49600000000000039
40
0.50400000000000034
40
0.51200000000000034
40
0.52000000000000035
40
0.52800000000000036
40
0.53600000000000037
40
0.54400000000000037
40
0.55200000000000038
40
0.56000000000000039
40
0.56800000000000039
40
0.5760000000000004
40
0.58400000000000041
40
0.59200000000000041
40
0.60000000000000042
40
0.60800000000000043
40
0.61600000000000055
40
0.62400000000000055
40
0.63200000000000045
40
0.64000000000000046
40
0.64800000000000046
40
0.65600000000000047
40
0.66400000000000048
40
0.67200000000000049
40
0.68000000000000049
40
0.6880000000000005
40
0.69600000000000051
40
0.70400000000000051
40
0.71200000000000052
40
0.72000000000000053
40
0.72800000000000054
40
0.73600000000000054
40
0.74400000000000055
40
0.75200000000000033
40
0.76000000000000034
40
0.76800000000000035
40
0.77600000000000058
40
0.78400000000000059
40
0.79200000000000059
40
0.8000000000000006
40
0.80800000000000061
40
0.81600000000000061
40
0.82400000000000062
40
0.83200000000000063
40
0.84000000000000064
40
0.84800000000000064
40
0.85600000000000065
40
0.86400000000000055
40
0.87200000000000055
40
0.88000000000000045
40
0.88800000000000046
40
0.89600000000000046
40
0.9040000000000008
40
0.91200000000000081
40
0.92000000000000082
40
0.92800000000000082
40
0.93600000000000083
40
0.94400000000000084
40
0.95200000000000085
40
0.96000000000000085
40
0.96800000000000075
40
0.97600000000000076
40
0.98400000000000076
40
0.99200000000000077
40
1
40
1
40
1
40
1
40
1
40
1
41
1
41
1
41
1
41
1
41
1
41
1
41
1
41
1
41
1
41
1
41
1
41
1
41
1
41
1
41
1
41
1
41
1
41
1
41
1
41
1
41
1
41
1
41
1
41
1
41
1
41
1
41
1
41
1
41
1
41
1
41
1
41
1
41
1
41
1
41
1
41
1
41
1
41
1
41
1
41
1
41
1
41
1
41
1
41
1
41
1
41
1
41
1
41
1
41
1
41
1
41
1
41
1
41
1
41
1
41
1
41
1
41
1
41
1
41
1
41
1
41
1
41
1
41
1
41
1
41
1
41
1
41
1
41
1
41
1
41
1
41
1
41
1
41
1
41
1
41
1
41
1
41
1
41
1
41
1
41
1
41
1
41
1
41
1
41
1
41
1
41
1
41
1
41
1
41
1
41
1
41
1
41
1
41
1
41
1
41
1
41
1
41
1
41
1
41
1
41
1
41
1
41
1
41
1
41
1
41
1
41
1
41
1
41
1
41
1
41
1
41
1
41
1
41
1
41
1
41
1
41
1
41
1
41
1
41
1
41
1
41
1
41
1
41
1
41
1
41
1
41
1
41
1
41
1
41
1
41
1
10
-6.1568035326854345
20
7.9427376963225509
30
0
10
-6.1663053755446189
20
7.9400878883290718
30
0
10
-6.1855239194912732
20
7.9335520687271268
30
0
10
-6.2148103614972801
20
7.9200974586988355
30
0
10
-6.2541220812931195
20
7.8953740273542179
30
0
10
-6.3025282293616147
20
7.8554802082429829
30
0
10
-6.3495046406075604
20
7.8095212159321639
30
0
10
-6.3948412279748288
20
7.7606215063491391
30
0
10
-6.4388335751817687
20
7.7116805575007179
30
0
10
-6.4822799078060598
20
7.6649896596124947
30
0
10
-6.5265365469614967
20
7.6217422393374328
30
0
10
-6.5732382434843091
20
7.5821519286109682
30
0
10
-6.6239056787577102
20
7.5457725312919379
30
0
10
-6.6795934109918624
20
7.5117495713008218
30
0
10
-6.7405138913054197
20
7.4791030086409931
30
0
10
-6.8056873175464307
20
7.4469900101952611
30
0
10
-6.872542009404575
20
7.4149917425468299
30
0
10
-6.9366460334986959
20
7.3833450125944999
30
0
10
-6.9929286020378276
20
7.3525726825681819
30
0
10
-7.0367485509701675
20
7.32317415585044
30
0
10
-7.065103846956081
20
7.2952624232931571
30
0
10
-7.077593048777687
20
7.268293501129012
30
0
10
-7.077940725737708
20
7.2405870895689892
30
0
10
-7.0737590835372686
20
7.2094999464948515
30
0
10
-7.0726501409724536
20
7.1729527167010403
30
0
10
-7.0790844893535763
20
7.1306701823255487
30
0
10
-7.0909418343176727
20
7.0855464306626894
30
0
10
-7.1021045956445352
20
7.0421648960251186
30
0
10
-7.1051462736839017
20
7.005248062889641
30
0
10
-7.0937875177389182
20
6.9782654078035975
30
0
10
-7.0659529405683035
20
6.9616387169230647
30
0
10
-7.0232943653725135
20
6.9533164398730811
30
0
10
-6.9695369444327371
20
6.950154622973197
30
0
10
-6.909297459066547
20
6.9489440751920037
30
0
10
-6.8465107845220876
20
6.9477930129723262
30
0
10
-6.7840929841381961
20
6.9462176572168675
30
0
10
-6.7240806908887762
20
6.9447098171355073
30
0
10
-6.6676240041127723
20
6.9444728161281297
30
0
10
-6.6150327083457805
20
6.9470821339070339
30
0
10
-6.565815707604794
20
6.9541918158756131
30
0
10
-6.5186810265402082
20
6.9671875077668011
30
0
10
-6.4717831585434036
20
6.9870462726033642
30
0
10
-6.4230865879906078
20
7.0142810918981278
30
0
10
-6.3706872928411125
20
7.0488613708739356
30
0
10
-6.3131618313927245
20
7.0901365586989407
30
0
10
-6.2498812350855566
20
7.1367736245874491
30
0
10
-6.1814019208879056
20
7.1866478397092939
30
0
10
-6.1093248917452287
20
7.2370797734090067
30
0
10
-6.0360361443074169
20
7.2851491512135107
30
0
10
-5.9644895753391598
20
7.3279841985225476
30
0
10
-5.8979691702427104
20
7.3630567220789107
30
0
10
-5.8398675849300767
20
7.3884853276938971
30
0
10
-5.7934407456169357
20
7.4033110197272443
30
0
10
-5.7616125858047527
20
7.4078424785197683
30
0
10
-5.7466570897818654
20
7.4038197212770074
30
0
10
-5.7493152192348411
20
7.3930987463744113
30
0
10
-5.7675463665638285
20
7.3760586380546878
30
0
10
-5.7975792040378353
20
7.3521061637524401
30
0
10
-5.83573960810737
20
7.3209085138113954
30
0
10
-5.8800390843343759
20
7.2833957677716539
30
0
10
-5.9296470921394526
20
7.241415208051607
30
0
10
-5.9842884352002867
20
7.1973243865323546
30
0
10
-6.0436834148358525
20
7.1536157605666579
30
0
10
-6.1069428532645791
20
7.1125143800084407
30
0
10
-6.1720449086604265
20
7.0756185864905241
30
0
10
-6.2351261402467459
20
7.0434464331844282
30
0
10
-6.2903132919072755
20
7.0152546416545034
30
0
10
-6.3313772199878633
20
6.9897781785485131
30
0
10
-6.3531670621308862
20
6.9658556533395375
30
0
10
-6.3529796412651978
20
6.943029416888268
30
0
10
-6.332316694410606
20
6.9223231082924368
30
0
10
-6.2973082672764553
20
6.9064010650604937
30
0
10
-6.2555879914152843
20
6.8980657339137004
30
0
10
-6.2139825011545984
20
6.8991515664410086
30
0
10
-6.1755629620883266
20
6.9090768259327175
30
0
10
-6.1404034266454879
20
6.925573946875387
30
0
10
-6.1068373915673044
20
6.9457366062175501
30
0
10
-6.0724923893676932
20
6.966897638325606
30
0
10
-6.0355418979603845
20
6.9877268354839792
30
0
10
-5.9948676217636478
20
7.0080445913466827
30
0
10
-5.9499942839048519
20
7.0283568854079919
30
0
10
-5.9011019215421898
20
7.049485152852732
30
0
10
-5.84900524494428
20
7.0721572833025146
30
0
10
-5.7951494383704425
20
7.0966133214623266
30
0
10
-5.7412698693903721
20
7.1226653935760007
30
0
10
-5.6890560177754486
20
7.1497639135766038
30
0
10
-5.6398071180019098
20
7.1770597409364898
30
0
10
-5.5941061119039297
20
7.203471020623474
30
0
10
-5.5514500368208495
20
7.2277405476569294
30
0
10
-5.5100012910372635
20
7.2485182012821907
30
0
10
-5.467314669045523
20
7.2646335602108403
30
0
10
-5.4209880453234138
20
7.2753591031448819
30
0
10
-5.3693163920077627
20
7.280661324658392
30
0
10
-5.3120050216145112
20
7.2814943545122883
30
0
10
-5.2506774334809663
20
7.2799646406100562
30
0
10
-5.1882599689955216
20
7.2787964395257179
30
0
10
-5.1285125935564766
20
7.2808941166819929
30
0
10
-5.0754956682730041
20
7.2888494218023618
30
0
10
-5.0330819277652097
20
7.3045124524546257
30
0
10
-5.0044060035443794
20
7.3284371222935691
30
0
10
-4.9914860296386818
20
7.3597138212521145
30
0
10
-4.9951421268771483
20
7.3965153062002509
30
0
10
-5.0148625331361059
20
7.4364803105188191
30
0
10
-5.0486579056137471
20
7.4771745750181129
30
0
10
-5.0935409821240976
20
7.5162640145036415
30
0
10
-5.1460494130482575
20
7.5516792879512575
30
0
10
-5.2027628736623042
20
7.5817867501805081
30
0
10
-5.2607988335882467
20
7.6055479620191981
30
0
10
-5.31837424081729
20
7.6227057309102673
30
0
10
-5.3751683102035965
20
7.6338945544268171
30
0
10
-5.4317375550959044
20
7.6403953546089083
30
0
10
-5.4890642008379196
20
7.6439391589428123
30
0
10
-5.5480433146490018
20
7.6464907103707844
30
0
10
-5.6090181168439646
20
7.650043647249734
30
0
10
-5.6712418027287637
20
7.6564038785506998
30
0
10
-5.7325272868525419
20
7.6669982114964572
30
0
10
-5.7900337192185045
20
7.6828203547769922
30
0
10
-5.8409028936535581
20
7.7043642619374291
30
0
10
-5.8829939724584674
20
7.7315558915653204
30
0
10
-5.9154839494865552
20
7.7636996830312608
30
0
10
-5.9397532949573479
20
7.7993834532090291
30
0
10
-5.959308107905815
20
7.8365300118280308
30
0
10
-5.9784598507759243
20
7.8726355366976088
30
0
10
-6.0013455517823662
20
7.9049622900288643
30
0
10
-6.0307499467842147
20
7.9307461249260962
30
0
10
-6.0671843673339687
20
7.9474080167836059
30
0
10
-6.1011601443739911
20
7.9517796941677732
30
0
10
-6.1285128623361507
20
7.9494509166880132
30
0
10
-6.1473016898262474
20
7.9453875043160309
30
0
10
-6.1568035326854345
20
7.9427376963225509
30
0
0
LINE
5
447
100
AcDbEntity
8
0
100
AcDbLine
10
-0.46551350088560722
20
13.855000275400695
30
0
11
-0.42126614717642685
21
13.853006337717018
31
0
0
LINE
5
448
100
AcDbEntity
8
0
100
AcDbLine
10
3.7654145833784565
20
14.128096074863354
30
0
11
3.7491924888856496
21
13.998073977118104
31
0
0
CIRCLE
5
449
100
AcDbEntity
8
0
100
AcDbCircle
10
-2.8000000893600361
20
6.8000002170172316
30
0
40
0.10000000000000052
210
0
220
0
230
1
0
LINE
5
450
100
AcDbEntity
8
0
100
AcDbLine
10
2.5011584692625264
20
14.096772655880821
30
0
11
2.5302238080872876
21
14.007332607294266
31
0
0
SPLINE
5
451
100
AcDbEntity
8
0
100
AcDbSpline
70
4
71
3
72
8
73
4
74
0
42
0.000000001
43
0.0000000001
44
0.0000000001
40
0
40
0
40
0
40
0
40
0.7536165792613323
40
0.7536165792613323
40
0.7536165792613323
40
0.7536165792613323
41
1
41
1
41
1
41
1
10
-4.3454196608627855
20
9.209337778707793
30
0
10
-4.4155796809660597
20
9.1857307712751837
30
0
10
-4.5345922259054072
20
9.1653584925960985
30
0
10
-4.6428300023146623
20
9.1567527676067808
30
0
0
SPLINE
5
452
100
AcDbEntity
8
0
100
AcDbSpline
70
4
71
3
72
8
73
4
74
0
42
0.000000001
43
0.0000000001
44
0.0000000001
40
0
40
0
40
0
40
0
40
1
40
1
40
1
40
1
41
1
41
1
41
1
41
1
10
7.921724128372988
20
0.6054030577562346
30
0
10
7.4783819120083868
20
1.1595769805266787
30
0
10
7.4571807522429792
20
1.2095144745672082
30
0
10
7.347465950272829
20
1.9579943538944078
30
0
0
SPLINE
5
453
100
AcDbEntity
8
0
100
AcDbSpline
70
0
71
2
72
6
73
3
74
0
42
0.000000001
43
0.0000000001
44
0.0000000001
40
0
40
0
40
0
40
1
40
1
40
1
10
-1.2500163847914143
20
15.342317933719315
30
0
10
-1.2372660041029298
20
15.361154318240136
30
0
10
-1.1181146336849543
20
15.398494867342693
30
0
0
SPLINE
5
454
100
AcDbEntity
8
0
100
AcDbSpline
70
4
71
3
72
8
73
4
74
0
42
0.000000001
43
0.0000000001
44
0.0000000001
40
0
40
0
40
0
40
0
40
1
40
1
40
1
40
1
41
1
41
1
41
1
41
1
10
7.5916822602081604
20
-2.4866954872458518
30
0
10
8.0282927649516775
20
-2.5057495558646199
30
0
10
8.0908248500685236
20
-2.483337988773286
30
0
10
8.2781549945385411
20
-2.2406117673753605
30
0
0
SPLINE
5
455
100
AcDbEntity
8
0
100
AcDbSpline
70
4
71
3
72
8
73
4
74
0
42
0.000000001
43
0.0000000001
44
0.0000000001
40
0
40
0
40
0
40
0
40
1
40
1
40
1
40
1
41
1
41
1
41
1
41
1
10
6.3951894882845393
20
0.58652639639114246
30
0
10
6.2710917904029726
20
0.78690391761477385
30
0
10
6.1711098945925524
20
1.0027357289292045
30
0
10
6.1730077550264744
20
1.0661522024449757
30
0
0
LINE
5
456
100
AcDbEntity
8
0
100
AcDbLine
10
8.4334046654494816
20
-1.909215817076523
30
0
11
8.4109052678410343
21
-1.588381942841405
31
0
0
SPLINE
5
457
100
AcDbEntity
8
0
100
AcDbSpline
70
4
71
5
72
46
73
40
74
0
42
0.000000001
43
0.0000000001
44
0.0000000001
40
0
40
0
40
0
40
0
40
0
40
0
40
0.028571428571428567
40
0.057142857142857134
40
0.085714285714285715
40
0.11428571428571427
40
0.14285714285714285
40
0.17142857142857146
40
0.20000000000000001
40
0.22857142857142851
40
0.25714285714285717
40
0.2857142857142857
40
0.31428571428571433
40
0.34285714285714292
40
0.3714285714285715
40
0.40000000000000008
40
0.42857142857142871
40
0.4571428571428573
40
0.48571428571428582
40
0.51428571428571435
40
0.54285714285714293
40
0.57142857142857151
40
0.60000000000000009
40
0.62857142857142867
40
0.65714285714285725
40
0.68571428571428583
40
0.71428571428571441
40
0.74285714285714299
40
0.77142857142857135
40
0.80000000000000016
40
0.82857142857142863
40
0.85714285714285732
40
0.8857142857142859
40
0.91428571428571459
40
0.94285714285714284
40
0.97142857142857164
40
1
40
1
40
1
40
1
40
1
40
1
41
1
41
1
41
1
41
1
41
1
41
1
41
1
41
1
41
1
41
1
41
1
41
1
41
1
41
1
41
1
41
1
41
1
41
1
41
1
41
1
41
1
41
1
41
1
41
1
41
1
41
1
41
1
41
1
41
1
41
1
41
1
41
1
41
1
41
1
41
1
41
1
41
1
41
1
41
1
41
1
10
-2.2000000702114555
20
3.1000000989343226
30
0
10
-2.1893234734044027
20
3.0942794879541982
30
0
10
-2.1694233227076403
20
3.0828061120914954
30
0
10
-2.1439312234099246
20
3.0654993550120198
30
0
10
-2.118678304760897
20
3.0422320463932597
30
0
10
-2.1010050689273454
20
3.0126576334251083
30
0
10
-2.0952638682049738
20
2.9821199239523475
30
0
10
-2.0971228123872203
20
2.9496005897925568
30
0
10
-2.1007059415203502
20
2.9137347142447081
30
0
10
-2.1004910573094766
20
2.8732609697744591
30
0
10
-2.093250358346519
20
2.8274762557547031
30
0
10
-2.0781506660521027
20
2.7762942392415293
30
0
10
-2.0558590475594167
20
2.7200937481875793
30
0
10
-2.0280139925304748
20
2.6596361232428518
30
0
10
-1.9964751999391652
20
2.5959631081541716
30
0
10
-1.9629702142773027
20
2.5302799933229925
30
0
10
-1.9290543017773381
20
2.463804086438151
30
0
10
-1.8959908681251336
20
2.3976258282743146
30
0
10
-1.8646585642512974
20
2.3325601404835248
30
0
10
-1.8354547028522512
20
2.269010445395665
30
0
10
-1.8081715181499305
20
2.2067990444439549
30
0
10
-1.7821755012706817
20
2.1453053226886687
30
0
10
-1.7566232054412743
20
2.0836408076054225
30
0
10
-1.7306708741755563
20
2.0208151252906723
30
0
10
-1.7036672549138965
20
1.9558920332638758
30
0
10
-1.675401469482074
20
1.8881818094884861
30
0
10
-1.6461309926735508
20
1.8172846418936124
30
0
10
-1.6164268537136903
20
1.7430101528548094
30
0
10
-1.5870742204643296
20
1.6653342493492864
30
0
10
-1.5589486879802168
20
1.5843409714320784
30
0
10
-1.5329105637041054
20
1.5001743312395368
30
0
10
-1.5096746724967463
20
1.4129807302080666
30
0
10
-1.4897474647317239
20
1.3228764062643064
30
0
10
-1.4734779005691188
20
1.2299556115175754
30
0
10
-1.4610816959127231
20
1.1342898959479402
30
0
10
-1.4526750705089808
20
1.0359311666738396
30
0
10
-1.4491776950535524
20
0.9551169080660088
30
0
10
-1.4483723271839586
20
0.89331790859959703
30
0
10
-1.448642186732253
20
0.85159113980560319
30
0
10
-1.4489788097234522
20
0.8305958965360668
30
0
0
SPLINE
5
458
100
AcDbEntity
8
0
100
AcDbSpline
70
4
71
3
72
8
73
4
74
0
42
0.000000001
43
0.0000000001
44
0.0000000001
40
0
40
0
40
0
40
0
40
1
40
1
40
1
40
1
41
1
41
1
41
1
41
1
10
-1.5393188199389896
20
-1.4034004585805109
30
0
10
-1.5384344315400615
20
-1.3427999942331779
30
0
10
-1.5002495060882486
20
-1.1826211031840659
30
0
10
-1.4544572516840046
20
-1.047448691294993
30
0
0
CIRCLE
5
459
100
AcDbEntity
8
0
100
AcDbCircle
10
-2.3586393505673904
20
6.607023933097949
30
0
40
0.1000000000000001
210
0
220
0
230
1
0
LINE
5
460
100
AcDbEntity
8
0
100
AcDbLine
10
7.7962434151752147
20
-1.2143677340490917
30
0
11
7.8141059425315937
21
-1.783044037761097
31
0
0
SPLINE
5
461
100
AcDbEntity
8
0
100
AcDbSpline
70
4
71
5
72
71
73
65
74
0
42
0.000000001
43
0.0000000001
44
0.0000000001
40
0
40
0
40
0
40
0
40
0
40
0
40
0.016666666666666666
40
0.033333333333333333
40
0.050000000000000003
40
0.066666666666666666
40
0.083333333333333329
40
0.10000000000000001
40
0.11666666666666665
40
0.13333333333333333
40
0.14999999999999999
40
0.16666666666666666
40
0.18333333333333326
40
0.20000000000000001
40
0.21666666666666665
40
0.23333333333333331
40
0.25
40
0.26666666666666666
40
0.28333333333333333
40
0.29999999999999999
40
0.31666666666666665
40
0.33333333333333331
40
0.34999999999999998
40
0.36666666666666647
40
0.3833333333333333
40
0.40000000000000002
40
0.41666666666666657
40
0.43333333333333329
40
0.45000000000000001
40
0.46666666666666662
40
0.48333333333333328
40
0.5
40
0.51666666666666661
40
0.53333333333333333
40
0.55000000000000004
40
0.56666666666666676
40
0.58333333333333348
40
0.6000000000000002
40
0.61666666666666692
40
0.63333333333333364
40
0.65000000000000036
40
0.66666666666666707
40
0.68333333333333379
40
0.70000000000000051
40
0.71666666666666723
40
0.73333333333333395
40
0.75000000000000056
40
0.7666666666666675
40
0.7833333333333341
40
0.80000000000000082
40
0.81666666666666754
40
0.83333333333333415
40
0.85000000000000098
40
0.8666666666666677
40
0.88333333333333441
40
0.90000000000000113
40
0.91666666666666785
40
0.93333333333333435
40
0.9500000000000014
40
0.96666666666666801
40
0.98333333333333484
40
1
40
1
40
1
40
1
40
1
40
1
41
1
41
1
41
1
41
1
41
1
41
1
41
1
41
1
41
1
41
1
41
1
41
1
41
1
41
1
41
1
41
1
41
1
41
1
41
1
41
1
41
1
41
1
41
1
41
1
41
1
41
1
41
1
41
1
41
1
41
1
41
1
41
1
41
1
41
1
41
1
41
1
41
1
41
1
41
1
41
1
41
1
41
1
41
1
41
1
41
1
41
1
41
1
41
1
41
1
41
1
41
1
41
1
41
1
41
1
41
1
41
1
41
1
41
1
41
1
41
1
41
1
41
1
41
1
41
1
41
1
10
-4.4500001420186246
20
8.9500002856329655
30
0
10
-4.4506232163930077
20
8.9507329014326498
30
0
10
-4.450905395387454
20
8.9528250094632806
30
0
10
-4.4484241449143811
20
8.9578319484609903
30
0
10
-4.439748496136934
20
8.9679973098354697
30
0
10
-4.4226497281341075
20
8.9851888276762857
30
0
10
-4.4027296458814282
20
9.0051090484687446
30
0
10
-4.3832649958923042
20
9.0258746241155432
30
0
10
-4.366600009271064
20
9.0457427990417703
30
0
10
-4.3530693371501039
20
9.0634531984426729
30
0
10
-4.3411711819896288
20
9.0782608740708159
30
0
10
-4.3285439440910247
20
9.0897685575558391
30
0
10
-4.3127345678761504
20
9.0978151849347526
30
0
10
-4.2919783508003411
20
9.102351437187604
30
0
10
-4.2661541405301948
20
9.103297669100364
30
0
10
-4.2370209437931017
20
9.1004941425940054
30
0
10
-4.2073991494592997
20
9.0937908323089633
30
0
10
-4.1806130672175232
20
9.0831027776432247
30
0
10
-4.1598267908484079
20
9.0684798905586863
30
0
10
-4.1474307494561939
20
9.0501700430792038
30
0
10
-4.1443934094043717
20
9.0286873631608024
30
0
10
-4.1496584131713226
20
9.004873520883061
30
0
10
-4.160811779251131
20
8.979761985477726
30
0
10
-4.1747223901792445
20
8.9544452823608935
30
0
10
-4.1881740632662288
20
8.9299461995079366
30
0
10
-4.198538169513192
20
8.9070762522386495
30
0
10
-4.2043418303956646
20
8.8863250203555744
30
0
10
-4.2061049150964926
20
8.867670532020723
30
0
10
-4.2059535665525374
20
8.8507487982851654
30
0
10
-4.2065763010176642
20
8.8352168959833453
30
0
10
-4.210392996590846
20
8.8210528583159711
30
0
10
-4.2186189191507424
20
8.8088890114943013
30
0
10
-4.2304200183798084
20
8.8003105436621638
30
0
10
-4.243734803058377
20
8.7971414357546891
30
0
10
-4.2559933583378085
20
8.8008392630187373
30
0
10
-4.2649732948373504
20
8.8116933951632017
30
0
10
-4.2692273594588084
20
8.8286790827172599
30
0
10
-4.2680267384414652
20
8.8500581761627544
30
0
10
-4.2614342735462873
20
8.8737898297723685
30
0
10
-4.2503190291513633
20
8.8980063670312965
30
0
10
-4.2364172974191749
20
8.9214914573423272
30
0
10
-4.2219893959306516
20
8.9435704359721413
30
0
10
-4.2094519341051111
20
8.9639517636460209
30
0
10
-4.2010211845043663
20
8.9825879589583391
30
0
10
-4.1983470029646979
20
8.9995275671481796
30
0
10
-4.202160661157941
20
9.0147743150584727
30
0
10
-4.2118854978428395
20
9.0281348497175298
30
0
10
-4.2260231354475071
20
9.0392889099425897
30
0
10
-4.2425891481947593
20
9.0478743900473599
30
0
10
-4.2595124483829281
20
9.0535605267158861
30
0
10
-4.2750907885967138
20
9.0561416321486696
30
0
10
-4.2882515407417321
20
9.0555552012767038
30
0
10
-4.2986895181461238
20
9.0518389098858503
30
0
10
-4.307003434449169
20
9.0451105585471527
30
0
10
-4.3149287064806714
20
9.0355259893728306
30
0
10
-4.3247547792282841
20
9.023355726489509
30
0
10
-4.33850293453541
20
9.0090981845210489
30
0
10
-4.3572710893060043
20
8.9935610180114161
30
0
10
-4.3803075930657815
20
8.9780030811209848
30
0
10
-4.4049139233983912
20
8.9640837382702365
30
0
10
-4.427497170290323
20
8.953542532765006
30
0
10
-4.4409724718187125
20
8.9490642635355773
30
0
10
-4.4471669491411534
20
8.9484293146651819
30
0
10
-4.4493770676442415
20
8.9492676698332829
30
0
10
-4.4500001420186246
20
8.9500002856329655
30
0
0
SPLINE
5
462
100
AcDbEntity
8
0
100
AcDbSpline
70
4
71
5
72
26
73
20
74
0
42
0.000000001
43
0.0000000001
44
0.0000000001
40
0
40
0
40
0
40
0
40
0
40
0
40
0.066666666666666666
40
0.13333333333333333
40
0.20000000000000001
40
0.26666666666666666
40
0.33333333333333331
40
0.40000000000000002
40
0.46666666666666662
40
0.53333333333333333
40
0.59999999999999998
40
0.66666666666666663
40
0.73333333333333295
40
0.79999999999999982
40
0.8666666666666667
40
0.93333333333333324
40
0.99983324670464224
40
0.99983324670464224
40
0.99983324670464224
40
0.99983324670464224
40
0.99983324670464224
40
0.99983324670464224
41
1
41
1
41
1
41
1
41
1
41
1
41
1
41
1
41
1
41
1
41
1
41
1
41
1
41
1
41
1
41
1
41
1
41
1
41
1
41
1
10
-5.9766177097117801
20
8.2232754285262999
30
0
10
-5.9634526909566468
20
8.235029937907651
30
0
10
-5.9386107338671019
20
8.2582543428589688
30
0
10
-5.9058123790764894
20
8.2922370568284869
30
0
10
-5.8710724036766724
20
8.3358275861791782
30
0
10
-5.8424029198986611
20
8.3874692245785525
30
0
10
-5.8270439920851542
20
8.4364654490844515
30
0
10
-5.8216154137335208
20
8.4833144410593846
30
0
10
-5.819589070594696
20
8.529005322178925
30
0
10
-5.8126771680931038
20
8.5748063723061332
30
0
10
-5.7926261364053557
20
8.6219897994734307
30
0
10
-5.7532374033325171
20
8.6715263558759972
30
0
10
-5.6910247627883725
20
8.7239829729150777
30
0
10
-5.6042115926742371
20
8.7796682925907774
30
0
10
-5.4922902556708406
20
8.8386957006909181
30
0
10
-5.3555461542083069
20
8.9010315131045843
30
0
10
-5.2267216081300552
20
8.9535127668881973
30
0
10
-5.1194361592330058
20
8.9943069215219875
30
0
10
-5.0432309453433835
20
9.0221271251519912
30
0
10
-5.0040011519437968
20
9.0361782717205017
30
0
0
SPLINE
5
463
100
AcDbEntity
8
0
100
AcDbSpline
70
4
71
5
72
41
73
35
74
0
42
0.000000001
43
0.0000000001
44
0.0000000001
40
0
40
0
40
0
40
0
40
0
40
0
40
0.033333333333333333
40
0.066666666666666666
40
0.10000000000000001
40
0.13333333333333333
40
0.16666666666666666
40
0.20000000000000001
40
0.23333333333333331
40
0.26666666666666666
40
0.29999999999999999
40
0.33333333333333331
40
0.36666666666666647
40
0.40000000000000002
40
0.43333333333333329
40
0.46666666666666662
40
0.5
40
0.53333333333333333
40
0.56666666666666665
40
0.59999999999999998
40
0.6333333333333333
40
0.66666666666666663
40
0.69999999999999996
40
0.73333333333333295
40
0.76666666666666661
40
0.79999999999999982
40
0.83333333333333315
40
0.8666666666666667
40
0.8999999999999998
40
0.93333333333333324
40
0.96666666666666645
40
1
40
1
40
1
40
1
40
1
40
1
41
1
41
1
41
1
41
1
41
1
41
1
41
1
41
1
41
1
41
1
41
1
41
1
41
1
41
1
41
1
41
1
41
1
41
1
41
1
41
1
41
1
41
1
41
1
41
1
41
1
41
1
41
1
41
1
41
1
41
1
41
1
41
1
41
1
41
1
41
1
10
6.1000001946772162
20
5.9000001882943565
30
0
10
6.1163021137718232
20
5.8859547412885531
30
0
10
6.1486573850549764
20
5.8572808730494001
30
0
10
6.1964445922805318
20
5.8125211607100855
30
0
10
6.2586667598121846
20
5.7493372780989169
30
0
10
6.3339458896622087
20
5.6646316543449666
30
0
10
6.4067285235466738
20
5.5746073149483575
30
0
10
6.4770401232963604
20
5.4801334053112951
30
0
10
6.5449421656885765
20
5.3827015483041354
30
0
10
6.6105473800411305
20
5.2846233085173928
30
0
10
6.6739807029276372
20
5.188370277395312
30
0
10
6.7353387573491972
20
5.0958928368270993
30
0
10
6.7946496669938652
20
5.0079210804432419
30
0
10
6.8518339938304944
20
4.9233172085168873
30
0
10
6.9066615974922163
20
4.8382519055016164
30
0
10
6.9587569197578931
20
4.7474278858901009
30
0
10
7.0076090249477412
20
4.6455077349424485
30
0
10
7.0525793341510044
20
4.5284704237360485
30
0
10
7.0929103453298188
20
4.3949980739379289
30
0
10
7.1277327904329777
20
4.2478954941057161
30
0
10
7.1562273142126092
20
4.0927984630260026
30
0
10
7.1777926743761018
20
3.936847661523116
30
0
10
7.1922071266090564
20
3.7874221877640117
30
0
10
7.1998124982474971
20
3.6507832766995394
30
0
10
7.2016572226730622
20
3.5309132734746518
30
0
10
7.1997555211279298
20
3.4278462839172725
30
0
10
7.1969063374227362
20
3.3379462013159324
30
0
10
7.1961487061642382
20
3.2557567370901879
30
0
10
7.2003551328661732
20
3.1752948796399152
30
0
10
7.2116985387385713
20
3.0917578336171654
30
0
10
7.2313927065802419
20
3.0024283474775286
30
0
10
7.2542941591233792
20
2.9252393922286002
30
0
10
7.2755595391669265
20
2.8639423415178902
30
0
10
7.2915509340540279
20
2.8215660700578256
30
0
10
7.3000002329743747
20
2.8000000893600343
30
0
0
SPLINE
5
464
100
AcDbEntity
8
0
100
AcDbSpline
70
0
71
2
72
6
73
3
74
0
42
0.000000001
43
0.0000000001
44
0.0000000001
40
0
40
0
40
0
40
1
40
1
40
1
10
2.4833374251217823
20
14.500756431645716
30
0
10
2.455598051899651
20
14.278421917561882
30
0
10
2.5011584692625264
20
14.096772655880821
30
0
0
SPLINE
5
465
100
AcDbEntity
8
0
100
AcDbSpline
70
0
71
2
72
6
73
3
74
0
42
0.000000001
43
0.0000000001
44
0.0000000001
40
0
40
0
40
0
40
1
40
1
40
1
10
3.5969783960998249
20
14.194877010683623
30
0
10
3.7698707105777607
20
14.163812486608473
30
0
10
3.7654145833784565
20
14.128096074863354
30
0
0
SPLINE
5
466
100
AcDbEntity
8
0
100
AcDbSpline
70
4
71
3
72
8
73
4
74
0
42
0.000000001
43
0.0000000001
44
0.0000000001
40
0
40
0
40
0
40
0
40
1
40
1
40
1
40
1
41
1
41
1
41
1
41
1
10
5.7693278097793321
20
-0.86052499478675804
30
0
10
5.7498934409096787
20
-1.6019483020087595
30
0
10
5.7401774149177403
20
-1.6257486766307401
30
0
10
5.4563890269183553
20
-1.6270845267722316
30
0
0
SPLINE
5
467
100
AcDbEntity
8
0
100
AcDbSpline
70
4
71
5
72
31
73
25
74
0
42
0.000000001
43
0.0000000001
44
0.0000000001
40
0
40
0
40
0
40
0
40
0
40
0
40
0.050000000000000003
40
0.10000000000000001
40
0.15000000000000002
40
0.20000000000000001
40
0.25
40
0.29999999999999999
40
0.34999999999999998
40
0.40000000000000002
40
0.45000000000000001
40
0.5
40
0.54999999999999993
40
0.59999999999999998
40
0.65000000000000002
40
0.70000000000000007
40
0.75000000000000022
40
0.80000000000000016
40
0.8500000000000002
40
0.90000000000000024
40
0.9500000000000004
40
1
40
1
40
1
40
1
40
1
40
1
41
1
41
1
41
1
41
1
41
1
41
1
41
1
41
1
41
1
41
1
41
1
41
1
41
1
41
1
41
1
41
1
41
1
41
1
41
1
41
1
41
1
41
1
41
1
41
1
41
1
10
6.2000001978686479
20
1.6000000510628767
30
0
10
6.1839443087541834
20
1.6298148678447173
30
0
10
6.1515032706849606
20
1.6896460105931661
30
0
10
6.1018539372212954
20
1.7799972669737076
30
0
10
6.0336711845465159
20
1.9016794994353641
30
0
10
5.9451069219964481
20
2.0558240616574746
30
0
10
5.8532005688976136
20
2.212012779856372
30
0
10
5.7580058616481047
20
2.3702146016387107
30
0
10
5.6596750628968495
20
2.5303286163748866
30
0
10
5.5585050957974795
20
2.6922040898733801
30
0
10
5.4549874360318302
20
2.85572853317495
30
0
10
5.3498697662206425
20
3.0209022909175247
30
0
10
5.2442043242088481
20
3.1879070714308013
30
0
10
5.1394465273625975
20
3.3572055379186407
30
0
10
5.0373866692691713
20
3.5295176923097262
30
0
10
4.9399373731177754
20
3.7056887180468405
30
0
10
4.8489533320197129
20
3.8865819546132658
30
0
10
4.76605146911393
20
4.072968958517345
30
0
10
4.6923771094976052
20
4.2653893416516198
30
0
10
4.6285329986600319
20
4.4641041327868409
30
0
10
4.5747739231019766
20
4.6692028804165178
30
0
10
4.5398534463245577
20
4.8383729136767712
30
0
10
4.5181781505720702
20
4.9680876915308323
30
0
10
4.5057264011283999
20
5.0558200331117238
30
0
10
4.5000001436143409
20
5.1000001627629183
30
0
0
SPLINE
5
468
100
AcDbEntity
8
0
100
AcDbSpline
70
4
71
3
72
8
73
4
74
0
42
0.000000001
43
0.0000000001
44
0.0000000001
40
0
40
0
40
0
40
0
40
1
40
1
40
1
40
1
41
1
41
1
41
1
41
1
10
10.106824779116211
20
2.1268463413527421
30
0
10
10.014872133707156
20
2.212406947144602
30
0
10
9.8311798308885567
20
2.1038575387195952
30
0
10
9.6127818203398512
20
1.8348988746026385
30
0
0
SPLINE
5
469
100
AcDbEntity
8
0
100
AcDbSpline
70
4
71
3
72
8
73
4
74
0
42
0.000000001
43
0.0000000001
44
0.0000000001
40
0
40
0
40
0
40
0
40
1
40
1
40
1
40
1
41
1
41
1
41
1
41
1
10
-2.737729973284833
20
2.8715688939192368
30
0
10
-2.5825052459913804
20
2.6517387997234314
30
0
10
-2.5682093987883916
20
2.59093974516676
30
0
10
-2.356418236266653
20
1.2499752438180545
30
0
0
SPLINE
5
470
100
AcDbEntity
8
0
100
AcDbSpline
70
4
71
3
72
8
73
4
74
0
42
0.000000001
43
0.0000000001
44
0.0000000001
40
0
40
0
40
0
40
0
40
1
40
1
40
1
40
1
41
1
41
1
41
1
41
1
10
8.4109052678410343
20
-1.588381942841405
30
0
10
8.3939254739588183
20
-1.3462567878104152
30
0
10
8.4011640870892439
20
-0.92499532034675724
30
0
10
8.4269907438138549
20
-0.65224490716614769
30
0
0
SPLINE
5
471
100
AcDbEntity
8
0
100
AcDbSpline
70
4
71
5
72
56
73
50
74
0
42
0.000000001
43
0.0000000001
44
0.0000000001
40
0
40
0
40
0
40
0
40
0
40
0
40
0.022222222222222227
40
0.044444444444444453
40
0.066666666666666666
40
0.088888888888888906
40
0.11111111111111112
40
0.13333333333333333
40
0.15555555555555556
40
0.17777777777777778
40
0.20000000000000001
40
0.22222222222222224
40
0.24444444444444449
40
0.26666666666666666
40
0.28888888888888892
40
0.31111111111111106
40
0.33333333333333331
40
0.35555555555555546
40
0.37777777777777771
40
0.39999999999999991
40
0.42222222222222211
40
0.44444444444444425
40
0.46666666666666651
40
0.48888888888888871
40
0.51111111111111085
40
0.5333333333333331
40
0.55555555555555536
40
0.57777777777777761
40
0.59999999999999987
40
0.62222222222222212
40
0.64444444444444438
40
0.66666666666666663
40
0.68888888888888888
40
0.71111111111111125
40
0.73333333333333339
40
0.75555555555555554
40
0.7777777777777779
40
0.80000000000000016
40
0.82222222222222241
40
0.84444444444444455
40
0.86666666666666692
40
0.88888888888888895
40
0.91111111111111143
40
0.93333333333333379
40
0.95555555555555605
40
0.97777777777777797
40
1
40
1
40
1
40
1
40
1
40
1
41
1
41
1
41
1
41
1
41
1
41
1
41
1
41
1
41
1
41
1
41
1
41
1
41
1
41
1
41
1
41
1
41
1
41
1
41
1
41
1
41
1
41
1
41
1
41
1
41
1
41
1
41
1
41
1
41
1
41
1
41
1
41
1
41
1
41
1
41
1
41
1
41
1
41
1
41
1
41
1
41
1
41
1
41
1
41
1
41
1
41
1
41
1
41
1
41
1
41
1
10
-3.9431738679107582
20
8.6955968225588851
30
0
10
-3.9446452056637638
20
8.6986646959041618
30
0
10
-3.9471684535608689
20
8.7047686766276264
30
0
10
-3.9496950329920844
20
8.713829139448956
30
0
10
-3.9505452797731517
20
8.7257204122835219
30
0
10
-3.9474401105763048
20
8.7401255373222497
30
0
10
-3.9402776936308146
20
8.7536769477844327
30
0
10
-3.9292921422824878
20
8.765520419307542
30
0
10
-3.9149022418925208
20
8.7744939587184856
30
0
10
-3.8978073263022366
20
8.7797258010047337
30
0
10
-3.8790563271302894
20
8.7810506438906017
30
0
10
-3.8601732668246229
20
8.7796571863164896
30
0
10
-3.8430200215774915
20
8.7777955970165902
30
0
10
-3.8295432393928546
20
8.7780743830711785
30
0
10
-3.8215607029074001
20
8.7829122823674179
30
0
10
-3.8205252112812524
20
8.7938673055189973
30
0
10
-3.8273869607983486
20
8.8116489399890554
30
0
10
-3.8424894948848154
20
8.8362232135138878
30
0
10
-3.8654041571859583
20
8.8668700071249411
30
0
10
-3.8949834240239132
20
8.9023112516945719
30
0
10
-3.9295870683287877
20
8.9408800059995333
30
0
10
-3.9672571146772397
20
8.980677233494422
30
0
10
-4.0059120032858875
20
9.019732185441713
30
0
10
-4.0435325315508894
20
9.0561614520080322
30
0
10
-4.0783494450817841
20
9.0883271010370237
30
0
10
-4.1090352798072507
20
9.1149997619867875
30
0
10
-4.1348858382585885
20
9.1355121792319949
30
0
10
-4.1560319573013347
20
9.1499398281147197
30
0
10
-4.1735724469326643
20
9.1592118713548292
30
0
10
-4.1891332443285387
20
9.1647175896767337
30
0
10
-4.2044670888656199
20
9.1679472031418623
30
0
10
-4.2210739173156817
20
9.17015407212714
30
0
10
-4.2397237876933405
20
9.1719233358374233
30
0
10
-4.2604998948401196
20
9.1732370351590884
30
0
10
-4.2830760412174254
20
9.1737631464365723
30
0
10
-4.3069160179998924
20
9.1730700051742744
30
0
10
-4.3315077562020443
20
9.1708752167595389
30
0
10
-4.3565731716242952
20
9.1672689422085636
30
0
10
-4.3820130457067759
20
9.1626112572422169
30
0
10
-4.407860381036306
20
9.1574413428741366
30
0
10
-4.4342299291358804
20
9.1523803993841426
30
0
10
-4.4612724873878413
20
9.1480437468820863
30
0
10
-4.4891203724161342
20
9.1449341162030819
30
0
10
-4.5178616651285486
20
9.1433966799380393
30
0
10
-4.5475543433925605
20
9.143660062733268
30
0
10
-4.5782305521401154
20
9.1458559325549125
30
0
10
-4.6035699011028113
20
9.1492086670620409
30
0
10
-4.6230248993161132
20
9.1526288150852775
30
0
10
-4.6361949581576658
20
9.1553110881025894
30
0
10
-4.6428300023146623
20
9.1567527676067808
30
0
0
SPLINE
5
472
100
AcDbEntity
8
0
100
AcDbSpline
70
4
71
5
72
76
73
70
74
0
42
0.000000001
43
0.0000000001
44
0.0000000001
40
0
40
0
40
0
40
0
40
0
40
0
40
0.015384615384615384
40
0.030769230769230767
40
0.046153846153846163
40
0.061538461538461535
40
0.076923076923076927
40
0.092307692307692327
40
0.1076923076923077
40
0.12307692307692307
40
0.13846153846153847
40
0.15384615384615385
40
0.16923076923076924
40
0.18461538461538465
40
0.20000000000000001
40
0.2153846153846154
40
0.23076923076923081
40
0.24615384615384611
40
0.26153846153846155
40
0.27692307692307688
40
0.29230769230769232
40
0.30769230769230771
40
0.32307692307692309
40
0.33846153846153848
40
0.35384615384615392
40
0.36923076923076931
40
0.38461538461538464
40
0.40000000000000002
40
0.41538461538461535
40
0.43076923076923079
40
0.44615384615384612
40
0.46153846153846162
40
0.47692307692307701
40
0.49230769230769222
40
0.50769230769230766
40
0.52307692307692299
40
0.53846153846153832
40
0.55384615384615365
40
0.56923076923076898
40
0.58461538461538431
40
0.59999999999999964
40
0.61538461538461497
40
0.6307692307692303
40
0.64615384615384563
40
0.66153846153846096
40
0.67692307692307618
40
0.69230769230769162
40
0.70769230769230695
40
0.72307692307692206
40
0.73846153846153761
40
0.75384615384615306
40
0.76923076923076816
40
0.7846153846153836
40
0.79999999999999893
40
0.81538461538461415
40
0.83076923076922959
40
0.84615384615384504
40
0.86153846153846025
40
0.87692307692307536
40
0.89230769230769091
40
0.90769230769230624
40
0.92307692307692157
40
0.93846153846153701
40
0.95384615384615223
40
0.96923076923076756
40
0.98461538461538278
40
1
40
1
40
1
40
1
40
1
40
1
41
1
41
1
41
1
41
1
41
1
41
1
41
1
41
1
41
1
41
1
41
1
41
1
41
1
41
1
41
1
41
1
41
1
41
1
41
1
41
1
41
1
41
1
41
1
41
1
41
1
41
1
41
1
41
1
41
1
41
1
41
1
41
1
41
1
41
1
41
1
41
1
41
1
41
1
41
1
41
1
41
1
41
1
41
1
41
1
41
1
41
1
41
1
41
1
41
1
41
1
41
1
41
1
41
1
41
1
41
1
41
1
41
1
41
1
41
1
41
1
41
1
41
1
41
1
41
1
41
1
41
1
41
1
41
1
41
1
41
1
10
6.0000001914857855
20
1.1000000351057275
30
0
10
6.0030073427235271
20
1.1002461814633395
30
0
10
6.0091894038809617
20
1.0977852197971414
30
0
10
6.0188605690853709
20
1.0853011776466934
30
0
10
6.0322580621180002
20
1.0523802762726326
30
0
10
6.0496104914220803
20
0.9909294850685203
30
0
10
6.0677043348364323
20
0.91793478593118305
30
0
10
6.0869083062380165
20
0.84239549659537905
30
0
10
6.1076937174549686
20
0.7720246105482923
30
0
10
6.1304930477168558
20
0.71134004611817736
30
0
10
6.1555956656949595
20
0.66099535872991244
30
0
10
6.1831045428459515
20
0.61916729415946681
30
0
10
6.2128792815292497
20
0.58246387829288138
30
0
10
6.2444829623713058
20
0.54702821865747686
30
0
10
6.2771298929191888
20
0.50954373491939098
30
0
10
6.3096243422288332
20
0.46831898272398775
30
0
10
6.3405737369239912
20
0.42294436750006043
30
0
10
6.3686033035612946
20
0.3739160979744286
30
0
10
6.3925848072698175
20
0.32226189878561112
30
0
10
6.4118262607918517
20
0.26919312899319092
30
0
10
6.4263622616402758
20
0.21568111659921477
30
0
10
6.4368332919231657
20
0.16235563976284825
30
0
10
6.4440846526231841
20
0.1096312897317786
30
0
10
6.4488347677642954
20
0.057765766549054652
30
0
10
6.4513451353557194
20
0.0069469451500104636
30
0
10
6.4510169305473877
20
-0.042634889208934115
30
0
10
6.4462416044466355
20
-0.090701884936686031
30
0
10
6.435069921518271
20
-0.13679415030393324
30
0
10
6.4157727168182106
20
-0.18016351029023542
30
0
10
6.3873807620251535
20
-0.21969776590723192
30
0
10
6.3503889436232219
20
-0.25376785277301867
30
0
10
6.3067971446335314
20
-0.28035188256408128
30
0
10
6.2594380443909436
20
-0.29744814152143689
30
0
10
6.2114775132083873
20
-0.30342302121907433
30
0
10
6.1658871679963374
20
-0.2973603152348403
30
0
10
6.1248218738118343
20
-0.27947620935328582
30
0
10
6.0897274065285272
20
-0.25110925466636769
30
0
10
6.0617336691689232
20
-0.21458788477681687
30
0
10
6.0419006481038364
20
-0.17309827055412932
30
0
10
6.0316464676982768
20
-0.13065236852601703
30
0
10
6.032659466479517
20
-0.091652431990381131
30
0
10
6.0459969616133726
20
-0.059743130240641928
30
0
10
6.0714810664355987
20
-0.036961816834551325
30
0
10
6.1067287596476074
20
-0.02246756864287364
30
0
10
6.1476219462477113
20
-0.013011868759549015
30
0
10
6.1894851040976349
20
-0.00425221487645261
30
0
10
6.2279576896116087
20
0.0082627061174260445
30
0
10
6.2601930186954258
20
0.027822953708424591
30
0
10
6.2847562009924003
20
0.056268131936630571
30
0
10
6.3010391937507615
20
0.094028147358349759
30
0
10
6.3088492465552459
20
0.14007766672503513
30
0
10
6.3078837331119715
20
0.19187027448639105
30
0
10
6.2978919042301609
20
0.24606277283970582
30
0
10
6.2788807899810148
20
0.29930228880456522
30
0
10
6.2513183296771286
20
0.34902946460771694
30
0
10
6.2163115247953069
20
0.39418583604404772
30
0
10
6.1758652841937316
20
0.43619543030409297
30
0
10
6.1326751999548232
20
0.47838101959230228
30
0
10
6.0897578783549067
20
0.52483457937475886
30
0
10
6.0501403614366147
20
0.57948810181942567
30
0
10
6.0165144709590948
20
0.64505976356317407
30
0
10
5.9909302932734407
20
0.72214733006878895
30
0
10
5.9744126879602364
20
0.80802481800688641
30
0
10
5.9668024888357323
20
0.89631331910738965
30
0
10
5.9671275839988569
20
0.97871499775382675
30
0
10
5.9738684135564224
20
1.0463379575500278
30
0
10
5.9829851593756906
20
1.0822130943669013
30
0
10
5.9911464964545234
20
1.0963083416514674
30
0
10
5.9969930402480465
20
1.0997538887481155
30
0
10
6.0000001914857855
20
1.1000000351057275
30
0
0
SPLINE
5
473
100
AcDbEntity
8
0
100
AcDbSpline
70
4
71
3
72
8
73
4
74
0
42
0.000000001
43
0.0000000001
44
0.0000000001
40
0
40
0
40
0
40
0
40
1
40
1
40
1
40
1
41
1
41
1
41
1
41
1
10
5.6786501962601568
20
6.2673284181856381
30
0
10
4.718567153142728
20
6.5584437919586094
30
0
10
3.9379421385970979
20
6.5983988181430018
30
0
10
1.8986477434857187
20
6.460802943732622
30
0
0
LINE
5
474
100
AcDbEntity
8
0
100
AcDbLine
10
-0.9711024297261398
20
15.30235762137781
30
0
11
-0.97272907672756725
21
15.071267443121846
31
0
0
SPLINE
5
475
100
AcDbEntity
8
0
100
AcDbSpline
70
4
71
3
72
8
73
4
74
0
42
0.000000001
43
0.0000000001
44
0.0000000001
40
0
40
0
40
0
40
0
40
1
40
1
40
1
40
1
41
1
41
1
41
1
41
1
10
-3.8449921923480042
20
8.741275218576444
30
0
10
-3.7037680748129889
20
8.741275218576444
30
0
10
-3.7207621009935385
20
8.7847499252376995
30
0
10
-3.9614799134076795
20
9.0392929260586943
30
0
0
CIRCLE
5
476
100
AcDbEntity
8
0
100
AcDbCircle
10
-2.9824022932018264
20
6.3775520184353569
30
0
40
0.099999999999999756
210
0
220
0
230
1
0
SPLINE
5
477
100
AcDbEntity
8
0
100
AcDbSpline
70
4
71
3
72
8
73
4
74
0
42
0.000000001
43
0.0000000001
44
0.0000000001
40
0
40
0
40
0
40
0
40
1
40
1
40
1
40
1
41
1
41
1
41
1
41
1
10
8.6069581562726096
20
1.4924975792677262
30
0
10
8.4335574600693519
20
1.5982164152422815
30
0
10
8.0905939889501663
20
2.0051833594376758
30
0
10
7.9791180228068539
20
2.2375047778009387
30
0
0
SPLINE
5
478
100
AcDbEntity
8
0
100
AcDbSpline
70
0
71
2
72
6
73
3
74
0
42
0.000000001
43
0.0000000001
44
0.0000000001
40
0
40
0
40
0
40
1
40
1
40
1
10
-1.6007805122819943
20
13.856857410232463
30
0
10
-1.7220495749480587
20
13.917482276615081
30
0
10
-1.8329736599616668
20
13.922586018122216
30
0
0
SPLINE
5
479
100
AcDbEntity
8
0
100
AcDbSpline
70
0
71
2
72
6
73
3
74
0
42
0.000000001
43
0.0000000001
44
0.0000000001
40
0
40
0
40
0
40
1
40
1
40
1
10
-2.1168781878350882
20
14.882548597409565
30
0
10
-2.0957802691942486
20
14.823935054966039
30
0
10
-2.2074657639320767
20
14.760506905453845
30
0
0
SPLINE
5
480
100
AcDbEntity
8
0
100
AcDbSpline
70
4
71
3
72
8
73
4
74
0
42
0.000000001
43
0.0000000001
44
0.0000000001
40
0
40
0
40
0
40
0
40
1
40
1
40
1
40
1
41
1
41
1
41
1
41
1
10
-0.62232985224824933
20
1.9465714450531957
30
0
10
-0.63354357940229156
20
2.0868701322126881
30
0
10
-0.62007386747015125
20
2.1635444881039669
30
0
10
-0.58422568681490117
20
2.1635444881039669
30
0
0
SPLINE
5
481
100
AcDbEntity
8
0
100
AcDbSpline
70
0
71
2
72
6
73
3
74
0
42
0.000000001
43
0.0000000001
44
0.0000000001
40
0
40
0
40
0
40
1
40
1
40
1
10
-2.2294773246248432
20
13.354122133050822
30
0
10
-1.8762959825420862
20
13.481249600698836
30
0
10
-1.6555734529927986
20
13.761558211152247
30
0
0
SPLINE
5
482
100
AcDbEntity
8
0
100
AcDbSpline
70
4
71
3
72
8
73
4
74
0
42
0.000000001
43
0.0000000001
44
0.0000000001
40
0
40
0
40
0
40
0
40
1
40
1
40
1
40
1
41
1
41
1
41
1
41
1
10
7.5206862603692679
20
3.9221772980620115
30
0
10
7.3618260083101719
20
4.7356914991437327
30
0
10
7.2759655313022078
20
4.9897419962455656
30
0
10
7.0519855636985742
20
5.3090075321924175
30
0
0
SPLINE
5
483
100
AcDbEntity
8
0
100
AcDbSpline
70
4
71
3
72
8
73
4
74
0
42
0.000000001
43
0.0000000001
44
0.0000000001
40
0
40
0
40
0
40
0
40
1
40
1
40
1
40
1
41
1
41
1
41
1
41
1
10
-2.3007361894372944
20
-1.6889705317413566
30
0
10
-2.3805760732654453
20
-1.7105149215852411
30
0
10
-2.4983082929703184
20
-1.7518097697153123
30
0
10
-2.5623629030254316
20
-1.780737743542443
30
0
0
SPLINE
5
484
100
AcDbEntity
8
0
100
AcDbSpline
70
4
71
3
72
8
73
4
74
0
42
0.000000001
43
0.0000000001
44
0.0000000001
40
0
40
0
40
0
40
0
40
1
40
1
40
1
40
1
41
1
41
1
41
1
41
1
10
-3.9431738679107582
20
8.6955968225588851
30
0
10
-3.9431738679107582
20
8.720719807975069
30
0
10
-3.8989915181368882
20
8.741275218576444
30
0
10
-3.8449921923480042
20
8.741275218576444
30
0
0
SPLINE
5
485
100
AcDbEntity
8
0
100
AcDbSpline
70
4
71
3
72
8
73
4
74
0
42
0.000000001
43
0.0000000001
44
0.0000000001
40
0
40
0
40
0
40
0
40
1
40
1
40
1
40
1
41
1
41
1
41
1
41
1
10
5.4563890269183553
20
-1.6270845267722316
30
0
10
5.2095850865553235
20
-1.6282469414642324
30
0
10
5.0280461635733298
20
-1.7948760425126933
30
0
10
4.9206492403298538
20
-2.1188296313346893
30
0
0
SPLINE
5
486
100
AcDbEntity
8
0
100
AcDbSpline
70
4
71
3
72
8
73
4
74
0
42
0.000000001
43
0.0000000001
44
0.0000000001
40
0
40
0
40
0
40
0
40
1
40
1
40
1
40
1
41
1
41
1
41
1
41
1
10
-0.53733059478145528
20
-1.6858844398882189
30
0
10
-0.51965672811759667
20
-1.4037989629339211
30
0
10
-0.48309693254554714
20
-1.1189146879626599
30
0
10
-0.45608601620590639
20
-1.0528079790777047
30
0
0
SPLINE
5
487
100
AcDbEntity
8
0
100
AcDbSpline
70
4
71
3
72
8
73
4
74
0
42
0.000000001
43
0.0000000001
44
0.0000000001
40
0
40
0
40
0
40
0
40
1
40
1
40
1
40
1
41
1
41
1
41
1
41
1
10
3.8276901501106866
20
3.8762592698585161
30
0
10
4.1548688439323582
20
3.8150656827526208
30
0
10
4.156829591265903
20
3.8134518063180542
30
0
10
4.156829591265903
20
3.6053279429954554
30
0
0
LINE
5
488
100
AcDbEntity
8
0
100
AcDbLine
10
-4.5504216826621882
20
7.2463086442068283
30
0
11
-4.4063431656849268
21
7.0831350170326095
31
0
0
SPLINE
5
489
100
AcDbEntity
8
0
100
AcDbSpline
70
4
71
3
72
8
73
4
74
0
42
0.000000001
43
0.0000000001
44
0.0000000001
40
0
40
0
40
0
40
0
40
1
40
1
40
1
40
1
41
1
41
1
41
1
41
1
10
-0.45701409445088892
20
-0.76631512341079233
30
0
10
-0.48453406369380136
20
-0.67484976872790514
30
0
10
-0.52908645322440495
20
-0.07585138784005771
30
0
10
-0.55601925741503766
20
0.56479135994629159
30
0
0
SPLINE
5
490
100
AcDbEntity
8
0
100
AcDbSpline
70
0
71
2
72
6
73
3
74
0
42
0.000000001
43
0.0000000001
44
0.0000000001
40
0
40
0
40
0
40
1
40
1
40
1
10
-2.5965664026356623
20
14.6201621925017
30
0
10
-2.7262271676777514
20
14.573490857555464
30
0
10
-2.8400204957691613
20
14.368553287317008
30
0
0
SPLINE
5
491
100
AcDbEntity
8
0
100
AcDbSpline
70
0
71
2
72
6
73
3
74
0
42
0.000000001
43
0.0000000001
44
0.0000000001
40
0
40
0
40
0
40
1
40
1
40
1
10
-3.2078455774716366
20
14.118834224023143
30
0
10
-3.2870708430107678
20
14.338935246466587
30
0
10
-2.9933026867519956
20
14.673812119206568
30
0
0
SPLINE
5
492
100
AcDbEntity
8
0
100
AcDbSpline
70
4
71
3
72
8
73
4
74
0
42
0.000000001
43
0.0000000001
44
0.0000000001
40
0
40
0
40
0
40
0
40
1
40
1
40
1
40
1
41
1
41
1
41
1
41
1
10
-1.4544572516840046
20
-1.047448691294993
30
0
10
-1.3844316960014116
20
-0.84074276206707821
30
0
10
-1.3805300603552544
20
-0.76921056866296433
30
0
10
-1.4299115018096349
20
-0.59741150249802999
30
0
0
LINE
5
493
100
AcDbEntity
8
0
100
AcDbLine
10
-2.6557298533402069
20
14.901629856931091
30
0
11
-2.6133894994723041
21
14.916870248552023
31
0
0
SPLINE
5
494
100
AcDbEntity
8
0
100
AcDbSpline
70
4
71
3
72
8
73
4
74
0
42
0.000000001
43
0.0000000001
44
0.0000000001
40
0
40
0
40
0
40
0
40
1
40
1
40
1
40
1
41
1
41
1
41
1
41
1
10
7.2586739507913309
20
-2.3718732760751693
30
0
10
7.272515357398615
20
-2.4624330594034718
30
0
10
7.3068317455724916
20
-2.4742650640759245
30
0
10
7.5916822602081604
20
-2.4866954872458518
30
0
0
SPLINE
5
495
100
AcDbEntity
8
0
100
AcDbSpline
70
0
71
2
72
6
73
3
74
0
42
0.000000001
43
0.0000000001
44
0.0000000001
40
0
40
0
40
0
40
1
40
1
40
1
10
-1.8589294524817686
20
13.223414976140635
30
0
10
-2.0546759729341528
20
13.101521413976725
30
0
10
-2.2155183755995194
20
13.043626262379284
30
0
0
SPLINE
5
496
100
AcDbEntity
8
0
100
AcDbSpline
70
4
71
3
72
8
73
4
74
0
42
0.000000001
43
0.0000000001
44
0.0000000001
40
0
40
0
40
0
40
0
40
1
40
1
40
1
40
1
41
1
41
1
41
1
41
1
10
-1.4299115018096349
20
-0.59741150249802999
30
0
10
-1.4931704270926589
20
-0.37733515644264876
30
0
10
-1.5043153096407944
20
0.3390498971858148
30
0
10
-1.4489788097756868
20
0.62820518559260607
30
0
0
LINE
5
497
100
AcDbEntity
8
0
100
AcDbLine
10
-4.9740000310771926
20
7.220773269149622
30
0
11
-4.5504216826621882
21
7.2463086442068283
31
0
0
SPLINE
5
498
100
AcDbEntity
8
0
100
AcDbSpline
70
4
71
3
72
8
73
4
74
0
42
0.000000001
43
0.0000000001
44
0.0000000001
40
0
40
0
40
0
40
0
40
1
40
1
40
1
40
1
41
1
41
1
41
1
41
1
10
7.5288188604254049
20
2.1041911702712843
30
0
10
7.794600081192927
20
1.5293771050768119
30
0
10
8.0425920874833352
20
1.2393983292686293
30
0
10
8.4013269310609058
20
1.0839617724185473
30
0
0
SPLINE
5
499
100
AcDbEntity
8
0
100
AcDbSpline
70
4
71
3
72
8
73
4
74
0
42
0.000000001
43
0.0000000001
44
0.0000000001
40
0
40
0
40
0
40
0
40
1
40
1
40
1
40
1
41
1
41
1
41
1
41
1
10
7.0519855636985742
20
5.3090075321924175
30
0
10
6.6917508675649646
20
5.82249230697128
30
0
10
6.3429159114148153
20
6.0659116081998006
30
0
10
5.6786501962601568
20
6.2673284181856381
30
0
0
LINE
5
500
100
AcDbEntity
8
0
100
AcDbLine
10
-6.6901413025238829
20
6.8317674846080951
30
0
11
-6.2065448783474428
21
6.8120858552712802
31
0
0
SPLINE
5
501
100
AcDbEntity
8
0
100
AcDbSpline
70
0
71
2
72
6
73
3
74
0
42
0.000000001
43
0.0000000001
44
0.0000000001
40
0
40
0
40
0
40
1
40
1
40
1
10
-2.6133894994723041
20
14.916870248552023
30
0
10
-2.3029833908844166
20
15.028600789849998
30
0
10
-2.1461418601320488
20
14.926194470964091
30
0
0
SPLINE
5
502
100
AcDbEntity
8
0
100
AcDbSpline
70
4
71
3
72
8
73
4
74
0
42
0.000000001
43
0.0000000001
44
0.0000000001
40
0
40
0
40
0
40
0
40
1
40
1
40
1
40
1
41
1
41
1
41
1
41
1
10
5.0187329447226672
20
1.3450509685067384
30
0
10
5.7386082212802769
20
0.28821080359488577
30
0
10
5.7950886007511775
20
0.12224764171507818
30
0
10
5.7693278097793321
20
-0.86052499478675804
30
0
0
SPLINE
5
503
100
AcDbEntity
8
0
100
AcDbSpline
70
4
71
3
72
8
73
4
74
0
42
0.000000001
43
0.0000000001
44
0.0000000001
40
0
40
0
40
0
40
0
40
1
40
1
40
1
40
1
41
1
41
1
41
1
41
1
10
6.1730077550264744
20
1.0661522024449757
30
0
10
6.1769971013484257
20
1.1994790493219163
30
0
10
6.2587993874285335
20
1.404855748081987
30
0
10
6.2642890827820432
20
1.2953279518922951
30
0
0
SPLINE
5
504
100
AcDbEntity
8
0
100
AcDbSpline
70
4
71
3
72
8
73
4
74
0
42
0.000000001
43
0.0000000001
44
0.0000000001
40
0
40
0
40
0
40
0
40
1
40
1
40
1
40
1
41
1
41
1
41
1
41
1
10
1.8986477434857187
20
6.460802943732622
30
0
10
-0.030226523428676117
20
6.3306575120092994
30
0
10
-0.67353832362855248
20
6.3729704659459179
30
0
10
-1.3115795396725525
20
6.6719480261066417
30
0
0
SPLINE
5
505
100
AcDbEntity
8
0
100
AcDbSpline
70
4
71
3
72
8
73
4
74
0
42
0.000000001
43
0.0000000001
44
0.0000000001
40
0
40
0
40
0
40
0
40
1
40
1
40
1
40
1
41
1
41
1
41
1
41
1
10
-2.8511395460997462
20
-2.2023460819050831
30
0
10
-2.8317081560832347
20
-2.2204257345633565
30
0
10
-2.6503939710214786
20
-2.2450972582369748
30
0
10
-2.4482172225012326
20
-2.2571702190300922
30
0
0
SPLINE
5
506
100
AcDbEntity
8
0
100
AcDbSpline
70
4
71
3
72
8
73
4
74
0
42
0.000000001
43
0.0000000001
44
0.0000000001
40
0
40
0
40
0
40
0
40
1
40
1
40
1
40
1
41
1
41
1
41
1
41
1
10
-0.58422568681490117
20
2.1635444881039669
30
0
10
-0.33139982933732937
20
2.1635444881039669
30
0
10
0.34475150984630409
20
2.277835801448346
30
0
10
0.52093279996399899
20
2.3503530022907841
30
0
0
SPLINE
5
507
100
AcDbEntity
8
0
100
AcDbSpline
70
4
71
3
72
8
73
4
74
0
42
0.000000001
43
0.0000000001
44
0.0000000001
40
0
40
0
40
0
40
0
40
1
40
1
40
1
40
1
41
1
41
1
41
1
41
1
10
-0.55601925741503766
20
0.56479135994629159
30
0
10
-0.58295206160566782
20
1.2054341077326465
30
0
10
-0.61279222646103371
20
1.8272359403915883
30
0
10
-0.62232985224824933
20
1.9465714450531957
30
0
0
SPLINE
5
508
100
AcDbEntity
8
0
100
AcDbSpline
70
4
71
3
72
8
73
4
74
0
42
0.000000001
43
0.0000000001
44
0.0000000001
40
0
40
0
40
0
40
0
40
1
40
1
40
1
40
1
41
1
41
1
41
1
41
1
10
10.080643059646489
20
1.9894232404244878
30
0
10
10.142860337908566
20
2.0533944425916824
30
0
10
10.149320891147989
20
2.0873043828037741
30
0
10
10.106824779116211
20
2.1268463413527421
30
0
0
SPLINE
5
509
100
AcDbEntity
8
0
100
AcDbSpline
70
0
71
2
72
6
73
3
74
0
42
0.000000001
43
0.0000000001
44
0.0000000001
40
0
40
0
40
0
40
1
40
1
40
1
10
-2.7239654161982756
20
13.473897048359804
30
0
10
-2.6685459586443865
20
13.532014697340612
30
0
10
-2.5949490290208996
20
13.558505879560284
30
0
0
SPLINE
5
510
100
AcDbEntity
8
0
100
AcDbSpline
70
0
71
2
72
6
73
3
74
0
42
0.000000001
43
0.0000000001
44
0.0000000001
40
0
40
0
40
0
40
1
40
1
40
1
10
-2.8813699892921223
20
14.242024383027605
30
0
10
-2.8028667477742957
20
14.189368459148071
30
0
10
-2.6878867927004486
20
14.192670700540958
30
0
0
SPLINE
5
511
100
AcDbEntity
8
0
100
AcDbSpline
70
0
71
2
72
6
73
3
74
0
42
0.000000001
43
0.0000000001
44
0.0000000001
40
0
40
0
40
0
40
1
40
1
40
1
10
-2.6878867927004486
20
14.192670700540958
30
0
10
-2.4657319426421567
20
14.199261164471135
30
0
10
-1.9852936653949207
20
14.223430383468097
30
0
0
SPLINE
5
512
100
AcDbEntity
8
0
100
AcDbSpline
70
4
71
3
72
8
73
4
74
0
42
0.000000001
43
0.0000000001
44
0.0000000001
40
0
40
0
40
0
40
0
40
1
40
1
40
1
40
1
41
1
41
1
41
1
41
1
10
6.5496433545820736
20
-0.2633721789110427
30
0
10
6.6803795921781841
20
-0.0070160494787763024
30
0
10
6.64615720337006
20
0.18129380669064765
30
0
10
6.3951894882845393
20
0.58652639639114246
30
0
0
SPLINE
5
513
100
AcDbEntity
8
0
100
AcDbSpline
70
4
71
3
72
8
73
4
74
0
42
0.000000001
43
0.0000000001
44
0.0000000001
40
0
40
0
40
0
40
0
40
1
40
1
40
1
40
1
41
1
41
1
41
1
41
1
10
-1.4489788097756868
20
0.62820518559260607
30
0
10
-1.3908699905881994
20
0.93184961567280944
30
0
10
-1.1522479668499586
20
-0.5560067677854601
30
0
10
-1.1348236618825023
20
-1.3306197947270144
30
0
0
SPLINE
5
514
100
AcDbEntity
8
0
100
AcDbSpline
70
0
71
2
72
6
73
3
74
0
42
0.000000001
43
0.0000000001
44
0.0000000001
40
0
40
0
40
0
40
1
40
1
40
1
10
-2.8051988192233894
20
13.139013691798992
30
0
10
-2.8643680567008261
20
13.303395717878162
30
0
10
-2.7239654161982756
20
13.473897048359804
30
0
0
SPLINE
5
515
100
AcDbEntity
8
0
100
AcDbSpline
70
4
71
3
72
8
73
4
74
0
42
0.000000001
43
0.0000000001
44
0.0000000001
40
0
40
0
40
0
40
0
40
1
40
1
40
1
40
1
41
1
41
1
41
1
41
1
10
9.2658261895374192
20
1.5102197695491875
30
0
10
9.0677496668726718
20
1.4016094601266482
30
0
10
8.769205695335673
20
1.3935797959956839
30
0
10
8.6069581562726096
20
1.4924975792677262
30
0
0
SPLINE
5
516
100
AcDbEntity
8
0
100
AcDbSpline
70
4
71
3
72
8
73
4
74
0
42
0.000000001
43
0.0000000001
44
0.0000000001
40
0
40
0
40
0
40
0
40
1
40
1
40
1
40
1
41
1
41
1
41
1
41
1
10
-1.3479758293055837
20
-2.632710924564865
30
0
10
-1.0307597443191123
20
-2.632710924564865
30
0
10
-0.93861388718555305
20
-2.6156904196897361
30
0
10
-0.83153934204857083
20
-2.5373253991496121
30
0
0
SPLINE
5
517
100
AcDbEntity
8
0
100
AcDbSpline
70
4
71
3
72
8
73
4
74
0
42
0.000000001
43
0.0000000001
44
0.0000000001
40
0
40
0
40
0
40
0
40
1
40
1
40
1
40
1
41
1
41
1
41
1
41
1
10
2.5379215427623563
20
3.6033261536853125
30
0
10
2.8119283700007234
20
3.8297666539826638
30
0
10
3.3203901364180233
20
4.0819497411493399
30
0
10
3.5030659883484838
20
4.082011966081601
30
0
0
SPLINE
5
518
100
AcDbEntity
8
0
100
AcDbSpline
70
4
71
3
72
8
73
4
74
0
42
0.000000001
43
0.0000000001
44
0.0000000001
40
0
40
0
40
0
40
0
40
1
40
1
40
1
40
1
41
1
41
1
41
1
41
1
10
6.2086398033372303
20
-1.8778695388651565
30
0
10
6.2521429745951522
20
-1.4712070996574156
30
0
10
6.4772866808255181
20
-0.40525296807160599
30
0
10
6.5496433545820736
20
-0.2633721789110427
30
0
0
SPLINE
5
519
100
AcDbEntity
8
0
100
AcDbSpline
70
0
71
2
72
6
73
3
74
0
42
0.000000001
43
0.0000000001
44
0.0000000001
40
0
40
0
40
0
40
1
40
1
40
1
10
-1.28307017911145
20
13.986701840541313
30
0
10
-1.1736556460627661
20
13.682729989764839
30
0
10
-1.8589294524817686
20
13.223414976140635
30
0
0
SPLINE
5
520
100
AcDbEntity
8
0
100
AcDbSpline
70
4
71
3
72
8
73
4
74
0
42
0.000000001
43
0.0000000001
44
0.0000000001
40
0.008717809288442872
40
0.008717809288442872
40
0.008717809288442872
40
0.008717809288442872
40
0.99837389933670129
40
0.99837389933670129
40
0.99837389933670129
40
0.99837389933670129
41
1
41
1
41
1
41
1
10
-4.7487475696124601
20
9.1523805193065577
30
0
10
-4.9476488809761516
20
9.1521582242640172
30
0
10
-4.9757468539696621
20
9.13898359951793
30
0
10
-5.0033730460566987
20
9.0368585775629811
30
0
0
SPLINE
5
521
100
AcDbEntity
8
0
100
AcDbSpline
70
4
71
3
72
8
73
4
74
0
42
0.000000001
43
0.0000000001
44
0.0000000001
40
0
40
0
40
0
40
0
40
1
40
1
40
1
40
1
41
1
41
1
41
1
41
1
10
8.4013269310609058
20
1.0839617724185473
30
0
10
9.0085080560327437
20
0.82087343488966724
30
0
10
9.5327619641344885
20
1.0192160684349292
30
0
10
9.8560531718624169
20
1.6343346785822346
30
0
0
SPLINE
5
522
100
AcDbEntity
8
0
100
AcDbSpline
70
4
71
3
72
8
73
4
74
0
42
0.000000001
43
0.0000000001
44
0.0000000001
40
0
40
0
40
0
40
0
40
1
40
1
40
1
40
1
41
1
41
1
41
1
41
1
10
8.4269907438138549
20
-0.65224490716614769
30
0
10
8.4824276972265231
20
-0.066786406751072239
30
0
10
8.5055790128476438
20
-0.12441198976249972
30
0
10
7.921724128372988
20
0.6054030577562346
30
0
0
SPLINE
5
523
100
AcDbEntity
8
0
100
AcDbSpline
70
4
71
3
72
8
73
4
74
0
42
0.000000001
43
0.0000000001
44
0.0000000001
40
0
40
0
40
0
40
0
40
1
40
1
40
1
40
1
41
1
41
1
41
1
41
1
10
-3.4828867764424167
20
5.4067344361757854
30
0
10
-3.4033884677743274
20
5.1897733085375748
30
0
10
-3.3291620671968425
20
4.8259957630693515
30
0
10
-3.280470395736236
20
4.4147127916576405
30
0
0
LINE
5
524
100
AcDbEntity
8
0
100
AcDbLine
10
7.8141059425315937
20
-1.783044037761097
30
0
11
7.6245227921331642
21
-1.8253556677658518
31
0
0
SPLINE
5
525
100
AcDbEntity
8
0
100
AcDbSpline
70
4
71
3
72
8
73
4
74
0
42
0.000000001
43
0.0000000001
44
0.0000000001
40
0
40
0
40
0
40
0
40
1
40
1
40
1
40
1
41
1
41
1
41
1
41
1
10
-1.7333586656152242
20
-2.5299338715579922
30
0
10
-1.7340524074131858
20
-2.6278626755875223
30
0
10
-1.7158694878460519
20
-2.632710924564865
30
0
10
-1.3479758293055837
20
-2.632710924564865
30
0
0
LINE
5
526
100
AcDbEntity
8
0
100
AcDbLine
10
-2.5448732697070846
20
13.478455773384473
30
0
11
-2.505156292483389
21
13.294314849435374
31
0
0
SPLINE
5
527
100
AcDbEntity
8
0
100
AcDbSpline
70
4
71
3
72
8
73
4
74
0
42
0.000000001
43
0.0000000001
44
0.0000000001
40
0
40
0
40
0
40
0
40
0.99994832362917174
40
0.99994832362917174
40
0.99994832362917174
40
0.99994832362917174
41
1
41
1
41
1
41
1
10
-2.4482172225012326
20
-2.2571702190300922
30
0
10
-2.0885412794449842
20
-2.2786473022224603
30
0
10
-2.0766892632678502
20
-2.2759041790330947
30
0
10
-1.8973677000471654
20
-2.1294027814967404
30
0
0
SPLINE
5
528
100
AcDbEntity
8
0
100
AcDbSpline
70
0
71
2
72
6
73
3
74
0
42
0.000000001
43
0.0000000001
44
0.0000000001
40
0
40
0
40
0
40
1
40
1
40
1
10
-1.9852936653949207
20
14.223430383468097
30
0
10
-1.3784967255326706
20
14.251812727739074
30
0
10
-1.2928956898473347
20
14.01399875074137
30
0
0
SPLINE
5
529
100
AcDbEntity
8
0
100
AcDbSpline
70
0
71
2
72
6
73
3
74
0
42
0.000000001
43
0.0000000001
44
0.0000000001
40
0
40
0
40
0
40
1
40
1
40
1
10
-2.5949490290208996
20
13.558505879560284
30
0
10
-2.5599462543654927
20
13.52033104274474
30
0
10
-2.5448732697070846
20
13.478455773384473
30
0
0
LINE
5
530
100
AcDbEntity
8
0
100
AcDbLine
10
-1.2928956898473347
20
14.01399875074137
30
0
11
-1.28307017911145
21
13.986701840541313
31
0
0
SPLINE
5
531
100
AcDbEntity
8
0
100
AcDbSpline
70
4
71
3
72
8
73
4
74
0
42
0.000000001
43
0.0000000001
44
0.0000000001
40
0
40
0
40
0
40
0
40
1
40
1
40
1
40
1
41
1
41
1
41
1
41
1
10
-3.9614799134076795
20
9.0392929260586943
30
0
10
-4.1745672080290381
20
9.2646173493795594
30
0
10
-4.1773977804794917
20
9.2658717775352155
30
0
10
-4.3454196608627855
20
9.209337778707793
30
0
0
SPLINE
5
532
100
AcDbEntity
8
0
100
AcDbSpline
70
0
71
2
72
6
73
3
74
0
42
0.000000001
43
0.0000000001
44
0.0000000001
40
0
40
0
40
0
40
1
40
1
40
1
10
-2.5958959046284158
20
13.889661401136104
30
0
10
-3.1198151380498604
20
13.874270957607727
30
0
10
-3.1990349674722842
20
14.094356877610846
30
0
0
SPLINE
5
533
100
AcDbEntity
8
0
100
AcDbSpline
70
4
71
3
72
8
73
4
74
0
42
0.000000001
43
0.0000000001
44
0.0000000001
40
0
40
0
40
0
40
0
40
1
40
1
40
1
40
1
41
1
41
1
41
1
41
1
10
-0.45608601620590639
20
-1.0528079790777047
30
0
10
-0.42317299884469772
20
-0.97225979016957409
30
0
10
-0.42347882776707607
20
-0.87776527282689298
30
0
10
-0.45701409445088892
20
-0.76631512341079233
30
0
0
SPLINE
5
534
100
AcDbEntity
8
0
100
AcDbSpline
70
0
71
2
72
6
73
3
74
0
42
0.000000001
43
0.0000000001
44
0.0000000001
40
0
40
0
40
0
40
1
40
1
40
1
10
-1.6555734529927986
20
13.761558211152247
30
0
10
-1.6209895972772028
20
13.815903173553767
30
0
10
-1.6007805122819943
20
13.856857410232463
30
0
0
SPLINE
5
535
100
AcDbEntity
8
0
100
AcDbSpline
70
0
71
2
72
6
73
3
74
0
42
0.000000001
43
0.0000000001
44
0.0000000001
40
0
40
0
40
0
40
1
40
1
40
1
10
-2.8400204957691613
20
14.368553287317008
30
0
10
-2.8624019129301881
20
14.314619216852105
30
0
10
-2.8813699892921223
20
14.242024383027605
30
0
0
SPLINE
5
536
100
AcDbEntity
8
0
100
AcDbSpline
70
4
71
3
72
8
73
4
74
0
42
0.000000001
43
0.0000000001
44
0.0000000001
40
0
40
0
40
0
40
0
40
1
40
1
40
1
40
1
41
1
41
1
41
1
41
1
10
-3.280470395736236
20
4.4147127916576405
30
0
10
-3.185042504409656
20
3.6086642585123601
30
0
10
-3.1124379238751114
20
3.4022310598386043
30
0
10
-2.737729973284833
20
2.8715688939192368
30
0
0
CIRCLE
5
537
100
AcDbEntity
8
0
100
AcDbCircle
10
1.5251775891210737
20
3.5706999314937926
30
0
40
12.499999999999998
210
0
220
0
230
1
0
LINE
5
538
100
AcDbEntity
8
0
100
AcDbLine
10
-2.2889245970577861
20
14.722393080391365
30
0
11
-2.5965664026356623
21
14.6201621925017
31
0
0
SPLINE
5
539
100
AcDbEntity
8
0
100
AcDbSpline
70
0
71
2
72
6
73
3
74
0
42
0.000000001
43
0.0000000001
44
0.0000000001
40
0
40
0
40
0
40
1
40
1
40
1
10
2.4894856384489903
20
-6.6382798708486757
30
-9.402851998641879e-17
10
2.4789164815211486
20
-6.5427421065330114
30
-1.0579989960977622e-16
10
2.5013912090640078
20
-6.5117728245588697
30
-1.1241960294783334e-16
0
SPLINE
5
540
100
AcDbEntity
8
0
100
AcDbSpline
70
0
71
2
72
6
73
3
74
0
42
0.000000001
43
0.0000000001
44
0.0000000001
40
0
40
0
40
0
40
1
40
1
40
1
10
2.7560065612686802
20
-8.547008869824646
30
1.3515613498713764e-16
10
2.5815542303967702
20
-7.3977409201364068
30
-1.3255186737302779e-18
10
2.5477469629959959
20
-7.09214693878641
30
-3.8978302270365528e-17
0
LINE
5
541
100
AcDbEntity
8
0
100
AcDbLine
10
2.9837719449923661
20
-8.1728323535976575
30
5.9914952512653432e-17
11
3.0508464070491761
21
-8.5029724078964239
31
9.7284689344304664e-17
0
LINE
5
542
100
AcDbEntity
8
0
100
AcDbLine
10
-3.1990349674722842
20
14.094356877610846
30
0
11
-3.2078455774716366
21
14.118834224023143
31
0
0
SPLINE
5
543
100
AcDbEntity
8
0
100
AcDbSpline
70
0
71
2
72
6
73
3
74
0
42
0.000000001
43
0.0000000001
44
0.0000000001
40
0
40
0
40
0
40
1
40
1
40
1
10
-2.505156292483389
20
13.294314849435374
30
0
10
-2.3675222403305325
20
13.30443292678682
30
0
10
-2.2294773246248432
20
13.354122133050822
30
0
0
SPLINE
5
544
100
AcDbEntity
8
0
100
AcDbSpline
70
0
71
2
72
6
73
3
74
0
42
0.000000001
43
0.0000000001
44
0.0000000001
40
0
40
0
40
0
40
1
40
1
40
1
10
-2.1461418601320488
20
14.926194470964091
30
0
10
-2.1233619809320428
20
14.900561657766511
30
0
10
-2.1168781878350882
20
14.882548597409565
30
0
0
SPLINE
5
545
100
AcDbEntity
8
0
100
AcDbSpline
70
0
71
2
72
6
73
3
74
0
42
0.000000001
43
0.0000000001
44
0.0000000001
40
0
40
0
40
0
40
1
40
1
40
1
10
-2.7391851698640517
20
13.038830542770073
30
0
10
-2.7859364006209506
20
13.085499475086944
30
0
10
-2.8051988192233894
20
13.139013691798992
30
0
0
LINE
5
546
100
AcDbEntity
8
0
100
AcDbLine
10
1.1010642645439124
20
-8.3737856341632675
30
1.7300609175589782e-16
11
1.1001596008862446
21
-8.328795005293637
31
1.6749521503844266e-16
0
LINE
5
547
100
AcDbEntity
8
0
100
AcDbLine
10
-6.2065448783474428
20
6.8120858552712802
30
0
11
-5.8073216277000945
21
7.0033454383308937
31
0
0
SPLINE
5
548
100
AcDbEntity
8
0
100
AcDbSpline
70
0
71
2
72
6
73
3
74
0
42
0.000000001
43
0.0000000001
44
0.0000000001
40
0
40
0
40
0
40
1
40
1
40
1
10
1.8470734428088262
20
-8.3812814423832069
30
8.4437696378830938e-17
10
1.7906550591313757
20
-8.300704783970863
30
8.1142477045268831e-17
10
1.556490279798715
20
-7.8867657549057366
30
5.7535298594112151e-17
0
SPLINE
5
549
100
AcDbEntity
8
0
100
AcDbSpline
70
0
71
2
72
6
73
3
74
0
42
0.000000001
43
0.0000000001
44
0.0000000001
40
0
40
0
40
0
40
1
40
1
40
1
10
1.3930564837203823
20
-8.5974226150394664
30
1.6590616057776907e-16
10
1.3486732014794411
20
-8.6293255108239268
30
1.7521590813189347e-16
10
1.2617039976754312
20
-8.6310742722881368
30
1.8586871678162141e-16
0
SPLINE
5
550
100
AcDbEntity
8
0
100
AcDbSpline
70
0
71
2
72
6
73
3
74
0
42
0.000000001
43
0.0000000001
44
0.0000000001
40
0
40
0
40
0
40
1
40
1
40
1
10
-1.8329736599616668
20
13.922586018122216
30
0
10
-2.0062101518192907
20
13.940871599513873
30
0
10
-2.5958959046284158
20
13.889661401136104
30
0
0
SPLINE
5
551
100
AcDbEntity
8
0
100
AcDbSpline
70
0
71
2
72
6
73
3
74
0
42
0.000000001
43
0.0000000001
44
0.0000000001
40
0
40
0
40
0
40
1
40
1
40
1
10
-2.2074657639320767
20
14.760506905453845
30
0
10
-2.2231568254951668
20
14.746066160634802
30
0
10
-2.2889245970577861
20
14.722393080391365
30
0
0
SPLINE
5
552
100
AcDbEntity
8
0
100
AcDbSpline
70
0
71
2
72
6
73
3
74
0
42
0.000000001
43
0.0000000001
44
0.0000000001
40
0
40
0
40
0
40
1
40
1
40
1
10
-2.2155183755995194
20
13.043626262379284
30
0
10
-2.5854379466063526
20
12.91047387664392
30
0
10
-2.7391851698640517
20
13.038830542770073
30
0
0
SPLINE
5
553
100
AcDbEntity
8
0
100
AcDbSpline
70
0
71
2
72
6
73
3
74
0
42
0.000000001
43
0.0000000001
44
0.0000000001
40
0
40
0
40
0
40
1
40
1
40
1
10
2.2394981782917118
20
-6.5086567004350417
30
-1.9653905563955323e-16
10
2.3578795792924625
20
-6.5062763080306691
30
-2.1103952658084943e-16
10
2.4041419686837147
20
-6.6352227754058752
30
-2.0048432957896528e-16
0
SPLINE
5
554
100
AcDbEntity
8
0
100
AcDbSpline
70
0
71
2
72
6
73
3
74
0
42
0.000000001
43
0.0000000001
44
0.0000000001
40
0
40
0
40
0
40
1
40
1
40
1
10
1.2437109509893776
20
-8.6314360733084072
30
1.8807267490689198e-16
10
1.1621285427138279
20
-8.6330765180349207
30
1.9806565801504992e-16
10
1.1476282399777158
20
-8.5859197715705111
30
1.9391540565015531e-16
0
ARC
5
555
100
AcDbEntity
8
0
100
AcDbCircle
10
4.614174058061618
20
14.395279372227208
30
0
40
0.0010000000000008795
210
-0
220
0
230
1
100
AcDbArc
50
-17.669781602380919
51
56.635242556811782
0
ARC
5
556
100
AcDbEntity
8
0
100
AcDbCircle
10
0.73205645945621356
20
15.035426179830209
30
0
40
0.010000000000003539
210
0
220
0
230
1
100
AcDbArc
50
-100.87053711908504
51
2.5204474900709095
0
ARC
5
557
100
AcDbEntity
8
0
100
AcDbCircle
10
-2.2646516051425798
20
7.1829726656662043
30
0
40
0.0097499999999995472
210
0
220
-0
230
1
100
AcDbArc
50
48.811484301930179
51
50.332556583951614
0
SPLINE
5
558
100
AcDbEntity
8
0
100
AcDbSpline
70
4
71
5
72
54
73
48
74
0
42
0.000000001
43
0.0000000001
44
0.0000000001
40
0.06251738510806884
40
0.06251738510806884
40
0.06251738510806884
40
0.06251738510806884
40
0.06251738510806884
40
0.06251738510806884
40
0.066666666666666666
40
0.088888888888888906
40
0.11111111111111112
40
0.13333333333333333
40
0.15555555555555556
40
0.17777777777777778
40
0.20000000000000001
40
0.22222222222222224
40
0.24444444444444449
40
0.26666666666666666
40
0.28888888888888892
40
0.31111111111111106
40
0.33333333333333331
40
0.35555555555555546
40
0.37777777777777771
40
0.39999999999999991
40
0.42222222222222211
40
0.44444444444444425
40
0.46666666666666651
40
0.48888888888888871
40
0.51111111111111085
40
0.5333333333333331
40
0.55555555555555536
40
0.57777777777777761
40
0.59999999999999987
40
0.62222222222222212
40
0.64444444444444438
40
0.66666666666666663
40
0.68888888888888888
40
0.71111111111111125
40
0.73333333333333339
40
0.75555555555555554
40
0.7777777777777779
40
0.80000000000000016
40
0.82222222222222241
40
0.84444444444444455
40
0.86666666666666692
40
0.88888888888888895
40
0.91111111111111143
40
0.93333333333333379
40
0.95555555555555605
40
0.97777777777777797
40
1
40
1
40
1
40
1
40
1
40
1
41
1
41
1
41
1
41
1
41
1
41
1
41
1
41
1
41
1
41
1
41
1
41
1
41
1
41
1
41
1
41
1
41
1
41
1
41
1
41
1
41
1
41
1
41
1
41
1
41
1
41
1
41
1
41
1
41
1
41
1
41
1
41
1
41
1
41
1
41
1
41
1
41
1
41
1
41
1
41
1
41
1
41
1
41
1
41
1
41
1
41
1
41
1
41
1
10
-2.2899920397369478
20
7.1676100548177333
30
0
10
-2.2906549136924057
20
7.1681827635121067
30
0
10
-2.2948648640624731
20
7.1718216116587898
30
0
10
-2.3025895949737682
20
7.1785151947945254
30
0
10
-2.3138112203809249
20
7.1882599012009152
30
0
10
-2.3286486686837882
20
7.2010652474350367
30
0
10
-2.346612568602271
20
7.2160388426566886
30
0
10
-2.3646159179324879
20
7.229926449011896
30
0
10
-2.3823109325038683
20
7.2417633279131479
30
0
10
-2.3993296888924109
20
7.2505775104179317
30
0
10
-2.4154208470070522
20
7.2555968928036281
30
0
10
-2.4305871295225727
20
7.2564634383896429
30
0
10
-2.4450544635222262
20
7.2531299319696005
30
0
10
-2.4592294046982617
20
7.2457468469557744
30
0
10
-2.4736656352764648
20
7.2345372920701978
30
0
10
-2.4890066309293246
20
7.2197588612253378
30
0
10
-2.5059154892255959
20
7.2017143018479777
30
0
10
-2.525011982100493
20
7.1807461884975279
30
0
10
-2.5467990771767397
20
7.1572406402286672
30
0
10
-2.5716175152461576
20
7.1316205777717725
30
0
10
-2.5996657273526886
20
7.1043212376109777
30
0
10
-2.6310064348799558
20
7.0757691940962388
30
0
10
-2.6655778996565065
20
7.0463597399993487
30
0
10
-2.703202706919607
20
7.0164356998505131
30
0
10
-2.7435968292157744
20
6.9862637555000076
30
0
10
-2.7863785980770084
20
6.956015730694987
30
0
10
-2.8310759197313327
20
6.9257373977731476
30
0
10
-2.8771386861785362
20
6.8953591768161155
30
0
10
-2.9239582652228484
20
6.8647620009502406
30
0
10
-2.9708849711519605
20
6.8338290196625699
30
0
10
-3.0172461613524946
20
6.8025034346026896
30
0
10
-3.062363948227032
20
6.7708428944895171
30
0
10
-3.1055730703731848
20
6.739077989705943
30
0
10
-3.1462387323245875
20
6.7076642722077668
30
0
10
-3.1837746958267585
20
6.6773500145065237
30
0
10
-3.2176613327851737
20
6.6492095383742607
30
0
10
-3.2474645025912685
20
6.6247633380144375
30
0
10
-3.2728520595255333
20
6.6057691575568924
30
0
10
-3.2936062654855158
20
6.5937661519757516
30
0
10
-3.3096412595380778
20
6.5896504693537175
30
0
10
-3.3210116902544726
20
6.593319556091866
30
0
10
-3.3279435163748325
20
6.6030829544773262
30
0
10
-3.3307976936077037
20
6.6158330698988523
30
0
10
-3.329933928541192
20
6.6283967869619751
30
0
10
-3.3264409118505758
20
6.6368041568732554
30
0
10
-3.3222764911338767
20
6.6419396475397763
30
0
10
-3.3188146265974088
20
6.6448399869972885
30
0
10
-3.3169122764794614
20
6.6461595409123371
30
0
0
ARC
5
559
100
AcDbEntity
8
0
100
AcDbCircle
10
-2.2774070048167743
20
7.1821764337781184
30
0
40
0.019249999998951974
210
0
220
0
230
1
100
AcDbArc
50
229.17369730600541
51
231.12929195842966
0
SPLINE
5
560
100
AcDbEntity
8
0
100
AcDbSpline
70
4
71
5
72
96
73
90
74
0
42
0.000000001
43
0.0000000001
44
0.0000000001
40
0.00077759719896324669
40
0.00077759719896324669
40
0.00077759719896324669
40
0.00077759719896324669
40
0.00077759719896324669
40
0.00077759719896324669
40
0.011764705882352941
40
0.023529411764705882
40
0.035294117647058823
40
0.047058823529411764
40
0.058823529411764712
40
0.070588235294117646
40
0.082352941176470573
40
0.094117647058823528
40
0.10588235294117647
40
0.1176470588235294
40
0.12941176470588234
40
0.14117647058823524
40
0.15294117647058825
40
0.1647058823529412
40
0.17647058823529416
40
0.18823529411764711
40
0.20000000000000007
40
0.21176470588235305
40
0.22352941176470603
40
0.2352941176470589
40
0.24705882352941189
40
0.25882352941176484
40
0.2705882352941178
40
0.28235294117647075
40
0.29411764705882371
40
0.30588235294117666
40
0.31764705882352962
40
0.32941176470588257
40
0.34117647058823553
40
0.35294117647058848
40
0.36470588235294144
40
0.37647058823529439
40
0.38823529411764734
40
0.4000000000000003
40
0.41176470588235331
40
0.42352941176470632
40
0.43529411764705922
40
0.44705882352941212
40
0.45882352941176502
40
0.47058823529411797
40
0.48235294117647098
40
0.49411764705882399
40
0.50588235294117689
40
0.51764705882352979
40
0.52941176470588258
40
0.54117647058823559
40
0.55294117647058849
40
0.56470588235294139
40
0.57647058823529429
40
0.58823529411764719
40
0.60000000000000009
40
0.61176470588235299
40
0.62352941176470578
40
0.63529411764705879
40
0.64705882352941169
40
0.65882352941176459
40
0.67058823529411749
40
0.68235294117647038
40
0.69411764705882328
40
0.70588235294117618
40
0.71764705882352897
40
0.72941176470588176
40
0.74117647058823488
40
0.75294117647058778
40
0.76470588235294079
40
0.77647058823529325
40
0.78823529411764615
40
0.79999999999999938
40
0.81176470588235228
40
0.8235294117647054
40
0.83529411764705785
40
0.84705882352941086
40
0.85882352941176365
40
0.87058823529411655
40
0.88235294117646945
40
0.89411764705882257
40
0.90588235294117525
40
0.91764705882352837
40
0.92941176470588116
40
0.94117647058823395
40
0.95294117647058685
40
0.96470588235293997
40
0.97647058823529276
40
0.98823529411764555
40
1
40
1
40
1
40
1
40
1
40
1
41
1
41
1
41
1
41
1
41
1
41
1
41
1
41
1
41
1
41
1
41
1
41
1
41
1
41
1
41
1
41
1
41
1
41
1
41
1
41
1
41
1
41
1
41
1
41
1
41
1
41
1
41
1
41
1
41
1
41
1
41
1
41
1
41
1
41
1
41
1
41
1
41
1
41
1
41
1
41
1
41
1
41
1
41
1
41
1
41
1
41
1
41
1
41
1
41
1
41
1
41
1
41
1
41
1
41
1
41
1
41
1
41
1
41
1
41
1
41
1
41
1
41
1
41
1
41
1
41
1
41
1
41
1
41
1
41
1
41
1
41
1
41
1
41
1
41
1
41
1
41
1
41
1
41
1
41
1
41
1
41
1
41
1
41
1
41
1
41
1
41
1
41
1
41
1
41
1
41
1
10
-1.9108152019050693
20
6.784621534721345
30
0
10
-1.9093136012020238
20
6.7868805313709766
30
0
10
-1.906864063014549
20
6.7915556259068133
30
0
10
-1.9052218716220632
20
6.7986401599169533
30
0
10
-1.9072208294935984
20
6.8081041830616593
30
0
10
-1.9162846488151772
20
6.8193979230742094
30
0
10
-1.9303344815096783
20
6.8283395638369235
30
0
10
-1.9465624850246348
20
6.8320629258649586
30
0
10
-1.9627156633192235
20
6.8282798188095963
30
0
10
-1.9782137365147794
20
6.8163612929834558
30
0
10
-1.9938755040136305
20
6.7971268172108648
30
0
10
-2.0111655647791435
20
6.7721771844163072
30
0
10
-2.0316558335863042
20
6.7434244167230588
30
0
10
-2.0562827422876424
20
6.7124490643623931
30
0
10
-2.0852061269983402
20
6.6803376475994272
30
0
10
-2.1180450681827643
20
6.6478155927224352
30
0
10
-2.1540024722461042
20
6.615293528471665
30
0
10
-2.1920360012563624
20
6.5829492515809989
30
0
10
-2.2310065781229977
20
6.5507934127840812
30
0
10
-2.2698416511976145
20
6.5187437566420687
30
0
10
-2.3076797858622502
20
6.4866915093513393
30
0
10
-2.3440551532705878
20
6.4545815299716782
30
0
10
-2.3788717586923118
20
6.4224229580119845
30
0
10
-2.4123029164481768
20
6.3902754219530191
30
0
10
-2.4447157350786917
20
6.3582432774633659
30
0
10
-2.4765848547501901
20
6.3264665780111295
30
0
10
-2.508412134140261
20
6.2951133961795636
30
0
10
-2.5406410312701126
20
6.2643717979549836
30
0
10
-2.5735798143243049
20
6.2344415030755833
30
0
10
-2.6073037200907407
20
6.2055269504852442
30
0
10
-2.6416955986978734
20
6.177820365405891
30
0
10
-2.6765203409772695
20
6.1514824919590154
30
0
10
-2.7114883660886258
20
6.1266237533536412
30
0
10
-2.7463221071416921
20
6.1032859462146556
30
0
10
-2.7808247057401512
20
6.0814218809556468
30
0
10
-2.8149396330794119
20
6.0608799261455975
30
0
10
-2.8488343945435148
20
6.0413762756613121
30
0
10
-2.8829004024082194
20
6.0225093210527785
30
0
10
-2.9176435917449237
20
6.0038286788039779
30
0
10
-2.9536017968595427
20
5.9848909867778586
30
0
10
-2.9912528217433825
20
5.9653199904963996
30
0
10
-3.0309230250906438
20
5.9448672883184113
30
0
10
-3.0727035543681498
20
5.9234672015709817
30
0
10
-3.1163437366356588
20
5.9013081240429912
30
0
10
-3.1612174522318086
20
5.8788517549427084
30
0
10
-3.2064597048059431
20
5.8567307717099339
30
0
10
-3.2510683432997074
20
5.8356716348633428
30
0
10
-3.2940207264718229
20
5.8164060908781998
30
0
10
-3.3343811442745466
20
5.7995907456970324
30
0
10
-3.3714187906084128
20
5.7857156504564076
30
0
10
-3.4047061487616124
20
5.7750348930548068
30
0
10
-3.4342633386364003
20
5.7674449015233993
30
0
10
-3.4605479296435235
20
5.7625383592483939
30
0
10
-3.4842384656345362
20
5.7598838067017937
30
0
10
-3.5060645507550854
20
5.7592663106814719
30
0
10
-3.5266281126688566
20
5.7609074781217675
30
0
10
-3.5462026827472464
20
5.7657886797110445
30
0
10
-3.5647448857927446
20
5.7752124899145043
30
0
10
-3.5819628450559806
20
5.7901986152826908
30
0
10
-3.5973572533651117
20
5.810902883079371
30
0
10
-3.6102936243816957
20
5.8361176164786039
30
0
10
-3.6202676523426485
20
5.8638791132706185
30
0
10
-3.6271800756268271
20
5.8920133617531212
30
0
10
-3.631562598140897
20
5.9186542245250182
30
0
10
-3.6349330878664388
20
5.9428940238642936
30
0
10
-3.6397381552696659
20
5.9649790553157196
30
0
10
-3.6482941713675454
20
5.9853990925214067
30
0
10
-3.661992156307857
20
6.0042560678581269
30
0
10
-3.6802608630634976
20
6.0203992245275417
30
0
10
-3.7000470031202353
20
6.0310368505027316
30
0
10
-3.7174913495905075
20
6.0334601843428519
30
0
10
-3.7291506413404618
20
6.0262439187760304
30
0
10
-3.7337120342503725
20
6.0111535423536964
30
0
10
-3.7317127460330726
20
5.991935395172761
30
0
10
-3.7245420766195214
20
5.9720129575192091
30
0
10
-3.7136266459249909
20
5.9523522745959694
30
0
10
-3.7002658633488288
20
5.9321420020959996
30
0
10
-3.6855718558162049
20
5.9098497485322508
30
0
10
-3.670379289747733
20
5.884058663997334
30
0
10
-3.6551419227408632
20
5.8545896836331721
30
0
10
-3.6399614343215489
20
5.8225574811494489
30
0
10
-3.6246978108871786
20
5.7898548242780157
30
0
10
-3.6090531382900282
20
5.7588165445959945
30
0
10
-3.5926680341253814
20
5.7318012866658696
30
0
10
-3.5752084294142628
20
5.7108282638922381
30
0
10
-3.5564674872017479
20
5.697138129030435
30
0
10
-3.5403692031767524
20
5.6924973096308245
30
0
10
-3.5276584893068965
20
5.6926576777936839
30
0
10
-3.5189016733723828
20
5.6943822478568311
30
0
10
-3.5144525113685261
20
5.6956489584447203
30
0
0
SPLINE
5
561
100
AcDbEntity
8
0
100
AcDbSpline
70
4
71
5
72
28
73
22
74
0
42
0.000000001
43
0.0000000001
44
0.0000000001
40
0.035702795315712334
40
0.035702795315712334
40
0.035702795315712334
40
0.035702795315712334
40
0.035702795315712334
40
0.035702795315712334
40
0.050000000000000003
40
0.10000000000000001
40
0.15000000000000002
40
0.20000000000000001
40
0.25
40
0.29999999999999999
40
0.34999999999999998
40
0.40000000000000002
40
0.45000000000000001
40
0.5
40
0.54999999999999993
40
0.59999999999999998
40
0.65000000000000002
40
0.70000000000000007
40
0.75000000000000022
40
0.80000000000000016
40
0.83813280661787859
40
0.83813280661787859
40
0.83813280661787859
40
0.83813280661787859
40
0.83813280661787859
40
0.83813280661787859
41
1
41
1
41
1
41
1
41
1
41
1
41
1
41
1
41
1
41
1
41
1
41
1
41
1
41
1
41
1
41
1
41
1
41
1
41
1
41
1
41
1
41
1
10
-3.5144525113662559
20
5.6956489584454078
30
0
10
-3.5079646687104957
20
5.6976168930410322
30
0
10
-3.4788373405727886
20
5.7065247293424939
30
0
10
-3.4274570458814986
20
5.7228211825880235
30
0
10
-3.3546175028892429
20
5.7474336841625524
30
0
10
-3.2615156540948607
20
5.7818159324775875
30
0
10
-3.1555266583427639
20
5.8253835237397356
30
0
10
-3.0519392117312654
20
5.8727936485475505
30
0
10
-2.9503402679399802
20
5.9246222041998386
30
0
10
-2.8500231132428855
20
5.981708755390172
30
0
10
-2.7500609540747605
20
6.0450510170608052
30
0
10
-2.6495741160461681
20
6.1155016732498009
30
0
10
-2.5479375377899238
20
6.1935204770764365
30
0
10
-2.4450321126813677
20
6.2788696733525242
30
0
10
-2.3414489780543906
20
6.3703638112934842
30
0
10
-2.2388193669100658
20
6.4654495707863244
30
0
10
-2.1396568341898345
20
6.5604291135634281
30
0
10
-2.0513212094670528
20
6.6467510875546445
30
0
10
-1.9882497989505419
20
6.7087895033331453
30
0
10
-1.9465348276537964
20
6.749648409832357
30
0
10
-1.9219909709900289
20
6.7735239914840992
30
0
10
-1.9117727128982727
20
6.7834246748063682
30
0
0
LINE
5
562
100
AcDbEntity
8
0
100
AcDbLine
10
-1.9117727128982729
20
6.7834246748063691
30
0
11
-1.9108152019050693
21
6.784621534721345
31
0
0
ARC
5
563
100
AcDbEntity
8
0
100
AcDbCircle
10
-3.5706888088116941
20
6.4656471846960359
30
0
40
0.044625000000211565
210
0
220
0
230
1
100
AcDbArc
50
107.86181757713776
51
114.36202875201269
0
ARC
5
564
100
AcDbEntity
8
0
100
AcDbCircle
10
-5.004338350299733
20
9.0371197053446934
30
0
40
0.0010000000000030421
210
0
220
0
230
1
100
AcDbArc
50
289.70627440574708
51
344.86300876017572
0
ARC
5
565
100
AcDbEntity
8
0
100
AcDbCircle
10
-4.7487922741745709
20
9.1923804943253273
30
0
40
0.040000000000000244
210
0
220
0
230
1
100
AcDbArc
50
270.06403458254135
51
285.20872815071056
0
SPLINE
5
566
100
AcDbEntity
8
0
100
AcDbSpline
70
4
71
3
72
8
73
4
74
0
42
0.000000001
43
0.0000000001
44
0.0000000001
40
0.12703924512632922
40
0.12703924512632922
40
0.12703924512632922
40
0.12703924512632922
40
1
40
1
40
1
40
1
41
1
41
1
41
1
41
1
10
-5.9801761305862779
20
8.2200239718822701
30
0
10
-6.2152519758228273
20
8.0054484346458157
30
0
10
-6.5154719586208563
20
7.7581380042867236
30
0
10
-6.6922431130096447
20
7.6354253129539105
30
0
0
LINE
5
567
100
AcDbEntity
8
0
100
AcDbLine
10
-5.9801761305862779
20
8.2200239718822701
30
0
11
-5.9766177097117801
21
8.2232754285262999
31
0
0
ARC
5
568
100
AcDbEntity
8
0
100
AcDbCircle
10
-6.6872947668551808
20
6.9017095837665181
30
0
40
0.069999999999999618
210
0
220
0
230
1
100
AcDbArc
50
267.54760223473693
51
267.66943624192459
0
LINE
5
569
100
AcDbEntity
8
0
100
AcDbLine
10
-5.7999079206324824
20
7.0068939894980442
30
0
11
-5.7542833845684402
21
7.0285668232809426
31
0
0
LINE
5
570
100
AcDbEntity
8
0
100
AcDbLine
10
-5.8073216277000945
20
7.0033454383308937
30
0
11
-5.7999079206324824
21
7.0068939894980442
31
0
0
SPLINE
5
571
100
AcDbEntity
8
0
100
AcDbSpline
70
4
71
3
72
8
73
4
74
0
42
0.000000001
43
0.0000000001
44
0.0000000001
40
0.052070133434174375
40
0.052070133434174375
40
0.052070133434174375
40
0.052070133434174375
40
0.99846573227451807
40
0.99846573227451807
40
0.99846573227451807
40
0.99846573227451807
41
1
41
1
41
1
41
1
10
-5.7542833845684402
20
7.0285668232809426
30
0
10
-5.4446043681093403
20
7.174549189000901
30
0
10
-5.3383587565177155
20
7.1987506529452645
30
0
10
-4.9810000311183602
20
7.220351136068051
30
0
0
LINE
5
572
100
AcDbEntity
8
0
100
AcDbLine
10
-4.9810000311183602
20
7.220351136068051
30
0
11
-4.9740000310771926
21
7.220773269149622
31
0
0
SPLINE
5
573
100
AcDbEntity
8
0
100
AcDbSpline
70
4
71
3
72
8
73
4
74
0
42
0.000000001
43
0.0000000001
44
0.0000000001
40
0.020860115078739784
40
0.020860115078739784
40
0.020860115078739784
40
0.020860115078739784
40
0.4713842081863584
40
0.4713842081863584
40
0.4713842081863584
40
0.4713842081863584
41
1
41
1
41
1
41
1
10
-4.3932554980331693
20
7.067808448515966
30
0
10
-4.2956637096737493
20
6.9500559354260414
30
0
10
-4.1263620754175774
20
6.6741932890472606
30
0
10
-3.9576383606517962
20
6.3714482588032633
30
0
0
LINE
5
574
100
AcDbEntity
8
0
100
AcDbLine
10
-4.4035050974503545
20
7.0798955106359296
30
0
11
-4.3932554980331693
21
7.067808448515966
31
0
0
LINE
5
575
100
AcDbEntity
8
0
100
AcDbLine
10
-4.4063431656849268
20
7.0831350170326095
30
0
11
-4.4035050974503545
21
7.0798955106359296
31
0
0
LINE
5
576
100
AcDbEntity
8
0
100
AcDbLine
10
-1.1204444069437001
20
-1.9698737350245448
30
0
11
-1.1348236618825023
21
-1.3306197947270144
31
0
0
ARC
5
577
100
AcDbEntity
8
0
100
AcDbCircle
10
-1.7391437808654813
20
-1.9580127440220549
30
0
40
0.0049999999999993609
210
0
220
0
230
1
100
AcDbArc
50
145.59677903648449
51
267.77787485519451
0
ARC
5
578
100
AcDbEntity
8
0
100
AcDbCircle
10
-1.8976167859630033
20
-2.1290978937853913
30
0
40
0.00039370078740377931
210
0
220
0
230
1
100
AcDbArc
50
309.2479947805852
51
319.67874010500833
0
LINE
5
579
100
AcDbEntity
8
0
100
AcDbLine
10
7.6245227921331642
20
-1.8253556677658518
30
0
11
7.5187759965468723
21
-1.8566193153229238
31
0
0
LINE
5
580
100
AcDbEntity
8
0
100
AcDbLine
10
8.3463550975885337
20
-2.1522459817621256
30
0
11
8.2781549945385411
21
-2.2406117673753605
31
0
0
ARC
5
581
100
AcDbEntity
8
0
100
AcDbCircle
10
7.3694873895628445
20
-2.1497910479496767
30
0
40
0.060000000000000345
210
0
220
0
230
1
100
AcDbArc
50
150.3880728324317
51
158.32687647843278
0
ARC
5
582
100
AcDbEntity
8
0
100
AcDbCircle
10
-0.067658709334392511
20
-7.4195984833394588
30
6.8884297893273465e-17
40
0.0050000000000003609
210
8.2927526774143916e-15
220
-6.3814809812690675e-16
230
1
100
AcDbArc
50
282.17468557039757
51
351.63211741690003
0
SPLINE
5
583
100
AcDbEntity
8
0
100
AcDbSpline
70
12
71
2
41
1
41
3
41
1
72
6
73
3
74
0
42
0.000000001
43
0.0000000001
44
0.0000000001
40
0
40
0
40
0
40
0.88603351380219797
40
0.88603351380219797
40
0.88603351380219797
10
-7.2085703092680369
20
7.2495143609355672
30
0
10
-7.2824596853698198
20
7.0791958805481308
30
0
10
-7.2085703092680369
20
6.9187665978852859
30
0
0
SPLINE
5
584
100
AcDbEntity
8
0
100
AcDbSpline
70
4
71
3
72
8
73
4
74
0
42
0.000000001
43
0.0000000001
44
0.0000000001
40
0
40
0
40
0
40
0
40
0.37863391602587854
40
0.37863391602587854
40
0.37863391602587854
40
0.37863391602587854
41
1
41
1
41
1
41
1
10
-6.6922431130096447
20
7.6354253129539105
30
0
10
-6.9450803053044652
20
7.4599063494043509
30
0
10
-7.1106894882085498
20
7.3397494216419483
30
0
10
-7.2085703092680369
20
7.2495143609355681
30
0
0
SPLINE
5
585
100
AcDbEntity
8
0
100
AcDbSpline
70
4
71
3
72
8
73
4
74
0
42
0.000000001
43
0.0000000001
44
0.0000000001
40
0.083678136871660008
40
0.083678136871660008
40
0.083678136871660008
40
0.083678136871660008
40
0.97864948204423785
40
0.97864948204423785
40
0.97864948204423785
40
0.97864948204423785
41
1
41
1
41
1
41
1
10
-7.2085703092677713
20
6.9187665978851056
30
0
10
-7.1301637492692418
20
6.865538680569407
30
0
10
-7.0044558587287939
20
6.8452289702537739
30
0
10
-6.6902900211753922
20
6.8317736956148885
30
0
0
ARC
5
586
100
AcDbEntity
8
0
100
AcDbCircle
10
-6.443840688548943
20
-0.99859075284241328
30
0
40
0.50000000000000056
210
0
220
0
230
1
100
AcDbArc
50
209.84168761088944
51
274.0784174330069
0
ARC
5
587
100
AcDbEntity
8
0
100
AcDbCircle
10
9.1072982402982703
20
-1.6053051893779646
30
0
40
0.50000000000000011
210
0
220
0
230
1
100
AcDbArc
50
258.51628836673831
51
325.68988655625895
0
ARC
5
588
100
AcDbEntity
8
0
100
AcDbCircle
10
8.5331596727827765
20
-1.9022202104599344
30
0
40
0.099999999999999353
210
0
220
0
230
1
100
AcDbArc
50
184.0114638087278
51
259.74768605066754
0
ENDSEC
0
SECTION
2
OBJECTS
0
DICTIONARY
5
C
100
AcDbDictionary
3
ACAD_GROUP
350
D
3
ACAD_MLINESTYLE
350
17
0
DICTIONARY
5
D
100
AcDbDictionary
0
DICTIONARY
5
1A
330
C
100
AcDbDictionary
0
DICTIONARY
5
17
100
AcDbDictionary
0
ENDSEC
0
EOF
