  0
SECTION
  2
HEADER
  9
$ACADVER
  1
AC1009
  9
$DWGCODEPAGE
  3
ansi_1252
  9
$INSBASE
 10
0.0
 20
0.0
 30
0.0
  9
$EXTMIN
 10
16.00085014133921
 20
16.39010965103353
 30
0.0
  9
$EXTMAX
 10
1915.629567223028
 20
954.0000000000001
 30
0.0
  9
$LIMMIN
 10
0.0
 20
0.0
  9
$LIMMAX
 10
12.0
 20
9.0
  9
$ORTHOMODE
 70
     0
  9
$REGENMODE
 70
     1
  9
$FILLMODE
 70
     1
  9
$QTEXTMODE
 70
     0
  9
$MIRRTEXT
 70
     1
  9
$DRAGMODE
 70
     2
  9
$LTSCALE
 40
1.0
  9
$OSMODE
 70
    37
  9
$ATTMODE
 70
     1
  9
$TEXTSIZE
 40
0.2
  9
$TRACEWID
 40
0.05
  9
$TEXTSTYLE
  7
STANDARD
  9
$CLAYER
  8
0
  9
$CELTYPE
  6
BYLAYER
  9
$CECOLOR
 62
   256
  9
$DIMSCALE
 40
1.0
  9
$DIMASZ
 40
0.18
  9
$DIMEXO
 40
0.0625
  9
$DIMDLI
 40
0.38
  9
$DIMRND
 40
0.0
  9
$DIMDLE
 40
0.0
  9
$DIMEXE
 40
0.18
  9
$DIMTP
 40
0.0
  9
$DIMTM
 40
0.0
  9
$DIMTXT
 40
0.18
  9
$DIMCEN
 40
0.09
  9
$DIMTSZ
 40
0.0
  9
$DIMTOL
 70
     0
  9
$DIMLIM
 70
     0
  9
$DIMTIH
 70
     1
  9
$DIMTOH
 70
     1
  9
$DIMSE1
 70
     0
  9
$DIMSE2
 70
     0
  9
$DIMTAD
 70
     0
  9
$DIMZIN
 70
     0
  9
$DIMBLK
  1

  9
$DIMASO
 70
     1
  9
$DIMSHO
 70
     1
  9
$DIMPOST
  1

  9
$DIMAPOST
  1

  9
$DIMALT
 70
     0
  9
$DIMALTD
 70
     2
  9
$DIMALTF
 40
25.4
  9
$DIMLFAC
 40
1.0
  9
$DIMTOFL
 70
     0
  9
$DIMTVP
 40
0.0
  9
$DIMTIX
 70
     0
  9
$DIMSOXD
 70
     0
  9
$DIMSAH
 70
     0
  9
$DIMBLK1
  1

  9
$DIMBLK2
  1

  9
$DIMSTYLE
  2
STANDARD
  9
$DIMCLRD
 70
     0
  9
$DIMCLRE
 70
     0
  9
$DIMCLRT
 70
     0
  9
$DIMTFAC
 40
1.0
  9
$DIMGAP
 40
0.09
  9
$LUNITS
 70
     2
  9
$LUPREC
 70
     4
  9
$SKETCHINC
 40
0.1
  9
$FILLETRAD
 40
0.5
  9
$AUNITS
 70
     0
  9
$AUPREC
 70
     0
  9
$MENU
  1
.
  9
$ELEVATION
 40
0.0
  9
$PELEVATION
 40
0.0
  9
$THICKNESS
 40
0.0
  9
$LIMCHECK
 70
     0
  9
$CHAMFERA
 40
0.0
  9
$CHAMFERB
 40
0.0
  9
$SKPOLY
 70
     0
  9
$TDCREATE
 40
2454910.5
  9
$TDUPDATE
 40
2460384.984429329
  9
$TDINDWG
 40
0.0000000116
  9
$TDUSRTIMER
 40
0.0000000116
  9
$USRTIMER
 70
     1
  9
$ANGBASE
 50
0.0
  9
$ANGDIR
 70
     0
  9
$PDMODE
 70
     0
  9
$PDSIZE
 40
0.0
  9
$PLINEWID
 40
0.0
  9
$COORDS
 70
     1
  9
$SPLFRAME
 70
     0
  9
$SPLINETYPE
 70
     6
  9
$SPLINESEGS
 70
     8
  9
$ATTDIA
 70
     0
  9
$ATTREQ
 70
     1
  9
$HANDLING
 70
     1
  9
$HANDSEED
  5
10CC
  9
$SURFTAB1
 70
     6
  9
$SURFTAB2
 70
     6
  9
$SURFTYPE
 70
     6
  9
$SURFU
 70
     6
  9
$SURFV
 70
     6
  9
$UCSNAME
  2

  9
$UCSORG
 10
0.0
 20
0.0
 30
0.0
  9
$UCSXDIR
 10
1.0
 20
0.0
 30
0.0
  9
$UCSYDIR
 10
0.0
 20
1.0
 30
0.0
  9
$PUCSNAME
  2

  9
$PUCSORG
 10
0.0
 20
0.0
 30
0.0
  9
$PUCSXDIR
 10
1.0
 20
0.0
 30
0.0
  9
$PUCSYDIR
 10
0.0
 20
1.0
 30
0.0
  9
$USERI1
 70
     0
  9
$USERI2
 70
     0
  9
$USERI3
 70
     0
  9
$USERI4
 70
     0
  9
$USERI5
 70
     0
  9
$USERR1
 40
0.0
  9
$USERR2
 40
0.0
  9
$USERR3
 40
0.0
  9
$USERR4
 40
0.0
  9
$USERR5
 40
0.0
  9
$WORLDVIEW
 70
     1
  9
$SHADEDGE
 70
     3
  9
$SHADEDIF
 70
    70
  9
$TILEMODE
 70
     1
  9
$MAXACTVP
 70
    64
  9
$PLIMCHECK
 70
     0
  9
$PEXTMIN
 10
1.000000000000000E+20
 20
1.000000000000000E+20
 30
1.000000000000000E+20
  9
$PEXTMAX
 10
-1.000000000000000E+20
 20
-1.000000000000000E+20
 30
-1.000000000000000E+20
  9
$PLIMMIN
 10
0.0
 20
0.0
  9
$PLIMMAX
 10
12.0
 20
9.0
  9
$UNITMODE
 70
     0
  9
$VISRETAIN
 70
     1
  9
$PLINEGEN
 70
     0
  9
$PSLTSCALE
 70
     1
  0
ENDSEC
  0
SECTION
  2
TABLES
  0
TABLE
  2
VPORT
 70
     1
  0
VPORT
  2
*ACTIVE
 70
     0
 10
0.0
 20
0.0
 11
1.0
 21
1.0
 12
10.42990654205607
 22
4.5
 13
0.0
 23
0.0
 14
0.5
 24
0.5
 15
0.5
 25
0.5
 16
0.0
 26
0.0
 36
1.0
 17
0.0
 27
0.0
 37
0.0
 40
9.0
 41
1.972972972850329
 42
50.0
 43
0.0
 44
0.0
 50
0.0
 51
0.0
 71
     0
 72
   100
 73
     1
 74
     3
 75
     0
 76
     0
 77
     0
 78
     0
  0
ENDTAB
  0
TABLE
  2
LTYPE
 70
     2
  0
LTYPE
  2
CONTINUOUS
 70
     0
  3
Solid line
 72
    65
 73
     0
 40
0.0
  0
LTYPE
  2
CONTINUOUS2
 70
     0
  3
Solid Line
 72
    65
 73
     0
 40
0.0
  0
ENDTAB
  0
TABLE
  2
LAYER
 70
     3
  0
LAYER
  2
0
 70
     0
 62
     7
  6
CONTINUOUS
  0
LAYER
  2
MARK__LASER_ONLY_
 70
     0
 62
     2
  6
CONTINUOUS
  0
LAYER
  2
CUT
 70
     0
 62
     1
  6
CONTINUOUS
  0
ENDTAB
  0
TABLE
  2
STYLE
 70
     1
  0
STYLE
  2
STANDARD
 70
     0
 40
0.0
 41
1.0
 50
0.0
 71
     0
 42
0.2
  3
txt
  4

  0
ENDTAB
  0
TABLE
  2
VIEW
 70
     0
  0
ENDTAB
  0
TABLE
  2
UCS
 70
     0
  0
ENDTAB
  0
TABLE
  2
APPID
 70
     1
  0
APPID
  2
ACAD
 70
     0
  0
ENDTAB
  0
TABLE
  2
DIMSTYLE
 70
     1
  0
DIMSTYLE
  2
STANDARD
 70
     0
  3

  4

  5

  6

  7

 40
1.0
 41
0.18
 42
0.0625
 43
0.38
 44
0.18
 45
0.0
 46
0.0
 47
0.0
 48
0.0
140
0.18
141
0.09
142
0.0
143
25.4
144
1.0
145
0.0
146
1.0
147
0.09
 71
     0
 72
     0
 73
     1
 74
     1
 75
     0
 76
     0
 77
     0
 78
     0
170
     0
171
     2
172
     0
173
     0
174
     0
175
     0
176
     0
177
     0
178
     0
  0
ENDTAB
  0
ENDSEC
  0
SECTION
  2
BLOCKS
  0
BLOCK
  8
0
  2
$MODEL_SPACE
 70
     0
 10
0.0
 20
0.0
 30
0.0
  3
$MODEL_SPACE
  1

  0
ENDBLK
  5
21
  8
0
  0
BLOCK
 67
     1
  8
0
  2
$PAPER_SPACE
 70
     0
 10
0.0
 20
0.0
 30
0.0
  3
$PAPER_SPACE
  1

  0
ENDBLK
  5
1D
 67
     1
  8
0
  0
ENDSEC
  0
SECTION
  2
ENTITIES
  0
POLYLINE
  5
70
  8
MARK__LASER_ONLY_
 66
     1
 10
0.0
 20
0.0
 30
0.0
  0
VERTEX
  5
3AA
  8
MARK__LASER_ONLY_
 10
1786.634592568805
 20
927.8168702204869
 30
0.0
  0
VERTEX
  5
3AB
  8
MARK__LASER_ONLY_
 10
1800.599680597522
 20
927.8168702204869
 30
0.0
  0
SEQEND
  5
D9A
  8
MARK__LASER_ONLY_
  0
POLYLINE
  5
71
  8
MARK__LASER_ONLY_
 66
     1
 10
0.0
 20
0.0
 30
0.0
  0
VERTEX
  5
3AC
  8
MARK__LASER_ONLY_
 10
1802.34679470103
 20
927.8168702204869
 30
0.0
  0
VERTEX
  5
3AD
  8
MARK__LASER_ONLY_
 10
1805.838066708209
 20
927.8168702204869
 30
0.0
  0
SEQEND
  5
D9B
  8
MARK__LASER_ONLY_
  0
POLYLINE
  5
72
  8
MARK__LASER_ONLY_
 66
     1
 10
0.0
 20
0.0
 30
0.0
  0
VERTEX
  5
3AE
  8
MARK__LASER_ONLY_
 10
1821.550268840434
 20
561.5535625564853
 30
0.0
  0
VERTEX
  5
3AF
  8
MARK__LASER_ONLY_
 10
1807.585180811717
 20
561.5535625564853
 30
0.0
  0
SEQEND
  5
D9C
  8
MARK__LASER_ONLY_
  0
POLYLINE
  5
73
  8
MARK__LASER_ONLY_
 66
     1
 10
0.0
 20
0.0
 30
0.0
  0
VERTEX
  5
3B0
  8
MARK__LASER_ONLY_
 10
1807.585180811717
 20
927.8168702204869
 30
0.0
  0
VERTEX
  5
3B1
  8
MARK__LASER_ONLY_
 10
1821.550268840434
 20
927.8168702204869
 30
0.0
  0
SEQEND
  5
D9D
  8
MARK__LASER_ONLY_
  0
POLYLINE
  5
74
  8
MARK__LASER_ONLY_
 66
     1
 10
0.0
 20
0.0
 30
0.0
  0
VERTEX
  5
3B2
  8
MARK__LASER_ONLY_
 10
1892.946437443515
 20
694.0543817847952
 30
0.0
  0
VERTEX
  5
3B3
  8
MARK__LASER_ONLY_
 10
1892.946437443515
 20
690.5631097776159
 30
0.0
  0
SEQEND
  5
D9E
  8
MARK__LASER_ONLY_
  0
POLYLINE
  5
75
  8
MARK__LASER_ONLY_
 66
     1
 10
0.0
 20
0.0
 30
0.0
  0
VERTEX
  5
3B4
  8
MARK__LASER_ONLY_
 10
1823.297382943942
 20
927.8168702204869
 30
0.0
  0
VERTEX
  5
3B5
  8
MARK__LASER_ONLY_
 10
1826.788654951121
 20
927.8168702204869
 30
0.0
  0
SEQEND
  5
D9F
  8
MARK__LASER_ONLY_
  0
POLYLINE
  5
76
  8
MARK__LASER_ONLY_
 66
     1
 10
0.0
 20
0.0
 30
0.0
  0
VERTEX
  5
3B6
  8
MARK__LASER_ONLY_
 10
1844.247971186855
 20
927.8168702204869
 30
0.0
  0
VERTEX
  5
3B7
  8
MARK__LASER_ONLY_
 10
1847.739243194034
 20
927.8168702204869
 30
0.0
  0
SEQEND
  5
DA0
  8
MARK__LASER_ONLY_
  0
POLYLINE
  5
77
  8
MARK__LASER_ONLY_
 66
     1
 10
0.0
 20
0.0
 30
0.0
  0
VERTEX
  5
3B8
  8
MARK__LASER_ONLY_
 10
1849.486357297542
 20
927.8168702204869
 30
0.0
  0
VERTEX
  5
3B9
  8
MARK__LASER_ONLY_
 10
1866.944192464921
 20
927.8168702204869
 30
0.0
  0
SEQEND
  5
DA1
  8
MARK__LASER_ONLY_
  0
POLYLINE
  5
78
  8
MARK__LASER_ONLY_
 66
     1
 10
0.0
 20
0.0
 30
0.0
  0
VERTEX
  5
3BA
  8
MARK__LASER_ONLY_
 10
1784.887478465296
 20
561.5535625564854
 30
0.0
  0
VERTEX
  5
3BB
  8
MARK__LASER_ONLY_
 10
1781.396206458117
 20
561.5535625564854
 30
0.0
  0
SEQEND
  5
DA2
  8
MARK__LASER_ONLY_
  0
POLYLINE
  5
79
  8
MARK__LASER_ONLY_
 66
     1
 10
0.0
 20
0.0
 30
0.0
  0
VERTEX
  5
3BC
  8
MARK__LASER_ONLY_
 10
1526.683129779513
 20
587.555807535079
 30
0.0
  0
VERTEX
  5
3BD
  8
MARK__LASER_ONLY_
 10
1526.683129779513
 20
605.0136427024588
 30
0.0
  0
SEQEND
  5
DA3
  8
MARK__LASER_ONLY_
  0
POLYLINE
  5
7A
  8
MARK__LASER_ONLY_
 66
     1
 10
0.0
 20
0.0
 30
0.0
  0
VERTEX
  5
3BE
  8
MARK__LASER_ONLY_
 10
1526.683129779513
 20
606.7607568059668
 30
0.0
  0
VERTEX
  5
3BF
  8
MARK__LASER_ONLY_
 10
1526.683129779513
 20
610.2520288131461
 30
0.0
  0
SEQEND
  5
DA4
  8
MARK__LASER_ONLY_
  0
POLYLINE
  5
7B
  8
MARK__LASER_ONLY_
 66
     1
 10
0.0
 20
0.0
 30
0.0
  0
VERTEX
  5
3C0
  8
MARK__LASER_ONLY_
 10
1526.683129779513
 20
611.9991429166541
 30
0.0
  0
VERTEX
  5
3C1
  8
MARK__LASER_ONLY_
 10
1526.683129779513
 20
625.9642309453711
 30
0.0
  0
SEQEND
  5
DA5
  8
MARK__LASER_ONLY_
  0
POLYLINE
  5
7C
  8
MARK__LASER_ONLY_
 66
     1
 10
0.0
 20
0.0
 30
0.0
  0
VERTEX
  5
3C2
  8
MARK__LASER_ONLY_
 10
1892.946437443515
 20
877.3712898603187
 30
0.0
  0
VERTEX
  5
3C3
  8
MARK__LASER_ONLY_
 10
1892.946437443515
 20
863.4062018316016
 30
0.0
  0
SEQEND
  5
DA6
  8
MARK__LASER_ONLY_
  0
POLYLINE
  5
7D
  8
MARK__LASER_ONLY_
 66
     1
 10
0.0
 20
0.0
 30
0.0
  0
VERTEX
  5
3C4
  8
MARK__LASER_ONLY_
 10
1526.683129779513
 20
632.9497311595665
 30
0.0
  0
VERTEX
  5
3C5
  8
MARK__LASER_ONLY_
 10
1526.683129779513
 20
646.9148191882834
 30
0.0
  0
SEQEND
  5
DA7
  8
MARK__LASER_ONLY_
  0
POLYLINE
  5
7E
  8
MARK__LASER_ONLY_
 66
     1
 10
0.0
 20
0.0
 30
0.0
  0
VERTEX
  5
3C6
  8
MARK__LASER_ONLY_
 10
1526.683129779513
 20
648.6619332917915
 30
0.0
  0
VERTEX
  5
3C7
  8
MARK__LASER_ONLY_
 10
1526.683129779513
 20
652.1532052989706
 30
0.0
  0
SEQEND
  5
DA8
  8
MARK__LASER_ONLY_
  0
POLYLINE
  5
7F
  8
MARK__LASER_ONLY_
 66
     1
 10
0.0
 20
0.0
 30
0.0
  0
VERTEX
  5
3C8
  8
MARK__LASER_ONLY_
 10
1526.683129779513
 20
669.6125215347038
 30
0.0
  0
VERTEX
  5
3C9
  8
MARK__LASER_ONLY_
 10
1526.683129779513
 20
673.103793541883
 30
0.0
  0
SEQEND
  5
DA9
  8
MARK__LASER_ONLY_
  0
POLYLINE
  5
80
  8
MARK__LASER_ONLY_
 66
     1
 10
0.0
 20
0.0
 30
0.0
  0
VERTEX
  5
3CA
  8
MARK__LASER_ONLY_
 10
1526.683129779513
 20
653.9003194024787
 30
0.0
  0
VERTEX
  5
3CB
  8
MARK__LASER_ONLY_
 10
1526.683129779513
 20
667.8654074311958
 30
0.0
  0
SEQEND
  5
DAA
  8
MARK__LASER_ONLY_
  0
POLYLINE
  5
81
  8
MARK__LASER_ONLY_
 66
     1
 10
0.0
 20
0.0
 30
0.0
  0
VERTEX
  5
3CC
  8
MARK__LASER_ONLY_
 10
1526.683129779513
 20
674.850907645391
 30
0.0
  0
VERTEX
  5
3CD
  8
MARK__LASER_ONLY_
 10
1526.683129779513
 20
688.8159956741081
 30
0.0
  0
SEQEND
  5
DAB
  8
MARK__LASER_ONLY_
  0
POLYLINE
  5
82
  8
MARK__LASER_ONLY_
 66
     1
 10
0.0
 20
0.0
 30
0.0
  0
VERTEX
  5
3CE
  8
MARK__LASER_ONLY_
 10
1526.683129779513
 20
690.563109777616
 30
0.0
  0
VERTEX
  5
3CF
  8
MARK__LASER_ONLY_
 10
1526.683129779513
 20
694.0543817847953
 30
0.0
  0
SEQEND
  5
DAC
  8
MARK__LASER_ONLY_
  0
POLYLINE
  5
83
  8
MARK__LASER_ONLY_
 66
     1
 10
0.0
 20
0.0
 30
0.0
  0
VERTEX
  5
3D0
  8
MARK__LASER_ONLY_
 10
1526.683129779513
 20
711.5136980205283
 30
0.0
  0
VERTEX
  5
3D1
  8
MARK__LASER_ONLY_
 10
1526.683129779513
 20
715.0049700277076
 30
0.0
  0
SEQEND
  5
DAD
  8
MARK__LASER_ONLY_
  0
POLYLINE
  5
84
  8
MARK__LASER_ONLY_
 66
     1
 10
0.0
 20
0.0
 30
0.0
  0
VERTEX
  5
3D2
  8
MARK__LASER_ONLY_
 10
1526.683129779513
 20
716.7520841312155
 30
0.0
  0
VERTEX
  5
3D3
  8
MARK__LASER_ONLY_
 10
1526.683129779513
 20
730.7171721599326
 30
0.0
  0
SEQEND
  5
DAE
  8
MARK__LASER_ONLY_
  0
POLYLINE
  5
85
  8
MARK__LASER_ONLY_
 66
     1
 10
0.0
 20
0.0
 30
0.0
  0
VERTEX
  5
3D4
  8
MARK__LASER_ONLY_
 10
1892.946437443515
 20
751.6677604028449
 30
0.0
  0
VERTEX
  5
3D5
  8
MARK__LASER_ONLY_
 10
1892.946437443515
 20
737.7026723741278
 30
0.0
  0
SEQEND
  5
DAF
  8
MARK__LASER_ONLY_
  0
POLYLINE
  5
86
  8
MARK__LASER_ONLY_
 66
     1
 10
0.0
 20
0.0
 30
0.0
  0
VERTEX
  5
3D6
  8
MARK__LASER_ONLY_
 10
1526.683129779513
 20
732.4642862634406
 30
0.0
  0
VERTEX
  5
3D7
  8
MARK__LASER_ONLY_
 10
1526.683129779513
 20
735.9555582706198
 30
0.0
  0
SEQEND
  5
DB0
  8
MARK__LASER_ONLY_
  0
POLYLINE
  5
87
  8
MARK__LASER_ONLY_
 66
     1
 10
0.0
 20
0.0
 30
0.0
  0
VERTEX
  5
3D8
  8
MARK__LASER_ONLY_
 10
1526.683129779513
 20
737.7026723741278
 30
0.0
  0
VERTEX
  5
3D9
  8
MARK__LASER_ONLY_
 10
1526.683129779513
 20
751.6677604028449
 30
0.0
  0
SEQEND
  5
DB1
  8
MARK__LASER_ONLY_
  0
POLYLINE
  5
88
  8
MARK__LASER_ONLY_
 66
     1
 10
0.0
 20
0.0
 30
0.0
  0
VERTEX
  5
3DA
  8
MARK__LASER_ONLY_
 10
1800.599680597521
 20
561.5535625564853
 30
0.0
  0
VERTEX
  5
3DB
  8
MARK__LASER_ONLY_
 10
1786.634592568804
 20
561.5535625564854
 30
0.0
  0
SEQEND
  5
DB2
  8
MARK__LASER_ONLY_
  0
POLYLINE
  5
89
  8
MARK__LASER_ONLY_
 66
     1
 10
0.0
 20
0.0
 30
0.0
  0
VERTEX
  5
3DC
  8
MARK__LASER_ONLY_
 10
1892.946437443515
 20
735.9555582706198
 30
0.0
  0
VERTEX
  5
3DD
  8
MARK__LASER_ONLY_
 10
1892.946437443515
 20
732.4642862634406
 30
0.0
  0
SEQEND
  5
DB3
  8
MARK__LASER_ONLY_
  0
POLYLINE
  5
8A
  8
MARK__LASER_ONLY_
 66
     1
 10
0.0
 20
0.0
 30
0.0
  0
VERTEX
  5
3DE
  8
MARK__LASER_ONLY_
 10
1526.683129779513
 20
753.4148745063529
 30
0.0
  0
VERTEX
  5
3DF
  8
MARK__LASER_ONLY_
 10
1526.683129779513
 20
756.9061465135321
 30
0.0
  0
SEQEND
  5
DB4
  8
MARK__LASER_ONLY_
  0
POLYLINE
  5
8B
  8
MARK__LASER_ONLY_
 66
     1
 10
0.0
 20
0.0
 30
0.0
  0
VERTEX
  5
3E0
  8
MARK__LASER_ONLY_
 10
1892.946437443515
 20
861.6590877280936
 30
0.0
  0
VERTEX
  5
3E1
  8
MARK__LASER_ONLY_
 10
1892.946437443515
 20
858.1678157209144
 30
0.0
  0
SEQEND
  5
DB5
  8
MARK__LASER_ONLY_
  0
POLYLINE
  5
8C
  8
MARK__LASER_ONLY_
 66
     1
 10
0.0
 20
0.0
 30
0.0
  0
VERTEX
  5
3E2
  8
MARK__LASER_ONLY_
 10
1526.683129779513
 20
774.3654627492652
 30
0.0
  0
VERTEX
  5
3E3
  8
MARK__LASER_ONLY_
 10
1526.683129779513
 20
777.8567347564444
 30
0.0
  0
SEQEND
  5
DB6
  8
MARK__LASER_ONLY_
  0
POLYLINE
  5
8D
  8
MARK__LASER_ONLY_
 66
     1
 10
0.0
 20
0.0
 30
0.0
  0
VERTEX
  5
3E4
  8
MARK__LASER_ONLY_
 10
1526.683129779513
 20
779.6038488599524
 30
0.0
  0
VERTEX
  5
3E5
  8
MARK__LASER_ONLY_
 10
1526.683129779513
 20
793.5689368886696
 30
0.0
  0
SEQEND
  5
DB7
  8
MARK__LASER_ONLY_
  0
POLYLINE
  5
8E
  8
MARK__LASER_ONLY_
 66
     1
 10
0.0
 20
0.0
 30
0.0
  0
VERTEX
  5
3E6
  8
MARK__LASER_ONLY_
 10
1526.683129779513
 20
795.3160509921776
 30
0.0
  0
VERTEX
  5
3E7
  8
MARK__LASER_ONLY_
 10
1526.683129779513
 20
798.8073229993568
 30
0.0
  0
SEQEND
  5
DB8
  8
MARK__LASER_ONLY_
  0
POLYLINE
  5
8F
  8
MARK__LASER_ONLY_
 66
     1
 10
0.0
 20
0.0
 30
0.0
  0
VERTEX
  5
3E8
  8
MARK__LASER_ONLY_
 10
1526.683129779513
 20
800.5544371028648
 30
0.0
  0
VERTEX
  5
3E9
  8
MARK__LASER_ONLY_
 10
1526.683129779513
 20
814.5195251315819
 30
0.0
  0
SEQEND
  5
DB9
  8
MARK__LASER_ONLY_
  0
POLYLINE
  5
90
  8
MARK__LASER_ONLY_
 66
     1
 10
0.0
 20
0.0
 30
0.0
  0
VERTEX
  5
3EA
  8
MARK__LASER_ONLY_
 10
1526.683129779513
 20
816.2666392350899
 30
0.0
  0
VERTEX
  5
3EB
  8
MARK__LASER_ONLY_
 10
1526.683129779513
 20
819.7579112422691
 30
0.0
  0
SEQEND
  5
DBA
  8
MARK__LASER_ONLY_
  0
POLYLINE
  5
91
  8
MARK__LASER_ONLY_
 66
     1
 10
0.0
 20
0.0
 30
0.0
  0
VERTEX
  5
3EC
  8
MARK__LASER_ONLY_
 10
1526.683129779513
 20
821.5050253457771
 30
0.0
  0
VERTEX
  5
3ED
  8
MARK__LASER_ONLY_
 10
1526.683129779513
 20
835.4701133744942
 30
0.0
  0
SEQEND
  5
DBB
  8
MARK__LASER_ONLY_
  0
POLYLINE
  5
92
  8
MARK__LASER_ONLY_
 66
     1
 10
0.0
 20
0.0
 30
0.0
  0
VERTEX
  5
3EE
  8
MARK__LASER_ONLY_
 10
1526.683129779513
 20
837.2172274780022
 30
0.0
  0
VERTEX
  5
3EF
  8
MARK__LASER_ONLY_
 10
1526.683129779513
 20
840.7084994851814
 30
0.0
  0
SEQEND
  5
DBC
  8
MARK__LASER_ONLY_
  0
POLYLINE
  5
93
  8
MARK__LASER_ONLY_
 66
     1
 10
0.0
 20
0.0
 30
0.0
  0
VERTEX
  5
3F0
  8
MARK__LASER_ONLY_
 10
1892.946437443515
 20
652.1532052989705
 30
0.0
  0
VERTEX
  5
3F1
  8
MARK__LASER_ONLY_
 10
1892.946437443515
 20
648.6619332917912
 30
0.0
  0
SEQEND
  5
DBD
  8
MARK__LASER_ONLY_
  0
POLYLINE
  5
94
  8
MARK__LASER_ONLY_
 66
     1
 10
0.0
 20
0.0
 30
0.0
  0
VERTEX
  5
3F2
  8
MARK__LASER_ONLY_
 10
1526.683129779513
 20
842.4556135886894
 30
0.0
  0
VERTEX
  5
3F3
  8
MARK__LASER_ONLY_
 10
1526.683129779513
 20
856.4207016174065
 30
0.0
  0
SEQEND
  5
DBE
  8
MARK__LASER_ONLY_
  0
POLYLINE
  5
95
  8
MARK__LASER_ONLY_
 66
     1
 10
0.0
 20
0.0
 30
0.0
  0
VERTEX
  5
3F4
  8
MARK__LASER_ONLY_
 10
1526.683129779513
 20
858.1678157209145
 30
0.0
  0
VERTEX
  5
3F5
  8
MARK__LASER_ONLY_
 10
1526.683129779513
 20
861.6590877280937
 30
0.0
  0
SEQEND
  5
DBF
  8
MARK__LASER_ONLY_
  0
POLYLINE
  5
96
  8
MARK__LASER_ONLY_
 66
     1
 10
0.0
 20
0.0
 30
0.0
  0
VERTEX
  5
3F6
  8
MARK__LASER_ONLY_
 10
1526.683129779513
 20
863.4062018316017
 30
0.0
  0
VERTEX
  5
3F7
  8
MARK__LASER_ONLY_
 10
1526.683129779513
 20
877.3712898603188
 30
0.0
  0
SEQEND
  5
DC0
  8
MARK__LASER_ONLY_
  0
POLYLINE
  5
97
  8
MARK__LASER_ONLY_
 66
     1
 10
0.0
 20
0.0
 30
0.0
  0
VERTEX
  5
3F8
  8
MARK__LASER_ONLY_
 10
1526.683129779513
 20
879.1184039638268
 30
0.0
  0
VERTEX
  5
3F9
  8
MARK__LASER_ONLY_
 10
1526.683129779513
 20
882.609675971006
 30
0.0
  0
SEQEND
  5
DC1
  8
MARK__LASER_ONLY_
  0
POLYLINE
  5
98
  8
MARK__LASER_ONLY_
 66
     1
 10
0.0
 20
0.0
 30
0.0
  0
VERTEX
  5
3FA
  8
MARK__LASER_ONLY_
 10
1526.683129779513
 20
884.356790074514
 30
0.0
  0
VERTEX
  5
3FB
  8
MARK__LASER_ONLY_
 10
1526.683129779513
 20
901.8146252418937
 30
0.0
  0
SEQEND
  5
DC2
  8
MARK__LASER_ONLY_
  0
POLYLINE
  5
99
  8
MARK__LASER_ONLY_
 66
     1
 10
0.0
 20
0.0
 30
0.0
  0
VERTEX
  5
3FC
  8
MARK__LASER_ONLY_
 10
1866.944192464921
 20
561.5535625564853
 30
0.0
  0
VERTEX
  5
3FD
  8
MARK__LASER_ONLY_
 10
1849.486357297541
 20
561.5535625564853
 30
0.0
  0
SEQEND
  5
DC3
  8
MARK__LASER_ONLY_
  0
POLYLINE
  5
9A
  8
MARK__LASER_ONLY_
 66
     1
 10
0.0
 20
0.0
 30
0.0
  0
VERTEX
  5
3FE
  8
MARK__LASER_ONLY_
 10
1847.739243194033
 20
561.5535625564853
 30
0.0
  0
VERTEX
  5
3FF
  8
MARK__LASER_ONLY_
 10
1844.247971186854
 20
561.5535625564853
 30
0.0
  0
SEQEND
  5
DC4
  8
MARK__LASER_ONLY_
  0
POLYLINE
  5
9B
  8
MARK__LASER_ONLY_
 66
     1
 10
0.0
 20
0.0
 30
0.0
  0
VERTEX
  5
400
  8
MARK__LASER_ONLY_
 10
1617.282772521998
 20
561.5535625564855
 30
0.0
  0
VERTEX
  5
401
  8
MARK__LASER_ONLY_
 10
1613.791500514819
 20
561.5535625564855
 30
0.0
  0
SEQEND
  5
DC5
  8
MARK__LASER_ONLY_
  0
POLYLINE
  5
9C
  8
MARK__LASER_ONLY_
 66
     1
 10
0.0
 20
0.0
 30
0.0
  0
VERTEX
  5
402
  8
MARK__LASER_ONLY_
 10
1638.23336076491
 20
561.5535625564854
 30
0.0
  0
VERTEX
  5
403
  8
MARK__LASER_ONLY_
 10
1634.742088757731
 20
561.5535625564854
 30
0.0
  0
SEQEND
  5
DC6
  8
MARK__LASER_ONLY_
  0
POLYLINE
  5
9D
  8
MARK__LASER_ONLY_
 66
     1
 10
0.0
 20
0.0
 30
0.0
  0
VERTEX
  5
404
  8
MARK__LASER_ONLY_
 10
1659.183949007823
 20
561.5535625564854
 30
0.0
  0
VERTEX
  5
405
  8
MARK__LASER_ONLY_
 10
1655.692677000643
 20
561.5535625564854
 30
0.0
  0
SEQEND
  5
DC7
  8
MARK__LASER_ONLY_
  0
POLYLINE
  5
9E
  8
MARK__LASER_ONLY_
 66
     1
 10
0.0
 20
0.0
 30
0.0
  0
VERTEX
  5
406
  8
MARK__LASER_ONLY_
 10
1892.946437443515
 20
772.6183486457572
 30
0.0
  0
VERTEX
  5
407
  8
MARK__LASER_ONLY_
 10
1892.946437443515
 20
758.6532606170401
 30
0.0
  0
SEQEND
  5
DC8
  8
MARK__LASER_ONLY_
  0
POLYLINE
  5
9F
  8
MARK__LASER_ONLY_
 66
     1
 10
0.0
 20
0.0
 30
0.0
  0
VERTEX
  5
408
  8
MARK__LASER_ONLY_
 10
1758.698504111697
 20
561.5535625564854
 30
0.0
  0
VERTEX
  5
409
  8
MARK__LASER_ONLY_
 10
1744.73341608298
 20
561.5535625564854
 30
0.0
  0
SEQEND
  5
DC9
  8
MARK__LASER_ONLY_
  0
POLYLINE
  5
A0
  8
MARK__LASER_ONLY_
 66
     1
 10
0.0
 20
0.0
 30
0.0
  0
VERTEX
  5
40A
  8
MARK__LASER_ONLY_
 10
1892.946437443515
 20
688.8159956741079
 30
0.0
  0
VERTEX
  5
40B
  8
MARK__LASER_ONLY_
 10
1892.946437443515
 20
674.8509076453909
 30
0.0
  0
SEQEND
  5
DCA
  8
MARK__LASER_ONLY_
  0
POLYLINE
  5
A1
  8
MARK__LASER_ONLY_
 66
     1
 10
0.0
 20
0.0
 30
0.0
  0
VERTEX
  5
40C
  8
MARK__LASER_ONLY_
 10
1742.986301979472
 20
561.5535625564854
 30
0.0
  0
VERTEX
  5
40D
  8
MARK__LASER_ONLY_
 10
1739.495029972293
 20
561.5535625564854
 30
0.0
  0
SEQEND
  5
DCB
  8
MARK__LASER_ONLY_
  0
POLYLINE
  5
A2
  8
MARK__LASER_ONLY_
 66
     1
 10
0.0
 20
0.0
 30
0.0
  0
VERTEX
  5
40E
  8
MARK__LASER_ONLY_
 10
1660.931063111331
 20
927.8168702204869
 30
0.0
  0
VERTEX
  5
40F
  8
MARK__LASER_ONLY_
 10
1674.896151140048
 20
927.8168702204869
 30
0.0
  0
SEQEND
  5
DCC
  8
MARK__LASER_ONLY_
  0
POLYLINE
  5
A3
  8
MARK__LASER_ONLY_
 66
     1
 10
0.0
 20
0.0
 30
0.0
  0
VERTEX
  5
410
  8
MARK__LASER_ONLY_
 10
1737.747915868785
 20
561.5535625564854
 30
0.0
  0
VERTEX
  5
411
  8
MARK__LASER_ONLY_
 10
1723.782827840068
 20
561.5535625564854
 30
0.0
  0
SEQEND
  5
DCD
  8
MARK__LASER_ONLY_
  0
POLYLINE
  5
A4
  8
MARK__LASER_ONLY_
 66
     1
 10
0.0
 20
0.0
 30
0.0
  0
VERTEX
  5
412
  8
MARK__LASER_ONLY_
 10
1828.535769054629
 20
927.8168702204869
 30
0.0
  0
VERTEX
  5
413
  8
MARK__LASER_ONLY_
 10
1842.500857083347
 20
927.8168702204869
 30
0.0
  0
SEQEND
  5
DCE
  8
MARK__LASER_ONLY_
  0
POLYLINE
  5
A5
  8
MARK__LASER_ONLY_
 66
     1
 10
0.0
 20
0.0
 30
0.0
  0
VERTEX
  5
414
  8
MARK__LASER_ONLY_
 10
1674.896151140048
 20
561.5535625564854
 30
0.0
  0
VERTEX
  5
415
  8
MARK__LASER_ONLY_
 10
1660.931063111331
 20
561.5535625564854
 30
0.0
  0
SEQEND
  5
DCF
  8
MARK__LASER_ONLY_
  0
POLYLINE
  5
A6
  8
MARK__LASER_ONLY_
 66
     1
 10
0.0
 20
0.0
 30
0.0
  0
VERTEX
  5
416
  8
MARK__LASER_ONLY_
 10
1680.134537250735
 20
561.5535625564854
 30
0.0
  0
VERTEX
  5
417
  8
MARK__LASER_ONLY_
 10
1676.643265243556
 20
561.5535625564854
 30
0.0
  0
SEQEND
  5
DD0
  8
MARK__LASER_ONLY_
  0
POLYLINE
  5
A7
  8
MARK__LASER_ONLY_
 66
     1
 10
0.0
 20
0.0
 30
0.0
  0
VERTEX
  5
418
  8
MARK__LASER_ONLY_
 10
1826.788654951121
 20
561.5535625564853
 30
0.0
  0
VERTEX
  5
419
  8
MARK__LASER_ONLY_
 10
1823.297382943942
 20
561.5535625564853
 30
0.0
  0
SEQEND
  5
DD1
  8
MARK__LASER_ONLY_
  0
POLYLINE
  5
A8
  8
MARK__LASER_ONLY_
 66
     1
 10
0.0
 20
0.0
 30
0.0
  0
VERTEX
  5
41A
  8
MARK__LASER_ONLY_
 10
1526.683129779513
 20
627.7113450488791
 30
0.0
  0
VERTEX
  5
41B
  8
MARK__LASER_ONLY_
 10
1526.683129779513
 20
631.2026170560584
 30
0.0
  0
SEQEND
  5
DD2
  8
MARK__LASER_ONLY_
  0
POLYLINE
  5
A9
  8
MARK__LASER_ONLY_
 66
     1
 10
0.0
 20
0.0
 30
0.0
  0
VERTEX
  5
41C
  8
MARK__LASER_ONLY_
 10
1723.782827840068
 20
927.8168702204869
 30
0.0
  0
VERTEX
  5
41D
  8
MARK__LASER_ONLY_
 10
1737.747915868785
 20
927.8168702204869
 30
0.0
  0
SEQEND
  5
DD3
  8
MARK__LASER_ONLY_
  0
POLYLINE
  5
AA
  8
MARK__LASER_ONLY_
 66
     1
 10
0.0
 20
0.0
 30
0.0
  0
VERTEX
  5
41E
  8
MARK__LASER_ONLY_
 10
1739.495029972293
 20
927.8168702204869
 30
0.0
  0
VERTEX
  5
41F
  8
MARK__LASER_ONLY_
 10
1742.986301979472
 20
927.8168702204869
 30
0.0
  0
SEQEND
  5
DD4
  8
MARK__LASER_ONLY_
  0
POLYLINE
  5
AB
  8
MARK__LASER_ONLY_
 66
     1
 10
0.0
 20
0.0
 30
0.0
  0
VERTEX
  5
420
  8
MARK__LASER_ONLY_
 10
1892.946437443515
 20
756.9061465135321
 30
0.0
  0
VERTEX
  5
421
  8
MARK__LASER_ONLY_
 10
1892.946437443515
 20
753.4148745063529
 30
0.0
  0
SEQEND
  5
DD5
  8
MARK__LASER_ONLY_
  0
POLYLINE
  5
AC
  8
MARK__LASER_ONLY_
 66
     1
 10
0.0
 20
0.0
 30
0.0
  0
VERTEX
  5
422
  8
MARK__LASER_ONLY_
 10
1722.03571373656
 20
561.5535625564854
 30
0.0
  0
VERTEX
  5
423
  8
MARK__LASER_ONLY_
 10
1718.54444172938
 20
561.5535625564854
 30
0.0
  0
SEQEND
  5
DD6
  8
MARK__LASER_ONLY_
  0
POLYLINE
  5
AD
  8
MARK__LASER_ONLY_
 66
     1
 10
0.0
 20
0.0
 30
0.0
  0
VERTEX
  5
424
  8
MARK__LASER_ONLY_
 10
1779.649092354609
 20
561.5535625564854
 30
0.0
  0
VERTEX
  5
425
  8
MARK__LASER_ONLY_
 10
1765.684004325892
 20
561.5535625564854
 30
0.0
  0
SEQEND
  5
DD7
  8
MARK__LASER_ONLY_
  0
POLYLINE
  5
AE
  8
MARK__LASER_ONLY_
 66
     1
 10
0.0
 20
0.0
 30
0.0
  0
VERTEX
  5
426
  8
MARK__LASER_ONLY_
 10
1570.143209925486
 20
561.5535625564855
 30
0.0
  0
VERTEX
  5
427
  8
MARK__LASER_ONLY_
 10
1552.685374758106
 20
561.5535625564855
 30
0.0
  0
SEQEND
  5
DD8
  8
MARK__LASER_ONLY_
  0
POLYLINE
  5
AF
  8
MARK__LASER_ONLY_
 66
     1
 10
0.0
 20
0.0
 30
0.0
  0
VERTEX
  5
428
  8
MARK__LASER_ONLY_
 10
1842.500857083346
 20
561.5535625564853
 30
0.0
  0
VERTEX
  5
429
  8
MARK__LASER_ONLY_
 10
1828.535769054629
 20
561.5535625564853
 30
0.0
  0
SEQEND
  5
DD9
  8
MARK__LASER_ONLY_
  0
POLYLINE
  5
B0
  8
MARK__LASER_ONLY_
 66
     1
 10
0.0
 20
0.0
 30
0.0
  0
VERTEX
  5
42A
  8
MARK__LASER_ONLY_
 10
1805.838066708209
 20
561.5535625564853
 30
0.0
  0
VERTEX
  5
42B
  8
MARK__LASER_ONLY_
 10
1802.346794701029
 20
561.5535625564853
 30
0.0
  0
SEQEND
  5
DDA
  8
MARK__LASER_ONLY_
  0
POLYLINE
  5
B1
  8
MARK__LASER_ONLY_
 66
     1
 10
0.0
 20
0.0
 30
0.0
  0
VERTEX
  5
42C
  8
MARK__LASER_ONLY_
 10
1701.085125493647
 20
561.5535625564854
 30
0.0
  0
VERTEX
  5
42D
  8
MARK__LASER_ONLY_
 10
1697.593853486468
 20
561.5535625564854
 30
0.0
  0
SEQEND
  5
DDB
  8
MARK__LASER_ONLY_
  0
POLYLINE
  5
B2
  8
MARK__LASER_ONLY_
 66
     1
 10
0.0
 20
0.0
 30
0.0
  0
VERTEX
  5
42E
  8
MARK__LASER_ONLY_
 10
1892.946437443515
 20
793.5689368886694
 30
0.0
  0
VERTEX
  5
42F
  8
MARK__LASER_ONLY_
 10
1892.946437443515
 20
779.6038488599524
 30
0.0
  0
SEQEND
  5
DDC
  8
MARK__LASER_ONLY_
  0
POLYLINE
  5
B3
  8
MARK__LASER_ONLY_
 66
     1
 10
0.0
 20
0.0
 30
0.0
  0
VERTEX
  5
430
  8
MARK__LASER_ONLY_
 10
1763.936890222384
 20
561.5535625564854
 30
0.0
  0
VERTEX
  5
431
  8
MARK__LASER_ONLY_
 10
1760.445618215205
 20
561.5535625564854
 30
0.0
  0
SEQEND
  5
DDD
  8
MARK__LASER_ONLY_
  0
POLYLINE
  5
B4
  8
MARK__LASER_ONLY_
 66
     1
 10
0.0
 20
0.0
 30
0.0
  0
VERTEX
  5
432
  8
MARK__LASER_ONLY_
 10
1716.797327625872
 20
561.5535625564854
 30
0.0
  0
VERTEX
  5
433
  8
MARK__LASER_ONLY_
 10
1702.832239597155
 20
561.5535625564854
 30
0.0
  0
SEQEND
  5
DDE
  8
MARK__LASER_ONLY_
  0
POLYLINE
  5
B5
  8
MARK__LASER_ONLY_
 66
     1
 10
0.0
 20
0.0
 30
0.0
  0
VERTEX
  5
434
  8
MARK__LASER_ONLY_
 10
1695.84673938296
 20
561.5535625564854
 30
0.0
  0
VERTEX
  5
435
  8
MARK__LASER_ONLY_
 10
1681.881651354243
 20
561.5535625564854
 30
0.0
  0
SEQEND
  5
DDF
  8
MARK__LASER_ONLY_
  0
POLYLINE
  5
B6
  8
MARK__LASER_ONLY_
 66
     1
 10
0.0
 20
0.0
 30
0.0
  0
VERTEX
  5
436
  8
MARK__LASER_ONLY_
 10
1653.945562897135
 20
561.5535625564854
 30
0.0
  0
VERTEX
  5
437
  8
MARK__LASER_ONLY_
 10
1639.980474868418
 20
561.5535625564854
 30
0.0
  0
SEQEND
  5
DE0
  8
MARK__LASER_ONLY_
  0
POLYLINE
  5
B7
  8
MARK__LASER_ONLY_
 66
     1
 10
0.0
 20
0.0
 30
0.0
  0
VERTEX
  5
438
  8
MARK__LASER_ONLY_
 10
1632.994974654223
 20
561.5535625564854
 30
0.0
  0
VERTEX
  5
439
  8
MARK__LASER_ONLY_
 10
1619.029886625506
 20
561.5535625564855
 30
0.0
  0
SEQEND
  5
DE1
  8
MARK__LASER_ONLY_
  0
POLYLINE
  5
B8
  8
MARK__LASER_ONLY_
 66
     1
 10
0.0
 20
0.0
 30
0.0
  0
VERTEX
  5
43A
  8
MARK__LASER_ONLY_
 10
1612.044386411311
 20
561.5535625564855
 30
0.0
  0
VERTEX
  5
43B
  8
MARK__LASER_ONLY_
 10
1598.079298382594
 20
561.5535625564855
 30
0.0
  0
SEQEND
  5
DE2
  8
MARK__LASER_ONLY_
  0
POLYLINE
  5
B9
  8
MARK__LASER_ONLY_
 66
     1
 10
0.0
 20
0.0
 30
0.0
  0
VERTEX
  5
43C
  8
MARK__LASER_ONLY_
 10
1596.332184279086
 20
561.5535625564855
 30
0.0
  0
VERTEX
  5
43D
  8
MARK__LASER_ONLY_
 10
1592.840912271907
 20
561.5535625564855
 30
0.0
  0
SEQEND
  5
DE3
  8
MARK__LASER_ONLY_
  0
POLYLINE
  5
BA
  8
MARK__LASER_ONLY_
 66
     1
 10
0.0
 20
0.0
 30
0.0
  0
VERTEX
  5
43E
  8
MARK__LASER_ONLY_
 10
1591.093798168399
 20
561.5535625564855
 30
0.0
  0
VERTEX
  5
43F
  8
MARK__LASER_ONLY_
 10
1577.128710139682
 20
561.5535625564855
 30
0.0
  0
SEQEND
  5
DE4
  8
MARK__LASER_ONLY_
  0
POLYLINE
  5
BB
  8
MARK__LASER_ONLY_
 66
     1
 10
0.0
 20
0.0
 30
0.0
  0
VERTEX
  5
440
  8
MARK__LASER_ONLY_
 10
1575.381596036174
 20
561.5535625564855
 30
0.0
  0
VERTEX
  5
441
  8
MARK__LASER_ONLY_
 10
1571.890324028994
 20
561.5535625564855
 30
0.0
  0
SEQEND
  5
DE5
  8
MARK__LASER_ONLY_
  0
POLYLINE
  5
BC
  8
MARK__LASER_ONLY_
 66
     1
 10
0.0
 20
0.0
 30
0.0
  0
VERTEX
  5
442
  8
MARK__LASER_ONLY_
 10
1892.946437443515
 20
901.8146252418939
 30
0.0
  0
VERTEX
  5
443
  8
MARK__LASER_ONLY_
 10
1892.946437443515
 20
884.3567900745139
 30
0.0
  0
SEQEND
  5
DE6
  8
MARK__LASER_ONLY_
  0
POLYLINE
  5
BD
  8
MARK__LASER_ONLY_
 66
     1
 10
0.0
 20
0.0
 30
0.0
  0
VERTEX
  5
444
  8
MARK__LASER_ONLY_
 10
1892.946437443515
 20
882.6096759710059
 30
0.0
  0
VERTEX
  5
445
  8
MARK__LASER_ONLY_
 10
1892.946437443515
 20
879.1184039638267
 30
0.0
  0
SEQEND
  5
DE7
  8
MARK__LASER_ONLY_
  0
POLYLINE
  5
BE
  8
MARK__LASER_ONLY_
 66
     1
 10
0.0
 20
0.0
 30
0.0
  0
VERTEX
  5
446
  8
MARK__LASER_ONLY_
 10
1892.946437443515
 20
840.7084994851813
 30
0.0
  0
VERTEX
  5
447
  8
MARK__LASER_ONLY_
 10
1892.946437443515
 20
837.2172274780021
 30
0.0
  0
SEQEND
  5
DE8
  8
MARK__LASER_ONLY_
  0
POLYLINE
  5
BF
  8
MARK__LASER_ONLY_
 66
     1
 10
0.0
 20
0.0
 30
0.0
  0
VERTEX
  5
448
  8
MARK__LASER_ONLY_
 10
1892.946437443515
 20
835.4701133744941
 30
0.0
  0
VERTEX
  5
449
  8
MARK__LASER_ONLY_
 10
1892.946437443515
 20
821.5050253457771
 30
0.0
  0
SEQEND
  5
DE9
  8
MARK__LASER_ONLY_
  0
POLYLINE
  5
C0
  8
MARK__LASER_ONLY_
 66
     1
 10
0.0
 20
0.0
 30
0.0
  0
VERTEX
  5
44A
  8
MARK__LASER_ONLY_
 10
1892.946437443515
 20
819.7579112422691
 30
0.0
  0
VERTEX
  5
44B
  8
MARK__LASER_ONLY_
 10
1892.946437443515
 20
816.2666392350898
 30
0.0
  0
SEQEND
  5
DEA
  8
MARK__LASER_ONLY_
  0
POLYLINE
  5
C1
  8
MARK__LASER_ONLY_
 66
     1
 10
0.0
 20
0.0
 30
0.0
  0
VERTEX
  5
44C
  8
MARK__LASER_ONLY_
 10
1892.946437443515
 20
814.5195251315818
 30
0.0
  0
VERTEX
  5
44D
  8
MARK__LASER_ONLY_
 10
1892.946437443515
 20
800.5544371028648
 30
0.0
  0
SEQEND
  5
DEB
  8
MARK__LASER_ONLY_
  0
POLYLINE
  5
C2
  8
MARK__LASER_ONLY_
 66
     1
 10
0.0
 20
0.0
 30
0.0
  0
VERTEX
  5
44E
  8
MARK__LASER_ONLY_
 10
1892.946437443515
 20
798.8073229993568
 30
0.0
  0
VERTEX
  5
44F
  8
MARK__LASER_ONLY_
 10
1892.946437443515
 20
795.3160509921775
 30
0.0
  0
SEQEND
  5
DEC
  8
MARK__LASER_ONLY_
  0
POLYLINE
  5
C3
  8
MARK__LASER_ONLY_
 66
     1
 10
0.0
 20
0.0
 30
0.0
  0
VERTEX
  5
450
  8
MARK__LASER_ONLY_
 10
1892.946437443515
 20
777.8567347564444
 30
0.0
  0
VERTEX
  5
451
  8
MARK__LASER_ONLY_
 10
1892.946437443515
 20
774.3654627492651
 30
0.0
  0
SEQEND
  5
DED
  8
MARK__LASER_ONLY_
  0
POLYLINE
  5
C4
  8
MARK__LASER_ONLY_
 66
     1
 10
0.0
 20
0.0
 30
0.0
  0
VERTEX
  5
452
  8
MARK__LASER_ONLY_
 10
1892.946437443515
 20
610.2520288131458
 30
0.0
  0
VERTEX
  5
453
  8
MARK__LASER_ONLY_
 10
1892.946437443515
 20
606.7607568059666
 30
0.0
  0
SEQEND
  5
DEE
  8
MARK__LASER_ONLY_
  0
POLYLINE
  5
C5
  8
MARK__LASER_ONLY_
 66
     1
 10
0.0
 20
0.0
 30
0.0
  0
VERTEX
  5
454
  8
MARK__LASER_ONLY_
 10
1892.946437443515
 20
715.0049700277075
 30
0.0
  0
VERTEX
  5
455
  8
MARK__LASER_ONLY_
 10
1892.946437443515
 20
711.5136980205282
 30
0.0
  0
SEQEND
  5
DEF
  8
MARK__LASER_ONLY_
  0
POLYLINE
  5
C6
  8
MARK__LASER_ONLY_
 66
     1
 10
0.0
 20
0.0
 30
0.0
  0
VERTEX
  5
456
  8
MARK__LASER_ONLY_
 10
1892.946437443515
 20
709.7665839170202
 30
0.0
  0
VERTEX
  5
457
  8
MARK__LASER_ONLY_
 10
1892.946437443515
 20
695.8014958883032
 30
0.0
  0
SEQEND
  5
DF0
  8
MARK__LASER_ONLY_
  0
POLYLINE
  5
C7
  8
MARK__LASER_ONLY_
 66
     1
 10
0.0
 20
0.0
 30
0.0
  0
VERTEX
  5
458
  8
MARK__LASER_ONLY_
 10
1892.946437443515
 20
673.1037935418829
 30
0.0
  0
VERTEX
  5
459
  8
MARK__LASER_ONLY_
 10
1892.946437443515
 20
669.6125215347035
 30
0.0
  0
SEQEND
  5
DF1
  8
MARK__LASER_ONLY_
  0
POLYLINE
  5
C8
  8
MARK__LASER_ONLY_
 66
     1
 10
0.0
 20
0.0
 30
0.0
  0
VERTEX
  5
45A
  8
MARK__LASER_ONLY_
 10
1892.946437443515
 20
667.8654074311955
 30
0.0
  0
VERTEX
  5
45B
  8
MARK__LASER_ONLY_
 10
1892.946437443515
 20
653.9003194024785
 30
0.0
  0
SEQEND
  5
DF2
  8
MARK__LASER_ONLY_
  0
POLYLINE
  5
C9
  8
MARK__LASER_ONLY_
 66
     1
 10
0.0
 20
0.0
 30
0.0
  0
VERTEX
  5
45C
  8
MARK__LASER_ONLY_
 10
1892.946437443515
 20
646.9148191882832
 30
0.0
  0
VERTEX
  5
45D
  8
MARK__LASER_ONLY_
 10
1892.946437443515
 20
632.9497311595662
 30
0.0
  0
SEQEND
  5
DF3
  8
MARK__LASER_ONLY_
  0
POLYLINE
  5
CA
  8
MARK__LASER_ONLY_
 66
     1
 10
0.0
 20
0.0
 30
0.0
  0
VERTEX
  5
45E
  8
MARK__LASER_ONLY_
 10
1892.946437443515
 20
631.2026170560582
 30
0.0
  0
VERTEX
  5
45F
  8
MARK__LASER_ONLY_
 10
1892.946437443515
 20
627.7113450488789
 30
0.0
  0
SEQEND
  5
DF4
  8
MARK__LASER_ONLY_
  0
POLYLINE
  5
CB
  8
MARK__LASER_ONLY_
 66
     1
 10
0.0
 20
0.0
 30
0.0
  0
VERTEX
  5
460
  8
MARK__LASER_ONLY_
 10
1892.946437443515
 20
625.9642309453709
 30
0.0
  0
VERTEX
  5
461
  8
MARK__LASER_ONLY_
 10
1892.946437443515
 20
611.9991429166538
 30
0.0
  0
SEQEND
  5
DF5
  8
MARK__LASER_ONLY_
  0
POLYLINE
  5
CC
  8
MARK__LASER_ONLY_
 66
     1
 10
0.0
 20
0.0
 30
0.0
  0
VERTEX
  5
462
  8
MARK__LASER_ONLY_
 10
1892.946437443515
 20
605.0136427024586
 30
0.0
  0
VERTEX
  5
463
  8
MARK__LASER_ONLY_
 10
1892.946437443515
 20
587.5558075350789
 30
0.0
  0
SEQEND
  5
DF6
  8
MARK__LASER_ONLY_
  0
POLYLINE
  5
CD
  8
MARK__LASER_ONLY_
 66
     1
 10
0.0
 20
0.0
 30
0.0
  0
VERTEX
  5
464
  8
MARK__LASER_ONLY_
 10
1552.685374758106
 20
927.8168702204869
 30
0.0
  0
VERTEX
  5
465
  8
MARK__LASER_ONLY_
 10
1570.143209925486
 20
927.8168702204869
 30
0.0
  0
SEQEND
  5
DF7
  8
MARK__LASER_ONLY_
  0
POLYLINE
  5
CE
  8
MARK__LASER_ONLY_
 66
     1
 10
0.0
 20
0.0
 30
0.0
  0
VERTEX
  5
466
  8
MARK__LASER_ONLY_
 10
1571.890324028994
 20
927.8168702204869
 30
0.0
  0
VERTEX
  5
467
  8
MARK__LASER_ONLY_
 10
1575.381596036174
 20
927.8168702204869
 30
0.0
  0
SEQEND
  5
DF8
  8
MARK__LASER_ONLY_
  0
POLYLINE
  5
CF
  8
MARK__LASER_ONLY_
 66
     1
 10
0.0
 20
0.0
 30
0.0
  0
VERTEX
  5
468
  8
MARK__LASER_ONLY_
 10
1577.128710139682
 20
927.8168702204869
 30
0.0
  0
VERTEX
  5
469
  8
MARK__LASER_ONLY_
 10
1591.093798168399
 20
927.8168702204869
 30
0.0
  0
SEQEND
  5
DF9
  8
MARK__LASER_ONLY_
  0
POLYLINE
  5
D0
  8
MARK__LASER_ONLY_
 66
     1
 10
0.0
 20
0.0
 30
0.0
  0
VERTEX
  5
46A
  8
MARK__LASER_ONLY_
 10
1639.980474868418
 20
927.8168702204869
 30
0.0
  0
VERTEX
  5
46B
  8
MARK__LASER_ONLY_
 10
1653.945562897135
 20
927.8168702204869
 30
0.0
  0
SEQEND
  5
DFA
  8
MARK__LASER_ONLY_
  0
POLYLINE
  5
D1
  8
MARK__LASER_ONLY_
 66
     1
 10
0.0
 20
0.0
 30
0.0
  0
VERTEX
  5
46C
  8
MARK__LASER_ONLY_
 10
1702.832239597155
 20
927.8168702204869
 30
0.0
  0
VERTEX
  5
46D
  8
MARK__LASER_ONLY_
 10
1716.797327625872
 20
927.8168702204869
 30
0.0
  0
SEQEND
  5
DFB
  8
MARK__LASER_ONLY_
  0
POLYLINE
  5
D2
  8
MARK__LASER_ONLY_
 66
     1
 10
0.0
 20
0.0
 30
0.0
  0
VERTEX
  5
46E
  8
MARK__LASER_ONLY_
 10
1655.692677000643
 20
927.8168702204869
 30
0.0
  0
VERTEX
  5
46F
  8
MARK__LASER_ONLY_
 10
1659.183949007823
 20
927.8168702204869
 30
0.0
  0
SEQEND
  5
DFC
  8
MARK__LASER_ONLY_
  0
POLYLINE
  5
D3
  8
MARK__LASER_ONLY_
 66
     1
 10
0.0
 20
0.0
 30
0.0
  0
VERTEX
  5
470
  8
MARK__LASER_ONLY_
 10
1892.946437443515
 20
856.4207016174064
 30
0.0
  0
VERTEX
  5
471
  8
MARK__LASER_ONLY_
 10
1892.946437443515
 20
842.4556135886893
 30
0.0
  0
SEQEND
  5
DFD
  8
MARK__LASER_ONLY_
  0
POLYLINE
  5
D4
  8
MARK__LASER_ONLY_
 66
     1
 10
0.0
 20
0.0
 30
0.0
  0
VERTEX
  5
472
  8
MARK__LASER_ONLY_
 10
1598.079298382594
 20
927.8168702204869
 30
0.0
  0
VERTEX
  5
473
  8
MARK__LASER_ONLY_
 10
1612.044386411311
 20
927.8168702204869
 30
0.0
  0
SEQEND
  5
DFE
  8
MARK__LASER_ONLY_
  0
POLYLINE
  5
D5
  8
MARK__LASER_ONLY_
 66
     1
 10
0.0
 20
0.0
 30
0.0
  0
VERTEX
  5
474
  8
MARK__LASER_ONLY_
 10
1526.683129779513
 20
695.8014958883033
 30
0.0
  0
VERTEX
  5
475
  8
MARK__LASER_ONLY_
 10
1526.683129779513
 20
709.7665839170203
 30
0.0
  0
SEQEND
  5
DFF
  8
MARK__LASER_ONLY_
  0
POLYLINE
  5
D6
  8
MARK__LASER_ONLY_
 66
     1
 10
0.0
 20
0.0
 30
0.0
  0
VERTEX
  5
476
  8
MARK__LASER_ONLY_
 10
1676.643265243556
 20
927.8168702204869
 30
0.0
  0
VERTEX
  5
477
  8
MARK__LASER_ONLY_
 10
1680.134537250735
 20
927.8168702204869
 30
0.0
  0
SEQEND
  5
E00
  8
MARK__LASER_ONLY_
  0
POLYLINE
  5
D7
  8
MARK__LASER_ONLY_
 66
     1
 10
0.0
 20
0.0
 30
0.0
  0
VERTEX
  5
478
  8
MARK__LASER_ONLY_
 10
1526.683129779513
 20
758.6532606170401
 30
0.0
  0
VERTEX
  5
479
  8
MARK__LASER_ONLY_
 10
1526.683129779513
 20
772.6183486457572
 30
0.0
  0
SEQEND
  5
E01
  8
MARK__LASER_ONLY_
  0
POLYLINE
  5
D8
  8
MARK__LASER_ONLY_
 66
     1
 10
0.0
 20
0.0
 30
0.0
  0
VERTEX
  5
47A
  8
MARK__LASER_ONLY_
 10
1592.840912271907
 20
927.8168702204869
 30
0.0
  0
VERTEX
  5
47B
  8
MARK__LASER_ONLY_
 10
1596.332184279086
 20
927.8168702204869
 30
0.0
  0
SEQEND
  5
E02
  8
MARK__LASER_ONLY_
  0
POLYLINE
  5
D9
  8
MARK__LASER_ONLY_
 66
     1
 10
0.0
 20
0.0
 30
0.0
  0
VERTEX
  5
47C
  8
MARK__LASER_ONLY_
 10
1613.791500514819
 20
927.8168702204869
 30
0.0
  0
VERTEX
  5
47D
  8
MARK__LASER_ONLY_
 10
1617.282772521998
 20
927.8168702204869
 30
0.0
  0
SEQEND
  5
E03
  8
MARK__LASER_ONLY_
  0
POLYLINE
  5
DA
  8
MARK__LASER_ONLY_
 66
     1
 10
0.0
 20
0.0
 30
0.0
  0
VERTEX
  5
47E
  8
MARK__LASER_ONLY_
 10
1619.029886625506
 20
927.8168702204869
 30
0.0
  0
VERTEX
  5
47F
  8
MARK__LASER_ONLY_
 10
1632.994974654223
 20
927.8168702204869
 30
0.0
  0
SEQEND
  5
E04
  8
MARK__LASER_ONLY_
  0
POLYLINE
  5
DB
  8
MARK__LASER_ONLY_
 66
     1
 10
0.0
 20
0.0
 30
0.0
  0
VERTEX
  5
480
  8
MARK__LASER_ONLY_
 10
1634.742088757731
 20
927.8168702204869
 30
0.0
  0
VERTEX
  5
481
  8
MARK__LASER_ONLY_
 10
1638.23336076491
 20
927.8168702204869
 30
0.0
  0
SEQEND
  5
E05
  8
MARK__LASER_ONLY_
  0
POLYLINE
  5
DC
  8
MARK__LASER_ONLY_
 66
     1
 10
0.0
 20
0.0
 30
0.0
  0
VERTEX
  5
482
  8
MARK__LASER_ONLY_
 10
1718.54444172938
 20
927.8168702204869
 30
0.0
  0
VERTEX
  5
483
  8
MARK__LASER_ONLY_
 10
1722.03571373656
 20
927.8168702204869
 30
0.0
  0
SEQEND
  5
E06
  8
MARK__LASER_ONLY_
  0
POLYLINE
  5
DD
  8
MARK__LASER_ONLY_
 66
     1
 10
0.0
 20
0.0
 30
0.0
  0
VERTEX
  5
484
  8
MARK__LASER_ONLY_
 10
1681.881651354243
 20
927.8168702204869
 30
0.0
  0
VERTEX
  5
485
  8
MARK__LASER_ONLY_
 10
1695.84673938296
 20
927.8168702204869
 30
0.0
  0
SEQEND
  5
E07
  8
MARK__LASER_ONLY_
  0
POLYLINE
  5
DE
  8
MARK__LASER_ONLY_
 66
     1
 10
0.0
 20
0.0
 30
0.0
  0
VERTEX
  5
486
  8
MARK__LASER_ONLY_
 10
1697.593853486468
 20
927.8168702204869
 30
0.0
  0
VERTEX
  5
487
  8
MARK__LASER_ONLY_
 10
1701.085125493647
 20
927.8168702204869
 30
0.0
  0
SEQEND
  5
E08
  8
MARK__LASER_ONLY_
  0
POLYLINE
  5
DF
  8
MARK__LASER_ONLY_
 66
     1
 10
0.0
 20
0.0
 30
0.0
  0
VERTEX
  5
488
  8
MARK__LASER_ONLY_
 10
1744.73341608298
 20
927.8168702204869
 30
0.0
  0
VERTEX
  5
489
  8
MARK__LASER_ONLY_
 10
1758.698504111697
 20
927.8168702204869
 30
0.0
  0
SEQEND
  5
E09
  8
MARK__LASER_ONLY_
  0
POLYLINE
  5
E0
  8
MARK__LASER_ONLY_
 66
     1
 10
0.0
 20
0.0
 30
0.0
  0
VERTEX
  5
48A
  8
MARK__LASER_ONLY_
 10
1892.946437443515
 20
730.7171721599326
 30
0.0
  0
VERTEX
  5
48B
  8
MARK__LASER_ONLY_
 10
1892.946437443515
 20
716.7520841312155
 30
0.0
  0
SEQEND
  5
E0A
  8
MARK__LASER_ONLY_
  0
POLYLINE
  5
E1
  8
MARK__LASER_ONLY_
 66
     1
 10
0.0
 20
0.0
 30
0.0
  0
VERTEX
  5
48C
  8
MARK__LASER_ONLY_
 10
1760.445618215205
 20
927.8168702204869
 30
0.0
  0
VERTEX
  5
48D
  8
MARK__LASER_ONLY_
 10
1763.936890222384
 20
927.8168702204869
 30
0.0
  0
SEQEND
  5
E0B
  8
MARK__LASER_ONLY_
  0
POLYLINE
  5
E2
  8
MARK__LASER_ONLY_
 66
     1
 10
0.0
 20
0.0
 30
0.0
  0
VERTEX
  5
48E
  8
MARK__LASER_ONLY_
 10
1765.684004325892
 20
927.8168702204869
 30
0.0
  0
VERTEX
  5
48F
  8
MARK__LASER_ONLY_
 10
1779.649092354609
 20
927.8168702204869
 30
0.0
  0
SEQEND
  5
E0C
  8
MARK__LASER_ONLY_
  0
POLYLINE
  5
E3
  8
MARK__LASER_ONLY_
 66
     1
 10
0.0
 20
0.0
 30
0.0
  0
VERTEX
  5
490
  8
MARK__LASER_ONLY_
 10
1781.396206458117
 20
927.8168702204869
 30
0.0
  0
VERTEX
  5
491
  8
MARK__LASER_ONLY_
 10
1784.887478465297
 20
927.8168702204869
 30
0.0
  0
SEQEND
  5
E0D
  8
MARK__LASER_ONLY_
  0
POLYLINE
  5
E4
  8
MARK__LASER_ONLY_
 66
     1
 10
0.0
 20
0.0
 30
0.0
  0
VERTEX
  5
492
  8
MARK__LASER_ONLY_
 10
1785.588028679181
 20
211.5303013869108
 30
0.0
  0
VERTEX
  5
493
  8
MARK__LASER_ONLY_
 10
1771.088130704022
 20
211.5303013869108
 30
0.0
  0
SEQEND
  5
E0E
  8
MARK__LASER_ONLY_
  0
POLYLINE
  5
E5
  8
MARK__LASER_ONLY_
 66
     1
 10
0.0
 20
0.0
 30
0.0
  0
VERTEX
  5
494
  8
MARK__LASER_ONLY_
 10
1640.570632461072
 20
502.8168702204873
 30
0.0
  0
VERTEX
  5
495
  8
MARK__LASER_ONLY_
 10
1655.070530436231
 20
502.8168702204873
 30
0.0
  0
SEQEND
  5
E0F
  8
MARK__LASER_ONLY_
  0
POLYLINE
  5
E6
  8
MARK__LASER_ONLY_
 66
     1
 10
0.0
 20
0.0
 30
0.0
  0
VERTEX
  5
496
  8
MARK__LASER_ONLY_
 10
1545.683129779513
 20
371.6765531899451
 30
0.0
  0
VERTEX
  5
497
  8
MARK__LASER_ONLY_
 10
1545.683129779513
 20
386.1764511651038
 30
0.0
  0
SEQEND
  5
E10
  8
MARK__LASER_ONLY_
  0
POLYLINE
  5
E7
  8
MARK__LASER_ONLY_
 66
     1
 10
0.0
 20
0.0
 30
0.0
  0
VERTEX
  5
498
  8
MARK__LASER_ONLY_
 10
1684.076465208723
 20
502.8168702204873
 30
0.0
  0
VERTEX
  5
499
  8
MARK__LASER_ONLY_
 10
1698.576363183881
 20
502.8168702204871
 30
0.0
  0
SEQEND
  5
E11
  8
MARK__LASER_ONLY_
  0
POLYLINE
  5
E8
  8
MARK__LASER_ONLY_
 66
     1
 10
0.0
 20
0.0
 30
0.0
  0
VERTEX
  5
49A
  8
MARK__LASER_ONLY_
 10
1836.969698613089
 20
326.3566984898559
 30
0.0
  0
VERTEX
  5
49B
  8
MARK__LASER_ONLY_
 10
1836.969698613089
 20
322.7317239960663
 30
0.0
  0
SEQEND
  5
E12
  8
MARK__LASER_ONLY_
  0
POLYLINE
  5
E9
  8
MARK__LASER_ONLY_
 66
     1
 10
0.0
 20
0.0
 30
0.0
  0
VERTEX
  5
49C
  8
MARK__LASER_ONLY_
 10
1633.317614062405
 20
211.5303013869108
 30
0.0
  0
VERTEX
  5
49D
  8
MARK__LASER_ONLY_
 10
1618.817716087246
 20
211.5303013869108
 30
0.0
  0
SEQEND
  5
E13
  8
MARK__LASER_ONLY_
  0
POLYLINE
  5
EA
  8
MARK__LASER_ONLY_
 66
     1
 10
0.0
 20
0.0
 30
0.0
  0
VERTEX
  5
49E
  8
MARK__LASER_ONLY_
 10
1836.969698613089
 20
369.8625312375061
 30
0.0
  0
VERTEX
  5
49F
  8
MARK__LASER_ONLY_
 10
1836.969698613089
 20
366.2375567437164
 30
0.0
  0
SEQEND
  5
E14
  8
MARK__LASER_ONLY_
  0
POLYLINE
  5
EB
  8
MARK__LASER_ONLY_
 66
     1
 10
0.0
 20
0.0
 30
0.0
  0
VERTEX
  5
4A0
  8
MARK__LASER_ONLY_
 10
1618.817716087247
 20
502.8168702204872
 30
0.0
  0
VERTEX
  5
4A1
  8
MARK__LASER_ONLY_
 10
1633.317614062406
 20
502.8168702204873
 30
0.0
  0
SEQEND
  5
E15
  8
MARK__LASER_ONLY_
  0
POLYLINE
  5
EC
  8
MARK__LASER_ONLY_
 66
     1
 10
0.0
 20
0.0
 30
0.0
  0
VERTEX
  5
4A2
  8
MARK__LASER_ONLY_
 10
1792.841047077848
 20
502.8168702204871
 30
0.0
  0
VERTEX
  5
4A3
  8
MARK__LASER_ONLY_
 10
1810.967453634496
 20
502.8168702204871
 30
0.0
  0
SEQEND
  5
E16
  8
MARK__LASER_ONLY_
  0
POLYLINE
  5
ED
  8
MARK__LASER_ONLY_
 66
     1
 10
0.0
 20
0.0
 30
0.0
  0
VERTEX
  5
4A4
  8
MARK__LASER_ONLY_
 10
1836.969698613089
 20
476.8146252418933
 30
0.0
  0
VERTEX
  5
4A5
  8
MARK__LASER_ONLY_
 10
1836.969698613089
 20
458.6882186852447
 30
0.0
  0
SEQEND
  5
E17
  8
MARK__LASER_ONLY_
  0
POLYLINE
  5
EE
  8
MARK__LASER_ONLY_
 66
     1
 10
0.0
 20
0.0
 30
0.0
  0
VERTEX
  5
4A6
  8
MARK__LASER_ONLY_
 10
1545.683129779513
 20
409.7433894913672
 30
0.0
  0
VERTEX
  5
4A7
  8
MARK__LASER_ONLY_
 10
1545.683129779513
 20
413.3683639851569
 30
0.0
  0
SEQEND
  5
E18
  8
MARK__LASER_ONLY_
  0
POLYLINE
  5
EF
  8
MARK__LASER_ONLY_
 66
     1
 10
0.0
 20
0.0
 30
0.0
  0
VERTEX
  5
4A8
  8
MARK__LASER_ONLY_
 10
1836.969698613089
 20
299.1647856698028
 30
0.0
  0
VERTEX
  5
4A9
  8
MARK__LASER_ONLY_
 10
1836.969698613089
 20
284.6648876946442
 30
0.0
  0
SEQEND
  5
E19
  8
MARK__LASER_ONLY_
  0
POLYLINE
  5
F0
  8
MARK__LASER_ONLY_
 66
     1
 10
0.0
 20
0.0
 30
0.0
  0
VERTEX
  5
4AA
  8
MARK__LASER_ONLY_
 10
1836.969698613089
 20
364.4235347912781
 30
0.0
  0
VERTEX
  5
4AB
  8
MARK__LASER_ONLY_
 10
1836.969698613089
 20
349.9236368161194
 30
0.0
  0
SEQEND
  5
E1A
  8
MARK__LASER_ONLY_
  0
POLYLINE
  5
F1
  8
MARK__LASER_ONLY_
 66
     1
 10
0.0
 20
0.0
 30
0.0
  0
VERTEX
  5
4AC
  8
MARK__LASER_ONLY_
 10
1769.274108751584
 20
211.5303013869108
 30
0.0
  0
VERTEX
  5
4AD
  8
MARK__LASER_ONLY_
 10
1765.649134257794
 20
211.5303013869108
 30
0.0
  0
SEQEND
  5
E1B
  8
MARK__LASER_ONLY_
  0
POLYLINE
  5
F2
  8
MARK__LASER_ONLY_
 66
     1
 10
0.0
 20
0.0
 30
0.0
  0
VERTEX
  5
4AE
  8
MARK__LASER_ONLY_
 10
1763.835112305356
 20
211.5303013869108
 30
0.0
  0
VERTEX
  5
4AF
  8
MARK__LASER_ONLY_
 10
1749.335214330197
 20
211.5303013869108
 30
0.0
  0
SEQEND
  5
E1C
  8
MARK__LASER_ONLY_
  0
POLYLINE
  5
F3
  8
MARK__LASER_ONLY_
 66
     1
 10
0.0
 20
0.0
 30
0.0
  0
VERTEX
  5
4B0
  8
MARK__LASER_ONLY_
 10
1747.521192377759
 20
211.5303013869108
 30
0.0
  0
VERTEX
  5
4B1
  8
MARK__LASER_ONLY_
 10
1743.896217883969
 20
211.5303013869108
 30
0.0
  0
SEQEND
  5
E1D
  8
MARK__LASER_ONLY_
  0
POLYLINE
  5
F4
  8
MARK__LASER_ONLY_
 66
     1
 10
0.0
 20
0.0
 30
0.0
  0
VERTEX
  5
4B2
  8
MARK__LASER_ONLY_
 10
1742.08219593153
 20
211.5303013869108
 30
0.0
  0
VERTEX
  5
4B3
  8
MARK__LASER_ONLY_
 10
1727.582297956372
 20
211.5303013869108
 30
0.0
  0
SEQEND
  5
E1E
  8
MARK__LASER_ONLY_
  0
POLYLINE
  5
F5
  8
MARK__LASER_ONLY_
 66
     1
 10
0.0
 20
0.0
 30
0.0
  0
VERTEX
  5
4B4
  8
MARK__LASER_ONLY_
 10
1725.768276003933
 20
211.5303013869108
 30
0.0
  0
VERTEX
  5
4B5
  8
MARK__LASER_ONLY_
 10
1722.143301510144
 20
211.5303013869108
 30
0.0
  0
SEQEND
  5
E1F
  8
MARK__LASER_ONLY_
  0
POLYLINE
  5
F6
  8
MARK__LASER_ONLY_
 66
     1
 10
0.0
 20
0.0
 30
0.0
  0
VERTEX
  5
4B6
  8
MARK__LASER_ONLY_
 10
1720.329279557705
 20
211.5303013869108
 30
0.0
  0
VERTEX
  5
4B7
  8
MARK__LASER_ONLY_
 10
1705.829381582547
 20
211.5303013869108
 30
0.0
  0
SEQEND
  5
E20
  8
MARK__LASER_ONLY_
  0
POLYLINE
  5
F7
  8
MARK__LASER_ONLY_
 66
     1
 10
0.0
 20
0.0
 30
0.0
  0
VERTEX
  5
4B8
  8
MARK__LASER_ONLY_
 10
1704.015359630108
 20
211.5303013869108
 30
0.0
  0
VERTEX
  5
4B9
  8
MARK__LASER_ONLY_
 10
1700.390385136319
 20
211.5303013869108
 30
0.0
  0
SEQEND
  5
E21
  8
MARK__LASER_ONLY_
  0
POLYLINE
  5
F8
  8
MARK__LASER_ONLY_
 66
     1
 10
0.0
 20
0.0
 30
0.0
  0
VERTEX
  5
4BA
  8
MARK__LASER_ONLY_
 10
1698.57636318388
 20
211.5303013869108
 30
0.0
  0
VERTEX
  5
4BB
  8
MARK__LASER_ONLY_
 10
1684.076465208722
 20
211.5303013869108
 30
0.0
  0
SEQEND
  5
E22
  8
MARK__LASER_ONLY_
  0
POLYLINE
  5
F9
  8
MARK__LASER_ONLY_
 66
     1
 10
0.0
 20
0.0
 30
0.0
  0
VERTEX
  5
4BC
  8
MARK__LASER_ONLY_
 10
1682.262443256283
 20
211.5303013869108
 30
0.0
  0
VERTEX
  5
4BD
  8
MARK__LASER_ONLY_
 10
1678.637468762494
 20
211.5303013869108
 30
0.0
  0
SEQEND
  5
E23
  8
MARK__LASER_ONLY_
  0
POLYLINE
  5
FA
  8
MARK__LASER_ONLY_
 66
     1
 10
0.0
 20
0.0
 30
0.0
  0
VERTEX
  5
4BE
  8
MARK__LASER_ONLY_
 10
1676.823446810055
 20
211.5303013869108
 30
0.0
  0
VERTEX
  5
4BF
  8
MARK__LASER_ONLY_
 10
1662.323548834896
 20
211.5303013869108
 30
0.0
  0
SEQEND
  5
E24
  8
MARK__LASER_ONLY_
  0
POLYLINE
  5
FB
  8
MARK__LASER_ONLY_
 66
     1
 10
0.0
 20
0.0
 30
0.0
  0
VERTEX
  5
4C0
  8
MARK__LASER_ONLY_
 10
1660.509526882458
 20
211.5303013869108
 30
0.0
  0
VERTEX
  5
4C1
  8
MARK__LASER_ONLY_
 10
1656.884552388668
 20
211.5303013869108
 30
0.0
  0
SEQEND
  5
E25
  8
MARK__LASER_ONLY_
  0
POLYLINE
  5
FC
  8
MARK__LASER_ONLY_
 66
     1
 10
0.0
 20
0.0
 30
0.0
  0
VERTEX
  5
4C2
  8
MARK__LASER_ONLY_
 10
1655.07053043623
 20
211.5303013869108
 30
0.0
  0
VERTEX
  5
4C3
  8
MARK__LASER_ONLY_
 10
1640.570632461071
 20
211.5303013869108
 30
0.0
  0
SEQEND
  5
E26
  8
MARK__LASER_ONLY_
  0
POLYLINE
  5
FD
  8
MARK__LASER_ONLY_
 66
     1
 10
0.0
 20
0.0
 30
0.0
  0
VERTEX
  5
4C4
  8
MARK__LASER_ONLY_
 10
1638.756610508633
 20
211.5303013869108
 30
0.0
  0
VERTEX
  5
4C5
  8
MARK__LASER_ONLY_
 10
1635.131636014843
 20
211.5303013869108
 30
0.0
  0
SEQEND
  5
E27
  8
MARK__LASER_ONLY_
  0
POLYLINE
  5
FE
  8
MARK__LASER_ONLY_
 66
     1
 10
0.0
 20
0.0
 30
0.0
  0
VERTEX
  5
4C6
  8
MARK__LASER_ONLY_
 10
1617.003694134808
 20
211.5303013869108
 30
0.0
  0
VERTEX
  5
4C7
  8
MARK__LASER_ONLY_
 10
1613.378719641019
 20
211.5303013869108
 30
0.0
  0
SEQEND
  5
E28
  8
MARK__LASER_ONLY_
  0
POLYLINE
  5
FF
  8
MARK__LASER_ONLY_
 66
     1
 10
0.0
 20
0.0
 30
0.0
  0
VERTEX
  5
4C8
  8
MARK__LASER_ONLY_
 10
1611.56469768858
 20
211.5303013869108
 30
0.0
  0
VERTEX
  5
4C9
  8
MARK__LASER_ONLY_
 10
1597.064799713421
 20
211.5303013869108
 30
0.0
  0
SEQEND
  5
E29
  8
MARK__LASER_ONLY_
  0
POLYLINE
  5
100
  8
MARK__LASER_ONLY_
 66
     1
 10
0.0
 20
0.0
 30
0.0
  0
VERTEX
  5
4CA
  8
MARK__LASER_ONLY_
 10
1597.064799713422
 20
502.8168702204872
 30
0.0
  0
VERTEX
  5
4CB
  8
MARK__LASER_ONLY_
 10
1611.564697688581
 20
502.8168702204872
 30
0.0
  0
SEQEND
  5
E2A
  8
MARK__LASER_ONLY_
  0
POLYLINE
  5
101
  8
MARK__LASER_ONLY_
 66
     1
 10
0.0
 20
0.0
 30
0.0
  0
VERTEX
  5
4CC
  8
MARK__LASER_ONLY_
 10
1595.250777760983
 20
211.5303013869108
 30
0.0
  0
VERTEX
  5
4CD
  8
MARK__LASER_ONLY_
 10
1591.625803267193
 20
211.5303013869108
 30
0.0
  0
SEQEND
  5
E2B
  8
MARK__LASER_ONLY_
  0
POLYLINE
  5
102
  8
MARK__LASER_ONLY_
 66
     1
 10
0.0
 20
0.0
 30
0.0
  0
VERTEX
  5
4CE
  8
MARK__LASER_ONLY_
 10
1836.969698613089
 20
348.109614863681
 30
0.0
  0
VERTEX
  5
4CF
  8
MARK__LASER_ONLY_
 10
1836.969698613089
 20
344.4846403698913
 30
0.0
  0
SEQEND
  5
E2C
  8
MARK__LASER_ONLY_
  0
POLYLINE
  5
103
  8
MARK__LASER_ONLY_
 66
     1
 10
0.0
 20
0.0
 30
0.0
  0
VERTEX
  5
4D0
  8
MARK__LASER_ONLY_
 10
1589.811781314755
 20
211.5303013869108
 30
0.0
  0
VERTEX
  5
4D1
  8
MARK__LASER_ONLY_
 10
1571.685374758106
 20
211.5303013869108
 30
0.0
  0
SEQEND
  5
E2D
  8
MARK__LASER_ONLY_
  0
POLYLINE
  5
104
  8
MARK__LASER_ONLY_
 66
     1
 10
0.0
 20
0.0
 30
0.0
  0
VERTEX
  5
4D2
  8
MARK__LASER_ONLY_
 10
1571.685374758107
 20
502.8168702204872
 30
0.0
  0
VERTEX
  5
4D3
  8
MARK__LASER_ONLY_
 10
1589.811781314756
 20
502.8168702204872
 30
0.0
  0
SEQEND
  5
E2E
  8
MARK__LASER_ONLY_
  0
POLYLINE
  5
105
  8
MARK__LASER_ONLY_
 66
     1
 10
0.0
 20
0.0
 30
0.0
  0
VERTEX
  5
4D4
  8
MARK__LASER_ONLY_
 10
1613.378719641019
 20
502.8168702204872
 30
0.0
  0
VERTEX
  5
4D5
  8
MARK__LASER_ONLY_
 10
1617.003694134809
 20
502.8168702204872
 30
0.0
  0
SEQEND
  5
E2F
  8
MARK__LASER_ONLY_
  0
POLYLINE
  5
106
  8
MARK__LASER_ONLY_
 66
     1
 10
0.0
 20
0.0
 30
0.0
  0
VERTEX
  5
4D6
  8
MARK__LASER_ONLY_
 10
1635.131636014844
 20
502.8168702204873
 30
0.0
  0
VERTEX
  5
4D7
  8
MARK__LASER_ONLY_
 10
1638.756610508634
 20
502.8168702204873
 30
0.0
  0
SEQEND
  5
E30
  8
MARK__LASER_ONLY_
  0
POLYLINE
  5
107
  8
MARK__LASER_ONLY_
 66
     1
 10
0.0
 20
0.0
 30
0.0
  0
VERTEX
  5
4D8
  8
MARK__LASER_ONLY_
 10
1678.637468762495
 20
502.8168702204873
 30
0.0
  0
VERTEX
  5
4D9
  8
MARK__LASER_ONLY_
 10
1682.262443256284
 20
502.8168702204873
 30
0.0
  0
SEQEND
  5
E31
  8
MARK__LASER_ONLY_
  0
POLYLINE
  5
108
  8
MARK__LASER_ONLY_
 66
     1
 10
0.0
 20
0.0
 30
0.0
  0
VERTEX
  5
4DA
  8
MARK__LASER_ONLY_
 10
1700.39038513632
 20
502.8168702204871
 30
0.0
  0
VERTEX
  5
4DB
  8
MARK__LASER_ONLY_
 10
1704.015359630109
 20
502.8168702204871
 30
0.0
  0
SEQEND
  5
E32
  8
MARK__LASER_ONLY_
  0
POLYLINE
  5
109
  8
MARK__LASER_ONLY_
 66
     1
 10
0.0
 20
0.0
 30
0.0
  0
VERTEX
  5
4DC
  8
MARK__LASER_ONLY_
 10
1705.829381582548
 20
502.8168702204871
 30
0.0
  0
VERTEX
  5
4DD
  8
MARK__LASER_ONLY_
 10
1720.329279557706
 20
502.8168702204871
 30
0.0
  0
SEQEND
  5
E33
  8
MARK__LASER_ONLY_
  0
POLYLINE
  5
10A
  8
MARK__LASER_ONLY_
 66
     1
 10
0.0
 20
0.0
 30
0.0
  0
VERTEX
  5
4DE
  8
MARK__LASER_ONLY_
 10
1722.143301510145
 20
502.8168702204871
 30
0.0
  0
VERTEX
  5
4DF
  8
MARK__LASER_ONLY_
 10
1725.768276003934
 20
502.8168702204871
 30
0.0
  0
SEQEND
  5
E34
  8
MARK__LASER_ONLY_
  0
POLYLINE
  5
10B
  8
MARK__LASER_ONLY_
 66
     1
 10
0.0
 20
0.0
 30
0.0
  0
VERTEX
  5
4E0
  8
MARK__LASER_ONLY_
 10
1727.582297956373
 20
502.8168702204871
 30
0.0
  0
VERTEX
  5
4E1
  8
MARK__LASER_ONLY_
 10
1742.082195931531
 20
502.8168702204871
 30
0.0
  0
SEQEND
  5
E35
  8
MARK__LASER_ONLY_
  0
POLYLINE
  5
10C
  8
MARK__LASER_ONLY_
 66
     1
 10
0.0
 20
0.0
 30
0.0
  0
VERTEX
  5
4E2
  8
MARK__LASER_ONLY_
 10
1765.649134257795
 20
502.8168702204871
 30
0.0
  0
VERTEX
  5
4E3
  8
MARK__LASER_ONLY_
 10
1769.274108751585
 20
502.8168702204871
 30
0.0
  0
SEQEND
  5
E36
  8
MARK__LASER_ONLY_
  0
POLYLINE
  5
10D
  8
MARK__LASER_ONLY_
 66
     1
 10
0.0
 20
0.0
 30
0.0
  0
VERTEX
  5
4E4
  8
MARK__LASER_ONLY_
 10
1771.088130704023
 20
502.8168702204871
 30
0.0
  0
VERTEX
  5
4E5
  8
MARK__LASER_ONLY_
 10
1785.588028679182
 20
502.8168702204871
 30
0.0
  0
SEQEND
  5
E37
  8
MARK__LASER_ONLY_
  0
POLYLINE
  5
10E
  8
MARK__LASER_ONLY_
 66
     1
 10
0.0
 20
0.0
 30
0.0
  0
VERTEX
  5
4E6
  8
MARK__LASER_ONLY_
 10
1787.40205063162
 20
502.8168702204871
 30
0.0
  0
VERTEX
  5
4E7
  8
MARK__LASER_ONLY_
 10
1791.02702512541
 20
502.8168702204871
 30
0.0
  0
SEQEND
  5
E38
  8
MARK__LASER_ONLY_
  0
POLYLINE
  5
10F
  8
MARK__LASER_ONLY_
 66
     1
 10
0.0
 20
0.0
 30
0.0
  0
VERTEX
  5
4E8
  8
MARK__LASER_ONLY_
 10
1545.683129779513
 20
237.5325463655048
 30
0.0
  0
VERTEX
  5
4E9
  8
MARK__LASER_ONLY_
 10
1545.683129779513
 20
255.6589529221533
 30
0.0
  0
SEQEND
  5
E39
  8
MARK__LASER_ONLY_
  0
POLYLINE
  5
110
  8
MARK__LASER_ONLY_
 66
     1
 10
0.0
 20
0.0
 30
0.0
  0
VERTEX
  5
4EA
  8
MARK__LASER_ONLY_
 10
1545.683129779513
 20
262.9119713208197
 30
0.0
  0
VERTEX
  5
4EB
  8
MARK__LASER_ONLY_
 10
1545.683129779513
 20
277.4118692959784
 30
0.0
  0
SEQEND
  5
E3A
  8
MARK__LASER_ONLY_
  0
POLYLINE
  5
111
  8
MARK__LASER_ONLY_
 66
     1
 10
0.0
 20
0.0
 30
0.0
  0
VERTEX
  5
4EC
  8
MARK__LASER_ONLY_
 10
1545.683129779513
 20
328.170720442295
 30
0.0
  0
VERTEX
  5
4ED
  8
MARK__LASER_ONLY_
 10
1545.683129779513
 20
342.6706184174536
 30
0.0
  0
SEQEND
  5
E3B
  8
MARK__LASER_ONLY_
  0
POLYLINE
  5
112
  8
MARK__LASER_ONLY_
 66
     1
 10
0.0
 20
0.0
 30
0.0
  0
VERTEX
  5
4EE
  8
MARK__LASER_ONLY_
 10
1545.683129779513
 20
344.484640369892
 30
0.0
  0
VERTEX
  5
4EF
  8
MARK__LASER_ONLY_
 10
1545.683129779513
 20
348.1096148636817
 30
0.0
  0
SEQEND
  5
E3C
  8
MARK__LASER_ONLY_
  0
POLYLINE
  5
113
  8
MARK__LASER_ONLY_
 66
     1
 10
0.0
 20
0.0
 30
0.0
  0
VERTEX
  5
4F0
  8
MARK__LASER_ONLY_
 10
1545.683129779513
 20
349.9236368161201
 30
0.0
  0
VERTEX
  5
4F1
  8
MARK__LASER_ONLY_
 10
1545.683129779513
 20
364.4235347912787
 30
0.0
  0
SEQEND
  5
E3D
  8
MARK__LASER_ONLY_
  0
POLYLINE
  5
114
  8
MARK__LASER_ONLY_
 66
     1
 10
0.0
 20
0.0
 30
0.0
  0
VERTEX
  5
4F2
  8
MARK__LASER_ONLY_
 10
1545.683129779513
 20
436.9353023114204
 30
0.0
  0
VERTEX
  5
4F3
  8
MARK__LASER_ONLY_
 10
1545.683129779513
 20
451.4352002865791
 30
0.0
  0
SEQEND
  5
E3E
  8
MARK__LASER_ONLY_
  0
POLYLINE
  5
115
  8
MARK__LASER_ONLY_
 66
     1
 10
0.0
 20
0.0
 30
0.0
  0
VERTEX
  5
4F4
  8
MARK__LASER_ONLY_
 10
1545.683129779513
 20
387.9904731175421
 30
0.0
  0
VERTEX
  5
4F5
  8
MARK__LASER_ONLY_
 10
1545.683129779513
 20
391.6154476113319
 30
0.0
  0
SEQEND
  5
E3F
  8
MARK__LASER_ONLY_
  0
POLYLINE
  5
116
  8
MARK__LASER_ONLY_
 66
     1
 10
0.0
 20
0.0
 30
0.0
  0
VERTEX
  5
4F6
  8
MARK__LASER_ONLY_
 10
1545.683129779513
 20
393.4294695637702
 30
0.0
  0
VERTEX
  5
4F7
  8
MARK__LASER_ONLY_
 10
1545.683129779513
 20
407.9293675389289
 30
0.0
  0
SEQEND
  5
E40
  8
MARK__LASER_ONLY_
  0
POLYLINE
  5
117
  8
MARK__LASER_ONLY_
 66
     1
 10
0.0
 20
0.0
 30
0.0
  0
VERTEX
  5
4F8
  8
MARK__LASER_ONLY_
 10
1545.683129779513
 20
415.1823859375953
 30
0.0
  0
VERTEX
  5
4F9
  8
MARK__LASER_ONLY_
 10
1545.683129779513
 20
429.682283912754
 30
0.0
  0
SEQEND
  5
E41
  8
MARK__LASER_ONLY_
  0
POLYLINE
  5
118
  8
MARK__LASER_ONLY_
 66
     1
 10
0.0
 20
0.0
 30
0.0
  0
VERTEX
  5
4FA
  8
MARK__LASER_ONLY_
 10
1545.683129779513
 20
431.4963058651923
 30
0.0
  0
VERTEX
  5
4FB
  8
MARK__LASER_ONLY_
 10
1545.683129779513
 20
435.1212803589819
 30
0.0
  0
SEQEND
  5
E42
  8
MARK__LASER_ONLY_
  0
POLYLINE
  5
119
  8
MARK__LASER_ONLY_
 66
     1
 10
0.0
 20
0.0
 30
0.0
  0
VERTEX
  5
4FC
  8
MARK__LASER_ONLY_
 10
1836.969698613089
 20
413.3683639851562
 30
0.0
  0
VERTEX
  5
4FD
  8
MARK__LASER_ONLY_
 10
1836.969698613089
 20
409.7433894913666
 30
0.0
  0
SEQEND
  5
E43
  8
MARK__LASER_ONLY_
  0
POLYLINE
  5
11A
  8
MARK__LASER_ONLY_
 66
     1
 10
0.0
 20
0.0
 30
0.0
  0
VERTEX
  5
4FE
  8
MARK__LASER_ONLY_
 10
1545.683129779513
 20
458.6882186852454
 30
0.0
  0
VERTEX
  5
4FF
  8
MARK__LASER_ONLY_
 10
1545.683129779513
 20
476.814625241894
 30
0.0
  0
SEQEND
  5
E44
  8
MARK__LASER_ONLY_
  0
POLYLINE
  5
11B
  8
MARK__LASER_ONLY_
 66
     1
 10
0.0
 20
0.0
 30
0.0
  0
VERTEX
  5
500
  8
MARK__LASER_ONLY_
 10
1836.969698613089
 20
456.8741967328064
 30
0.0
  0
VERTEX
  5
501
  8
MARK__LASER_ONLY_
 10
1836.969698613089
 20
453.2492222390167
 30
0.0
  0
SEQEND
  5
E45
  8
MARK__LASER_ONLY_
  0
POLYLINE
  5
11C
  8
MARK__LASER_ONLY_
 66
     1
 10
0.0
 20
0.0
 30
0.0
  0
VERTEX
  5
502
  8
MARK__LASER_ONLY_
 10
1836.969698613089
 20
435.1212803589813
 30
0.0
  0
VERTEX
  5
503
  8
MARK__LASER_ONLY_
 10
1836.969698613089
 20
431.4963058651917
 30
0.0
  0
SEQEND
  5
E46
  8
MARK__LASER_ONLY_
  0
POLYLINE
  5
11D
  8
MARK__LASER_ONLY_
 66
     1
 10
0.0
 20
0.0
 30
0.0
  0
VERTEX
  5
504
  8
MARK__LASER_ONLY_
 10
1836.969698613089
 20
429.6822839127533
 30
0.0
  0
VERTEX
  5
505
  8
MARK__LASER_ONLY_
 10
1836.969698613089
 20
415.1823859375946
 30
0.0
  0
SEQEND
  5
E47
  8
MARK__LASER_ONLY_
  0
POLYLINE
  5
11E
  8
MARK__LASER_ONLY_
 66
     1
 10
0.0
 20
0.0
 30
0.0
  0
VERTEX
  5
506
  8
MARK__LASER_ONLY_
 10
1836.969698613089
 20
391.6154476113311
 30
0.0
  0
VERTEX
  5
507
  8
MARK__LASER_ONLY_
 10
1836.969698613089
 20
387.9904731175415
 30
0.0
  0
SEQEND
  5
E48
  8
MARK__LASER_ONLY_
  0
POLYLINE
  5
11F
  8
MARK__LASER_ONLY_
 66
     1
 10
0.0
 20
0.0
 30
0.0
  0
VERTEX
  5
508
  8
MARK__LASER_ONLY_
 10
1836.969698613089
 20
386.1764511651031
 30
0.0
  0
VERTEX
  5
509
  8
MARK__LASER_ONLY_
 10
1836.969698613089
 20
371.6765531899445
 30
0.0
  0
SEQEND
  5
E49
  8
MARK__LASER_ONLY_
  0
POLYLINE
  5
120
  8
MARK__LASER_ONLY_
 66
     1
 10
0.0
 20
0.0
 30
0.0
  0
VERTEX
  5
50A
  8
MARK__LASER_ONLY_
 10
1836.969698613089
 20
320.9177020436279
 30
0.0
  0
VERTEX
  5
50B
  8
MARK__LASER_ONLY_
 10
1836.969698613089
 20
306.4178040684693
 30
0.0
  0
SEQEND
  5
E4A
  8
MARK__LASER_ONLY_
  0
POLYLINE
  5
121
  8
MARK__LASER_ONLY_
 66
     1
 10
0.0
 20
0.0
 30
0.0
  0
VERTEX
  5
50C
  8
MARK__LASER_ONLY_
 10
1836.969698613089
 20
277.4118692959777
 30
0.0
  0
VERTEX
  5
50D
  8
MARK__LASER_ONLY_
 10
1836.969698613089
 20
262.9119713208191
 30
0.0
  0
SEQEND
  5
E4B
  8
MARK__LASER_ONLY_
  0
POLYLINE
  5
122
  8
MARK__LASER_ONLY_
 66
     1
 10
0.0
 20
0.0
 30
0.0
  0
VERTEX
  5
50E
  8
MARK__LASER_ONLY_
 10
1836.969698613089
 20
261.0979493683807
 30
0.0
  0
VERTEX
  5
50F
  8
MARK__LASER_ONLY_
 10
1836.969698613089
 20
257.472974874591
 30
0.0
  0
SEQEND
  5
E4C
  8
MARK__LASER_ONLY_
  0
POLYLINE
  5
123
  8
MARK__LASER_ONLY_
 66
     1
 10
0.0
 20
0.0
 30
0.0
  0
VERTEX
  5
510
  8
MARK__LASER_ONLY_
 10
1836.969698613089
 20
255.6589529221527
 30
0.0
  0
VERTEX
  5
511
  8
MARK__LASER_ONLY_
 10
1836.969698613089
 20
237.5325463655042
 30
0.0
  0
SEQEND
  5
E4D
  8
MARK__LASER_ONLY_
  0
POLYLINE
  5
124
  8
MARK__LASER_ONLY_
 66
     1
 10
0.0
 20
0.0
 30
0.0
  0
VERTEX
  5
512
  8
MARK__LASER_ONLY_
 10
1662.323548834897
 20
502.8168702204873
 30
0.0
  0
VERTEX
  5
513
  8
MARK__LASER_ONLY_
 10
1676.823446810056
 20
502.8168702204873
 30
0.0
  0
SEQEND
  5
E4E
  8
MARK__LASER_ONLY_
  0
POLYLINE
  5
125
  8
MARK__LASER_ONLY_
 66
     1
 10
0.0
 20
0.0
 30
0.0
  0
VERTEX
  5
514
  8
MARK__LASER_ONLY_
 10
1810.967453634496
 20
211.5303013869108
 30
0.0
  0
VERTEX
  5
515
  8
MARK__LASER_ONLY_
 10
1792.841047077847
 20
211.5303013869108
 30
0.0
  0
SEQEND
  5
E4F
  8
MARK__LASER_ONLY_
  0
POLYLINE
  5
126
  8
MARK__LASER_ONLY_
 66
     1
 10
0.0
 20
0.0
 30
0.0
  0
VERTEX
  5
516
  8
MARK__LASER_ONLY_
 10
1545.683129779513
 20
257.4729748745917
 30
0.0
  0
VERTEX
  5
517
  8
MARK__LASER_ONLY_
 10
1545.683129779513
 20
261.0979493683814
 30
0.0
  0
SEQEND
  5
E50
  8
MARK__LASER_ONLY_
  0
POLYLINE
  5
127
  8
MARK__LASER_ONLY_
 66
     1
 10
0.0
 20
0.0
 30
0.0
  0
VERTEX
  5
518
  8
MARK__LASER_ONLY_
 10
1545.683129779513
 20
322.731723996067
 30
0.0
  0
VERTEX
  5
519
  8
MARK__LASER_ONLY_
 10
1545.683129779513
 20
326.3566984898566
 30
0.0
  0
SEQEND
  5
E51
  8
MARK__LASER_ONLY_
  0
POLYLINE
  5
128
  8
MARK__LASER_ONLY_
 66
     1
 10
0.0
 20
0.0
 30
0.0
  0
VERTEX
  5
51A
  8
MARK__LASER_ONLY_
 10
1656.884552388669
 20
502.8168702204873
 30
0.0
  0
VERTEX
  5
51B
  8
MARK__LASER_ONLY_
 10
1660.509526882459
 20
502.8168702204873
 30
0.0
  0
SEQEND
  5
E52
  8
MARK__LASER_ONLY_
  0
POLYLINE
  5
129
  8
MARK__LASER_ONLY_
 66
     1
 10
0.0
 20
0.0
 30
0.0
  0
VERTEX
  5
51C
  8
MARK__LASER_ONLY_
 10
1836.969698613089
 20
304.6037821160309
 30
0.0
  0
VERTEX
  5
51D
  8
MARK__LASER_ONLY_
 10
1836.969698613089
 20
300.9788076222412
 30
0.0
  0
SEQEND
  5
E53
  8
MARK__LASER_ONLY_
  0
POLYLINE
  5
12A
  8
MARK__LASER_ONLY_
 66
     1
 10
0.0
 20
0.0
 30
0.0
  0
VERTEX
  5
51E
  8
MARK__LASER_ONLY_
 10
1836.969698613089
 20
407.9293675389282
 30
0.0
  0
VERTEX
  5
51F
  8
MARK__LASER_ONLY_
 10
1836.969698613089
 20
393.4294695637695
 30
0.0
  0
SEQEND
  5
E54
  8
MARK__LASER_ONLY_
  0
POLYLINE
  5
12B
  8
MARK__LASER_ONLY_
 66
     1
 10
0.0
 20
0.0
 30
0.0
  0
VERTEX
  5
520
  8
MARK__LASER_ONLY_
 10
1743.89621788397
 20
502.8168702204871
 30
0.0
  0
VERTEX
  5
521
  8
MARK__LASER_ONLY_
 10
1747.521192377759
 20
502.8168702204871
 30
0.0
  0
SEQEND
  5
E55
  8
MARK__LASER_ONLY_
  0
POLYLINE
  5
12C
  8
MARK__LASER_ONLY_
 66
     1
 10
0.0
 20
0.0
 30
0.0
  0
VERTEX
  5
522
  8
MARK__LASER_ONLY_
 10
1545.683129779513
 20
300.9788076222418
 30
0.0
  0
VERTEX
  5
523
  8
MARK__LASER_ONLY_
 10
1545.683129779513
 20
304.6037821160315
 30
0.0
  0
SEQEND
  5
E56
  8
MARK__LASER_ONLY_
  0
POLYLINE
  5
12D
  8
MARK__LASER_ONLY_
 66
     1
 10
0.0
 20
0.0
 30
0.0
  0
VERTEX
  5
524
  8
MARK__LASER_ONLY_
 10
1836.969698613089
 20
451.4352002865784
 30
0.0
  0
VERTEX
  5
525
  8
MARK__LASER_ONLY_
 10
1836.969698613089
 20
436.9353023114197
 30
0.0
  0
SEQEND
  5
E57
  8
MARK__LASER_ONLY_
  0
POLYLINE
  5
12E
  8
MARK__LASER_ONLY_
 66
     1
 10
0.0
 20
0.0
 30
0.0
  0
VERTEX
  5
526
  8
MARK__LASER_ONLY_
 10
1545.683129779513
 20
279.2258912484168
 30
0.0
  0
VERTEX
  5
527
  8
MARK__LASER_ONLY_
 10
1545.683129779513
 20
282.8508657422065
 30
0.0
  0
SEQEND
  5
E58
  8
MARK__LASER_ONLY_
  0
POLYLINE
  5
12F
  8
MARK__LASER_ONLY_
 66
     1
 10
0.0
 20
0.0
 30
0.0
  0
VERTEX
  5
528
  8
MARK__LASER_ONLY_
 10
1545.683129779513
 20
284.6648876946448
 30
0.0
  0
VERTEX
  5
529
  8
MARK__LASER_ONLY_
 10
1545.683129779513
 20
299.1647856698035
 30
0.0
  0
SEQEND
  5
E59
  8
MARK__LASER_ONLY_
  0
POLYLINE
  5
130
  8
MARK__LASER_ONLY_
 66
     1
 10
0.0
 20
0.0
 30
0.0
  0
VERTEX
  5
52A
  8
MARK__LASER_ONLY_
 10
1749.335214330198
 20
502.8168702204871
 30
0.0
  0
VERTEX
  5
52B
  8
MARK__LASER_ONLY_
 10
1763.835112305356
 20
502.8168702204871
 30
0.0
  0
SEQEND
  5
E5A
  8
MARK__LASER_ONLY_
  0
POLYLINE
  5
131
  8
MARK__LASER_ONLY_
 66
     1
 10
0.0
 20
0.0
 30
0.0
  0
VERTEX
  5
52C
  8
MARK__LASER_ONLY_
 10
1545.683129779513
 20
306.4178040684699
 30
0.0
  0
VERTEX
  5
52D
  8
MARK__LASER_ONLY_
 10
1545.683129779513
 20
320.9177020436285
 30
0.0
  0
SEQEND
  5
E5B
  8
MARK__LASER_ONLY_
  0
POLYLINE
  5
132
  8
MARK__LASER_ONLY_
 66
     1
 10
0.0
 20
0.0
 30
0.0
  0
VERTEX
  5
52E
  8
MARK__LASER_ONLY_
 10
1791.027025125409
 20
211.5303013869108
 30
0.0
  0
VERTEX
  5
52F
  8
MARK__LASER_ONLY_
 10
1787.402050631619
 20
211.5303013869108
 30
0.0
  0
SEQEND
  5
E5C
  8
MARK__LASER_ONLY_
  0
POLYLINE
  5
133
  8
MARK__LASER_ONLY_
 66
     1
 10
0.0
 20
0.0
 30
0.0
  0
VERTEX
  5
530
  8
MARK__LASER_ONLY_
 10
1545.683129779513
 20
453.2492222390174
 30
0.0
  0
VERTEX
  5
531
  8
MARK__LASER_ONLY_
 10
1545.683129779513
 20
456.874196732807
 30
0.0
  0
SEQEND
  5
E5D
  8
MARK__LASER_ONLY_
  0
POLYLINE
  5
134
  8
MARK__LASER_ONLY_
 66
     1
 10
0.0
 20
0.0
 30
0.0
  0
VERTEX
  5
532
  8
MARK__LASER_ONLY_
 10
1836.969698613089
 20
342.670618417453
 30
0.0
  0
VERTEX
  5
533
  8
MARK__LASER_ONLY_
 10
1836.969698613089
 20
328.1707204422943
 30
0.0
  0
SEQEND
  5
E5E
  8
MARK__LASER_ONLY_
  0
POLYLINE
  5
135
  8
MARK__LASER_ONLY_
 66
     1
 10
0.0
 20
0.0
 30
0.0
  0
VERTEX
  5
534
  8
MARK__LASER_ONLY_
 10
1591.625803267194
 20
502.8168702204872
 30
0.0
  0
VERTEX
  5
535
  8
MARK__LASER_ONLY_
 10
1595.250777760984
 20
502.8168702204872
 30
0.0
  0
SEQEND
  5
E5F
  8
MARK__LASER_ONLY_
  0
POLYLINE
  5
136
  8
MARK__LASER_ONLY_
 66
     1
 10
0.0
 20
0.0
 30
0.0
  0
VERTEX
  5
536
  8
MARK__LASER_ONLY_
 10
1836.969698613089
 20
282.8508657422058
 30
0.0
  0
VERTEX
  5
537
  8
MARK__LASER_ONLY_
 10
1836.969698613089
 20
279.2258912484161
 30
0.0
  0
SEQEND
  5
E60
  8
MARK__LASER_ONLY_
  0
POLYLINE
  5
137
  8
MARK__LASER_ONLY_
 66
     1
 10
0.0
 20
0.0
 30
0.0
  0
VERTEX
  5
538
  8
MARK__LASER_ONLY_
 10
1545.683129779513
 20
366.2375567437171
 30
0.0
  0
VERTEX
  5
539
  8
MARK__LASER_ONLY_
 10
1545.683129779513
 20
369.8625312375068
 30
0.0
  0
SEQEND
  5
E61
  8
MARK__LASER_ONLY_
  0
POLYLINE
  5
138
  8
MARK__LASER_ONLY_
 66
     1
 10
0.0
 20
0.0
 30
0.0
  0
VERTEX
  5
53A
  8
MARK__LASER_ONLY_
 10
86.0337780494508
 20
65.12212606265302
 30
0.0
  0
VERTEX
  5
53B
  8
MARK__LASER_ONLY_
 10
85.0646832374739
 20
82.97978528417411
 30
0.0
  0
SEQEND
  5
E62
  8
MARK__LASER_ONLY_
  0
POLYLINE
  5
139
  8
MARK__LASER_ONLY_
 66
     1
 10
0.0
 20
0.0
 30
0.0
  0
VERTEX
  5
53C
  8
MARK__LASER_ONLY_
 10
84.96769986410732
 20
84.76691282869365
 30
0.0
  0
VERTEX
  5
53D
  8
MARK__LASER_ONLY_
 10
84.77389721783675
 20
88.33814401325799
 30
0.0
  0
SEQEND
  5
E63
  8
MARK__LASER_ONLY_
  0
POLYLINE
  5
13A
  8
MARK__LASER_ONLY_
 66
     1
 10
0.0
 20
0.0
 30
0.0
  0
VERTEX
  5
53E
  8
MARK__LASER_ONLY_
 10
84.67691384447016
 20
90.1252715577773
 30
0.0
  0
VERTEX
  5
53F
  8
MARK__LASER_ONLY_
 10
83.90170325938766
 20
104.4101962960347
 30
0.0
  0
SEQEND
  5
E64
  8
MARK__LASER_ONLY_
  0
POLYLINE
  5
13B
  8
MARK__LASER_ONLY_
 66
     1
 10
0.0
 20
0.0
 30
0.0
  0
VERTEX
  5
540
  8
MARK__LASER_ONLY_
 10
83.80471988602085
 20
106.1973238405542
 30
0.0
  0
VERTEX
  5
541
  8
MARK__LASER_ONLY_
 10
83.61091723975028
 20
109.7685550251183
 30
0.0
  0
SEQEND
  5
E65
  8
MARK__LASER_ONLY_
  0
POLYLINE
  5
13C
  8
MARK__LASER_ONLY_
 66
     1
 10
0.0
 20
0.0
 30
0.0
  0
VERTEX
  5
542
  8
MARK__LASER_ONLY_
 10
83.5139338663837
 20
111.5556825696378
 30
0.0
  0
VERTEX
  5
543
  8
MARK__LASER_ONLY_
 10
82.73872328130119
 20
125.8406073078952
 30
0.0
  0
SEQEND
  5
E66
  8
MARK__LASER_ONLY_
  0
POLYLINE
  5
13D
  8
MARK__LASER_ONLY_
 66
     1
 10
0.0
 20
0.0
 30
0.0
  0
VERTEX
  5
544
  8
MARK__LASER_ONLY_
 10
82.6417399079346
 20
127.6277348524145
 30
0.0
  0
VERTEX
  5
545
  8
MARK__LASER_ONLY_
 10
82.44793726166381
 20
131.1989660369788
 30
0.0
  0
SEQEND
  5
E67
  8
MARK__LASER_ONLY_
  0
POLYLINE
  5
13E
  8
MARK__LASER_ONLY_
 66
     1
 10
0.0
 20
0.0
 30
0.0
  0
VERTEX
  5
546
  8
MARK__LASER_ONLY_
 10
82.35095388829723
 20
132.9860935814984
 30
0.0
  0
VERTEX
  5
547
  8
MARK__LASER_ONLY_
 10
81.57574330321472
 20
147.2710183197557
 30
0.0
  0
SEQEND
  5
E68
  8
MARK__LASER_ONLY_
  0
POLYLINE
  5
13F
  8
MARK__LASER_ONLY_
 66
     1
 10
0.0
 20
0.0
 30
0.0
  0
VERTEX
  5
548
  8
MARK__LASER_ONLY_
 10
81.47875992984791
 20
149.058145864275
 30
0.0
  0
VERTEX
  5
549
  8
MARK__LASER_ONLY_
 10
81.28495728357734
 20
152.6293770488394
 30
0.0
  0
SEQEND
  5
E69
  8
MARK__LASER_ONLY_
  0
POLYLINE
  5
140
  8
MARK__LASER_ONLY_
 66
     1
 10
0.0
 20
0.0
 30
0.0
  0
VERTEX
  5
54A
  8
MARK__LASER_ONLY_
 10
81.18797391021076
 20
154.4165045933589
 30
0.0
  0
VERTEX
  5
54B
  8
MARK__LASER_ONLY_
 10
80.41276332512825
 20
168.7014293316163
 30
0.0
  0
SEQEND
  5
E6A
  8
MARK__LASER_ONLY_
  0
POLYLINE
  5
141
  8
MARK__LASER_ONLY_
 66
     1
 10
0.0
 20
0.0
 30
0.0
  0
VERTEX
  5
54C
  8
MARK__LASER_ONLY_
 10
80.31577995176167
 20
170.4885568761356
 30
0.0
  0
VERTEX
  5
54D
  8
MARK__LASER_ONLY_
 10
80.12197730549087
 20
174.0597880606999
 30
0.0
  0
SEQEND
  5
E6B
  8
MARK__LASER_ONLY_
  0
POLYLINE
  5
142
  8
MARK__LASER_ONLY_
 66
     1
 10
0.0
 20
0.0
 30
0.0
  0
VERTEX
  5
54E
  8
MARK__LASER_ONLY_
 10
80.02499393212429
 20
175.8469156052195
 30
0.0
  0
VERTEX
  5
54F
  8
MARK__LASER_ONLY_
 10
79.24978334704156
 20
190.1318403434766
 30
0.0
  0
SEQEND
  5
E6C
  8
MARK__LASER_ONLY_
  0
POLYLINE
  5
143
  8
MARK__LASER_ONLY_
 66
     1
 10
0.0
 20
0.0
 30
0.0
  0
VERTEX
  5
550
  8
MARK__LASER_ONLY_
 10
79.15279997367497
 20
191.9189678879961
 30
0.0
  0
VERTEX
  5
551
  8
MARK__LASER_ONLY_
 10
78.9589973274044
 20
195.4901990725605
 30
0.0
  0
SEQEND
  5
E6D
  8
MARK__LASER_ONLY_
  0
POLYLINE
  5
144
  8
MARK__LASER_ONLY_
 66
     1
 10
0.0
 20
0.0
 30
0.0
  0
VERTEX
  5
552
  8
MARK__LASER_ONLY_
 10
78.8620139540376
 20
197.27732661708
 30
0.0
  0
VERTEX
  5
553
  8
MARK__LASER_ONLY_
 10
78.08680336895509
 20
211.5622513553371
 30
0.0
  0
SEQEND
  5
E6E
  8
MARK__LASER_ONLY_
  0
POLYLINE
  5
145
  8
MARK__LASER_ONLY_
 66
     1
 10
0.0
 20
0.0
 30
0.0
  0
VERTEX
  5
554
  8
MARK__LASER_ONLY_
 10
77.9898199955885
 20
213.3493788998567
 30
0.0
  0
VERTEX
  5
555
  8
MARK__LASER_ONLY_
 10
77.79601734931794
 20
216.920610084421
 30
0.0
  0
SEQEND
  5
E6F
  8
MARK__LASER_ONLY_
  0
POLYLINE
  5
146
  8
MARK__LASER_ONLY_
 66
     1
 10
0.0
 20
0.0
 30
0.0
  0
VERTEX
  5
556
  8
MARK__LASER_ONLY_
 10
77.69903397595135
 20
218.7077376289405
 30
0.0
  0
VERTEX
  5
557
  8
MARK__LASER_ONLY_
 10
76.92382339086862
 20
232.9926623671977
 30
0.0
  0
SEQEND
  5
E70
  8
MARK__LASER_ONLY_
  0
POLYLINE
  5
147
  8
MARK__LASER_ONLY_
 66
     1
 10
0.0
 20
0.0
 30
0.0
  0
VERTEX
  5
558
  8
MARK__LASER_ONLY_
 10
76.82684001750204
 20
234.7797899117172
 30
0.0
  0
VERTEX
  5
559
  8
MARK__LASER_ONLY_
 10
76.63303737123124
 20
238.3510210962816
 30
0.0
  0
SEQEND
  5
E71
  8
MARK__LASER_ONLY_
  0
POLYLINE
  5
148
  8
MARK__LASER_ONLY_
 66
     1
 10
0.0
 20
0.0
 30
0.0
  0
VERTEX
  5
55A
  8
MARK__LASER_ONLY_
 10
76.53605399786466
 20
240.1381486408011
 30
0.0
  0
VERTEX
  5
55B
  8
MARK__LASER_ONLY_
 10
75.76084341278192
 20
254.4230733790582
 30
0.0
  0
SEQEND
  5
E72
  8
MARK__LASER_ONLY_
  0
POLYLINE
  5
149
  8
MARK__LASER_ONLY_
 66
     1
 10
0.0
 20
0.0
 30
0.0
  0
VERTEX
  5
55C
  8
MARK__LASER_ONLY_
 10
75.66386003941534
 20
256.2102009235778
 30
0.0
  0
VERTEX
  5
55D
  8
MARK__LASER_ONLY_
 10
75.47005739314477
 20
259.7814321081421
 30
0.0
  0
SEQEND
  5
E73
  8
MARK__LASER_ONLY_
  0
POLYLINE
  5
14A
  8
MARK__LASER_ONLY_
 66
     1
 10
0.0
 20
0.0
 30
0.0
  0
VERTEX
  5
55E
  8
MARK__LASER_ONLY_
 10
75.37307401977819
 20
261.5685596526616
 30
0.0
  0
VERTEX
  5
55F
  8
MARK__LASER_ONLY_
 10
74.59786343469545
 20
275.8534843909188
 30
0.0
  0
SEQEND
  5
E74
  8
MARK__LASER_ONLY_
  0
POLYLINE
  5
14B
  8
MARK__LASER_ONLY_
 66
     1
 10
0.0
 20
0.0
 30
0.0
  0
VERTEX
  5
560
  8
MARK__LASER_ONLY_
 10
74.50088006132887
 20
277.6406119354383
 30
0.0
  0
VERTEX
  5
561
  8
MARK__LASER_ONLY_
 10
74.3070774150583
 20
281.2118431200026
 30
0.0
  0
SEQEND
  5
E75
  8
MARK__LASER_ONLY_
  0
POLYLINE
  5
14C
  8
MARK__LASER_ONLY_
 66
     1
 10
0.0
 20
0.0
 30
0.0
  0
VERTEX
  5
562
  8
MARK__LASER_ONLY_
 10
74.21009404169172
 20
282.9989706645222
 30
0.0
  0
VERTEX
  5
563
  8
MARK__LASER_ONLY_
 10
73.43488345660899
 20
297.2838954027793
 30
0.0
  0
SEQEND
  5
E76
  8
MARK__LASER_ONLY_
  0
POLYLINE
  5
14D
  8
MARK__LASER_ONLY_
 66
     1
 10
0.0
 20
0.0
 30
0.0
  0
VERTEX
  5
564
  8
MARK__LASER_ONLY_
 10
73.3379000832424
 20
299.0710229472988
 30
0.0
  0
VERTEX
  5
565
  8
MARK__LASER_ONLY_
 10
73.1440974369716
 20
302.6422541318632
 30
0.0
  0
SEQEND
  5
E77
  8
MARK__LASER_ONLY_
  0
POLYLINE
  5
14E
  8
MARK__LASER_ONLY_
 66
     1
 10
0.0
 20
0.0
 30
0.0
  0
VERTEX
  5
566
  8
MARK__LASER_ONLY_
 10
73.04711406360502
 20
304.4293816763825
 30
0.0
  0
VERTEX
  5
567
  8
MARK__LASER_ONLY_
 10
72.27190347852229
 20
318.7143064146399
 30
0.0
  0
SEQEND
  5
E78
  8
MARK__LASER_ONLY_
  0
POLYLINE
  5
14F
  8
MARK__LASER_ONLY_
 66
     1
 10
0.0
 20
0.0
 30
0.0
  0
VERTEX
  5
568
  8
MARK__LASER_ONLY_
 10
72.1749201051557
 20
320.5014339591594
 30
0.0
  0
VERTEX
  5
569
  8
MARK__LASER_ONLY_
 10
71.98111745888514
 20
324.0726651437235
 30
0.0
  0
SEQEND
  5
E79
  8
MARK__LASER_ONLY_
  0
POLYLINE
  5
150
  8
MARK__LASER_ONLY_
 66
     1
 10
0.0
 20
0.0
 30
0.0
  0
VERTEX
  5
56A
  8
MARK__LASER_ONLY_
 10
71.88413408551855
 20
325.859792688243
 30
0.0
  0
VERTEX
  5
56B
  8
MARK__LASER_ONLY_
 10
71.10892350043605
 20
340.1447174265004
 30
0.0
  0
SEQEND
  5
E7A
  8
MARK__LASER_ONLY_
  0
POLYLINE
  5
151
  8
MARK__LASER_ONLY_
 66
     1
 10
0.0
 20
0.0
 30
0.0
  0
VERTEX
  5
56C
  8
MARK__LASER_ONLY_
 10
71.01194012706924
 20
341.9318449710197
 30
0.0
  0
VERTEX
  5
56D
  8
MARK__LASER_ONLY_
 10
70.81813748079867
 20
345.503076155584
 30
0.0
  0
SEQEND
  5
E7B
  8
MARK__LASER_ONLY_
  0
POLYLINE
  5
152
  8
MARK__LASER_ONLY_
 66
     1
 10
0.0
 20
0.0
 30
0.0
  0
VERTEX
  5
56E
  8
MARK__LASER_ONLY_
 10
70.72115410743208
 20
347.2902037001036
 30
0.0
  0
VERTEX
  5
56F
  8
MARK__LASER_ONLY_
 10
69.94594352234935
 20
361.5751284383608
 30
0.0
  0
SEQEND
  5
E7C
  8
MARK__LASER_ONLY_
  0
POLYLINE
  5
153
  8
MARK__LASER_ONLY_
 66
     1
 10
0.0
 20
0.0
 30
0.0
  0
VERTEX
  5
570
  8
MARK__LASER_ONLY_
 10
69.84896014898277
 20
363.3622559828802
 30
0.0
  0
VERTEX
  5
571
  8
MARK__LASER_ONLY_
 10
69.65515750271197
 20
366.9334871674446
 30
0.0
  0
SEQEND
  5
E7D
  8
MARK__LASER_ONLY_
  0
POLYLINE
  5
154
  8
MARK__LASER_ONLY_
 66
     1
 10
0.0
 20
0.0
 30
0.0
  0
VERTEX
  5
572
  8
MARK__LASER_ONLY_
 10
69.55817412934539
 20
368.7206147119641
 30
0.0
  0
VERTEX
  5
573
  8
MARK__LASER_ONLY_
 10
68.78296354426288
 20
383.0055394502212
 30
0.0
  0
SEQEND
  5
E7E
  8
MARK__LASER_ONLY_
  0
POLYLINE
  5
155
  8
MARK__LASER_ONLY_
 66
     1
 10
0.0
 20
0.0
 30
0.0
  0
VERTEX
  5
574
  8
MARK__LASER_ONLY_
 10
68.6859801708963
 20
384.7926669947408
 30
0.0
  0
VERTEX
  5
575
  8
MARK__LASER_ONLY_
 10
68.4921775246255
 20
388.3638981793051
 30
0.0
  0
SEQEND
  5
E7F
  8
MARK__LASER_ONLY_
  0
POLYLINE
  5
156
  8
MARK__LASER_ONLY_
 66
     1
 10
0.0
 20
0.0
 30
0.0
  0
VERTEX
  5
576
  8
MARK__LASER_ONLY_
 10
68.39519415125892
 20
390.1510257238245
 30
0.0
  0
VERTEX
  5
577
  8
MARK__LASER_ONLY_
 10
67.61998356617642
 20
404.4359504620818
 30
0.0
  0
SEQEND
  5
E80
  8
MARK__LASER_ONLY_
  0
POLYLINE
  5
157
  8
MARK__LASER_ONLY_
 66
     1
 10
0.0
 20
0.0
 30
0.0
  0
VERTEX
  5
578
  8
MARK__LASER_ONLY_
 10
67.52300019280983
 20
406.2230780066013
 30
0.0
  0
VERTEX
  5
579
  8
MARK__LASER_ONLY_
 10
67.32919754653904
 20
409.7943091911656
 30
0.0
  0
SEQEND
  5
E81
  8
MARK__LASER_ONLY_
  0
POLYLINE
  5
158
  8
MARK__LASER_ONLY_
 66
     1
 10
0.0
 20
0.0
 30
0.0
  0
VERTEX
  5
57A
  8
MARK__LASER_ONLY_
 10
67.23221417317245
 20
411.581436735685
 30
0.0
  0
VERTEX
  5
57B
  8
MARK__LASER_ONLY_
 10
66.45700358808972
 20
425.8663614739423
 30
0.0
  0
SEQEND
  5
E82
  8
MARK__LASER_ONLY_
  0
POLYLINE
  5
159
  8
MARK__LASER_ONLY_
 66
     1
 10
0.0
 20
0.0
 30
0.0
  0
VERTEX
  5
57C
  8
MARK__LASER_ONLY_
 10
66.36002021472314
 20
427.6534890184618
 30
0.0
  0
VERTEX
  5
57D
  8
MARK__LASER_ONLY_
 10
66.16621756845257
 20
431.224720203026
 30
0.0
  0
SEQEND
  5
E83
  8
MARK__LASER_ONLY_
  0
POLYLINE
  5
15A
  8
MARK__LASER_ONLY_
 66
     1
 10
0.0
 20
0.0
 30
0.0
  0
VERTEX
  5
57E
  8
MARK__LASER_ONLY_
 10
66.06923419508576
 20
433.0118477475455
 30
0.0
  0
VERTEX
  5
57F
  8
MARK__LASER_ONLY_
 10
65.29402361000325
 20
447.2967724858028
 30
0.0
  0
SEQEND
  5
E84
  8
MARK__LASER_ONLY_
  0
POLYLINE
  5
15B
  8
MARK__LASER_ONLY_
 66
     1
 10
0.0
 20
0.0
 30
0.0
  0
VERTEX
  5
580
  8
MARK__LASER_ONLY_
 10
65.19704023663667
 20
449.0839000303222
 30
0.0
  0
VERTEX
  5
581
  8
MARK__LASER_ONLY_
 10
65.0032375903661
 20
452.6551312148865
 30
0.0
  0
SEQEND
  5
E85
  8
MARK__LASER_ONLY_
  0
POLYLINE
  5
15C
  8
MARK__LASER_ONLY_
 66
     1
 10
0.0
 20
0.0
 30
0.0
  0
VERTEX
  5
582
  8
MARK__LASER_ONLY_
 10
64.90625421699951
 20
454.4422587594061
 30
0.0
  0
VERTEX
  5
583
  8
MARK__LASER_ONLY_
 10
64.13104363191678
 20
468.7271834976632
 30
0.0
  0
SEQEND
  5
E86
  8
MARK__LASER_ONLY_
  0
POLYLINE
  5
15D
  8
MARK__LASER_ONLY_
 66
     1
 10
0.0
 20
0.0
 30
0.0
  0
VERTEX
  5
584
  8
MARK__LASER_ONLY_
 10
64.0340602585502
 20
470.5143110421827
 30
0.0
  0
VERTEX
  5
585
  8
MARK__LASER_ONLY_
 10
63.8402576122794
 20
474.0855422267471
 30
0.0
  0
SEQEND
  5
E87
  8
MARK__LASER_ONLY_
  0
POLYLINE
  5
15E
  8
MARK__LASER_ONLY_
 66
     1
 10
0.0
 20
0.0
 30
0.0
  0
VERTEX
  5
586
  8
MARK__LASER_ONLY_
 10
63.74327423891282
 20
475.8726697712665
 30
0.0
  0
VERTEX
  5
587
  8
MARK__LASER_ONLY_
 10
62.96806365383009
 20
490.1575945095237
 30
0.0
  0
SEQEND
  5
E88
  8
MARK__LASER_ONLY_
  0
POLYLINE
  5
15F
  8
MARK__LASER_ONLY_
 66
     1
 10
0.0
 20
0.0
 30
0.0
  0
VERTEX
  5
588
  8
MARK__LASER_ONLY_
 10
62.8710802804635
 20
491.9447220540432
 30
0.0
  0
VERTEX
  5
589
  8
MARK__LASER_ONLY_
 10
62.67727763419293
 20
495.5159532386075
 30
0.0
  0
SEQEND
  5
E89
  8
MARK__LASER_ONLY_
  0
POLYLINE
  5
160
  8
MARK__LASER_ONLY_
 66
     1
 10
0.0
 20
0.0
 30
0.0
  0
VERTEX
  5
58A
  8
MARK__LASER_ONLY_
 10
62.58029426082635
 20
497.3030807831269
 30
0.0
  0
VERTEX
  5
58B
  8
MARK__LASER_ONLY_
 10
61.80508367574362
 20
511.5880055213842
 30
0.0
  0
SEQEND
  5
E8A
  8
MARK__LASER_ONLY_
  0
POLYLINE
  5
161
  8
MARK__LASER_ONLY_
 66
     1
 10
0.0
 20
0.0
 30
0.0
  0
VERTEX
  5
58C
  8
MARK__LASER_ONLY_
 10
61.70810030237703
 20
513.3751330659036
 30
0.0
  0
VERTEX
  5
58D
  8
MARK__LASER_ONLY_
 10
61.51429765610646
 20
516.9463642504679
 30
0.0
  0
SEQEND
  5
E8B
  8
MARK__LASER_ONLY_
  0
POLYLINE
  5
162
  8
MARK__LASER_ONLY_
 66
     1
 10
0.0
 20
0.0
 30
0.0
  0
VERTEX
  5
58E
  8
MARK__LASER_ONLY_
 10
61.41731428273988
 20
518.7334917949875
 30
0.0
  0
VERTEX
  5
58F
  8
MARK__LASER_ONLY_
 10
60.64210369765715
 20
533.0184165332446
 30
0.0
  0
SEQEND
  5
E8C
  8
MARK__LASER_ONLY_
  0
POLYLINE
  5
163
  8
MARK__LASER_ONLY_
 66
     1
 10
0.0
 20
0.0
 30
0.0
  0
VERTEX
  5
590
  8
MARK__LASER_ONLY_
 10
60.54512032429056
 20
534.8055440777641
 30
0.0
  0
VERTEX
  5
591
  8
MARK__LASER_ONLY_
 10
60.35131767801977
 20
538.3767752623285
 30
0.0
  0
SEQEND
  5
E8D
  8
MARK__LASER_ONLY_
  0
POLYLINE
  5
164
  8
MARK__LASER_ONLY_
 66
     1
 10
0.0
 20
0.0
 30
0.0
  0
VERTEX
  5
592
  8
MARK__LASER_ONLY_
 10
60.25433430465318
 20
540.1639028068479
 30
0.0
  0
VERTEX
  5
593
  8
MARK__LASER_ONLY_
 10
59.47912371957068
 20
554.4488275451051
 30
0.0
  0
SEQEND
  5
E8E
  8
MARK__LASER_ONLY_
  0
POLYLINE
  5
165
  8
MARK__LASER_ONLY_
 66
     1
 10
0.0
 20
0.0
 30
0.0
  0
VERTEX
  5
594
  8
MARK__LASER_ONLY_
 10
59.38214034620387
 20
556.2359550896246
 30
0.0
  0
VERTEX
  5
595
  8
MARK__LASER_ONLY_
 10
59.1883376999333
 20
559.8071862741889
 30
0.0
  0
SEQEND
  5
E8F
  8
MARK__LASER_ONLY_
  0
POLYLINE
  5
166
  8
MARK__LASER_ONLY_
 66
     1
 10
0.0
 20
0.0
 30
0.0
  0
VERTEX
  5
596
  8
MARK__LASER_ONLY_
 10
59.09135432656672
 20
561.5943138187083
 30
0.0
  0
VERTEX
  5
597
  8
MARK__LASER_ONLY_
 10
58.31614374148421
 20
575.8792385569657
 30
0.0
  0
SEQEND
  5
E90
  8
MARK__LASER_ONLY_
  0
POLYLINE
  5
167
  8
MARK__LASER_ONLY_
 66
     1
 10
0.0
 20
0.0
 30
0.0
  0
VERTEX
  5
598
  8
MARK__LASER_ONLY_
 10
58.21916036811763
 20
577.666366101485
 30
0.0
  0
VERTEX
  5
599
  8
MARK__LASER_ONLY_
 10
58.02535772184683
 20
581.2375972860493
 30
0.0
  0
SEQEND
  5
E91
  8
MARK__LASER_ONLY_
  0
POLYLINE
  5
168
  8
MARK__LASER_ONLY_
 66
     1
 10
0.0
 20
0.0
 30
0.0
  0
VERTEX
  5
59A
  8
MARK__LASER_ONLY_
 10
57.92837434848025
 20
583.0247248305689
 30
0.0
  0
VERTEX
  5
59B
  8
MARK__LASER_ONLY_
 10
57.15316376339752
 20
597.309649568826
 30
0.0
  0
SEQEND
  5
E92
  8
MARK__LASER_ONLY_
  0
POLYLINE
  5
169
  8
MARK__LASER_ONLY_
 66
     1
 10
0.0
 20
0.0
 30
0.0
  0
VERTEX
  5
59C
  8
MARK__LASER_ONLY_
 10
57.05618039003093
 20
599.0967771133455
 30
0.0
  0
VERTEX
  5
59D
  8
MARK__LASER_ONLY_
 10
56.86237774376013
 20
602.6680082979099
 30
0.0
  0
SEQEND
  5
E93
  8
MARK__LASER_ONLY_
  0
POLYLINE
  5
16A
  8
MARK__LASER_ONLY_
 66
     1
 10
0.0
 20
0.0
 30
0.0
  0
VERTEX
  5
59E
  8
MARK__LASER_ONLY_
 10
56.76539437039355
 20
604.4551358424294
 30
0.0
  0
VERTEX
  5
59F
  8
MARK__LASER_ONLY_
 10
55.99018378531105
 20
618.7400605806865
 30
0.0
  0
SEQEND
  5
E94
  8
MARK__LASER_ONLY_
  0
POLYLINE
  5
16B
  8
MARK__LASER_ONLY_
 66
     1
 10
0.0
 20
0.0
 30
0.0
  0
VERTEX
  5
5A0
  8
MARK__LASER_ONLY_
 10
55.89320041194446
 20
620.5271881252061
 30
0.0
  0
VERTEX
  5
5A1
  8
MARK__LASER_ONLY_
 10
55.69939776567389
 20
624.0984193097704
 30
0.0
  0
SEQEND
  5
E95
  8
MARK__LASER_ONLY_
  0
POLYLINE
  5
16C
  8
MARK__LASER_ONLY_
 66
     1
 10
0.0
 20
0.0
 30
0.0
  0
VERTEX
  5
5A2
  8
MARK__LASER_ONLY_
 10
55.60241439230731
 20
625.8855468542897
 30
0.0
  0
VERTEX
  5
5A3
  8
MARK__LASER_ONLY_
 10
54.82720380722458
 20
640.1704715925471
 30
0.0
  0
SEQEND
  5
E96
  8
MARK__LASER_ONLY_
  0
POLYLINE
  5
16D
  8
MARK__LASER_ONLY_
 66
     1
 10
0.0
 20
0.0
 30
0.0
  0
VERTEX
  5
5A4
  8
MARK__LASER_ONLY_
 10
54.73022043385799
 20
641.9575991370666
 30
0.0
  0
VERTEX
  5
5A5
  8
MARK__LASER_ONLY_
 10
54.5364177875872
 20
645.5288303216307
 30
0.0
  0
SEQEND
  5
E97
  8
MARK__LASER_ONLY_
  0
POLYLINE
  5
16E
  8
MARK__LASER_ONLY_
 66
     1
 10
0.0
 20
0.0
 30
0.0
  0
VERTEX
  5
5A6
  8
MARK__LASER_ONLY_
 10
54.43943441422061
 20
647.3159578661503
 30
0.0
  0
VERTEX
  5
5A7
  8
MARK__LASER_ONLY_
 10
53.66422382913788
 20
661.6008826044076
 30
0.0
  0
SEQEND
  5
E98
  8
MARK__LASER_ONLY_
  0
POLYLINE
  5
16F
  8
MARK__LASER_ONLY_
 66
     1
 10
0.0
 20
0.0
 30
0.0
  0
VERTEX
  5
5A8
  8
MARK__LASER_ONLY_
 10
53.5672404557713
 20
663.3880101489269
 30
0.0
  0
VERTEX
  5
5A9
  8
MARK__LASER_ONLY_
 10
53.37343780950073
 20
666.9592413334913
 30
0.0
  0
SEQEND
  5
E99
  8
MARK__LASER_ONLY_
  0
POLYLINE
  5
170
  8
MARK__LASER_ONLY_
 66
     1
 10
0.0
 20
0.0
 30
0.0
  0
VERTEX
  5
5AA
  8
MARK__LASER_ONLY_
 10
53.27645443613414
 20
668.7463688780108
 30
0.0
  0
VERTEX
  5
5AB
  8
MARK__LASER_ONLY_
 10
52.50124385105141
 20
683.0312936162679
 30
0.0
  0
SEQEND
  5
E9A
  8
MARK__LASER_ONLY_
  0
POLYLINE
  5
171
  8
MARK__LASER_ONLY_
 66
     1
 10
0.0
 20
0.0
 30
0.0
  0
VERTEX
  5
5AC
  8
MARK__LASER_ONLY_
 10
52.40426047768483
 20
684.8184211607875
 30
0.0
  0
VERTEX
  5
5AD
  8
MARK__LASER_ONLY_
 10
52.21045783141426
 20
688.3896523453518
 30
0.0
  0
SEQEND
  5
E9B
  8
MARK__LASER_ONLY_
  0
POLYLINE
  5
172
  8
MARK__LASER_ONLY_
 66
     1
 10
0.0
 20
0.0
 30
0.0
  0
VERTEX
  5
5AE
  8
MARK__LASER_ONLY_
 10
52.11347445804768
 20
690.1767798898713
 30
0.0
  0
VERTEX
  5
5AF
  8
MARK__LASER_ONLY_
 10
51.33826387296494
 20
704.4617046281285
 30
0.0
  0
SEQEND
  5
E9C
  8
MARK__LASER_ONLY_
  0
POLYLINE
  5
173
  8
MARK__LASER_ONLY_
 66
     1
 10
0.0
 20
0.0
 30
0.0
  0
VERTEX
  5
5B0
  8
MARK__LASER_ONLY_
 10
51.24128049959836
 20
706.248832172648
 30
0.0
  0
VERTEX
  5
5B1
  8
MARK__LASER_ONLY_
 10
51.04747785332756
 20
709.8200633572123
 30
0.0
  0
SEQEND
  5
E9D
  8
MARK__LASER_ONLY_
  0
POLYLINE
  5
174
  8
MARK__LASER_ONLY_
 66
     1
 10
0.0
 20
0.0
 30
0.0
  0
VERTEX
  5
5B2
  8
MARK__LASER_ONLY_
 10
50.95049447996098
 20
711.6071909017317
 30
0.0
  0
VERTEX
  5
5B3
  8
MARK__LASER_ONLY_
 10
50.17528389487825
 20
725.892115639989
 30
0.0
  0
SEQEND
  5
E9E
  8
MARK__LASER_ONLY_
  0
POLYLINE
  5
175
  8
MARK__LASER_ONLY_
 66
     1
 10
0.0
 20
0.0
 30
0.0
  0
VERTEX
  5
5B4
  8
MARK__LASER_ONLY_
 10
50.07830052151166
 20
727.6792431845086
 30
0.0
  0
VERTEX
  5
5B5
  8
MARK__LASER_ONLY_
 10
49.8844978752411
 20
731.2504743690727
 30
0.0
  0
SEQEND
  5
E9F
  8
MARK__LASER_ONLY_
  0
POLYLINE
  5
176
  8
MARK__LASER_ONLY_
 66
     1
 10
0.0
 20
0.0
 30
0.0
  0
VERTEX
  5
5B6
  8
MARK__LASER_ONLY_
 10
49.78751450187451
 20
733.0376019135922
 30
0.0
  0
VERTEX
  5
5B7
  8
MARK__LASER_ONLY_
 10
49.01230391679201
 20
747.3225266518496
 30
0.0
  0
SEQEND
  5
EA0
  8
MARK__LASER_ONLY_
  0
POLYLINE
  5
177
  8
MARK__LASER_ONLY_
 66
     1
 10
0.0
 20
0.0
 30
0.0
  0
VERTEX
  5
5B8
  8
MARK__LASER_ONLY_
 10
48.9153205434252
 20
749.1096541963689
 30
0.0
  0
VERTEX
  5
5B9
  8
MARK__LASER_ONLY_
 10
48.72151789715463
 20
752.6808853809332
 30
0.0
  0
SEQEND
  5
EA1
  8
MARK__LASER_ONLY_
  0
POLYLINE
  5
178
  8
MARK__LASER_ONLY_
 66
     1
 10
0.0
 20
0.0
 30
0.0
  0
VERTEX
  5
5BA
  8
MARK__LASER_ONLY_
 10
48.62453452378804
 20
754.4680129254527
 30
0.0
  0
VERTEX
  5
5BB
  8
MARK__LASER_ONLY_
 10
47.84932393870531
 20
768.7529376637099
 30
0.0
  0
SEQEND
  5
EA2
  8
MARK__LASER_ONLY_
  0
POLYLINE
  5
179
  8
MARK__LASER_ONLY_
 66
     1
 10
0.0
 20
0.0
 30
0.0
  0
VERTEX
  5
5BC
  8
MARK__LASER_ONLY_
 10
47.75234056533873
 20
770.5400652082294
 30
0.0
  0
VERTEX
  5
5BD
  8
MARK__LASER_ONLY_
 10
47.55853791906793
 20
774.1112963927937
 30
0.0
  0
SEQEND
  5
EA3
  8
MARK__LASER_ONLY_
  0
POLYLINE
  5
17A
  8
MARK__LASER_ONLY_
 66
     1
 10
0.0
 20
0.0
 30
0.0
  0
VERTEX
  5
5BE
  8
MARK__LASER_ONLY_
 10
47.46155454570135
 20
775.8984239373133
 30
0.0
  0
VERTEX
  5
5BF
  8
MARK__LASER_ONLY_
 10
46.68634396061884
 20
790.1833486755704
 30
0.0
  0
SEQEND
  5
EA4
  8
MARK__LASER_ONLY_
  0
POLYLINE
  5
17B
  8
MARK__LASER_ONLY_
 66
     1
 10
0.0
 20
0.0
 30
0.0
  0
VERTEX
  5
5C0
  8
MARK__LASER_ONLY_
 10
46.58936058725226
 20
791.97047622009
 30
0.0
  0
VERTEX
  5
5C1
  8
MARK__LASER_ONLY_
 10
46.39555794098146
 20
795.5417074046543
 30
0.0
  0
SEQEND
  5
EA5
  8
MARK__LASER_ONLY_
  0
POLYLINE
  5
17C
  8
MARK__LASER_ONLY_
 66
     1
 10
0.0
 20
0.0
 30
0.0
  0
VERTEX
  5
5C2
  8
MARK__LASER_ONLY_
 10
46.29857456761488
 20
797.3288349491736
 30
0.0
  0
VERTEX
  5
5C3
  8
MARK__LASER_ONLY_
 10
45.52336398253237
 20
811.613759687431
 30
0.0
  0
SEQEND
  5
EA6
  8
MARK__LASER_ONLY_
  0
POLYLINE
  5
17D
  8
MARK__LASER_ONLY_
 66
     1
 10
0.0
 20
0.0
 30
0.0
  0
VERTEX
  5
5C4
  8
MARK__LASER_ONLY_
 10
45.42638060916579
 20
813.4008872319503
 30
0.0
  0
VERTEX
  5
5C5
  8
MARK__LASER_ONLY_
 10
45.23257796289499
 20
816.9721184165146
 30
0.0
  0
SEQEND
  5
EA7
  8
MARK__LASER_ONLY_
  0
POLYLINE
  5
17E
  8
MARK__LASER_ONLY_
 66
     1
 10
0.0
 20
0.0
 30
0.0
  0
VERTEX
  5
5C6
  8
MARK__LASER_ONLY_
 10
45.13559458952841
 20
818.7592459610341
 30
0.0
  0
VERTEX
  5
5C7
  8
MARK__LASER_ONLY_
 10
44.36038400444568
 20
833.0441706992915
 30
0.0
  0
SEQEND
  5
EA8
  8
MARK__LASER_ONLY_
  0
POLYLINE
  5
17F
  8
MARK__LASER_ONLY_
 66
     1
 10
0.0
 20
0.0
 30
0.0
  0
VERTEX
  5
5C8
  8
MARK__LASER_ONLY_
 10
44.26340063107909
 20
834.8312982438108
 30
0.0
  0
VERTEX
  5
5C9
  8
MARK__LASER_ONLY_
 10
44.06959798480852
 20
838.4025294283751
 30
0.0
  0
SEQEND
  5
EA9
  8
MARK__LASER_ONLY_
  0
POLYLINE
  5
180
  8
MARK__LASER_ONLY_
 66
     1
 10
0.0
 20
0.0
 30
0.0
  0
VERTEX
  5
5CA
  8
MARK__LASER_ONLY_
 10
43.97261461144194
 20
840.1896569728947
 30
0.0
  0
VERTEX
  5
5CB
  8
MARK__LASER_ONLY_
 10
43.19740402635921
 20
854.4745817111518
 30
0.0
  0
SEQEND
  5
EAA
  8
MARK__LASER_ONLY_
  0
POLYLINE
  5
181
  8
MARK__LASER_ONLY_
 66
     1
 10
0.0
 20
0.0
 30
0.0
  0
VERTEX
  5
5CC
  8
MARK__LASER_ONLY_
 10
43.10042065299263
 20
856.2617092556713
 30
0.0
  0
VERTEX
  5
5CD
  8
MARK__LASER_ONLY_
 10
42.90661800672206
 20
859.8329404402357
 30
0.0
  0
SEQEND
  5
EAB
  8
MARK__LASER_ONLY_
  0
POLYLINE
  5
182
  8
MARK__LASER_ONLY_
 66
     1
 10
0.0
 20
0.0
 30
0.0
  0
VERTEX
  5
5CE
  8
MARK__LASER_ONLY_
 10
42.80963463335547
 20
861.6200679847552
 30
0.0
  0
VERTEX
  5
5CF
  8
MARK__LASER_ONLY_
 10
42.03442404827274
 20
875.9049927230124
 30
0.0
  0
SEQEND
  5
EAC
  8
MARK__LASER_ONLY_
  0
POLYLINE
  5
183
  8
MARK__LASER_ONLY_
 66
     1
 10
0.0
 20
0.0
 30
0.0
  0
VERTEX
  5
5D0
  8
MARK__LASER_ONLY_
 10
41.93744067490616
 20
877.6921202675319
 30
0.0
  0
VERTEX
  5
5D1
  8
MARK__LASER_ONLY_
 10
41.74363802863536
 20
881.2633514520962
 30
0.0
  0
SEQEND
  5
EAD
  8
MARK__LASER_ONLY_
  0
POLYLINE
  5
184
  8
MARK__LASER_ONLY_
 66
     1
 10
0.0
 20
0.0
 30
0.0
  0
VERTEX
  5
5D2
  8
MARK__LASER_ONLY_
 10
41.64665465526878
 20
883.0504789966155
 30
0.0
  0
VERTEX
  5
5D3
  8
MARK__LASER_ONLY_
 10
40.87144407018604
 20
897.3354037348729
 30
0.0
  0
SEQEND
  5
EAE
  8
MARK__LASER_ONLY_
  0
POLYLINE
  5
185
  8
MARK__LASER_ONLY_
 66
     1
 10
0.0
 20
0.0
 30
0.0
  0
VERTEX
  5
5D4
  8
MARK__LASER_ONLY_
 10
40.77446069681946
 20
899.1225312793922
 30
0.0
  0
VERTEX
  5
5D5
  8
MARK__LASER_ONLY_
 10
40.58065805054889
 20
902.6937624639565
 30
0.0
  0
SEQEND
  5
EAF
  8
MARK__LASER_ONLY_
  0
POLYLINE
  5
186
  8
MARK__LASER_ONLY_
 66
     1
 10
0.0
 20
0.0
 30
0.0
  0
VERTEX
  5
5D6
  8
MARK__LASER_ONLY_
 10
40.48367467718231
 20
904.4808900084761
 30
0.0
  0
VERTEX
  5
5D7
  8
MARK__LASER_ONLY_
 10
39.70846409209958
 20
918.7658147467334
 30
0.0
  0
SEQEND
  5
EB0
  8
MARK__LASER_ONLY_
  0
POLYLINE
  5
187
  8
MARK__LASER_ONLY_
 66
     1
 10
0.0
 20
0.0
 30
0.0
  0
VERTEX
  5
5D8
  8
MARK__LASER_ONLY_
 10
39.61148071873299
 20
920.5529422912527
 30
0.0
  0
VERTEX
  5
5D9
  8
MARK__LASER_ONLY_
 10
39.41767807246242
 20
924.1241734758171
 30
0.0
  0
SEQEND
  5
EB1
  8
MARK__LASER_ONLY_
  0
POLYLINE
  5
188
  8
MARK__LASER_ONLY_
 66
     1
 10
0.0
 20
0.0
 30
0.0
  0
VERTEX
  5
5DA
  8
MARK__LASER_ONLY_
 10
39.32069469909584
 20
925.9113010203366
 30
0.0
  0
VERTEX
  5
5DB
  8
MARK__LASER_ONLY_
 10
38.35159988711916
 20
943.7689602418577
 30
0.0
  0
SEQEND
  5
EB2
  8
MARK__LASER_ONLY_
  0
POLYLINE
  5
189
  8
MARK__LASER_ONLY_
 66
     1
 10
0.0
 20
0.0
 30
0.0
  0
VERTEX
  5
5DC
  8
MARK__LASER_ONLY_
 10
722.9384913852505
 20
899.2679835883807
 30
0.0
  0
VERTEX
  5
5DD
  8
MARK__LASER_ONLY_
 10
723.9075861972271
 20
881.4103243668595
 30
0.0
  0
SEQEND
  5
EB3
  8
MARK__LASER_ONLY_
  0
POLYLINE
  5
18A
  8
MARK__LASER_ONLY_
 66
     1
 10
0.0
 20
0.0
 30
0.0
  0
VERTEX
  5
5DE
  8
MARK__LASER_ONLY_
 10
724.0045695705937
 20
879.6231968223401
 30
0.0
  0
VERTEX
  5
5DF
  8
MARK__LASER_ONLY_
 10
724.1983722168644
 20
876.0519656377758
 30
0.0
  0
SEQEND
  5
EB4
  8
MARK__LASER_ONLY_
  0
POLYLINE
  5
18B
  8
MARK__LASER_ONLY_
 66
     1
 10
0.0
 20
0.0
 30
0.0
  0
VERTEX
  5
5E0
  8
MARK__LASER_ONLY_
 10
724.295355590231
 20
874.2648380932563
 30
0.0
  0
VERTEX
  5
5E1
  8
MARK__LASER_ONLY_
 10
725.0705661753136
 20
859.979913354999
 30
0.0
  0
SEQEND
  5
EB5
  8
MARK__LASER_ONLY_
  0
POLYLINE
  5
18C
  8
MARK__LASER_ONLY_
 66
     1
 10
0.0
 20
0.0
 30
0.0
  0
VERTEX
  5
5E2
  8
MARK__LASER_ONLY_
 10
725.1675495486803
 20
858.1927858104796
 30
0.0
  0
VERTEX
  5
5E3
  8
MARK__LASER_ONLY_
 10
725.3613521949509
 20
854.6215546259153
 30
0.0
  0
SEQEND
  5
EB6
  8
MARK__LASER_ONLY_
  0
POLYLINE
  5
18D
  8
MARK__LASER_ONLY_
 66
     1
 10
0.0
 20
0.0
 30
0.0
  0
VERTEX
  5
5E4
  8
MARK__LASER_ONLY_
 10
725.4583355683175
 20
852.8344270813958
 30
0.0
  0
VERTEX
  5
5E5
  8
MARK__LASER_ONLY_
 10
726.2335461534002
 20
838.5495023431386
 30
0.0
  0
SEQEND
  5
EB7
  8
MARK__LASER_ONLY_
  0
POLYLINE
  5
18E
  8
MARK__LASER_ONLY_
 66
     1
 10
0.0
 20
0.0
 30
0.0
  0
VERTEX
  5
5E6
  8
MARK__LASER_ONLY_
 10
726.3305295267668
 20
836.7623747986191
 30
0.0
  0
VERTEX
  5
5E7
  8
MARK__LASER_ONLY_
 10
726.5243321730375
 20
833.1911436140548
 30
0.0
  0
SEQEND
  5
EB8
  8
MARK__LASER_ONLY_
  0
POLYLINE
  5
18F
  8
MARK__LASER_ONLY_
 66
     1
 10
0.0
 20
0.0
 30
0.0
  0
VERTEX
  5
5E8
  8
MARK__LASER_ONLY_
 10
726.621315546404
 20
831.4040160695353
 30
0.0
  0
VERTEX
  5
5E9
  8
MARK__LASER_ONLY_
 10
727.3965261314867
 20
817.119091331278
 30
0.0
  0
SEQEND
  5
EB9
  8
MARK__LASER_ONLY_
  0
POLYLINE
  5
190
  8
MARK__LASER_ONLY_
 66
     1
 10
0.0
 20
0.0
 30
0.0
  0
VERTEX
  5
5EA
  8
MARK__LASER_ONLY_
 10
727.4935095048534
 20
815.3319637867586
 30
0.0
  0
VERTEX
  5
5EB
  8
MARK__LASER_ONLY_
 10
727.687312151124
 20
811.7607326021943
 30
0.0
  0
SEQEND
  5
EBA
  8
MARK__LASER_ONLY_
  0
POLYLINE
  5
191
  8
MARK__LASER_ONLY_
 66
     1
 10
0.0
 20
0.0
 30
0.0
  0
VERTEX
  5
5EC
  8
MARK__LASER_ONLY_
 10
727.7842955244906
 20
809.9736050576747
 30
0.0
  0
VERTEX
  5
5ED
  8
MARK__LASER_ONLY_
 10
728.5595061095732
 20
795.6886803194175
 30
0.0
  0
SEQEND
  5
EBB
  8
MARK__LASER_ONLY_
  0
POLYLINE
  5
192
  8
MARK__LASER_ONLY_
 66
     1
 10
0.0
 20
0.0
 30
0.0
  0
VERTEX
  5
5EE
  8
MARK__LASER_ONLY_
 10
728.6564894829398
 20
793.901552774898
 30
0.0
  0
VERTEX
  5
5EF
  8
MARK__LASER_ONLY_
 10
728.8502921292105
 20
790.3303215903337
 30
0.0
  0
SEQEND
  5
EBC
  8
MARK__LASER_ONLY_
  0
POLYLINE
  5
193
  8
MARK__LASER_ONLY_
 66
     1
 10
0.0
 20
0.0
 30
0.0
  0
VERTEX
  5
5F0
  8
MARK__LASER_ONLY_
 10
728.9472755025771
 20
788.5431940458142
 30
0.0
  0
VERTEX
  5
5F1
  8
MARK__LASER_ONLY_
 10
729.7224860876598
 20
774.258269307557
 30
0.0
  0
SEQEND
  5
EBD
  8
MARK__LASER_ONLY_
  0
POLYLINE
  5
194
  8
MARK__LASER_ONLY_
 66
     1
 10
0.0
 20
0.0
 30
0.0
  0
VERTEX
  5
5F2
  8
MARK__LASER_ONLY_
 10
729.8194694610264
 20
772.4711417630375
 30
0.0
  0
VERTEX
  5
5F3
  8
MARK__LASER_ONLY_
 10
730.013272107297
 20
768.8999105784732
 30
0.0
  0
SEQEND
  5
EBE
  8
MARK__LASER_ONLY_
  0
POLYLINE
  5
195
  8
MARK__LASER_ONLY_
 66
     1
 10
0.0
 20
0.0
 30
0.0
  0
VERTEX
  5
5F4
  8
MARK__LASER_ONLY_
 10
730.1102554806637
 20
767.1127830339536
 30
0.0
  0
VERTEX
  5
5F5
  8
MARK__LASER_ONLY_
 10
730.8854660657463
 20
752.8278582956965
 30
0.0
  0
SEQEND
  5
EBF
  8
MARK__LASER_ONLY_
  0
POLYLINE
  5
196
  8
MARK__LASER_ONLY_
 66
     1
 10
0.0
 20
0.0
 30
0.0
  0
VERTEX
  5
5F6
  8
MARK__LASER_ONLY_
 10
730.9824494391129
 20
751.040730751177
 30
0.0
  0
VERTEX
  5
5F7
  8
MARK__LASER_ONLY_
 10
731.1762520853836
 20
747.4694995666126
 30
0.0
  0
SEQEND
  5
EC0
  8
MARK__LASER_ONLY_
  0
POLYLINE
  5
197
  8
MARK__LASER_ONLY_
 66
     1
 10
0.0
 20
0.0
 30
0.0
  0
VERTEX
  5
5F8
  8
MARK__LASER_ONLY_
 10
731.2732354587502
 20
745.6823720220932
 30
0.0
  0
VERTEX
  5
5F9
  8
MARK__LASER_ONLY_
 10
732.0484460438329
 20
731.397447283836
 30
0.0
  0
SEQEND
  5
EC1
  8
MARK__LASER_ONLY_
  0
POLYLINE
  5
198
  8
MARK__LASER_ONLY_
 66
     1
 10
0.0
 20
0.0
 30
0.0
  0
VERTEX
  5
5FA
  8
MARK__LASER_ONLY_
 10
732.1454294171995
 20
729.6103197393164
 30
0.0
  0
VERTEX
  5
5FB
  8
MARK__LASER_ONLY_
 10
732.3392320634701
 20
726.0390885547521
 30
0.0
  0
SEQEND
  5
EC2
  8
MARK__LASER_ONLY_
  0
POLYLINE
  5
199
  8
MARK__LASER_ONLY_
 66
     1
 10
0.0
 20
0.0
 30
0.0
  0
VERTEX
  5
5FC
  8
MARK__LASER_ONLY_
 10
732.4362154368367
 20
724.2519610102327
 30
0.0
  0
VERTEX
  5
5FD
  8
MARK__LASER_ONLY_
 10
733.2114260219194
 20
709.9670362719754
 30
0.0
  0
SEQEND
  5
EC3
  8
MARK__LASER_ONLY_
  0
POLYLINE
  5
19A
  8
MARK__LASER_ONLY_
 66
     1
 10
0.0
 20
0.0
 30
0.0
  0
VERTEX
  5
5FE
  8
MARK__LASER_ONLY_
 10
733.308409395286
 20
708.1799087274559
 30
0.0
  0
VERTEX
  5
5FF
  8
MARK__LASER_ONLY_
 10
733.5022120415566
 20
704.6086775428915
 30
0.0
  0
SEQEND
  5
EC4
  8
MARK__LASER_ONLY_
  0
POLYLINE
  5
19B
  8
MARK__LASER_ONLY_
 66
     1
 10
0.0
 20
0.0
 30
0.0
  0
VERTEX
  5
600
  8
MARK__LASER_ONLY_
 10
733.5991954149232
 20
702.8215499983721
 30
0.0
  0
VERTEX
  5
601
  8
MARK__LASER_ONLY_
 10
734.3744060000059
 20
688.5366252601149
 30
0.0
  0
SEQEND
  5
EC5
  8
MARK__LASER_ONLY_
  0
POLYLINE
  5
19C
  8
MARK__LASER_ONLY_
 66
     1
 10
0.0
 20
0.0
 30
0.0
  0
VERTEX
  5
602
  8
MARK__LASER_ONLY_
 10
734.4713893733725
 20
686.7494977155953
 30
0.0
  0
VERTEX
  5
603
  8
MARK__LASER_ONLY_
 10
734.6651920196432
 20
683.178266531031
 30
0.0
  0
SEQEND
  5
EC6
  8
MARK__LASER_ONLY_
  0
POLYLINE
  5
19D
  8
MARK__LASER_ONLY_
 66
     1
 10
0.0
 20
0.0
 30
0.0
  0
VERTEX
  5
604
  8
MARK__LASER_ONLY_
 10
734.7621753930098
 20
681.3911389865116
 30
0.0
  0
VERTEX
  5
605
  8
MARK__LASER_ONLY_
 10
735.5373859780924
 20
667.1062142482543
 30
0.0
  0
SEQEND
  5
EC7
  8
MARK__LASER_ONLY_
  0
POLYLINE
  5
19E
  8
MARK__LASER_ONLY_
 66
     1
 10
0.0
 20
0.0
 30
0.0
  0
VERTEX
  5
606
  8
MARK__LASER_ONLY_
 10
735.634369351459
 20
665.3190867037348
 30
0.0
  0
VERTEX
  5
607
  8
MARK__LASER_ONLY_
 10
735.8281719977297
 20
661.7478555191706
 30
0.0
  0
SEQEND
  5
EC8
  8
MARK__LASER_ONLY_
  0
POLYLINE
  5
19F
  8
MARK__LASER_ONLY_
 66
     1
 10
0.0
 20
0.0
 30
0.0
  0
VERTEX
  5
608
  8
MARK__LASER_ONLY_
 10
735.9251553710964
 20
659.9607279746511
 30
0.0
  0
VERTEX
  5
609
  8
MARK__LASER_ONLY_
 10
736.700365956179
 20
645.6758032363938
 30
0.0
  0
SEQEND
  5
EC9
  8
MARK__LASER_ONLY_
  0
POLYLINE
  5
1A0
  8
MARK__LASER_ONLY_
 66
     1
 10
0.0
 20
0.0
 30
0.0
  0
VERTEX
  5
60A
  8
MARK__LASER_ONLY_
 10
736.7973493295456
 20
643.8886756918744
 30
0.0
  0
VERTEX
  5
60B
  8
MARK__LASER_ONLY_
 10
736.9911519758163
 20
640.3174445073101
 30
0.0
  0
SEQEND
  5
ECA
  8
MARK__LASER_ONLY_
  0
POLYLINE
  5
1A1
  8
MARK__LASER_ONLY_
 66
     1
 10
0.0
 20
0.0
 30
0.0
  0
VERTEX
  5
60C
  8
MARK__LASER_ONLY_
 10
737.0881353491828
 20
638.5303169627906
 30
0.0
  0
VERTEX
  5
60D
  8
MARK__LASER_ONLY_
 10
737.8633459342655
 20
624.2453922245334
 30
0.0
  0
SEQEND
  5
ECB
  8
MARK__LASER_ONLY_
  0
POLYLINE
  5
1A2
  8
MARK__LASER_ONLY_
 66
     1
 10
0.0
 20
0.0
 30
0.0
  0
VERTEX
  5
60E
  8
MARK__LASER_ONLY_
 10
737.9603293076322
 20
622.4582646800139
 30
0.0
  0
VERTEX
  5
60F
  8
MARK__LASER_ONLY_
 10
738.1541319539027
 20
618.8870334954496
 30
0.0
  0
SEQEND
  5
ECC
  8
MARK__LASER_ONLY_
  0
POLYLINE
  5
1A3
  8
MARK__LASER_ONLY_
 66
     1
 10
0.0
 20
0.0
 30
0.0
  0
VERTEX
  5
610
  8
MARK__LASER_ONLY_
 10
738.2511153272693
 20
617.0999059509301
 30
0.0
  0
VERTEX
  5
611
  8
MARK__LASER_ONLY_
 10
739.026325912352
 20
602.8149812126728
 30
0.0
  0
SEQEND
  5
ECD
  8
MARK__LASER_ONLY_
  0
POLYLINE
  5
1A4
  8
MARK__LASER_ONLY_
 66
     1
 10
0.0
 20
0.0
 30
0.0
  0
VERTEX
  5
612
  8
MARK__LASER_ONLY_
 10
739.1233092857186
 20
601.0278536681534
 30
0.0
  0
VERTEX
  5
613
  8
MARK__LASER_ONLY_
 10
739.3171119319893
 20
597.4566224835892
 30
0.0
  0
SEQEND
  5
ECE
  8
MARK__LASER_ONLY_
  0
POLYLINE
  5
1A5
  8
MARK__LASER_ONLY_
 66
     1
 10
0.0
 20
0.0
 30
0.0
  0
VERTEX
  5
614
  8
MARK__LASER_ONLY_
 10
739.4140953053559
 20
595.6694949390696
 30
0.0
  0
VERTEX
  5
615
  8
MARK__LASER_ONLY_
 10
740.1893058904385
 20
581.3845702008124
 30
0.0
  0
SEQEND
  5
ECF
  8
MARK__LASER_ONLY_
  0
POLYLINE
  5
1A6
  8
MARK__LASER_ONLY_
 66
     1
 10
0.0
 20
0.0
 30
0.0
  0
VERTEX
  5
616
  8
MARK__LASER_ONLY_
 10
740.2862892638051
 20
579.597442656293
 30
0.0
  0
VERTEX
  5
617
  8
MARK__LASER_ONLY_
 10
740.4800919100759
 20
576.0262114717286
 30
0.0
  0
SEQEND
  5
ED0
  8
MARK__LASER_ONLY_
  0
POLYLINE
  5
1A7
  8
MARK__LASER_ONLY_
 66
     1
 10
0.0
 20
0.0
 30
0.0
  0
VERTEX
  5
618
  8
MARK__LASER_ONLY_
 10
740.5770752834425
 20
574.2390839272091
 30
0.0
  0
VERTEX
  5
619
  8
MARK__LASER_ONLY_
 10
741.3522858685251
 20
559.954159188952
 30
0.0
  0
SEQEND
  5
ED1
  8
MARK__LASER_ONLY_
  0
POLYLINE
  5
1A8
  8
MARK__LASER_ONLY_
 66
     1
 10
0.0
 20
0.0
 30
0.0
  0
VERTEX
  5
61A
  8
MARK__LASER_ONLY_
 10
741.4492692418917
 20
558.1670316444324
 30
0.0
  0
VERTEX
  5
61B
  8
MARK__LASER_ONLY_
 10
741.6430718881624
 20
554.5958004598681
 30
0.0
  0
SEQEND
  5
ED2
  8
MARK__LASER_ONLY_
  0
POLYLINE
  5
1A9
  8
MARK__LASER_ONLY_
 66
     1
 10
0.0
 20
0.0
 30
0.0
  0
VERTEX
  5
61C
  8
MARK__LASER_ONLY_
 10
741.7400552615289
 20
552.8086729153487
 30
0.0
  0
VERTEX
  5
61D
  8
MARK__LASER_ONLY_
 10
742.5152658466117
 20
538.5237481770914
 30
0.0
  0
SEQEND
  5
ED3
  8
MARK__LASER_ONLY_
  0
POLYLINE
  5
1AA
  8
MARK__LASER_ONLY_
 66
     1
 10
0.0
 20
0.0
 30
0.0
  0
VERTEX
  5
61E
  8
MARK__LASER_ONLY_
 10
742.6122492199783
 20
536.7366206325719
 30
0.0
  0
VERTEX
  5
61F
  8
MARK__LASER_ONLY_
 10
742.8060518662488
 20
533.1653894480077
 30
0.0
  0
SEQEND
  5
ED4
  8
MARK__LASER_ONLY_
  0
POLYLINE
  5
1AB
  8
MARK__LASER_ONLY_
 66
     1
 10
0.0
 20
0.0
 30
0.0
  0
VERTEX
  5
620
  8
MARK__LASER_ONLY_
 10
742.9030352396155
 20
531.3782619034882
 30
0.0
  0
VERTEX
  5
621
  8
MARK__LASER_ONLY_
 10
743.6782458246981
 20
517.0933371652309
 30
0.0
  0
SEQEND
  5
ED5
  8
MARK__LASER_ONLY_
  0
POLYLINE
  5
1AC
  8
MARK__LASER_ONLY_
 66
     1
 10
0.0
 20
0.0
 30
0.0
  0
VERTEX
  5
622
  8
MARK__LASER_ONLY_
 10
743.7752291980647
 20
515.3062096207115
 30
0.0
  0
VERTEX
  5
623
  8
MARK__LASER_ONLY_
 10
743.9690318443354
 20
511.7349784361472
 30
0.0
  0
SEQEND
  5
ED6
  8
MARK__LASER_ONLY_
  0
POLYLINE
  5
1AD
  8
MARK__LASER_ONLY_
 66
     1
 10
0.0
 20
0.0
 30
0.0
  0
VERTEX
  5
624
  8
MARK__LASER_ONLY_
 10
744.066015217702
 20
509.9478508916277
 30
0.0
  0
VERTEX
  5
625
  8
MARK__LASER_ONLY_
 10
744.8412258027846
 20
495.6629261533704
 30
0.0
  0
SEQEND
  5
ED7
  8
MARK__LASER_ONLY_
  0
POLYLINE
  5
1AE
  8
MARK__LASER_ONLY_
 66
     1
 10
0.0
 20
0.0
 30
0.0
  0
VERTEX
  5
626
  8
MARK__LASER_ONLY_
 10
744.9382091761513
 20
493.875798608851
 30
0.0
  0
VERTEX
  5
627
  8
MARK__LASER_ONLY_
 10
745.132011822422
 20
490.3045674242867
 30
0.0
  0
SEQEND
  5
ED8
  8
MARK__LASER_ONLY_
  0
POLYLINE
  5
1AF
  8
MARK__LASER_ONLY_
 66
     1
 10
0.0
 20
0.0
 30
0.0
  0
VERTEX
  5
628
  8
MARK__LASER_ONLY_
 10
745.2289951957886
 20
488.5174398797672
 30
0.0
  0
VERTEX
  5
629
  8
MARK__LASER_ONLY_
 10
746.0042057808712
 20
474.23251514151
 30
0.0
  0
SEQEND
  5
ED9
  8
MARK__LASER_ONLY_
  0
POLYLINE
  5
1B0
  8
MARK__LASER_ONLY_
 66
     1
 10
0.0
 20
0.0
 30
0.0
  0
VERTEX
  5
62A
  8
MARK__LASER_ONLY_
 10
746.1011891542378
 20
472.4453875969905
 30
0.0
  0
VERTEX
  5
62B
  8
MARK__LASER_ONLY_
 10
746.2949918005085
 20
468.8741564124262
 30
0.0
  0
SEQEND
  5
EDA
  8
MARK__LASER_ONLY_
  0
POLYLINE
  5
1B1
  8
MARK__LASER_ONLY_
 66
     1
 10
0.0
 20
0.0
 30
0.0
  0
VERTEX
  5
62C
  8
MARK__LASER_ONLY_
 10
746.391975173875
 20
467.0870288679067
 30
0.0
  0
VERTEX
  5
62D
  8
MARK__LASER_ONLY_
 10
747.1671857589578
 20
452.8021041296495
 30
0.0
  0
SEQEND
  5
EDB
  8
MARK__LASER_ONLY_
  0
POLYLINE
  5
1B2
  8
MARK__LASER_ONLY_
 66
     1
 10
0.0
 20
0.0
 30
0.0
  0
VERTEX
  5
62E
  8
MARK__LASER_ONLY_
 10
747.2641691323244
 20
451.0149765851301
 30
0.0
  0
VERTEX
  5
62F
  8
MARK__LASER_ONLY_
 10
747.4579717785949
 20
447.4437454005658
 30
0.0
  0
SEQEND
  5
EDC
  8
MARK__LASER_ONLY_
  0
POLYLINE
  5
1B3
  8
MARK__LASER_ONLY_
 66
     1
 10
0.0
 20
0.0
 30
0.0
  0
VERTEX
  5
630
  8
MARK__LASER_ONLY_
 10
747.5549551519616
 20
445.6566178560463
 30
0.0
  0
VERTEX
  5
631
  8
MARK__LASER_ONLY_
 10
748.3301657370442
 20
431.3716931177891
 30
0.0
  0
SEQEND
  5
EDD
  8
MARK__LASER_ONLY_
  0
POLYLINE
  5
1B4
  8
MARK__LASER_ONLY_
 66
     1
 10
0.0
 20
0.0
 30
0.0
  0
VERTEX
  5
632
  8
MARK__LASER_ONLY_
 10
748.4271491104108
 20
429.5845655732696
 30
0.0
  0
VERTEX
  5
633
  8
MARK__LASER_ONLY_
 10
748.6209517566815
 20
426.0133343887053
 30
0.0
  0
SEQEND
  5
EDE
  8
MARK__LASER_ONLY_
  0
POLYLINE
  5
1B5
  8
MARK__LASER_ONLY_
 66
     1
 10
0.0
 20
0.0
 30
0.0
  0
VERTEX
  5
634
  8
MARK__LASER_ONLY_
 10
748.7179351300481
 20
424.2262068441858
 30
0.0
  0
VERTEX
  5
635
  8
MARK__LASER_ONLY_
 10
749.4931457151307
 20
409.9412821059286
 30
0.0
  0
SEQEND
  5
EDF
  8
MARK__LASER_ONLY_
  0
POLYLINE
  5
1B6
  8
MARK__LASER_ONLY_
 66
     1
 10
0.0
 20
0.0
 30
0.0
  0
VERTEX
  5
636
  8
MARK__LASER_ONLY_
 10
749.5901290884974
 20
408.1541545614091
 30
0.0
  0
VERTEX
  5
637
  8
MARK__LASER_ONLY_
 10
749.7839317347681
 20
404.5829233768448
 30
0.0
  0
SEQEND
  5
EE0
  8
MARK__LASER_ONLY_
  0
POLYLINE
  5
1B7
  8
MARK__LASER_ONLY_
 66
     1
 10
0.0
 20
0.0
 30
0.0
  0
VERTEX
  5
638
  8
MARK__LASER_ONLY_
 10
749.8809151081347
 20
402.7957958323253
 30
0.0
  0
VERTEX
  5
639
  8
MARK__LASER_ONLY_
 10
750.6561256932173
 20
388.5108710940681
 30
0.0
  0
SEQEND
  5
EE1
  8
MARK__LASER_ONLY_
  0
POLYLINE
  5
1B8
  8
MARK__LASER_ONLY_
 66
     1
 10
0.0
 20
0.0
 30
0.0
  0
VERTEX
  5
63A
  8
MARK__LASER_ONLY_
 10
750.7531090665839
 20
386.7237435495487
 30
0.0
  0
VERTEX
  5
63B
  8
MARK__LASER_ONLY_
 10
750.9469117128546
 20
383.1525123649843
 30
0.0
  0
SEQEND
  5
EE2
  8
MARK__LASER_ONLY_
  0
POLYLINE
  5
1B9
  8
MARK__LASER_ONLY_
 66
     1
 10
0.0
 20
0.0
 30
0.0
  0
VERTEX
  5
63C
  8
MARK__LASER_ONLY_
 10
751.0438950862211
 20
381.3653848204649
 30
0.0
  0
VERTEX
  5
63D
  8
MARK__LASER_ONLY_
 10
751.8191056713039
 20
367.0804600822077
 30
0.0
  0
SEQEND
  5
EE3
  8
MARK__LASER_ONLY_
  0
POLYLINE
  5
1BA
  8
MARK__LASER_ONLY_
 66
     1
 10
0.0
 20
0.0
 30
0.0
  0
VERTEX
  5
63E
  8
MARK__LASER_ONLY_
 10
751.9160890446705
 20
365.2933325376881
 30
0.0
  0
VERTEX
  5
63F
  8
MARK__LASER_ONLY_
 10
752.1098916909411
 20
361.7221013531239
 30
0.0
  0
SEQEND
  5
EE4
  8
MARK__LASER_ONLY_
  0
POLYLINE
  5
1BB
  8
MARK__LASER_ONLY_
 66
     1
 10
0.0
 20
0.0
 30
0.0
  0
VERTEX
  5
640
  8
MARK__LASER_ONLY_
 10
752.2068750643077
 20
359.9349738086044
 30
0.0
  0
VERTEX
  5
641
  8
MARK__LASER_ONLY_
 10
752.9820856493903
 20
345.6500490703471
 30
0.0
  0
SEQEND
  5
EE5
  8
MARK__LASER_ONLY_
  0
POLYLINE
  5
1BC
  8
MARK__LASER_ONLY_
 66
     1
 10
0.0
 20
0.0
 30
0.0
  0
VERTEX
  5
642
  8
MARK__LASER_ONLY_
 10
753.0790690227569
 20
343.8629215258277
 30
0.0
  0
VERTEX
  5
643
  8
MARK__LASER_ONLY_
 10
753.2728716690276
 20
340.2916903412633
 30
0.0
  0
SEQEND
  5
EE6
  8
MARK__LASER_ONLY_
  0
POLYLINE
  5
1BD
  8
MARK__LASER_ONLY_
 66
     1
 10
0.0
 20
0.0
 30
0.0
  0
VERTEX
  5
644
  8
MARK__LASER_ONLY_
 10
753.3698550423942
 20
338.5045627967439
 30
0.0
  0
VERTEX
  5
645
  8
MARK__LASER_ONLY_
 10
754.1450656274769
 20
324.2196380584867
 30
0.0
  0
SEQEND
  5
EE7
  8
MARK__LASER_ONLY_
  0
POLYLINE
  5
1BE
  8
MARK__LASER_ONLY_
 66
     1
 10
0.0
 20
0.0
 30
0.0
  0
VERTEX
  5
646
  8
MARK__LASER_ONLY_
 10
754.2420490008435
 20
322.4325105139671
 30
0.0
  0
VERTEX
  5
647
  8
MARK__LASER_ONLY_
 10
754.4358516471142
 20
318.8612793294029
 30
0.0
  0
SEQEND
  5
EE8
  8
MARK__LASER_ONLY_
  0
POLYLINE
  5
1BF
  8
MARK__LASER_ONLY_
 66
     1
 10
0.0
 20
0.0
 30
0.0
  0
VERTEX
  5
648
  8
MARK__LASER_ONLY_
 10
754.5328350204808
 20
317.0741517848834
 30
0.0
  0
VERTEX
  5
649
  8
MARK__LASER_ONLY_
 10
755.3080456055634
 20
302.7892270466261
 30
0.0
  0
SEQEND
  5
EE9
  8
MARK__LASER_ONLY_
  0
POLYLINE
  5
1C0
  8
MARK__LASER_ONLY_
 66
     1
 10
0.0
 20
0.0
 30
0.0
  0
VERTEX
  5
64A
  8
MARK__LASER_ONLY_
 10
755.4050289789301
 20
301.0020995021067
 30
0.0
  0
VERTEX
  5
64B
  8
MARK__LASER_ONLY_
 10
755.5988316252007
 20
297.4308683175424
 30
0.0
  0
SEQEND
  5
EEA
  8
MARK__LASER_ONLY_
  0
POLYLINE
  5
1C1
  8
MARK__LASER_ONLY_
 66
     1
 10
0.0
 20
0.0
 30
0.0
  0
VERTEX
  5
64C
  8
MARK__LASER_ONLY_
 10
755.6958149985672
 20
295.643740773023
 30
0.0
  0
VERTEX
  5
64D
  8
MARK__LASER_ONLY_
 10
756.47102558365
 20
281.3588160347657
 30
0.0
  0
SEQEND
  5
EEB
  8
MARK__LASER_ONLY_
  0
POLYLINE
  5
1C2
  8
MARK__LASER_ONLY_
 66
     1
 10
0.0
 20
0.0
 30
0.0
  0
VERTEX
  5
64E
  8
MARK__LASER_ONLY_
 10
756.5680089570166
 20
279.5716884902462
 30
0.0
  0
VERTEX
  5
64F
  8
MARK__LASER_ONLY_
 10
756.7618116032872
 20
276.0004573056819
 30
0.0
  0
SEQEND
  5
EEC
  8
MARK__LASER_ONLY_
  0
POLYLINE
  5
1C3
  8
MARK__LASER_ONLY_
 66
     1
 10
0.0
 20
0.0
 30
0.0
  0
VERTEX
  5
650
  8
MARK__LASER_ONLY_
 10
756.8587949766538
 20
274.2133297611624
 30
0.0
  0
VERTEX
  5
651
  8
MARK__LASER_ONLY_
 10
757.6340055617364
 20
259.9284050229052
 30
0.0
  0
SEQEND
  5
EED
  8
MARK__LASER_ONLY_
  0
POLYLINE
  5
1C4
  8
MARK__LASER_ONLY_
 66
     1
 10
0.0
 20
0.0
 30
0.0
  0
VERTEX
  5
652
  8
MARK__LASER_ONLY_
 10
757.730988935103
 20
258.1412774783857
 30
0.0
  0
VERTEX
  5
653
  8
MARK__LASER_ONLY_
 10
757.9247915813737
 20
254.5700462938214
 30
0.0
  0
SEQEND
  5
EEE
  8
MARK__LASER_ONLY_
  0
POLYLINE
  5
1C5
  8
MARK__LASER_ONLY_
 66
     1
 10
0.0
 20
0.0
 30
0.0
  0
VERTEX
  5
654
  8
MARK__LASER_ONLY_
 10
758.0217749547404
 20
252.782918749302
 30
0.0
  0
VERTEX
  5
655
  8
MARK__LASER_ONLY_
 10
758.796985539823
 20
238.4979940110447
 30
0.0
  0
SEQEND
  5
EEF
  8
MARK__LASER_ONLY_
  0
POLYLINE
  5
1C6
  8
MARK__LASER_ONLY_
 66
     1
 10
0.0
 20
0.0
 30
0.0
  0
VERTEX
  5
656
  8
MARK__LASER_ONLY_
 10
758.8939689131896
 20
236.7108664665252
 30
0.0
  0
VERTEX
  5
657
  8
MARK__LASER_ONLY_
 10
759.0877715594603
 20
233.139635281961
 30
0.0
  0
SEQEND
  5
EF0
  8
MARK__LASER_ONLY_
  0
POLYLINE
  5
1C7
  8
MARK__LASER_ONLY_
 66
     1
 10
0.0
 20
0.0
 30
0.0
  0
VERTEX
  5
658
  8
MARK__LASER_ONLY_
 10
759.1847549328269
 20
231.3525077374414
 30
0.0
  0
VERTEX
  5
659
  8
MARK__LASER_ONLY_
 10
759.9599655179095
 20
217.0675829991842
 30
0.0
  0
SEQEND
  5
EF1
  8
MARK__LASER_ONLY_
  0
POLYLINE
  5
1C8
  8
MARK__LASER_ONLY_
 66
     1
 10
0.0
 20
0.0
 30
0.0
  0
VERTEX
  5
65A
  8
MARK__LASER_ONLY_
 10
760.0569488912762
 20
215.2804554546648
 30
0.0
  0
VERTEX
  5
65B
  8
MARK__LASER_ONLY_
 10
760.2507515375468
 20
211.7092242701004
 30
0.0
  0
SEQEND
  5
EF2
  8
MARK__LASER_ONLY_
  0
POLYLINE
  5
1C9
  8
MARK__LASER_ONLY_
 66
     1
 10
0.0
 20
0.0
 30
0.0
  0
VERTEX
  5
65C
  8
MARK__LASER_ONLY_
 10
760.3477349109133
 20
209.922096725581
 30
0.0
  0
VERTEX
  5
65D
  8
MARK__LASER_ONLY_
 10
761.1229454959961
 20
195.6371719873238
 30
0.0
  0
SEQEND
  5
EF3
  8
MARK__LASER_ONLY_
  0
POLYLINE
  5
1CA
  8
MARK__LASER_ONLY_
 66
     1
 10
0.0
 20
0.0
 30
0.0
  0
VERTEX
  5
65E
  8
MARK__LASER_ONLY_
 10
761.2199288693627
 20
193.8500444428042
 30
0.0
  0
VERTEX
  5
65F
  8
MARK__LASER_ONLY_
 10
761.4137315156333
 20
190.27881325824
 30
0.0
  0
SEQEND
  5
EF4
  8
MARK__LASER_ONLY_
  0
POLYLINE
  5
1CB
  8
MARK__LASER_ONLY_
 66
     1
 10
0.0
 20
0.0
 30
0.0
  0
VERTEX
  5
660
  8
MARK__LASER_ONLY_
 10
761.5107148889999
 20
188.4916857137205
 30
0.0
  0
VERTEX
  5
661
  8
MARK__LASER_ONLY_
 10
762.2859254740825
 20
174.2067609754632
 30
0.0
  0
SEQEND
  5
EF5
  8
MARK__LASER_ONLY_
  0
POLYLINE
  5
1CC
  8
MARK__LASER_ONLY_
 66
     1
 10
0.0
 20
0.0
 30
0.0
  0
VERTEX
  5
662
  8
MARK__LASER_ONLY_
 10
762.3829088474491
 20
172.4196334309438
 30
0.0
  0
VERTEX
  5
663
  8
MARK__LASER_ONLY_
 10
762.5767114937199
 20
168.8484022463795
 30
0.0
  0
SEQEND
  5
EF6
  8
MARK__LASER_ONLY_
  0
POLYLINE
  5
1CD
  8
MARK__LASER_ONLY_
 66
     1
 10
0.0
 20
0.0
 30
0.0
  0
VERTEX
  5
664
  8
MARK__LASER_ONLY_
 10
762.6736948670865
 20
167.06127470186
 30
0.0
  0
VERTEX
  5
665
  8
MARK__LASER_ONLY_
 10
763.4489054521691
 20
152.7763499636028
 30
0.0
  0
SEQEND
  5
EF7
  8
MARK__LASER_ONLY_
  0
POLYLINE
  5
1CE
  8
MARK__LASER_ONLY_
 66
     1
 10
0.0
 20
0.0
 30
0.0
  0
VERTEX
  5
666
  8
MARK__LASER_ONLY_
 10
763.5458888255357
 20
150.9892224190834
 30
0.0
  0
VERTEX
  5
667
  8
MARK__LASER_ONLY_
 10
763.7396914718064
 20
147.417991234519
 30
0.0
  0
SEQEND
  5
EF8
  8
MARK__LASER_ONLY_
  0
POLYLINE
  5
1CF
  8
MARK__LASER_ONLY_
 66
     1
 10
0.0
 20
0.0
 30
0.0
  0
VERTEX
  5
668
  8
MARK__LASER_ONLY_
 10
763.836674845173
 20
145.6308636899995
 30
0.0
  0
VERTEX
  5
669
  8
MARK__LASER_ONLY_
 10
764.6118854302557
 20
131.3459389517423
 30
0.0
  0
SEQEND
  5
EF9
  8
MARK__LASER_ONLY_
  0
POLYLINE
  5
1D0
  8
MARK__LASER_ONLY_
 66
     1
 10
0.0
 20
0.0
 30
0.0
  0
VERTEX
  5
66A
  8
MARK__LASER_ONLY_
 10
764.7088688036223
 20
129.5588114072228
 30
0.0
  0
VERTEX
  5
66B
  8
MARK__LASER_ONLY_
 10
764.9026714498929
 20
125.9875802226585
 30
0.0
  0
SEQEND
  5
EFA
  8
MARK__LASER_ONLY_
  0
POLYLINE
  5
1D1
  8
MARK__LASER_ONLY_
 66
     1
 10
0.0
 20
0.0
 30
0.0
  0
VERTEX
  5
66C
  8
MARK__LASER_ONLY_
 10
764.9996548232594
 20
124.2004526781391
 30
0.0
  0
VERTEX
  5
66D
  8
MARK__LASER_ONLY_
 10
765.7748654083422
 20
109.9155279398818
 30
0.0
  0
SEQEND
  5
EFB
  8
MARK__LASER_ONLY_
  0
POLYLINE
  5
1D2
  8
MARK__LASER_ONLY_
 66
     1
 10
0.0
 20
0.0
 30
0.0
  0
VERTEX
  5
66E
  8
MARK__LASER_ONLY_
 10
765.8718487817088
 20
108.1284003953624
 30
0.0
  0
VERTEX
  5
66F
  8
MARK__LASER_ONLY_
 10
766.0656514279794
 20
104.5571692107981
 30
0.0
  0
SEQEND
  5
EFC
  8
MARK__LASER_ONLY_
  0
POLYLINE
  5
1D3
  8
MARK__LASER_ONLY_
 66
     1
 10
0.0
 20
0.0
 30
0.0
  0
VERTEX
  5
670
  8
MARK__LASER_ONLY_
 10
766.162634801346
 20
102.7700416662785
 30
0.0
  0
VERTEX
  5
671
  8
MARK__LASER_ONLY_
 10
766.9378453864286
 20
88.48511692802128
 30
0.0
  0
SEQEND
  5
EFD
  8
MARK__LASER_ONLY_
  0
POLYLINE
  5
1D4
  8
MARK__LASER_ONLY_
 66
     1
 10
0.0
 20
0.0
 30
0.0
  0
VERTEX
  5
672
  8
MARK__LASER_ONLY_
 10
767.0348287597952
 20
86.69798938350186
 30
0.0
  0
VERTEX
  5
673
  8
MARK__LASER_ONLY_
 10
767.228631406066
 20
83.12675819893752
 30
0.0
  0
SEQEND
  5
EFE
  8
MARK__LASER_ONLY_
  0
POLYLINE
  5
1D5
  8
MARK__LASER_ONLY_
 66
     1
 10
0.0
 20
0.0
 30
0.0
  0
VERTEX
  5
674
  8
MARK__LASER_ONLY_
 10
767.3256147794326
 20
81.3396306544181
 30
0.0
  0
VERTEX
  5
675
  8
MARK__LASER_ONLY_
 10
768.1008253645152
 20
67.05470591616086
 30
0.0
  0
SEQEND
  5
EFF
  8
MARK__LASER_ONLY_
  0
POLYLINE
  5
1D6
  8
MARK__LASER_ONLY_
 66
     1
 10
0.0
 20
0.0
 30
0.0
  0
VERTEX
  5
676
  8
MARK__LASER_ONLY_
 10
768.1978087378818
 20
65.26757837164143
 30
0.0
  0
VERTEX
  5
677
  8
MARK__LASER_ONLY_
 10
768.3916113841525
 20
61.69634718707709
 30
0.0
  0
SEQEND
  5
F00
  8
MARK__LASER_ONLY_
  0
POLYLINE
  5
1D7
  8
MARK__LASER_ONLY_
 66
     1
 10
0.0
 20
0.0
 30
0.0
  0
VERTEX
  5
678
  8
MARK__LASER_ONLY_
 10
768.4885947575191
 20
59.90921964255767
 30
0.0
  0
VERTEX
  5
679
  8
MARK__LASER_ONLY_
 10
769.2638053426018
 20
45.62429490430031
 30
0.0
  0
SEQEND
  5
F01
  8
MARK__LASER_ONLY_
  0
POLYLINE
  5
1D8
  8
MARK__LASER_ONLY_
 66
     1
 10
0.0
 20
0.0
 30
0.0
  0
VERTEX
  5
67A
  8
MARK__LASER_ONLY_
 10
769.3607887159684
 20
43.83716735978089
 30
0.0
  0
VERTEX
  5
67B
  8
MARK__LASER_ONLY_
 10
769.554591362239
 20
40.26593617521655
 30
0.0
  0
SEQEND
  5
F02
  8
MARK__LASER_ONLY_
  0
POLYLINE
  5
1D9
  8
MARK__LASER_ONLY_
 66
     1
 10
0.0
 20
0.0
 30
0.0
  0
VERTEX
  5
67C
  8
MARK__LASER_ONLY_
 10
769.6515747356057
 20
38.47880863069713
 30
0.0
  0
VERTEX
  5
67D
  8
MARK__LASER_ONLY_
 10
770.6206695475822
 20
20.62114940917604
 30
0.0
  0
SEQEND
  5
F03
  8
MARK__LASER_ONLY_
  0
POLYLINE
  5
1DA
  8
MARK__LASER_ONLY_
 66
     1
 10
0.0
 20
0.0
 30
0.0
  0
VERTEX
  5
67E
  8
MARK__LASER_ONLY_
 10
820.5337780494506
 20
71.122126062653
 30
0.0
  0
VERTEX
  5
67F
  8
MARK__LASER_ONLY_
 10
819.5646832374739
 20
88.9797852841742
 30
0.0
  0
SEQEND
  5
F04
  8
MARK__LASER_ONLY_
  0
POLYLINE
  5
1DB
  8
MARK__LASER_ONLY_
 66
     1
 10
0.0
 20
0.0
 30
0.0
  0
VERTEX
  5
680
  8
MARK__LASER_ONLY_
 10
819.4676998641073
 20
90.76691282869362
 30
0.0
  0
VERTEX
  5
681
  8
MARK__LASER_ONLY_
 10
819.2738972178365
 20
94.33814401325796
 30
0.0
  0
SEQEND
  5
F05
  8
MARK__LASER_ONLY_
  0
POLYLINE
  5
1DC
  8
MARK__LASER_ONLY_
 66
     1
 10
0.0
 20
0.0
 30
0.0
  0
VERTEX
  5
682
  8
MARK__LASER_ONLY_
 10
819.1769138444699
 20
96.12527155777738
 30
0.0
  0
VERTEX
  5
683
  8
MARK__LASER_ONLY_
 10
818.4017032593874
 20
110.4101962960347
 30
0.0
  0
SEQEND
  5
F06
  8
MARK__LASER_ONLY_
  0
POLYLINE
  5
1DD
  8
MARK__LASER_ONLY_
 66
     1
 10
0.0
 20
0.0
 30
0.0
  0
VERTEX
  5
684
  8
MARK__LASER_ONLY_
 10
818.3047198860206
 20
112.1973238405542
 30
0.0
  0
VERTEX
  5
685
  8
MARK__LASER_ONLY_
 10
818.1109172397503
 20
115.7685550251184
 30
0.0
  0
SEQEND
  5
F07
  8
MARK__LASER_ONLY_
  0
POLYLINE
  5
1DE
  8
MARK__LASER_ONLY_
 66
     1
 10
0.0
 20
0.0
 30
0.0
  0
VERTEX
  5
686
  8
MARK__LASER_ONLY_
 10
818.0139338663837
 20
117.5556825696379
 30
0.0
  0
VERTEX
  5
687
  8
MARK__LASER_ONLY_
 10
817.238723281301
 20
131.8406073078952
 30
0.0
  0
SEQEND
  5
F08
  8
MARK__LASER_ONLY_
  0
POLYLINE
  5
1DF
  8
MARK__LASER_ONLY_
 66
     1
 10
0.0
 20
0.0
 30
0.0
  0
VERTEX
  5
688
  8
MARK__LASER_ONLY_
 10
817.1417399079344
 20
133.6277348524146
 30
0.0
  0
VERTEX
  5
689
  8
MARK__LASER_ONLY_
 10
816.9479372616636
 20
137.1989660369789
 30
0.0
  0
SEQEND
  5
F09
  8
MARK__LASER_ONLY_
  0
POLYLINE
  5
1E0
  8
MARK__LASER_ONLY_
 66
     1
 10
0.0
 20
0.0
 30
0.0
  0
VERTEX
  5
68A
  8
MARK__LASER_ONLY_
 10
816.850953888297
 20
138.9860935814985
 30
0.0
  0
VERTEX
  5
68B
  8
MARK__LASER_ONLY_
 10
816.0757433032143
 20
153.2710183197557
 30
0.0
  0
SEQEND
  5
F0A
  8
MARK__LASER_ONLY_
  0
POLYLINE
  5
1E1
  8
MARK__LASER_ONLY_
 66
     1
 10
0.0
 20
0.0
 30
0.0
  0
VERTEX
  5
68C
  8
MARK__LASER_ONLY_
 10
815.9787599298477
 20
155.0581458642751
 30
0.0
  0
VERTEX
  5
68D
  8
MARK__LASER_ONLY_
 10
815.7849572835769
 20
158.6293770488395
 30
0.0
  0
SEQEND
  5
F0B
  8
MARK__LASER_ONLY_
  0
POLYLINE
  5
1E2
  8
MARK__LASER_ONLY_
 66
     1
 10
0.0
 20
0.0
 30
0.0
  0
VERTEX
  5
68E
  8
MARK__LASER_ONLY_
 10
815.6879739102103
 20
160.416504593359
 30
0.0
  0
VERTEX
  5
68F
  8
MARK__LASER_ONLY_
 10
814.9127633251278
 20
174.7014293316163
 30
0.0
  0
SEQEND
  5
F0C
  8
MARK__LASER_ONLY_
  0
POLYLINE
  5
1E3
  8
MARK__LASER_ONLY_
 66
     1
 10
0.0
 20
0.0
 30
0.0
  0
VERTEX
  5
690
  8
MARK__LASER_ONLY_
 10
814.8157799517612
 20
176.4885568761357
 30
0.0
  0
VERTEX
  5
691
  8
MARK__LASER_ONLY_
 10
814.6219773054906
 20
180.0597880607
 30
0.0
  0
SEQEND
  5
F0D
  8
MARK__LASER_ONLY_
  0
POLYLINE
  5
1E4
  8
MARK__LASER_ONLY_
 66
     1
 10
0.0
 20
0.0
 30
0.0
  0
VERTEX
  5
692
  8
MARK__LASER_ONLY_
 10
814.5249939321241
 20
181.8469156052196
 30
0.0
  0
VERTEX
  5
693
  8
MARK__LASER_ONLY_
 10
813.7497833470413
 20
196.1318403434767
 30
0.0
  0
SEQEND
  5
F0E
  8
MARK__LASER_ONLY_
  0
POLYLINE
  5
1E5
  8
MARK__LASER_ONLY_
 66
     1
 10
0.0
 20
0.0
 30
0.0
  0
VERTEX
  5
694
  8
MARK__LASER_ONLY_
 10
813.6527999736747
 20
197.9189678879962
 30
0.0
  0
VERTEX
  5
695
  8
MARK__LASER_ONLY_
 10
813.458997327404
 20
201.4901990725606
 30
0.0
  0
SEQEND
  5
F0F
  8
MARK__LASER_ONLY_
  0
POLYLINE
  5
1E6
  8
MARK__LASER_ONLY_
 66
     1
 10
0.0
 20
0.0
 30
0.0
  0
VERTEX
  5
696
  8
MARK__LASER_ONLY_
 10
813.3620139540374
 20
203.2773266170801
 30
0.0
  0
VERTEX
  5
697
  8
MARK__LASER_ONLY_
 10
812.5868033689546
 20
217.5622513553372
 30
0.0
  0
SEQEND
  5
F10
  8
MARK__LASER_ONLY_
  0
POLYLINE
  5
1E7
  8
MARK__LASER_ONLY_
 66
     1
 10
0.0
 20
0.0
 30
0.0
  0
VERTEX
  5
698
  8
MARK__LASER_ONLY_
 10
812.489819995588
 20
219.3493788998568
 30
0.0
  0
VERTEX
  5
699
  8
MARK__LASER_ONLY_
 10
812.2960173493175
 20
222.9206100844211
 30
0.0
  0
SEQEND
  5
F11
  8
MARK__LASER_ONLY_
  0
POLYLINE
  5
1E8
  8
MARK__LASER_ONLY_
 66
     1
 10
0.0
 20
0.0
 30
0.0
  0
VERTEX
  5
69A
  8
MARK__LASER_ONLY_
 10
812.1990339759509
 20
224.7077376289405
 30
0.0
  0
VERTEX
  5
69B
  8
MARK__LASER_ONLY_
 10
811.4238233908682
 20
238.9926623671978
 30
0.0
  0
SEQEND
  5
F12
  8
MARK__LASER_ONLY_
  0
POLYLINE
  5
1E9
  8
MARK__LASER_ONLY_
 66
     1
 10
0.0
 20
0.0
 30
0.0
  0
VERTEX
  5
69C
  8
MARK__LASER_ONLY_
 10
811.3268400175016
 20
240.7797899117173
 30
0.0
  0
VERTEX
  5
69D
  8
MARK__LASER_ONLY_
 10
811.133037371231
 20
244.3510210962816
 30
0.0
  0
SEQEND
  5
F13
  8
MARK__LASER_ONLY_
  0
POLYLINE
  5
1EA
  8
MARK__LASER_ONLY_
 66
     1
 10
0.0
 20
0.0
 30
0.0
  0
VERTEX
  5
69E
  8
MARK__LASER_ONLY_
 10
811.0360539978644
 20
246.1381486408011
 30
0.0
  0
VERTEX
  5
69F
  8
MARK__LASER_ONLY_
 10
810.2608434127817
 20
260.4230733790583
 30
0.0
  0
SEQEND
  5
F14
  8
MARK__LASER_ONLY_
  0
POLYLINE
  5
1EB
  8
MARK__LASER_ONLY_
 66
     1
 10
0.0
 20
0.0
 30
0.0
  0
VERTEX
  5
6A0
  8
MARK__LASER_ONLY_
 10
810.1638600394151
 20
262.2102009235779
 30
0.0
  0
VERTEX
  5
6A1
  8
MARK__LASER_ONLY_
 10
809.9700573931443
 20
265.7814321081422
 30
0.0
  0
SEQEND
  5
F15
  8
MARK__LASER_ONLY_
  0
POLYLINE
  5
1EC
  8
MARK__LASER_ONLY_
 66
     1
 10
0.0
 20
0.0
 30
0.0
  0
VERTEX
  5
6A2
  8
MARK__LASER_ONLY_
 10
809.8730740197777
 20
267.5685596526616
 30
0.0
  0
VERTEX
  5
6A3
  8
MARK__LASER_ONLY_
 10
809.097863434695
 20
281.8534843909189
 30
0.0
  0
SEQEND
  5
F16
  8
MARK__LASER_ONLY_
  0
POLYLINE
  5
1ED
  8
MARK__LASER_ONLY_
 66
     1
 10
0.0
 20
0.0
 30
0.0
  0
VERTEX
  5
6A4
  8
MARK__LASER_ONLY_
 10
809.0008800613284
 20
283.6406119354384
 30
0.0
  0
VERTEX
  5
6A5
  8
MARK__LASER_ONLY_
 10
808.8070774150578
 20
287.2118431200028
 30
0.0
  0
SEQEND
  5
F17
  8
MARK__LASER_ONLY_
  0
POLYLINE
  5
1EE
  8
MARK__LASER_ONLY_
 66
     1
 10
0.0
 20
0.0
 30
0.0
  0
VERTEX
  5
6A6
  8
MARK__LASER_ONLY_
 10
808.7100940416913
 20
288.9989706645222
 30
0.0
  0
VERTEX
  5
6A7
  8
MARK__LASER_ONLY_
 10
807.9348834566088
 20
303.2838954027794
 30
0.0
  0
SEQEND
  5
F18
  8
MARK__LASER_ONLY_
  0
POLYLINE
  5
1EF
  8
MARK__LASER_ONLY_
 66
     1
 10
0.0
 20
0.0
 30
0.0
  0
VERTEX
  5
6A8
  8
MARK__LASER_ONLY_
 10
807.8379000832422
 20
305.071022947299
 30
0.0
  0
VERTEX
  5
6A9
  8
MARK__LASER_ONLY_
 10
807.6440974369714
 20
308.6422541318632
 30
0.0
  0
SEQEND
  5
F19
  8
MARK__LASER_ONLY_
  0
POLYLINE
  5
1F0
  8
MARK__LASER_ONLY_
 66
     1
 10
0.0
 20
0.0
 30
0.0
  0
VERTEX
  5
6AA
  8
MARK__LASER_ONLY_
 10
807.5471140636048
 20
310.4293816763826
 30
0.0
  0
VERTEX
  5
6AB
  8
MARK__LASER_ONLY_
 10
806.7719034785221
 20
324.71430641464
 30
0.0
  0
SEQEND
  5
F1A
  8
MARK__LASER_ONLY_
  0
POLYLINE
  5
1F1
  8
MARK__LASER_ONLY_
 66
     1
 10
0.0
 20
0.0
 30
0.0
  0
VERTEX
  5
6AC
  8
MARK__LASER_ONLY_
 10
806.6749201051555
 20
326.5014339591594
 30
0.0
  0
VERTEX
  5
6AD
  8
MARK__LASER_ONLY_
 10
806.4811174588847
 20
330.0726651437236
 30
0.0
  0
SEQEND
  5
F1B
  8
MARK__LASER_ONLY_
  0
POLYLINE
  5
1F2
  8
MARK__LASER_ONLY_
 66
     1
 10
0.0
 20
0.0
 30
0.0
  0
VERTEX
  5
6AE
  8
MARK__LASER_ONLY_
 10
806.3841340855181
 20
331.8597926882431
 30
0.0
  0
VERTEX
  5
6AF
  8
MARK__LASER_ONLY_
 10
805.6089235004356
 20
346.1447174265004
 30
0.0
  0
SEQEND
  5
F1C
  8
MARK__LASER_ONLY_
  0
POLYLINE
  5
1F3
  8
MARK__LASER_ONLY_
 66
     1
 10
0.0
 20
0.0
 30
0.0
  0
VERTEX
  5
6B0
  8
MARK__LASER_ONLY_
 10
805.5119401270688
 20
347.9318449710198
 30
0.0
  0
VERTEX
  5
6B1
  8
MARK__LASER_ONLY_
 10
805.3181374807984
 20
351.5030761555842
 30
0.0
  0
SEQEND
  5
F1D
  8
MARK__LASER_ONLY_
  0
POLYLINE
  5
1F4
  8
MARK__LASER_ONLY_
 66
     1
 10
0.0
 20
0.0
 30
0.0
  0
VERTEX
  5
6B2
  8
MARK__LASER_ONLY_
 10
805.2211541074319
 20
353.2902037001037
 30
0.0
  0
VERTEX
  5
6B3
  8
MARK__LASER_ONLY_
 10
804.4459435223491
 20
367.5751284383607
 30
0.0
  0
SEQEND
  5
F1E
  8
MARK__LASER_ONLY_
  0
POLYLINE
  5
1F5
  8
MARK__LASER_ONLY_
 66
     1
 10
0.0
 20
0.0
 30
0.0
  0
VERTEX
  5
6B4
  8
MARK__LASER_ONLY_
 10
804.3489601489825
 20
369.3622559828802
 30
0.0
  0
VERTEX
  5
6B5
  8
MARK__LASER_ONLY_
 10
804.1551575027117
 20
372.9334871674446
 30
0.0
  0
SEQEND
  5
F1F
  8
MARK__LASER_ONLY_
  0
POLYLINE
  5
1F6
  8
MARK__LASER_ONLY_
 66
     1
 10
0.0
 20
0.0
 30
0.0
  0
VERTEX
  5
6B6
  8
MARK__LASER_ONLY_
 10
804.0581741293452
 20
374.720614711964
 30
0.0
  0
VERTEX
  5
6B7
  8
MARK__LASER_ONLY_
 10
803.2829635442624
 20
389.0055394502212
 30
0.0
  0
SEQEND
  5
F20
  8
MARK__LASER_ONLY_
  0
POLYLINE
  5
1F7
  8
MARK__LASER_ONLY_
 66
     1
 10
0.0
 20
0.0
 30
0.0
  0
VERTEX
  5
6B8
  8
MARK__LASER_ONLY_
 10
803.1859801708958
 20
390.7926669947408
 30
0.0
  0
VERTEX
  5
6B9
  8
MARK__LASER_ONLY_
 10
802.992177524625
 20
394.363898179305
 30
0.0
  0
SEQEND
  5
F21
  8
MARK__LASER_ONLY_
  0
POLYLINE
  5
1F8
  8
MARK__LASER_ONLY_
 66
     1
 10
0.0
 20
0.0
 30
0.0
  0
VERTEX
  5
6BA
  8
MARK__LASER_ONLY_
 10
802.8951941512585
 20
396.1510257238244
 30
0.0
  0
VERTEX
  5
6BB
  8
MARK__LASER_ONLY_
 10
802.119983566176
 20
410.4359504620818
 30
0.0
  0
SEQEND
  5
F22
  8
MARK__LASER_ONLY_
  0
POLYLINE
  5
1F9
  8
MARK__LASER_ONLY_
 66
     1
 10
0.0
 20
0.0
 30
0.0
  0
VERTEX
  5
6BC
  8
MARK__LASER_ONLY_
 10
802.0230001928094
 20
412.2230780066012
 30
0.0
  0
VERTEX
  5
6BD
  8
MARK__LASER_ONLY_
 10
801.8291975465388
 20
415.7943091911654
 30
0.0
  0
SEQEND
  5
F23
  8
MARK__LASER_ONLY_
  0
POLYLINE
  5
1FA
  8
MARK__LASER_ONLY_
 66
     1
 10
0.0
 20
0.0
 30
0.0
  0
VERTEX
  5
6BE
  8
MARK__LASER_ONLY_
 10
801.7322141731722
 20
417.581436735685
 30
0.0
  0
VERTEX
  5
6BF
  8
MARK__LASER_ONLY_
 10
800.9570035880895
 20
431.8663614739422
 30
0.0
  0
SEQEND
  5
F24
  8
MARK__LASER_ONLY_
  0
POLYLINE
  5
1FB
  8
MARK__LASER_ONLY_
 66
     1
 10
0.0
 20
0.0
 30
0.0
  0
VERTEX
  5
6C0
  8
MARK__LASER_ONLY_
 10
800.8600202147229
 20
433.6534890184616
 30
0.0
  0
VERTEX
  5
6C1
  8
MARK__LASER_ONLY_
 10
800.6662175684521
 20
437.224720203026
 30
0.0
  0
SEQEND
  5
F25
  8
MARK__LASER_ONLY_
  0
POLYLINE
  5
1FC
  8
MARK__LASER_ONLY_
 66
     1
 10
0.0
 20
0.0
 30
0.0
  0
VERTEX
  5
6C2
  8
MARK__LASER_ONLY_
 10
800.5692341950855
 20
439.0118477475455
 30
0.0
  0
VERTEX
  5
6C3
  8
MARK__LASER_ONLY_
 10
799.7940236100028
 20
453.2967724858026
 30
0.0
  0
SEQEND
  5
F26
  8
MARK__LASER_ONLY_
  0
POLYLINE
  5
1FD
  8
MARK__LASER_ONLY_
 66
     1
 10
0.0
 20
0.0
 30
0.0
  0
VERTEX
  5
6C4
  8
MARK__LASER_ONLY_
 10
799.6970402366362
 20
455.0839000303222
 30
0.0
  0
VERTEX
  5
6C5
  8
MARK__LASER_ONLY_
 10
799.5032375903656
 20
458.6551312148865
 30
0.0
  0
SEQEND
  5
F27
  8
MARK__LASER_ONLY_
  0
POLYLINE
  5
1FE
  8
MARK__LASER_ONLY_
 66
     1
 10
0.0
 20
0.0
 30
0.0
  0
VERTEX
  5
6C6
  8
MARK__LASER_ONLY_
 10
799.4062542169991
 20
460.4422587594059
 30
0.0
  0
VERTEX
  5
6C7
  8
MARK__LASER_ONLY_
 10
798.6310436319166
 20
474.7271834976632
 30
0.0
  0
SEQEND
  5
F28
  8
MARK__LASER_ONLY_
  0
POLYLINE
  5
1FF
  8
MARK__LASER_ONLY_
 66
     1
 10
0.0
 20
0.0
 30
0.0
  0
VERTEX
  5
6C8
  8
MARK__LASER_ONLY_
 10
798.5340602585497
 20
476.5143110421827
 30
0.0
  0
VERTEX
  5
6C9
  8
MARK__LASER_ONLY_
 10
798.3402576122792
 20
480.085542226747
 30
0.0
  0
SEQEND
  5
F29
  8
MARK__LASER_ONLY_
  0
POLYLINE
  5
200
  8
MARK__LASER_ONLY_
 66
     1
 10
0.0
 20
0.0
 30
0.0
  0
VERTEX
  5
6CA
  8
MARK__LASER_ONLY_
 10
798.2432742389126
 20
481.8726697712664
 30
0.0
  0
VERTEX
  5
6CB
  8
MARK__LASER_ONLY_
 10
797.4680636538299
 20
496.1575945095237
 30
0.0
  0
SEQEND
  5
F2A
  8
MARK__LASER_ONLY_
  0
POLYLINE
  5
201
  8
MARK__LASER_ONLY_
 66
     1
 10
0.0
 20
0.0
 30
0.0
  0
VERTEX
  5
6CC
  8
MARK__LASER_ONLY_
 10
797.3710802804633
 20
497.944722054043
 30
0.0
  0
VERTEX
  5
6CD
  8
MARK__LASER_ONLY_
 10
797.1772776341925
 20
501.5159532386074
 30
0.0
  0
SEQEND
  5
F2B
  8
MARK__LASER_ONLY_
  0
POLYLINE
  5
202
  8
MARK__LASER_ONLY_
 66
     1
 10
0.0
 20
0.0
 30
0.0
  0
VERTEX
  5
6CE
  8
MARK__LASER_ONLY_
 10
797.0802942608259
 20
503.3030807831269
 30
0.0
  0
VERTEX
  5
6CF
  8
MARK__LASER_ONLY_
 10
796.3050836757432
 20
517.588005521384
 30
0.0
  0
SEQEND
  5
F2C
  8
MARK__LASER_ONLY_
  0
POLYLINE
  5
203
  8
MARK__LASER_ONLY_
 66
     1
 10
0.0
 20
0.0
 30
0.0
  0
VERTEX
  5
6D0
  8
MARK__LASER_ONLY_
 10
796.2081003023766
 20
519.3751330659036
 30
0.0
  0
VERTEX
  5
6D1
  8
MARK__LASER_ONLY_
 10
796.0142976561062
 20
522.9463642504679
 30
0.0
  0
SEQEND
  5
F2D
  8
MARK__LASER_ONLY_
  0
POLYLINE
  5
204
  8
MARK__LASER_ONLY_
 66
     1
 10
0.0
 20
0.0
 30
0.0
  0
VERTEX
  5
6D2
  8
MARK__LASER_ONLY_
 10
795.9173142827394
 20
524.7334917949873
 30
0.0
  0
VERTEX
  5
6D3
  8
MARK__LASER_ONLY_
 10
795.1421036976569
 20
539.0184165332446
 30
0.0
  0
SEQEND
  5
F2E
  8
MARK__LASER_ONLY_
  0
POLYLINE
  5
205
  8
MARK__LASER_ONLY_
 66
     1
 10
0.0
 20
0.0
 30
0.0
  0
VERTEX
  5
6D4
  8
MARK__LASER_ONLY_
 10
795.0451203242903
 20
540.8055440777641
 30
0.0
  0
VERTEX
  5
6D5
  8
MARK__LASER_ONLY_
 10
794.8513176780195
 20
544.3767752623284
 30
0.0
  0
SEQEND
  5
F2F
  8
MARK__LASER_ONLY_
  0
POLYLINE
  5
206
  8
MARK__LASER_ONLY_
 66
     1
 10
0.0
 20
0.0
 30
0.0
  0
VERTEX
  5
6D6
  8
MARK__LASER_ONLY_
 10
794.754334304653
 20
546.1639028068478
 30
0.0
  0
VERTEX
  5
6D7
  8
MARK__LASER_ONLY_
 10
793.9791237195702
 20
560.4488275451051
 30
0.0
  0
SEQEND
  5
F30
  8
MARK__LASER_ONLY_
  0
POLYLINE
  5
207
  8
MARK__LASER_ONLY_
 66
     1
 10
0.0
 20
0.0
 30
0.0
  0
VERTEX
  5
6D8
  8
MARK__LASER_ONLY_
 10
793.8821403462036
 20
562.2359550896244
 30
0.0
  0
VERTEX
  5
6D9
  8
MARK__LASER_ONLY_
 10
793.6883376999328
 20
565.8071862741888
 30
0.0
  0
SEQEND
  5
F31
  8
MARK__LASER_ONLY_
  0
POLYLINE
  5
208
  8
MARK__LASER_ONLY_
 66
     1
 10
0.0
 20
0.0
 30
0.0
  0
VERTEX
  5
6DA
  8
MARK__LASER_ONLY_
 10
793.5913543265663
 20
567.5943138187083
 30
0.0
  0
VERTEX
  5
6DB
  8
MARK__LASER_ONLY_
 10
792.8161437414838
 20
581.8792385569656
 30
0.0
  0
SEQEND
  5
F32
  8
MARK__LASER_ONLY_
  0
POLYLINE
  5
209
  8
MARK__LASER_ONLY_
 66
     1
 10
0.0
 20
0.0
 30
0.0
  0
VERTEX
  5
6DC
  8
MARK__LASER_ONLY_
 10
792.7191603681172
 20
583.666366101485
 30
0.0
  0
VERTEX
  5
6DD
  8
MARK__LASER_ONLY_
 10
792.5253577218466
 20
587.2375972860493
 30
0.0
  0
SEQEND
  5
F33
  8
MARK__LASER_ONLY_
  0
POLYLINE
  5
20A
  8
MARK__LASER_ONLY_
 66
     1
 10
0.0
 20
0.0
 30
0.0
  0
VERTEX
  5
6DE
  8
MARK__LASER_ONLY_
 10
792.42837434848
 20
589.0247248305687
 30
0.0
  0
VERTEX
  5
6DF
  8
MARK__LASER_ONLY_
 10
791.6531637633973
 20
603.309649568826
 30
0.0
  0
SEQEND
  5
F34
  8
MARK__LASER_ONLY_
  0
POLYLINE
  5
20B
  8
MARK__LASER_ONLY_
 66
     1
 10
0.0
 20
0.0
 30
0.0
  0
VERTEX
  5
6E0
  8
MARK__LASER_ONLY_
 10
791.5561803900307
 20
605.0967771133455
 30
0.0
  0
VERTEX
  5
6E1
  8
MARK__LASER_ONLY_
 10
791.3623777437599
 20
608.6680082979098
 30
0.0
  0
SEQEND
  5
F35
  8
MARK__LASER_ONLY_
  0
POLYLINE
  5
20C
  8
MARK__LASER_ONLY_
 66
     1
 10
0.0
 20
0.0
 30
0.0
  0
VERTEX
  5
6E2
  8
MARK__LASER_ONLY_
 10
791.2653943703933
 20
610.4551358424293
 30
0.0
  0
VERTEX
  5
6E3
  8
MARK__LASER_ONLY_
 10
790.4901837853106
 20
624.7400605806865
 30
0.0
  0
SEQEND
  5
F36
  8
MARK__LASER_ONLY_
  0
POLYLINE
  5
20D
  8
MARK__LASER_ONLY_
 66
     1
 10
0.0
 20
0.0
 30
0.0
  0
VERTEX
  5
6E4
  8
MARK__LASER_ONLY_
 10
790.393200411944
 20
626.527188125206
 30
0.0
  0
VERTEX
  5
6E5
  8
MARK__LASER_ONLY_
 10
790.1993977656734
 20
630.0984193097703
 30
0.0
  0
SEQEND
  5
F37
  8
MARK__LASER_ONLY_
  0
POLYLINE
  5
20E
  8
MARK__LASER_ONLY_
 66
     1
 10
0.0
 20
0.0
 30
0.0
  0
VERTEX
  5
6E6
  8
MARK__LASER_ONLY_
 10
790.1024143923069
 20
631.8855468542897
 30
0.0
  0
VERTEX
  5
6E7
  8
MARK__LASER_ONLY_
 10
789.3272038072241
 20
646.170471592547
 30
0.0
  0
SEQEND
  5
F38
  8
MARK__LASER_ONLY_
  0
POLYLINE
  5
20F
  8
MARK__LASER_ONLY_
 66
     1
 10
0.0
 20
0.0
 30
0.0
  0
VERTEX
  5
6E8
  8
MARK__LASER_ONLY_
 10
789.2302204338575
 20
647.9575991370665
 30
0.0
  0
VERTEX
  5
6E9
  8
MARK__LASER_ONLY_
 10
789.036417787587
 20
651.5288303216307
 30
0.0
  0
SEQEND
  5
F39
  8
MARK__LASER_ONLY_
  0
POLYLINE
  5
210
  8
MARK__LASER_ONLY_
 66
     1
 10
0.0
 20
0.0
 30
0.0
  0
VERTEX
  5
6EA
  8
MARK__LASER_ONLY_
 10
788.9394344142204
 20
653.3159578661503
 30
0.0
  0
VERTEX
  5
6EB
  8
MARK__LASER_ONLY_
 10
788.1642238291377
 20
667.6008826044075
 30
0.0
  0
SEQEND
  5
F3A
  8
MARK__LASER_ONLY_
  0
POLYLINE
  5
211
  8
MARK__LASER_ONLY_
 66
     1
 10
0.0
 20
0.0
 30
0.0
  0
VERTEX
  5
6EC
  8
MARK__LASER_ONLY_
 10
788.0672404557711
 20
669.3880101489269
 30
0.0
  0
VERTEX
  5
6ED
  8
MARK__LASER_ONLY_
 10
787.8734378095003
 20
672.9592413334913
 30
0.0
  0
SEQEND
  5
F3B
  8
MARK__LASER_ONLY_
  0
POLYLINE
  5
212
  8
MARK__LASER_ONLY_
 66
     1
 10
0.0
 20
0.0
 30
0.0
  0
VERTEX
  5
6EE
  8
MARK__LASER_ONLY_
 10
787.7764544361337
 20
674.7463688780107
 30
0.0
  0
VERTEX
  5
6EF
  8
MARK__LASER_ONLY_
 10
787.001243851051
 20
689.0312936162679
 30
0.0
  0
SEQEND
  5
F3C
  8
MARK__LASER_ONLY_
  0
POLYLINE
  5
213
  8
MARK__LASER_ONLY_
 66
     1
 10
0.0
 20
0.0
 30
0.0
  0
VERTEX
  5
6F0
  8
MARK__LASER_ONLY_
 10
786.9042604776844
 20
690.8184211607875
 30
0.0
  0
VERTEX
  5
6F1
  8
MARK__LASER_ONLY_
 10
786.7104578314138
 20
694.3896523453517
 30
0.0
  0
SEQEND
  5
F3D
  8
MARK__LASER_ONLY_
  0
POLYLINE
  5
214
  8
MARK__LASER_ONLY_
 66
     1
 10
0.0
 20
0.0
 30
0.0
  0
VERTEX
  5
6F2
  8
MARK__LASER_ONLY_
 10
786.6134744580472
 20
696.1767798898712
 30
0.0
  0
VERTEX
  5
6F3
  8
MARK__LASER_ONLY_
 10
785.8382638729647
 20
710.4617046281285
 30
0.0
  0
SEQEND
  5
F3E
  8
MARK__LASER_ONLY_
  0
POLYLINE
  5
215
  8
MARK__LASER_ONLY_
 66
     1
 10
0.0
 20
0.0
 30
0.0
  0
VERTEX
  5
6F4
  8
MARK__LASER_ONLY_
 10
785.7412804995981
 20
712.2488321726479
 30
0.0
  0
VERTEX
  5
6F5
  8
MARK__LASER_ONLY_
 10
785.5474778533273
 20
715.8200633572122
 30
0.0
  0
SEQEND
  5
F3F
  8
MARK__LASER_ONLY_
  0
POLYLINE
  5
216
  8
MARK__LASER_ONLY_
 66
     1
 10
0.0
 20
0.0
 30
0.0
  0
VERTEX
  5
6F6
  8
MARK__LASER_ONLY_
 10
785.4504944799608
 20
717.6071909017317
 30
0.0
  0
VERTEX
  5
6F7
  8
MARK__LASER_ONLY_
 10
784.675283894878
 20
731.8921156399889
 30
0.0
  0
SEQEND
  5
F40
  8
MARK__LASER_ONLY_
  0
POLYLINE
  5
217
  8
MARK__LASER_ONLY_
 66
     1
 10
0.0
 20
0.0
 30
0.0
  0
VERTEX
  5
6F8
  8
MARK__LASER_ONLY_
 10
784.5783005215114
 20
733.6792431845084
 30
0.0
  0
VERTEX
  5
6F9
  8
MARK__LASER_ONLY_
 10
784.3844978752406
 20
737.2504743690727
 30
0.0
  0
SEQEND
  5
F41
  8
MARK__LASER_ONLY_
  0
POLYLINE
  5
218
  8
MARK__LASER_ONLY_
 66
     1
 10
0.0
 20
0.0
 30
0.0
  0
VERTEX
  5
6FA
  8
MARK__LASER_ONLY_
 10
784.287514501874
 20
739.0376019135922
 30
0.0
  0
VERTEX
  5
6FB
  8
MARK__LASER_ONLY_
 10
783.5123039167916
 20
753.3225266518494
 30
0.0
  0
SEQEND
  5
F42
  8
MARK__LASER_ONLY_
  0
POLYLINE
  5
219
  8
MARK__LASER_ONLY_
 66
     1
 10
0.0
 20
0.0
 30
0.0
  0
VERTEX
  5
6FC
  8
MARK__LASER_ONLY_
 10
783.4153205434247
 20
755.1096541963689
 30
0.0
  0
VERTEX
  5
6FD
  8
MARK__LASER_ONLY_
 10
783.2215178971544
 20
758.6808853809332
 30
0.0
  0
SEQEND
  5
F43
  8
MARK__LASER_ONLY_
  0
POLYLINE
  5
21A
  8
MARK__LASER_ONLY_
 66
     1
 10
0.0
 20
0.0
 30
0.0
  0
VERTEX
  5
6FE
  8
MARK__LASER_ONLY_
 10
783.1245345237878
 20
760.4680129254526
 30
0.0
  0
VERTEX
  5
6FF
  8
MARK__LASER_ONLY_
 10
782.3493239387053
 20
774.7529376637099
 30
0.0
  0
SEQEND
  5
F44
  8
MARK__LASER_ONLY_
  0
POLYLINE
  5
21B
  8
MARK__LASER_ONLY_
 66
     1
 10
0.0
 20
0.0
 30
0.0
  0
VERTEX
  5
700
  8
MARK__LASER_ONLY_
 10
782.2523405653387
 20
776.5400652082294
 30
0.0
  0
VERTEX
  5
701
  8
MARK__LASER_ONLY_
 10
782.0585379190679
 20
780.1112963927936
 30
0.0
  0
SEQEND
  5
F45
  8
MARK__LASER_ONLY_
  0
POLYLINE
  5
21C
  8
MARK__LASER_ONLY_
 66
     1
 10
0.0
 20
0.0
 30
0.0
  0
VERTEX
  5
702
  8
MARK__LASER_ONLY_
 10
781.9615545457013
 20
781.8984239373132
 30
0.0
  0
VERTEX
  5
703
  8
MARK__LASER_ONLY_
 10
781.1863439606186
 20
796.1833486755704
 30
0.0
  0
SEQEND
  5
F46
  8
MARK__LASER_ONLY_
  0
POLYLINE
  5
21D
  8
MARK__LASER_ONLY_
 66
     1
 10
0.0
 20
0.0
 30
0.0
  0
VERTEX
  5
704
  8
MARK__LASER_ONLY_
 10
781.089360587252
 20
797.9704762200898
 30
0.0
  0
VERTEX
  5
705
  8
MARK__LASER_ONLY_
 10
780.8955579409812
 20
801.5417074046542
 30
0.0
  0
SEQEND
  5
F47
  8
MARK__LASER_ONLY_
  0
POLYLINE
  5
21E
  8
MARK__LASER_ONLY_
 66
     1
 10
0.0
 20
0.0
 30
0.0
  0
VERTEX
  5
706
  8
MARK__LASER_ONLY_
 10
780.7985745676147
 20
803.3288349491736
 30
0.0
  0
VERTEX
  5
707
  8
MARK__LASER_ONLY_
 10
780.0233639825321
 20
817.6137596874308
 30
0.0
  0
SEQEND
  5
F48
  8
MARK__LASER_ONLY_
  0
POLYLINE
  5
21F
  8
MARK__LASER_ONLY_
 66
     1
 10
0.0
 20
0.0
 30
0.0
  0
VERTEX
  5
708
  8
MARK__LASER_ONLY_
 10
779.9263806091656
 20
819.4008872319503
 30
0.0
  0
VERTEX
  5
709
  8
MARK__LASER_ONLY_
 10
779.732577962895
 20
822.9721184165146
 30
0.0
  0
SEQEND
  5
F49
  8
MARK__LASER_ONLY_
  0
POLYLINE
  5
220
  8
MARK__LASER_ONLY_
 66
     1
 10
0.0
 20
0.0
 30
0.0
  0
VERTEX
  5
70A
  8
MARK__LASER_ONLY_
 10
779.6355945895284
 20
824.7592459610341
 30
0.0
  0
VERTEX
  5
70B
  8
MARK__LASER_ONLY_
 10
778.8603840044457
 20
839.0441706992914
 30
0.0
  0
SEQEND
  5
F4A
  8
MARK__LASER_ONLY_
  0
POLYLINE
  5
221
  8
MARK__LASER_ONLY_
 66
     1
 10
0.0
 20
0.0
 30
0.0
  0
VERTEX
  5
70C
  8
MARK__LASER_ONLY_
 10
778.7634006310791
 20
840.8312982438108
 30
0.0
  0
VERTEX
  5
70D
  8
MARK__LASER_ONLY_
 10
778.5695979848083
 20
844.4025294283751
 30
0.0
  0
SEQEND
  5
F4B
  8
MARK__LASER_ONLY_
  0
POLYLINE
  5
222
  8
MARK__LASER_ONLY_
 66
     1
 10
0.0
 20
0.0
 30
0.0
  0
VERTEX
  5
70E
  8
MARK__LASER_ONLY_
 10
778.4726146114417
 20
846.1896569728946
 30
0.0
  0
VERTEX
  5
70F
  8
MARK__LASER_ONLY_
 10
777.697404026359
 20
860.4745817111518
 30
0.0
  0
SEQEND
  5
F4C
  8
MARK__LASER_ONLY_
  0
POLYLINE
  5
223
  8
MARK__LASER_ONLY_
 66
     1
 10
0.0
 20
0.0
 30
0.0
  0
VERTEX
  5
710
  8
MARK__LASER_ONLY_
 10
777.6004206529924
 20
862.2617092556712
 30
0.0
  0
VERTEX
  5
711
  8
MARK__LASER_ONLY_
 10
777.4066180067218
 20
865.8329404402356
 30
0.0
  0
SEQEND
  5
F4D
  8
MARK__LASER_ONLY_
  0
POLYLINE
  5
224
  8
MARK__LASER_ONLY_
 66
     1
 10
0.0
 20
0.0
 30
0.0
  0
VERTEX
  5
712
  8
MARK__LASER_ONLY_
 10
777.3096346333552
 20
867.6200679847553
 30
0.0
  0
VERTEX
  5
713
  8
MARK__LASER_ONLY_
 10
776.5344240482727
 20
881.9049927230125
 30
0.0
  0
SEQEND
  5
F4E
  8
MARK__LASER_ONLY_
  0
POLYLINE
  5
225
  8
MARK__LASER_ONLY_
 66
     1
 10
0.0
 20
0.0
 30
0.0
  0
VERTEX
  5
714
  8
MARK__LASER_ONLY_
 10
776.4374406749062
 20
883.6921202675318
 30
0.0
  0
VERTEX
  5
715
  8
MARK__LASER_ONLY_
 10
776.2436380286354
 20
887.2633514520963
 30
0.0
  0
SEQEND
  5
F4F
  8
MARK__LASER_ONLY_
  0
POLYLINE
  5
226
  8
MARK__LASER_ONLY_
 66
     1
 10
0.0
 20
0.0
 30
0.0
  0
VERTEX
  5
716
  8
MARK__LASER_ONLY_
 10
776.1466546552688
 20
889.0504789966157
 30
0.0
  0
VERTEX
  5
717
  8
MARK__LASER_ONLY_
 10
775.371444070186
 20
903.3354037348728
 30
0.0
  0
SEQEND
  5
F50
  8
MARK__LASER_ONLY_
  0
POLYLINE
  5
227
  8
MARK__LASER_ONLY_
 66
     1
 10
0.0
 20
0.0
 30
0.0
  0
VERTEX
  5
718
  8
MARK__LASER_ONLY_
 10
775.2744606968195
 20
905.1225312793923
 30
0.0
  0
VERTEX
  5
719
  8
MARK__LASER_ONLY_
 10
775.0806580505487
 20
908.6937624639567
 30
0.0
  0
SEQEND
  5
F51
  8
MARK__LASER_ONLY_
  0
POLYLINE
  5
228
  8
MARK__LASER_ONLY_
 66
     1
 10
0.0
 20
0.0
 30
0.0
  0
VERTEX
  5
71A
  8
MARK__LASER_ONLY_
 10
774.9836746771821
 20
910.480890008476
 30
0.0
  0
VERTEX
  5
71B
  8
MARK__LASER_ONLY_
 10
774.2084640920993
 20
924.7658147467333
 30
0.0
  0
SEQEND
  5
F52
  8
MARK__LASER_ONLY_
  0
POLYLINE
  5
229
  8
MARK__LASER_ONLY_
 66
     1
 10
0.0
 20
0.0
 30
0.0
  0
VERTEX
  5
71C
  8
MARK__LASER_ONLY_
 10
774.1114807187328
 20
926.5529422912529
 30
0.0
  0
VERTEX
  5
71D
  8
MARK__LASER_ONLY_
 10
773.9176780724624
 20
930.1241734758172
 30
0.0
  0
SEQEND
  5
F53
  8
MARK__LASER_ONLY_
  0
POLYLINE
  5
22A
  8
MARK__LASER_ONLY_
 66
     1
 10
0.0
 20
0.0
 30
0.0
  0
VERTEX
  5
71E
  8
MARK__LASER_ONLY_
 10
773.8206946990956
 20
931.9113010203365
 30
0.0
  0
VERTEX
  5
71F
  8
MARK__LASER_ONLY_
 10
772.8515998871189
 20
949.7689602418578
 30
0.0
  0
SEQEND
  5
F54
  8
MARK__LASER_ONLY_
  0
POLYLINE
  5
22B
  8
MARK__LASER_ONLY_
 66
     1
 10
0.0
 20
0.0
 30
0.0
  0
VERTEX
  5
720
  8
MARK__LASER_ONLY_
 10
1457.438491385251
 20
899.2679835883807
 30
0.0
  0
VERTEX
  5
721
  8
MARK__LASER_ONLY_
 10
1458.407586197227
 20
881.4103243668595
 30
0.0
  0
SEQEND
  5
F55
  8
MARK__LASER_ONLY_
  0
POLYLINE
  5
22C
  8
MARK__LASER_ONLY_
 66
     1
 10
0.0
 20
0.0
 30
0.0
  0
VERTEX
  5
722
  8
MARK__LASER_ONLY_
 10
1458.504569570594
 20
879.6231968223401
 30
0.0
  0
VERTEX
  5
723
  8
MARK__LASER_ONLY_
 10
1458.698372216865
 20
876.0519656377758
 30
0.0
  0
SEQEND
  5
F56
  8
MARK__LASER_ONLY_
  0
POLYLINE
  5
22D
  8
MARK__LASER_ONLY_
 66
     1
 10
0.0
 20
0.0
 30
0.0
  0
VERTEX
  5
724
  8
MARK__LASER_ONLY_
 10
1458.795355590231
 20
874.2648380932563
 30
0.0
  0
VERTEX
  5
725
  8
MARK__LASER_ONLY_
 10
1459.570566175314
 20
859.979913354999
 30
0.0
  0
SEQEND
  5
F57
  8
MARK__LASER_ONLY_
  0
POLYLINE
  5
22E
  8
MARK__LASER_ONLY_
 66
     1
 10
0.0
 20
0.0
 30
0.0
  0
VERTEX
  5
726
  8
MARK__LASER_ONLY_
 10
1459.66754954868
 20
858.1927858104796
 30
0.0
  0
VERTEX
  5
727
  8
MARK__LASER_ONLY_
 10
1459.861352194951
 20
854.6215546259153
 30
0.0
  0
SEQEND
  5
F58
  8
MARK__LASER_ONLY_
  0
POLYLINE
  5
22F
  8
MARK__LASER_ONLY_
 66
     1
 10
0.0
 20
0.0
 30
0.0
  0
VERTEX
  5
728
  8
MARK__LASER_ONLY_
 10
1459.958335568318
 20
852.8344270813958
 30
0.0
  0
VERTEX
  5
729
  8
MARK__LASER_ONLY_
 10
1460.7335461534
 20
838.5495023431386
 30
0.0
  0
SEQEND
  5
F59
  8
MARK__LASER_ONLY_
  0
POLYLINE
  5
230
  8
MARK__LASER_ONLY_
 66
     1
 10
0.0
 20
0.0
 30
0.0
  0
VERTEX
  5
72A
  8
MARK__LASER_ONLY_
 10
1460.830529526767
 20
836.7623747986191
 30
0.0
  0
VERTEX
  5
72B
  8
MARK__LASER_ONLY_
 10
1461.024332173037
 20
833.1911436140548
 30
0.0
  0
SEQEND
  5
F5A
  8
MARK__LASER_ONLY_
  0
POLYLINE
  5
231
  8
MARK__LASER_ONLY_
 66
     1
 10
0.0
 20
0.0
 30
0.0
  0
VERTEX
  5
72C
  8
MARK__LASER_ONLY_
 10
1461.121315546404
 20
831.4040160695353
 30
0.0
  0
VERTEX
  5
72D
  8
MARK__LASER_ONLY_
 10
1461.896526131487
 20
817.119091331278
 30
0.0
  0
SEQEND
  5
F5B
  8
MARK__LASER_ONLY_
  0
POLYLINE
  5
232
  8
MARK__LASER_ONLY_
 66
     1
 10
0.0
 20
0.0
 30
0.0
  0
VERTEX
  5
72E
  8
MARK__LASER_ONLY_
 10
1461.993509504853
 20
815.3319637867586
 30
0.0
  0
VERTEX
  5
72F
  8
MARK__LASER_ONLY_
 10
1462.187312151124
 20
811.7607326021943
 30
0.0
  0
SEQEND
  5
F5C
  8
MARK__LASER_ONLY_
  0
POLYLINE
  5
233
  8
MARK__LASER_ONLY_
 66
     1
 10
0.0
 20
0.0
 30
0.0
  0
VERTEX
  5
730
  8
MARK__LASER_ONLY_
 10
1462.284295524491
 20
809.9736050576747
 30
0.0
  0
VERTEX
  5
731
  8
MARK__LASER_ONLY_
 10
1463.059506109573
 20
795.6886803194175
 30
0.0
  0
SEQEND
  5
F5D
  8
MARK__LASER_ONLY_
  0
POLYLINE
  5
234
  8
MARK__LASER_ONLY_
 66
     1
 10
0.0
 20
0.0
 30
0.0
  0
VERTEX
  5
732
  8
MARK__LASER_ONLY_
 10
1463.15648948294
 20
793.901552774898
 30
0.0
  0
VERTEX
  5
733
  8
MARK__LASER_ONLY_
 10
1463.350292129211
 20
790.3303215903337
 30
0.0
  0
SEQEND
  5
F5E
  8
MARK__LASER_ONLY_
  0
POLYLINE
  5
235
  8
MARK__LASER_ONLY_
 66
     1
 10
0.0
 20
0.0
 30
0.0
  0
VERTEX
  5
734
  8
MARK__LASER_ONLY_
 10
1463.447275502577
 20
788.5431940458142
 30
0.0
  0
VERTEX
  5
735
  8
MARK__LASER_ONLY_
 10
1464.22248608766
 20
774.258269307557
 30
0.0
  0
SEQEND
  5
F5F
  8
MARK__LASER_ONLY_
  0
POLYLINE
  5
236
  8
MARK__LASER_ONLY_
 66
     1
 10
0.0
 20
0.0
 30
0.0
  0
VERTEX
  5
736
  8
MARK__LASER_ONLY_
 10
1464.319469461027
 20
772.4711417630375
 30
0.0
  0
VERTEX
  5
737
  8
MARK__LASER_ONLY_
 10
1464.513272107297
 20
768.8999105784732
 30
0.0
  0
SEQEND
  5
F60
  8
MARK__LASER_ONLY_
  0
POLYLINE
  5
237
  8
MARK__LASER_ONLY_
 66
     1
 10
0.0
 20
0.0
 30
0.0
  0
VERTEX
  5
738
  8
MARK__LASER_ONLY_
 10
1464.610255480664
 20
767.1127830339536
 30
0.0
  0
VERTEX
  5
739
  8
MARK__LASER_ONLY_
 10
1465.385466065746
 20
752.8278582956965
 30
0.0
  0
SEQEND
  5
F61
  8
MARK__LASER_ONLY_
  0
POLYLINE
  5
238
  8
MARK__LASER_ONLY_
 66
     1
 10
0.0
 20
0.0
 30
0.0
  0
VERTEX
  5
73A
  8
MARK__LASER_ONLY_
 10
1465.482449439113
 20
751.040730751177
 30
0.0
  0
VERTEX
  5
73B
  8
MARK__LASER_ONLY_
 10
1465.676252085384
 20
747.4694995666126
 30
0.0
  0
SEQEND
  5
F62
  8
MARK__LASER_ONLY_
  0
POLYLINE
  5
239
  8
MARK__LASER_ONLY_
 66
     1
 10
0.0
 20
0.0
 30
0.0
  0
VERTEX
  5
73C
  8
MARK__LASER_ONLY_
 10
1465.77323545875
 20
745.6823720220932
 30
0.0
  0
VERTEX
  5
73D
  8
MARK__LASER_ONLY_
 10
1466.548446043833
 20
731.397447283836
 30
0.0
  0
SEQEND
  5
F63
  8
MARK__LASER_ONLY_
  0
POLYLINE
  5
23A
  8
MARK__LASER_ONLY_
 66
     1
 10
0.0
 20
0.0
 30
0.0
  0
VERTEX
  5
73E
  8
MARK__LASER_ONLY_
 10
1466.6454294172
 20
729.6103197393164
 30
0.0
  0
VERTEX
  5
73F
  8
MARK__LASER_ONLY_
 10
1466.83923206347
 20
726.0390885547521
 30
0.0
  0
SEQEND
  5
F64
  8
MARK__LASER_ONLY_
  0
POLYLINE
  5
23B
  8
MARK__LASER_ONLY_
 66
     1
 10
0.0
 20
0.0
 30
0.0
  0
VERTEX
  5
740
  8
MARK__LASER_ONLY_
 10
1466.936215436837
 20
724.2519610102327
 30
0.0
  0
VERTEX
  5
741
  8
MARK__LASER_ONLY_
 10
1467.711426021919
 20
709.9670362719754
 30
0.0
  0
SEQEND
  5
F65
  8
MARK__LASER_ONLY_
  0
POLYLINE
  5
23C
  8
MARK__LASER_ONLY_
 66
     1
 10
0.0
 20
0.0
 30
0.0
  0
VERTEX
  5
742
  8
MARK__LASER_ONLY_
 10
1467.808409395286
 20
708.1799087274559
 30
0.0
  0
VERTEX
  5
743
  8
MARK__LASER_ONLY_
 10
1468.002212041557
 20
704.6086775428915
 30
0.0
  0
SEQEND
  5
F66
  8
MARK__LASER_ONLY_
  0
POLYLINE
  5
23D
  8
MARK__LASER_ONLY_
 66
     1
 10
0.0
 20
0.0
 30
0.0
  0
VERTEX
  5
744
  8
MARK__LASER_ONLY_
 10
1468.099195414923
 20
702.8215499983721
 30
0.0
  0
VERTEX
  5
745
  8
MARK__LASER_ONLY_
 10
1468.874406000006
 20
688.5366252601149
 30
0.0
  0
SEQEND
  5
F67
  8
MARK__LASER_ONLY_
  0
POLYLINE
  5
23E
  8
MARK__LASER_ONLY_
 66
     1
 10
0.0
 20
0.0
 30
0.0
  0
VERTEX
  5
746
  8
MARK__LASER_ONLY_
 10
1468.971389373373
 20
686.7494977155953
 30
0.0
  0
VERTEX
  5
747
  8
MARK__LASER_ONLY_
 10
1469.165192019643
 20
683.178266531031
 30
0.0
  0
SEQEND
  5
F68
  8
MARK__LASER_ONLY_
  0
POLYLINE
  5
23F
  8
MARK__LASER_ONLY_
 66
     1
 10
0.0
 20
0.0
 30
0.0
  0
VERTEX
  5
748
  8
MARK__LASER_ONLY_
 10
1469.26217539301
 20
681.3911389865116
 30
0.0
  0
VERTEX
  5
749
  8
MARK__LASER_ONLY_
 10
1470.037385978093
 20
667.1062142482543
 30
0.0
  0
SEQEND
  5
F69
  8
MARK__LASER_ONLY_
  0
POLYLINE
  5
240
  8
MARK__LASER_ONLY_
 66
     1
 10
0.0
 20
0.0
 30
0.0
  0
VERTEX
  5
74A
  8
MARK__LASER_ONLY_
 10
1470.134369351459
 20
665.3190867037348
 30
0.0
  0
VERTEX
  5
74B
  8
MARK__LASER_ONLY_
 10
1470.32817199773
 20
661.7478555191706
 30
0.0
  0
SEQEND
  5
F6A
  8
MARK__LASER_ONLY_
  0
POLYLINE
  5
241
  8
MARK__LASER_ONLY_
 66
     1
 10
0.0
 20
0.0
 30
0.0
  0
VERTEX
  5
74C
  8
MARK__LASER_ONLY_
 10
1470.425155371096
 20
659.9607279746511
 30
0.0
  0
VERTEX
  5
74D
  8
MARK__LASER_ONLY_
 10
1471.200365956179
 20
645.6758032363938
 30
0.0
  0
SEQEND
  5
F6B
  8
MARK__LASER_ONLY_
  0
POLYLINE
  5
242
  8
MARK__LASER_ONLY_
 66
     1
 10
0.0
 20
0.0
 30
0.0
  0
VERTEX
  5
74E
  8
MARK__LASER_ONLY_
 10
1471.297349329546
 20
643.8886756918744
 30
0.0
  0
VERTEX
  5
74F
  8
MARK__LASER_ONLY_
 10
1471.491151975816
 20
640.3174445073101
 30
0.0
  0
SEQEND
  5
F6C
  8
MARK__LASER_ONLY_
  0
POLYLINE
  5
243
  8
MARK__LASER_ONLY_
 66
     1
 10
0.0
 20
0.0
 30
0.0
  0
VERTEX
  5
750
  8
MARK__LASER_ONLY_
 10
1471.588135349183
 20
638.5303169627906
 30
0.0
  0
VERTEX
  5
751
  8
MARK__LASER_ONLY_
 10
1472.363345934266
 20
624.2453922245334
 30
0.0
  0
SEQEND
  5
F6D
  8
MARK__LASER_ONLY_
  0
POLYLINE
  5
244
  8
MARK__LASER_ONLY_
 66
     1
 10
0.0
 20
0.0
 30
0.0
  0
VERTEX
  5
752
  8
MARK__LASER_ONLY_
 10
1472.460329307632
 20
622.4582646800139
 30
0.0
  0
VERTEX
  5
753
  8
MARK__LASER_ONLY_
 10
1472.654131953903
 20
618.8870334954496
 30
0.0
  0
SEQEND
  5
F6E
  8
MARK__LASER_ONLY_
  0
POLYLINE
  5
245
  8
MARK__LASER_ONLY_
 66
     1
 10
0.0
 20
0.0
 30
0.0
  0
VERTEX
  5
754
  8
MARK__LASER_ONLY_
 10
1472.751115327269
 20
617.0999059509301
 30
0.0
  0
VERTEX
  5
755
  8
MARK__LASER_ONLY_
 10
1473.526325912352
 20
602.8149812126728
 30
0.0
  0
SEQEND
  5
F6F
  8
MARK__LASER_ONLY_
  0
POLYLINE
  5
246
  8
MARK__LASER_ONLY_
 66
     1
 10
0.0
 20
0.0
 30
0.0
  0
VERTEX
  5
756
  8
MARK__LASER_ONLY_
 10
1473.623309285719
 20
601.0278536681534
 30
0.0
  0
VERTEX
  5
757
  8
MARK__LASER_ONLY_
 10
1473.817111931989
 20
597.4566224835891
 30
0.0
  0
SEQEND
  5
F70
  8
MARK__LASER_ONLY_
  0
POLYLINE
  5
247
  8
MARK__LASER_ONLY_
 66
     1
 10
0.0
 20
0.0
 30
0.0
  0
VERTEX
  5
758
  8
MARK__LASER_ONLY_
 10
1473.914095305356
 20
595.6694949390696
 30
0.0
  0
VERTEX
  5
759
  8
MARK__LASER_ONLY_
 10
1474.689305890439
 20
581.3845702008124
 30
0.0
  0
SEQEND
  5
F71
  8
MARK__LASER_ONLY_
  0
POLYLINE
  5
248
  8
MARK__LASER_ONLY_
 66
     1
 10
0.0
 20
0.0
 30
0.0
  0
VERTEX
  5
75A
  8
MARK__LASER_ONLY_
 10
1474.786289263805
 20
579.5974426562929
 30
0.0
  0
VERTEX
  5
75B
  8
MARK__LASER_ONLY_
 10
1474.980091910076
 20
576.0262114717286
 30
0.0
  0
SEQEND
  5
F72
  8
MARK__LASER_ONLY_
  0
POLYLINE
  5
249
  8
MARK__LASER_ONLY_
 66
     1
 10
0.0
 20
0.0
 30
0.0
  0
VERTEX
  5
75C
  8
MARK__LASER_ONLY_
 10
1475.077075283443
 20
574.2390839272091
 30
0.0
  0
VERTEX
  5
75D
  8
MARK__LASER_ONLY_
 10
1475.852285868525
 20
559.9541591889518
 30
0.0
  0
SEQEND
  5
F73
  8
MARK__LASER_ONLY_
  0
POLYLINE
  5
24A
  8
MARK__LASER_ONLY_
 66
     1
 10
0.0
 20
0.0
 30
0.0
  0
VERTEX
  5
75E
  8
MARK__LASER_ONLY_
 10
1475.949269241892
 20
558.1670316444324
 30
0.0
  0
VERTEX
  5
75F
  8
MARK__LASER_ONLY_
 10
1476.143071888162
 20
554.5958004598681
 30
0.0
  0
SEQEND
  5
F74
  8
MARK__LASER_ONLY_
  0
POLYLINE
  5
24B
  8
MARK__LASER_ONLY_
 66
     1
 10
0.0
 20
0.0
 30
0.0
  0
VERTEX
  5
760
  8
MARK__LASER_ONLY_
 10
1476.240055261529
 20
552.8086729153487
 30
0.0
  0
VERTEX
  5
761
  8
MARK__LASER_ONLY_
 10
1477.015265846612
 20
538.5237481770914
 30
0.0
  0
SEQEND
  5
F75
  8
MARK__LASER_ONLY_
  0
POLYLINE
  5
24C
  8
MARK__LASER_ONLY_
 66
     1
 10
0.0
 20
0.0
 30
0.0
  0
VERTEX
  5
762
  8
MARK__LASER_ONLY_
 10
1477.112249219978
 20
536.7366206325719
 30
0.0
  0
VERTEX
  5
763
  8
MARK__LASER_ONLY_
 10
1477.306051866249
 20
533.1653894480077
 30
0.0
  0
SEQEND
  5
F76
  8
MARK__LASER_ONLY_
  0
POLYLINE
  5
24D
  8
MARK__LASER_ONLY_
 66
     1
 10
0.0
 20
0.0
 30
0.0
  0
VERTEX
  5
764
  8
MARK__LASER_ONLY_
 10
1477.403035239616
 20
531.3782619034881
 30
0.0
  0
VERTEX
  5
765
  8
MARK__LASER_ONLY_
 10
1478.178245824698
 20
517.0933371652309
 30
0.0
  0
SEQEND
  5
F77
  8
MARK__LASER_ONLY_
  0
POLYLINE
  5
24E
  8
MARK__LASER_ONLY_
 66
     1
 10
0.0
 20
0.0
 30
0.0
  0
VERTEX
  5
766
  8
MARK__LASER_ONLY_
 10
1478.275229198065
 20
515.3062096207115
 30
0.0
  0
VERTEX
  5
767
  8
MARK__LASER_ONLY_
 10
1478.469031844336
 20
511.7349784361471
 30
0.0
  0
SEQEND
  5
F78
  8
MARK__LASER_ONLY_
  0
POLYLINE
  5
24F
  8
MARK__LASER_ONLY_
 66
     1
 10
0.0
 20
0.0
 30
0.0
  0
VERTEX
  5
768
  8
MARK__LASER_ONLY_
 10
1478.566015217702
 20
509.9478508916277
 30
0.0
  0
VERTEX
  5
769
  8
MARK__LASER_ONLY_
 10
1479.341225802785
 20
495.6629261533704
 30
0.0
  0
SEQEND
  5
F79
  8
MARK__LASER_ONLY_
  0
POLYLINE
  5
250
  8
MARK__LASER_ONLY_
 66
     1
 10
0.0
 20
0.0
 30
0.0
  0
VERTEX
  5
76A
  8
MARK__LASER_ONLY_
 10
1479.438209176152
 20
493.8757986088509
 30
0.0
  0
VERTEX
  5
76B
  8
MARK__LASER_ONLY_
 10
1479.632011822422
 20
490.3045674242867
 30
0.0
  0
SEQEND
  5
F7A
  8
MARK__LASER_ONLY_
  0
POLYLINE
  5
251
  8
MARK__LASER_ONLY_
 66
     1
 10
0.0
 20
0.0
 30
0.0
  0
VERTEX
  5
76C
  8
MARK__LASER_ONLY_
 10
1479.728995195789
 20
488.5174398797672
 30
0.0
  0
VERTEX
  5
76D
  8
MARK__LASER_ONLY_
 10
1480.504205780871
 20
474.2325151415099
 30
0.0
  0
SEQEND
  5
F7B
  8
MARK__LASER_ONLY_
  0
POLYLINE
  5
252
  8
MARK__LASER_ONLY_
 66
     1
 10
0.0
 20
0.0
 30
0.0
  0
VERTEX
  5
76E
  8
MARK__LASER_ONLY_
 10
1480.601189154238
 20
472.4453875969905
 30
0.0
  0
VERTEX
  5
76F
  8
MARK__LASER_ONLY_
 10
1480.794991800509
 20
468.8741564124261
 30
0.0
  0
SEQEND
  5
F7C
  8
MARK__LASER_ONLY_
  0
POLYLINE
  5
253
  8
MARK__LASER_ONLY_
 66
     1
 10
0.0
 20
0.0
 30
0.0
  0
VERTEX
  5
770
  8
MARK__LASER_ONLY_
 10
1480.891975173875
 20
467.0870288679067
 30
0.0
  0
VERTEX
  5
771
  8
MARK__LASER_ONLY_
 10
1481.667185758958
 20
452.8021041296495
 30
0.0
  0
SEQEND
  5
F7D
  8
MARK__LASER_ONLY_
  0
POLYLINE
  5
254
  8
MARK__LASER_ONLY_
 66
     1
 10
0.0
 20
0.0
 30
0.0
  0
VERTEX
  5
772
  8
MARK__LASER_ONLY_
 10
1481.764169132324
 20
451.0149765851301
 30
0.0
  0
VERTEX
  5
773
  8
MARK__LASER_ONLY_
 10
1481.957971778595
 20
447.4437454005657
 30
0.0
  0
SEQEND
  5
F7E
  8
MARK__LASER_ONLY_
  0
POLYLINE
  5
255
  8
MARK__LASER_ONLY_
 66
     1
 10
0.0
 20
0.0
 30
0.0
  0
VERTEX
  5
774
  8
MARK__LASER_ONLY_
 10
1482.054955151962
 20
445.6566178560463
 30
0.0
  0
VERTEX
  5
775
  8
MARK__LASER_ONLY_
 10
1482.830165737044
 20
431.3716931177891
 30
0.0
  0
SEQEND
  5
F7F
  8
MARK__LASER_ONLY_
  0
POLYLINE
  5
256
  8
MARK__LASER_ONLY_
 66
     1
 10
0.0
 20
0.0
 30
0.0
  0
VERTEX
  5
776
  8
MARK__LASER_ONLY_
 10
1482.927149110411
 20
429.5845655732695
 30
0.0
  0
VERTEX
  5
777
  8
MARK__LASER_ONLY_
 10
1483.120951756682
 20
426.0133343887053
 30
0.0
  0
SEQEND
  5
F80
  8
MARK__LASER_ONLY_
  0
POLYLINE
  5
257
  8
MARK__LASER_ONLY_
 66
     1
 10
0.0
 20
0.0
 30
0.0
  0
VERTEX
  5
778
  8
MARK__LASER_ONLY_
 10
1483.217935130048
 20
424.2262068441858
 30
0.0
  0
VERTEX
  5
779
  8
MARK__LASER_ONLY_
 10
1483.993145715131
 20
409.9412821059285
 30
0.0
  0
SEQEND
  5
F81
  8
MARK__LASER_ONLY_
  0
POLYLINE
  5
258
  8
MARK__LASER_ONLY_
 66
     1
 10
0.0
 20
0.0
 30
0.0
  0
VERTEX
  5
77A
  8
MARK__LASER_ONLY_
 10
1484.090129088497
 20
408.1541545614091
 30
0.0
  0
VERTEX
  5
77B
  8
MARK__LASER_ONLY_
 10
1484.283931734768
 20
404.5829233768447
 30
0.0
  0
SEQEND
  5
F82
  8
MARK__LASER_ONLY_
  0
POLYLINE
  5
259
  8
MARK__LASER_ONLY_
 66
     1
 10
0.0
 20
0.0
 30
0.0
  0
VERTEX
  5
77C
  8
MARK__LASER_ONLY_
 10
1484.380915108135
 20
402.7957958323253
 30
0.0
  0
VERTEX
  5
77D
  8
MARK__LASER_ONLY_
 10
1485.156125693218
 20
388.5108710940681
 30
0.0
  0
SEQEND
  5
F83
  8
MARK__LASER_ONLY_
  0
POLYLINE
  5
25A
  8
MARK__LASER_ONLY_
 66
     1
 10
0.0
 20
0.0
 30
0.0
  0
VERTEX
  5
77E
  8
MARK__LASER_ONLY_
 10
1485.253109066584
 20
386.7237435495487
 30
0.0
  0
VERTEX
  5
77F
  8
MARK__LASER_ONLY_
 10
1485.446911712855
 20
383.1525123649843
 30
0.0
  0
SEQEND
  5
F84
  8
MARK__LASER_ONLY_
  0
POLYLINE
  5
25B
  8
MARK__LASER_ONLY_
 66
     1
 10
0.0
 20
0.0
 30
0.0
  0
VERTEX
  5
780
  8
MARK__LASER_ONLY_
 10
1485.543895086221
 20
381.3653848204649
 30
0.0
  0
VERTEX
  5
781
  8
MARK__LASER_ONLY_
 10
1486.319105671304
 20
367.0804600822077
 30
0.0
  0
SEQEND
  5
F85
  8
MARK__LASER_ONLY_
  0
POLYLINE
  5
25C
  8
MARK__LASER_ONLY_
 66
     1
 10
0.0
 20
0.0
 30
0.0
  0
VERTEX
  5
782
  8
MARK__LASER_ONLY_
 10
1486.416089044671
 20
365.2933325376881
 30
0.0
  0
VERTEX
  5
783
  8
MARK__LASER_ONLY_
 10
1486.609891690941
 20
361.7221013531239
 30
0.0
  0
SEQEND
  5
F86
  8
MARK__LASER_ONLY_
  0
POLYLINE
  5
25D
  8
MARK__LASER_ONLY_
 66
     1
 10
0.0
 20
0.0
 30
0.0
  0
VERTEX
  5
784
  8
MARK__LASER_ONLY_
 10
1486.706875064308
 20
359.9349738086044
 30
0.0
  0
VERTEX
  5
785
  8
MARK__LASER_ONLY_
 10
1487.48208564939
 20
345.6500490703471
 30
0.0
  0
SEQEND
  5
F87
  8
MARK__LASER_ONLY_
  0
POLYLINE
  5
25E
  8
MARK__LASER_ONLY_
 66
     1
 10
0.0
 20
0.0
 30
0.0
  0
VERTEX
  5
786
  8
MARK__LASER_ONLY_
 10
1487.579069022757
 20
343.8629215258277
 30
0.0
  0
VERTEX
  5
787
  8
MARK__LASER_ONLY_
 10
1487.772871669028
 20
340.2916903412633
 30
0.0
  0
SEQEND
  5
F88
  8
MARK__LASER_ONLY_
  0
POLYLINE
  5
25F
  8
MARK__LASER_ONLY_
 66
     1
 10
0.0
 20
0.0
 30
0.0
  0
VERTEX
  5
788
  8
MARK__LASER_ONLY_
 10
1487.869855042394
 20
338.5045627967439
 30
0.0
  0
VERTEX
  5
789
  8
MARK__LASER_ONLY_
 10
1488.645065627477
 20
324.2196380584867
 30
0.0
  0
SEQEND
  5
F89
  8
MARK__LASER_ONLY_
  0
POLYLINE
  5
260
  8
MARK__LASER_ONLY_
 66
     1
 10
0.0
 20
0.0
 30
0.0
  0
VERTEX
  5
78A
  8
MARK__LASER_ONLY_
 10
1488.742049000844
 20
322.4325105139671
 30
0.0
  0
VERTEX
  5
78B
  8
MARK__LASER_ONLY_
 10
1488.935851647114
 20
318.8612793294029
 30
0.0
  0
SEQEND
  5
F8A
  8
MARK__LASER_ONLY_
  0
POLYLINE
  5
261
  8
MARK__LASER_ONLY_
 66
     1
 10
0.0
 20
0.0
 30
0.0
  0
VERTEX
  5
78C
  8
MARK__LASER_ONLY_
 10
1489.032835020481
 20
317.0741517848834
 30
0.0
  0
VERTEX
  5
78D
  8
MARK__LASER_ONLY_
 10
1489.808045605563
 20
302.7892270466261
 30
0.0
  0
SEQEND
  5
F8B
  8
MARK__LASER_ONLY_
  0
POLYLINE
  5
262
  8
MARK__LASER_ONLY_
 66
     1
 10
0.0
 20
0.0
 30
0.0
  0
VERTEX
  5
78E
  8
MARK__LASER_ONLY_
 10
1489.90502897893
 20
301.0020995021067
 30
0.0
  0
VERTEX
  5
78F
  8
MARK__LASER_ONLY_
 10
1490.098831625201
 20
297.4308683175424
 30
0.0
  0
SEQEND
  5
F8C
  8
MARK__LASER_ONLY_
  0
POLYLINE
  5
263
  8
MARK__LASER_ONLY_
 66
     1
 10
0.0
 20
0.0
 30
0.0
  0
VERTEX
  5
790
  8
MARK__LASER_ONLY_
 10
1490.195814998567
 20
295.643740773023
 30
0.0
  0
VERTEX
  5
791
  8
MARK__LASER_ONLY_
 10
1490.97102558365
 20
281.3588160347657
 30
0.0
  0
SEQEND
  5
F8D
  8
MARK__LASER_ONLY_
  0
POLYLINE
  5
264
  8
MARK__LASER_ONLY_
 66
     1
 10
0.0
 20
0.0
 30
0.0
  0
VERTEX
  5
792
  8
MARK__LASER_ONLY_
 10
1491.068008957017
 20
279.5716884902462
 30
0.0
  0
VERTEX
  5
793
  8
MARK__LASER_ONLY_
 10
1491.261811603287
 20
276.0004573056819
 30
0.0
  0
SEQEND
  5
F8E
  8
MARK__LASER_ONLY_
  0
POLYLINE
  5
265
  8
MARK__LASER_ONLY_
 66
     1
 10
0.0
 20
0.0
 30
0.0
  0
VERTEX
  5
794
  8
MARK__LASER_ONLY_
 10
1491.358794976654
 20
274.2133297611624
 30
0.0
  0
VERTEX
  5
795
  8
MARK__LASER_ONLY_
 10
1492.134005561737
 20
259.9284050229052
 30
0.0
  0
SEQEND
  5
F8F
  8
MARK__LASER_ONLY_
  0
POLYLINE
  5
266
  8
MARK__LASER_ONLY_
 66
     1
 10
0.0
 20
0.0
 30
0.0
  0
VERTEX
  5
796
  8
MARK__LASER_ONLY_
 10
1492.230988935103
 20
258.1412774783857
 30
0.0
  0
VERTEX
  5
797
  8
MARK__LASER_ONLY_
 10
1492.424791581374
 20
254.5700462938214
 30
0.0
  0
SEQEND
  5
F90
  8
MARK__LASER_ONLY_
  0
POLYLINE
  5
267
  8
MARK__LASER_ONLY_
 66
     1
 10
0.0
 20
0.0
 30
0.0
  0
VERTEX
  5
798
  8
MARK__LASER_ONLY_
 10
1492.521774954741
 20
252.782918749302
 30
0.0
  0
VERTEX
  5
799
  8
MARK__LASER_ONLY_
 10
1493.296985539823
 20
238.4979940110447
 30
0.0
  0
SEQEND
  5
F91
  8
MARK__LASER_ONLY_
  0
POLYLINE
  5
268
  8
MARK__LASER_ONLY_
 66
     1
 10
0.0
 20
0.0
 30
0.0
  0
VERTEX
  5
79A
  8
MARK__LASER_ONLY_
 10
1493.39396891319
 20
236.7108664665252
 30
0.0
  0
VERTEX
  5
79B
  8
MARK__LASER_ONLY_
 10
1493.58777155946
 20
233.139635281961
 30
0.0
  0
SEQEND
  5
F92
  8
MARK__LASER_ONLY_
  0
POLYLINE
  5
269
  8
MARK__LASER_ONLY_
 66
     1
 10
0.0
 20
0.0
 30
0.0
  0
VERTEX
  5
79C
  8
MARK__LASER_ONLY_
 10
1493.684754932827
 20
231.3525077374414
 30
0.0
  0
VERTEX
  5
79D
  8
MARK__LASER_ONLY_
 10
1494.45996551791
 20
217.0675829991842
 30
0.0
  0
SEQEND
  5
F93
  8
MARK__LASER_ONLY_
  0
POLYLINE
  5
26A
  8
MARK__LASER_ONLY_
 66
     1
 10
0.0
 20
0.0
 30
0.0
  0
VERTEX
  5
79E
  8
MARK__LASER_ONLY_
 10
1494.556948891276
 20
215.2804554546648
 30
0.0
  0
VERTEX
  5
79F
  8
MARK__LASER_ONLY_
 10
1494.750751537547
 20
211.7092242701004
 30
0.0
  0
SEQEND
  5
F94
  8
MARK__LASER_ONLY_
  0
POLYLINE
  5
26B
  8
MARK__LASER_ONLY_
 66
     1
 10
0.0
 20
0.0
 30
0.0
  0
VERTEX
  5
7A0
  8
MARK__LASER_ONLY_
 10
1494.847734910913
 20
209.922096725581
 30
0.0
  0
VERTEX
  5
7A1
  8
MARK__LASER_ONLY_
 10
1495.622945495996
 20
195.6371719873238
 30
0.0
  0
SEQEND
  5
F95
  8
MARK__LASER_ONLY_
  0
POLYLINE
  5
26C
  8
MARK__LASER_ONLY_
 66
     1
 10
0.0
 20
0.0
 30
0.0
  0
VERTEX
  5
7A2
  8
MARK__LASER_ONLY_
 10
1495.719928869363
 20
193.8500444428042
 30
0.0
  0
VERTEX
  5
7A3
  8
MARK__LASER_ONLY_
 10
1495.913731515633
 20
190.27881325824
 30
0.0
  0
SEQEND
  5
F96
  8
MARK__LASER_ONLY_
  0
POLYLINE
  5
26D
  8
MARK__LASER_ONLY_
 66
     1
 10
0.0
 20
0.0
 30
0.0
  0
VERTEX
  5
7A4
  8
MARK__LASER_ONLY_
 10
1496.010714889
 20
188.4916857137205
 30
0.0
  0
VERTEX
  5
7A5
  8
MARK__LASER_ONLY_
 10
1496.785925474083
 20
174.2067609754632
 30
0.0
  0
SEQEND
  5
F97
  8
MARK__LASER_ONLY_
  0
POLYLINE
  5
26E
  8
MARK__LASER_ONLY_
 66
     1
 10
0.0
 20
0.0
 30
0.0
  0
VERTEX
  5
7A6
  8
MARK__LASER_ONLY_
 10
1496.882908847449
 20
172.4196334309438
 30
0.0
  0
VERTEX
  5
7A7
  8
MARK__LASER_ONLY_
 10
1497.07671149372
 20
168.8484022463795
 30
0.0
  0
SEQEND
  5
F98
  8
MARK__LASER_ONLY_
  0
POLYLINE
  5
26F
  8
MARK__LASER_ONLY_
 66
     1
 10
0.0
 20
0.0
 30
0.0
  0
VERTEX
  5
7A8
  8
MARK__LASER_ONLY_
 10
1497.173694867087
 20
167.06127470186
 30
0.0
  0
VERTEX
  5
7A9
  8
MARK__LASER_ONLY_
 10
1497.948905452169
 20
152.7763499636028
 30
0.0
  0
SEQEND
  5
F99
  8
MARK__LASER_ONLY_
  0
POLYLINE
  5
270
  8
MARK__LASER_ONLY_
 66
     1
 10
0.0
 20
0.0
 30
0.0
  0
VERTEX
  5
7AA
  8
MARK__LASER_ONLY_
 10
1498.045888825536
 20
150.9892224190833
 30
0.0
  0
VERTEX
  5
7AB
  8
MARK__LASER_ONLY_
 10
1498.239691471807
 20
147.417991234519
 30
0.0
  0
SEQEND
  5
F9A
  8
MARK__LASER_ONLY_
  0
POLYLINE
  5
271
  8
MARK__LASER_ONLY_
 66
     1
 10
0.0
 20
0.0
 30
0.0
  0
VERTEX
  5
7AC
  8
MARK__LASER_ONLY_
 10
1498.336674845173
 20
145.6308636899995
 30
0.0
  0
VERTEX
  5
7AD
  8
MARK__LASER_ONLY_
 10
1499.111885430256
 20
131.3459389517422
 30
0.0
  0
SEQEND
  5
F9B
  8
MARK__LASER_ONLY_
  0
POLYLINE
  5
272
  8
MARK__LASER_ONLY_
 66
     1
 10
0.0
 20
0.0
 30
0.0
  0
VERTEX
  5
7AE
  8
MARK__LASER_ONLY_
 10
1499.208868803622
 20
129.5588114072228
 30
0.0
  0
VERTEX
  5
7AF
  8
MARK__LASER_ONLY_
 10
1499.402671449893
 20
125.9875802226585
 30
0.0
  0
SEQEND
  5
F9C
  8
MARK__LASER_ONLY_
  0
POLYLINE
  5
273
  8
MARK__LASER_ONLY_
 66
     1
 10
0.0
 20
0.0
 30
0.0
  0
VERTEX
  5
7B0
  8
MARK__LASER_ONLY_
 10
1499.49965482326
 20
124.200452678139
 30
0.0
  0
VERTEX
  5
7B1
  8
MARK__LASER_ONLY_
 10
1500.274865408342
 20
109.9155279398818
 30
0.0
  0
SEQEND
  5
F9D
  8
MARK__LASER_ONLY_
  0
POLYLINE
  5
274
  8
MARK__LASER_ONLY_
 66
     1
 10
0.0
 20
0.0
 30
0.0
  0
VERTEX
  5
7B2
  8
MARK__LASER_ONLY_
 10
1500.371848781709
 20
108.1284003953624
 30
0.0
  0
VERTEX
  5
7B3
  8
MARK__LASER_ONLY_
 10
1500.56565142798
 20
104.557169210798
 30
0.0
  0
SEQEND
  5
F9E
  8
MARK__LASER_ONLY_
  0
POLYLINE
  5
275
  8
MARK__LASER_ONLY_
 66
     1
 10
0.0
 20
0.0
 30
0.0
  0
VERTEX
  5
7B4
  8
MARK__LASER_ONLY_
 10
1500.662634801346
 20
102.7700416662785
 30
0.0
  0
VERTEX
  5
7B5
  8
MARK__LASER_ONLY_
 10
1501.437845386429
 20
88.48511692802126
 30
0.0
  0
SEQEND
  5
F9F
  8
MARK__LASER_ONLY_
  0
POLYLINE
  5
276
  8
MARK__LASER_ONLY_
 66
     1
 10
0.0
 20
0.0
 30
0.0
  0
VERTEX
  5
7B6
  8
MARK__LASER_ONLY_
 10
1501.534828759795
 20
86.69798938350183
 30
0.0
  0
VERTEX
  5
7B7
  8
MARK__LASER_ONLY_
 10
1501.728631406066
 20
83.1267581989375
 30
0.0
  0
SEQEND
  5
FA0
  8
MARK__LASER_ONLY_
  0
POLYLINE
  5
277
  8
MARK__LASER_ONLY_
 66
     1
 10
0.0
 20
0.0
 30
0.0
  0
VERTEX
  5
7B8
  8
MARK__LASER_ONLY_
 10
1501.825614779433
 20
81.33963065441807
 30
0.0
  0
VERTEX
  5
7B9
  8
MARK__LASER_ONLY_
 10
1502.600825364515
 20
67.05470591616083
 30
0.0
  0
SEQEND
  5
FA1
  8
MARK__LASER_ONLY_
  0
POLYLINE
  5
278
  8
MARK__LASER_ONLY_
 66
     1
 10
0.0
 20
0.0
 30
0.0
  0
VERTEX
  5
7BA
  8
MARK__LASER_ONLY_
 10
1502.697808737882
 20
65.2675783716414
 30
0.0
  0
VERTEX
  5
7BB
  8
MARK__LASER_ONLY_
 10
1502.891611384153
 20
61.69634718707707
 30
0.0
  0
SEQEND
  5
FA2
  8
MARK__LASER_ONLY_
  0
POLYLINE
  5
279
  8
MARK__LASER_ONLY_
 66
     1
 10
0.0
 20
0.0
 30
0.0
  0
VERTEX
  5
7BC
  8
MARK__LASER_ONLY_
 10
1502.988594757519
 20
59.90921964255764
 30
0.0
  0
VERTEX
  5
7BD
  8
MARK__LASER_ONLY_
 10
1503.763805342602
 20
45.62429490430029
 30
0.0
  0
SEQEND
  5
FA3
  8
MARK__LASER_ONLY_
  0
POLYLINE
  5
27A
  8
MARK__LASER_ONLY_
 66
     1
 10
0.0
 20
0.0
 30
0.0
  0
VERTEX
  5
7BE
  8
MARK__LASER_ONLY_
 10
1503.860788715969
 20
43.83716735978086
 30
0.0
  0
VERTEX
  5
7BF
  8
MARK__LASER_ONLY_
 10
1504.054591362239
 20
40.26593617521652
 30
0.0
  0
SEQEND
  5
FA4
  8
MARK__LASER_ONLY_
  0
POLYLINE
  5
27B
  8
MARK__LASER_ONLY_
 66
     1
 10
0.0
 20
0.0
 30
0.0
  0
VERTEX
  5
7C0
  8
MARK__LASER_ONLY_
 10
1504.151574735606
 20
38.4788086306971
 30
0.0
  0
VERTEX
  5
7C1
  8
MARK__LASER_ONLY_
 10
1505.120669547582
 20
20.62114940917601
 30
0.0
  0
SEQEND
  5
FA5
  8
MARK__LASER_ONLY_
  0
POLYLINE
  5
27D
  8
CUT
 66
     1
 10
0.0
 20
0.0
 30
0.0
 70
     1
  0
VERTEX
  5
7C2
  8
CUT
 10
1866.888405587154
 20
538.8704327769726
 30
0.0
 42
0.4142135623730852
  0
VERTEX
  5
7C3
  8
CUT
 10
1870.888405587154
 20
542.8704327769725
 30
0.0
  0
VERTEX
  5
7C4
  8
CUT
 10
1870.888405587154
 20
554.6898520343657
 30
0.0
 42
0.2668618522089913
  0
VERTEX
  5
7C5
  8
CUT
 10
1868.902450245047
 20
558.1458069119652
 30
0.0
 42
-0.577927868306645
  0
VERTEX
  5
7C6
  8
CUT
 10
1868.936114443747
 20
564.9807153755113
 30
0.0
 42
0.2479756850728893
  0
VERTEX
  5
7C7
  8
CUT
 10
1870.943192557322
 20
568.1338962396206
 30
0.0
 42
-0.3676934694025429
  0
VERTEX
  5
7C8
  8
CUT
 10
1886.366103760378
 20
583.5568074426784
 30
0.0
 42
0.2479756850729121
  0
VERTEX
  5
7C9
  8
CUT
 10
1889.519284624486
 20
585.5638855562532
 30
0.0
 42
-0.5779278683065928
  0
VERTEX
  5
7CA
  8
CUT
 10
1896.354193088032
 20
585.5975497549525
 30
0.0
 42
0.2668618522090236
  0
VERTEX
  5
7CB
  8
CUT
 10
1899.810147965633
 20
583.6115944128459
 30
0.0
  0
VERTEX
  5
7CC
  8
CUT
 10
1911.629567223028
 20
583.6115944128459
 30
0.0
 42
0.4142135623730931
  0
VERTEX
  5
7CD
  8
CUT
 10
1915.629567223028
 20
587.6115944128459
 30
0.0
  0
VERTEX
  5
7CE
  8
CUT
 10
1915.629567223028
 20
901.7588383641265
 30
0.0
 42
0.4142135623730903
  0
VERTEX
  5
7CF
  8
CUT
 10
1911.629567223028
 20
905.7588383641264
 30
0.0
  0
VERTEX
  5
7D0
  8
CUT
 10
1899.810147965635
 20
905.7588383641266
 30
0.0
 42
0.2668618522090859
  0
VERTEX
  5
7D1
  8
CUT
 10
1896.354193088034
 20
903.7728830220196
 30
0.0
 42
-0.5779278683066212
  0
VERTEX
  5
7D2
  8
CUT
 10
1889.519284624487
 20
903.8065472207196
 30
0.0
 42
0.2479756850728979
  0
VERTEX
  5
7D3
  8
CUT
 10
1886.366103760379
 20
905.8136253342943
 30
0.0
 42
-0.3676934694025422
  0
VERTEX
  5
7D4
  8
CUT
 10
1870.943192557322
 20
921.2365365373507
 30
0.0
 42
0.2479756850728832
  0
VERTEX
  5
7D5
  8
CUT
 10
1868.936114443748
 20
924.3897174014604
 30
0.0
 42
-0.5779278683066038
  0
VERTEX
  5
7D6
  8
CUT
 10
1868.902450245047
 20
931.224625865008
 30
0.0
 42
0.2668618522089748
  0
VERTEX
  5
7D7
  8
CUT
 10
1870.888405587154
 20
934.6805807426068
 30
0.0
  0
VERTEX
  5
7D8
  8
CUT
 10
1870.888405587154
 20
946.5
 30
0.0
 42
0.4142135623730916
  0
VERTEX
  5
7D9
  8
CUT
 10
1866.888405587154
 20
950.4999999999999
 30
0.0
  0
VERTEX
  5
7DA
  8
CUT
 10
1552.741161635874
 20
950.5000000000001
 30
0.0
 42
0.4142135623730939
  0
VERTEX
  5
7DB
  8
CUT
 10
1548.741161635874
 20
946.5000000000002
 30
0.0
  0
VERTEX
  5
7DC
  8
CUT
 10
1548.741161635874
 20
934.6805807426065
 30
0.0
 42
0.2668618522089818
  0
VERTEX
  5
7DD
  8
CUT
 10
1550.727116977981
 20
931.224625865007
 30
0.0
 42
-0.5779278683066524
  0
VERTEX
  5
7DE
  8
CUT
 10
1550.693452779281
 20
924.3897174014612
 30
0.0
 42
0.2479756850729162
  0
VERTEX
  5
7DF
  8
CUT
 10
1548.686374665706
 20
921.2365365373519
 30
0.0
 42
-0.367693469402544
  0
VERTEX
  5
7E0
  8
CUT
 10
1533.263463462649
 20
905.8136253342942
 30
0.0
 42
0.2479756850729049
  0
VERTEX
  5
7E1
  8
CUT
 10
1530.110282598541
 20
903.8065472207195
 30
0.0
 42
-0.577927868306617
  0
VERTEX
  5
7E2
  8
CUT
 10
1523.275374134994
 20
903.7728830220203
 30
0.0
 42
0.2668618522089868
  0
VERTEX
  5
7E3
  8
CUT
 10
1519.819419257393
 20
905.7588383641266
 30
0.0
  0
VERTEX
  5
7E4
  8
CUT
 10
1508.0
 20
905.7588383641266
 30
0.0
 42
0.414213562373088
  0
VERTEX
  5
7E5
  8
CUT
 10
1504.0
 20
901.7588383641267
 30
0.0
  0
VERTEX
  5
7E6
  8
CUT
 10
1504.0
 20
587.6115944128461
 30
0.0
 42
0.4142135623730879
  0
VERTEX
  5
7E7
  8
CUT
 10
1508.0
 20
583.6115944128461
 30
0.0
  0
VERTEX
  5
7E8
  8
CUT
 10
1519.819419257393
 20
583.6115944128461
 30
0.0
 42
0.2668618522089496
  0
VERTEX
  5
7E9
  8
CUT
 10
1523.275374134993
 20
585.5975497549523
 30
0.0
 42
-0.5779278683066493
  0
VERTEX
  5
7EA
  8
CUT
 10
1530.110282598539
 20
585.563885556253
 30
0.0
 42
0.2479756850729162
  0
VERTEX
  5
7EB
  8
CUT
 10
1533.263463462649
 20
583.5568074426785
 30
0.0
 42
-0.3676934694025428
  0
VERTEX
  5
7EC
  8
CUT
 10
1548.686374665706
 20
568.133896239622
 30
0.0
 42
0.2479756850729217
  0
VERTEX
  5
7ED
  8
CUT
 10
1550.693452779281
 20
564.9807153755133
 30
0.0
 42
-0.5779278683066533
  0
VERTEX
  5
7EE
  8
CUT
 10
1550.72711697798
 20
558.1458069119662
 30
0.0
 42
0.2668618522089921
  0
VERTEX
  5
7EF
  8
CUT
 10
1548.741161635874
 20
554.6898520343658
 30
0.0
  0
VERTEX
  5
7F0
  8
CUT
 10
1548.741161635874
 20
542.8704327769725
 30
0.0
 42
0.4142135623730887
  0
VERTEX
  5
7F1
  8
CUT
 10
1552.741161635874
 20
538.8704327769726
 30
0.0
  0
SEQEND
  5
FA6
  8
CUT
  0
POLYLINE
  5
27E
  8
CUT
 66
     1
 10
0.0
 20
0.0
 30
0.0
 70
     1
  0
VERTEX
  5
7F2
  8
CUT
 10
1566.437456941221
 20
618.9855592478573
 30
0.0
  0
VERTEX
  5
7F3
  8
CUT
 10
1685.066046269985
 20
737.6141485766209
 30
0.0
 42
0.4142135623730938
  0
VERTEX
  5
7F4
  8
CUT
 10
1685.066046269985
 20
751.7562842003518
 30
0.0
  0
VERTEX
  5
7F5
  8
CUT
 10
1566.437456941221
 20
870.3848735291156
 30
0.0
 42
0.6681786379192957
  0
VERTEX
  5
7F6
  8
CUT
 10
1549.366389129356
 20
863.31380571725
 30
0.0
  0
VERTEX
  5
7F7
  8
CUT
 10
1549.366389129355
 20
626.0566270597227
 30
0.0
 42
0.6681786379192942
  0
SEQEND
  5
FA7
  8
CUT
  0
POLYLINE
  5
27F
  8
CUT
 66
     1
 10
0.0
 20
0.0
 30
0.0
 70
     1
  0
VERTEX
  5
7F8
  8
CUT
 10
1835.514440752143
 20
888.0625430587789
 30
0.0
 42
0.6681786379192985
  0
VERTEX
  5
7F9
  8
CUT
 10
1828.443372940278
 20
905.1336108706445
 30
0.0
  0
VERTEX
  5
7FA
  8
CUT
 10
1591.18619428275
 20
905.1336108706446
 30
0.0
 42
0.6681786379192951
  0
VERTEX
  5
7FB
  8
CUT
 10
1584.115126470885
 20
888.0625430587792
 30
0.0
  0
VERTEX
  5
7FC
  8
CUT
 10
1702.743715799648
 20
769.4339537300154
 30
0.0
 42
0.4142135623730974
  0
VERTEX
  5
7FD
  8
CUT
 10
1716.885851423379
 20
769.4339537300154
 30
0.0
  0
SEQEND
  5
FA8
  8
CUT
  0
POLYLINE
  5
280
  8
CUT
 66
     1
 10
0.0
 20
0.0
 30
0.0
 70
     1
  0
VERTEX
  5
7FE
  8
CUT
 10
1828.443372940277
 20
584.236821906328
 30
0.0
 42
0.6681786379192983
  0
VERTEX
  5
7FF
  8
CUT
 10
1835.514440752143
 20
601.3078897181936
 30
0.0
  0
VERTEX
  5
800
  8
CUT
 10
1716.88585142338
 20
719.9364790469572
 30
0.0
 42
0.414213562373095
  0
VERTEX
  5
801
  8
CUT
 10
1702.743715799648
 20
719.9364790469571
 30
0.0
  0
VERTEX
  5
802
  8
CUT
 10
1584.115126470885
 20
601.3078897181937
 30
0.0
 42
0.6681786379192961
  0
VERTEX
  5
803
  8
CUT
 10
1591.18619428275
 20
584.2368219063281
 30
0.0
  0
SEQEND
  5
FA9
  8
CUT
  0
POLYLINE
  5
281
  8
CUT
 66
     1
 10
0.0
 20
0.0
 30
0.0
 70
     1
  0
VERTEX
  5
804
  8
CUT
 10
1870.263178093672
 20
626.0566270597226
 30
0.0
  0
VERTEX
  5
805
  8
CUT
 10
1870.263178093672
 20
863.3138057172496
 30
0.0
 42
0.6681786379192961
  0
VERTEX
  5
806
  8
CUT
 10
1853.192110281807
 20
870.3848735291149
 30
0.0
  0
VERTEX
  5
807
  8
CUT
 10
1734.563520953043
 20
751.7562842003517
 30
0.0
 42
0.414213562373095
  0
VERTEX
  5
808
  8
CUT
 10
1734.563520953043
 20
737.6141485766207
 30
0.0
  0
VERTEX
  5
809
  8
CUT
 10
1853.192110281807
 20
618.985559247857
 30
0.0
 42
0.6681786379192998
  0
SEQEND
  5
FAA
  8
CUT
  0
POLYLINE
  5
282
  8
CUT
 66
     1
 10
0.0
 20
0.0
 30
0.0
 70
     1
  0
VERTEX
  5
80A
  8
CUT
 10
1728.296452259962
 20
923.872657098255
 30
0.0
 42
0.414213562373102
  0
VERTEX
  5
80B
  8
CUT
 10
1732.240665382195
 20
927.8168702204881
 30
0.0
 42
0.4142135623731021
  0
VERTEX
  5
80C
  8
CUT
 10
1728.296452259962
 20
931.7610833427216
 30
0.0
  0
VERTEX
  5
80D
  8
CUT
 10
1691.333114963066
 20
931.7610833427217
 30
0.0
 42
0.4142135623730948
  0
VERTEX
  5
80E
  8
CUT
 10
1687.388901840832
 20
927.8168702204885
 30
0.0
 42
0.4142135623730949
  0
VERTEX
  5
80F
  8
CUT
 10
1691.333114963066
 20
923.8726570982549
 30
0.0
  0
SEQEND
  5
FAB
  8
CUT
  0
POLYLINE
  5
283
  8
CUT
 66
     1
 10
0.0
 20
0.0
 30
0.0
 70
     1
  0
VERTEX
  5
810
  8
CUT
 10
1728.296452259962
 20
557.6093494342518
 30
0.0
 42
0.4142135623730965
  0
VERTEX
  5
811
  8
CUT
 10
1732.240665382195
 20
561.5535625564851
 30
0.0
 42
0.4142135623730964
  0
VERTEX
  5
812
  8
CUT
 10
1728.296452259962
 20
565.4977756787183
 30
0.0
  0
VERTEX
  5
813
  8
CUT
 10
1691.333114963066
 20
565.4977756787184
 30
0.0
 42
0.4142135623730946
  0
VERTEX
  5
814
  8
CUT
 10
1687.388901840832
 20
561.5535625564854
 30
0.0
 42
0.4142135623730946
  0
VERTEX
  5
815
  8
CUT
 10
1691.333114963066
 20
557.6093494342515
 30
0.0
  0
SEQEND
  5
FAC
  8
CUT
  0
POLYLINE
  5
284
  8
CUT
 66
     1
 10
0.0
 20
0.0
 30
0.0
 70
     1
  0
VERTEX
  5
816
  8
CUT
 10
1788.148215801325
 20
557.6093494342513
 30
0.0
 42
0.4142135623730946
  0
VERTEX
  5
817
  8
CUT
 10
1792.092428923558
 20
561.5535625564845
 30
0.0
 42
0.4142135623730946
  0
VERTEX
  5
818
  8
CUT
 10
1788.148215801325
 20
565.497775678718
 30
0.0
  0
VERTEX
  5
819
  8
CUT
 10
1751.184878504429
 20
565.4977756787179
 30
0.0
 42
0.4142135623730965
  0
VERTEX
  5
81A
  8
CUT
 10
1747.240665382195
 20
561.5535625564843
 30
0.0
 42
0.4142135623730964
  0
VERTEX
  5
81B
  8
CUT
 10
1751.184878504429
 20
557.6093494342509
 30
0.0
  0
SEQEND
  5
FAD
  8
CUT
  0
POLYLINE
  5
285
  8
CUT
 66
     1
 10
0.0
 20
0.0
 30
0.0
 70
     1
  0
VERTEX
  5
81C
  8
CUT
 10
1788.148215801325
 20
923.8726570982542
 30
0.0
  0
VERTEX
  5
81D
  8
CUT
 10
1751.184878504429
 20
923.8726570982551
 30
0.0
 42
-0.4142135623731021
  0
VERTEX
  5
81E
  8
CUT
 10
1747.240665382195
 20
927.8168702204889
 30
0.0
 42
-0.414213562373102
  0
VERTEX
  5
81F
  8
CUT
 10
1751.184878504429
 20
931.7610833427219
 30
0.0
  0
VERTEX
  5
820
  8
CUT
 10
1788.148215801325
 20
931.7610833427217
 30
0.0
 42
-0.4142135623730949
  0
VERTEX
  5
821
  8
CUT
 10
1792.092428923558
 20
927.8168702204885
 30
0.0
 42
-0.4142135623730948
  0
SEQEND
  5
FAE
  8
CUT
  0
POLYLINE
  5
286
  8
CUT
 66
     1
 10
0.0
 20
0.0
 30
0.0
 70
     1
  0
VERTEX
  5
822
  8
CUT
 10
1530.627342901746
 20
606.5000206573125
 30
0.0
  0
VERTEX
  5
823
  8
CUT
 10
1530.627342901746
 20
643.4633579542088
 30
0.0
 42
0.4142135623730985
  0
VERTEX
  5
824
  8
CUT
 10
1526.683129779512
 20
647.407571076442
 30
0.0
 42
0.4142135623730985
  0
VERTEX
  5
825
  8
CUT
 10
1522.738916657278
 20
643.4633579542088
 30
0.0
  0
VERTEX
  5
826
  8
CUT
 10
1522.73891665728
 20
606.5000206573125
 30
0.0
 42
0.4142135623730893
  0
VERTEX
  5
827
  8
CUT
 10
1526.683129779513
 20
602.555807535079
 30
0.0
 42
0.4142135623731009
  0
SEQEND
  5
FAF
  8
CUT
  0
POLYLINE
  5
287
  8
CUT
 66
     1
 10
0.0
 20
0.0
 30
0.0
 70
     1
  0
VERTEX
  5
828
  8
CUT
 10
1847.999979342688
 20
923.8726570982558
 30
0.0
 42
0.4142135623730974
  0
VERTEX
  5
829
  8
CUT
 10
1851.944192464921
 20
927.8168702204889
 30
0.0
 42
0.4142135623730973
  0
VERTEX
  5
82A
  8
CUT
 10
1847.999979342688
 20
931.7610833427212
 30
0.0
  0
VERTEX
  5
82B
  8
CUT
 10
1811.036642045791
 20
931.761083342722
 30
0.0
 42
0.4142135623730974
  0
VERTEX
  5
82C
  8
CUT
 10
1807.092428923558
 20
927.8168702204891
 30
0.0
 42
0.4142135623730973
  0
VERTEX
  5
82D
  8
CUT
 10
1811.036642045791
 20
923.8726570982551
 30
0.0
  0
SEQEND
  5
FB0
  8
CUT
  0
POLYLINE
  5
288
  8
CUT
 66
     1
 10
0.0
 20
0.0
 30
0.0
 70
     1
  0
VERTEX
  5
82E
  8
CUT
 10
1530.627342901746
 20
786.0553112814011
 30
0.0
  0
VERTEX
  5
82F
  8
CUT
 10
1530.627342901745
 20
823.0186485782976
 30
0.0
 42
0.9999999999999568
  0
VERTEX
  5
830
  8
CUT
 10
1522.738916657278
 20
823.0186485782976
 30
0.0
  0
VERTEX
  5
831
  8
CUT
 10
1522.738916657279
 20
786.055311281401
 30
0.0
 42
0.4142135623730948
  0
VERTEX
  5
832
  8
CUT
 10
1526.683129779513
 20
782.1110981591679
 30
0.0
 42
0.4142135623730999
  0
SEQEND
  5
FB1
  8
CUT
  0
POLYLINE
  5
289
  8
CUT
 66
     1
 10
0.0
 20
0.0
 30
0.0
 70
     1
  0
VERTEX
  5
833
  8
CUT
 10
1530.627342901746
 20
845.907074822764
 30
0.0
  0
VERTEX
  5
834
  8
CUT
 10
1530.627342901746
 20
882.8704121196604
 30
0.0
 42
1.0
  0
VERTEX
  5
835
  8
CUT
 10
1522.73891665728
 20
882.8704121196604
 30
0.0
  0
VERTEX
  5
836
  8
CUT
 10
1522.738916657279
 20
845.907074822764
 30
0.0
 42
0.4142135623730999
  0
VERTEX
  5
837
  8
CUT
 10
1526.683129779513
 20
841.9628617005309
 30
0.0
 42
0.4142135623730957
  0
SEQEND
  5
FB2
  8
CUT
  0
POLYLINE
  5
28A
  8
CUT
 66
     1
 10
0.0
 20
0.0
 30
0.0
 70
     1
  0
VERTEX
  5
838
  8
CUT
 10
1668.444688718599
 20
557.6093494342523
 30
0.0
 42
0.4142135623730946
  0
VERTEX
  5
839
  8
CUT
 10
1672.388901840832
 20
561.5535625564854
 30
0.0
 42
0.4142135623730946
  0
VERTEX
  5
83A
  8
CUT
 10
1668.444688718599
 20
565.4977756787184
 30
0.0
  0
VERTEX
  5
83B
  8
CUT
 10
1631.481351421703
 20
565.4977756787187
 30
0.0
 42
0.9999999999999946
  0
VERTEX
  5
83C
  8
CUT
 10
1631.481351421703
 20
557.6093494342517
 30
0.0
  0
SEQEND
  5
FB3
  8
CUT
  0
POLYLINE
  5
28B
  8
CUT
 66
     1
 10
0.0
 20
0.0
 30
0.0
 70
     1
  0
VERTEX
  5
83D
  8
CUT
 10
1530.627342901746
 20
726.2035477400381
 30
0.0
  0
VERTEX
  5
83E
  8
CUT
 10
1530.627342901745
 20
763.1668850369348
 30
0.0
 42
0.999999999999964
  0
VERTEX
  5
83F
  8
CUT
 10
1522.738916657278
 20
763.1668850369348
 30
0.0
  0
VERTEX
  5
840
  8
CUT
 10
1522.738916657278
 20
726.2035477400381
 30
0.0
 42
0.414213562373102
  0
VERTEX
  5
841
  8
CUT
 10
1526.683129779512
 20
722.2593346178049
 30
0.0
 42
0.4142135623731021
  0
SEQEND
  5
FB4
  8
CUT
  0
POLYLINE
  5
28C
  8
CUT
 66
     1
 10
0.0
 20
0.0
 30
0.0
 70
     1
  0
VERTEX
  5
842
  8
CUT
 10
1896.890650565749
 20
726.2035477400378
 30
0.0
  0
VERTEX
  5
843
  8
CUT
 10
1896.890650565749
 20
763.1668850369347
 30
0.0
 42
0.4142135623730946
  0
VERTEX
  5
844
  8
CUT
 10
1892.946437443516
 20
767.1110981591678
 30
0.0
 42
0.4142135623730946
  0
VERTEX
  5
845
  8
CUT
 10
1889.002224321282
 20
763.1668850369347
 30
0.0
  0
VERTEX
  5
846
  8
CUT
 10
1889.002224321283
 20
726.203547740038
 30
0.0
 42
0.9999999999999982
  0
SEQEND
  5
FB5
  8
CUT
  0
POLYLINE
  5
28D
  8
CUT
 66
     1
 10
0.0
 20
0.0
 30
0.0
 70
     1
  0
VERTEX
  5
847
  8
CUT
 10
1668.444688718599
 20
923.8726570982556
 30
0.0
 42
0.4142135623730948
  0
VERTEX
  5
848
  8
CUT
 10
1672.388901840832
 20
927.8168702204887
 30
0.0
 42
0.4142135623730949
  0
VERTEX
  5
849
  8
CUT
 10
1668.444688718599
 20
931.7610833427219
 30
0.0
  0
VERTEX
  5
84A
  8
CUT
 10
1631.481351421703
 20
931.7610833427216
 30
0.0
 42
1.0
  0
VERTEX
  5
84B
  8
CUT
 10
1631.481351421703
 20
923.8726570982546
 30
0.0
  0
SEQEND
  5
FB6
  8
CUT
  0
POLYLINE
  5
28E
  8
CUT
 66
     1
 10
0.0
 20
0.0
 30
0.0
 70
     1
  0
VERTEX
  5
84C
  8
CUT
 10
1530.627342901746
 20
666.3517841986751
 30
0.0
  0
VERTEX
  5
84D
  8
CUT
 10
1530.627342901746
 20
703.3151214955718
 30
0.0
 42
0.414213562373099
  0
VERTEX
  5
84E
  8
CUT
 10
1526.683129779512
 20
707.259334617805
 30
0.0
 42
0.4142135623730948
  0
VERTEX
  5
84F
  8
CUT
 10
1522.738916657278
 20
703.3151214955718
 30
0.0
  0
VERTEX
  5
850
  8
CUT
 10
1522.738916657279
 20
666.3517841986751
 30
0.0
 42
1.0
  0
SEQEND
  5
FB7
  8
CUT
  0
POLYLINE
  5
28F
  8
CUT
 66
     1
 10
0.0
 20
0.0
 30
0.0
 70
     1
  0
VERTEX
  5
851
  8
CUT
 10
1896.890650565748
 20
666.3517841986749
 30
0.0
 42
-0.9999999999999909
  0
VERTEX
  5
852
  8
CUT
 10
1889.002224321282
 20
666.3517841986749
 30
0.0
  0
VERTEX
  5
853
  8
CUT
 10
1889.002224321282
 20
703.3151214955716
 30
0.0
 42
-0.414213562373094
  0
VERTEX
  5
854
  8
CUT
 10
1892.946437443515
 20
707.2593346178048
 30
0.0
 42
-0.4142135623730985
  0
VERTEX
  5
855
  8
CUT
 10
1896.890650565749
 20
703.3151214955716
 30
0.0
  0
SEQEND
  5
FB8
  8
CUT
  0
POLYLINE
  5
290
  8
CUT
 66
     1
 10
0.0
 20
0.0
 30
0.0
 70
     1
  0
VERTEX
  5
856
  8
CUT
 10
1896.890650565747
 20
606.5000206573121
 30
0.0
 42
-1.0
  0
VERTEX
  5
857
  8
CUT
 10
1889.002224321281
 20
606.5000206573121
 30
0.0
  0
VERTEX
  5
858
  8
CUT
 10
1889.002224321282
 20
643.4633579542086
 30
0.0
 42
-0.4142135623730982
  0
VERTEX
  5
859
  8
CUT
 10
1892.946437443515
 20
647.4075710764419
 30
0.0
 42
-0.4142135623730982
  0
VERTEX
  5
85A
  8
CUT
 10
1896.890650565749
 20
643.4633579542086
 30
0.0
  0
SEQEND
  5
FB9
  8
CUT
  0
POLYLINE
  5
291
  8
CUT
 66
     1
 10
0.0
 20
0.0
 30
0.0
 70
     1
  0
VERTEX
  5
85B
  8
CUT
 10
1608.592925177236
 20
557.6093494342508
 30
0.0
  0
VERTEX
  5
85C
  8
CUT
 10
1571.62958788034
 20
557.6093494342523
 30
0.0
 42
-0.9999999999999946
  0
VERTEX
  5
85D
  8
CUT
 10
1571.62958788034
 20
565.4977756787185
 30
0.0
  0
VERTEX
  5
85E
  8
CUT
 10
1608.592925177236
 20
565.4977756787183
 30
0.0
 42
-0.9999999999999946
  0
SEQEND
  5
FBA
  8
CUT
  0
POLYLINE
  5
292
  8
CUT
 66
     1
 10
0.0
 20
0.0
 30
0.0
 70
     1
  0
VERTEX
  5
85F
  8
CUT
 10
1896.89065056575
 20
786.0553112814009
 30
0.0
  0
VERTEX
  5
860
  8
CUT
 10
1896.890650565749
 20
823.0186485782975
 30
0.0
 42
0.9999999999999946
  0
VERTEX
  5
861
  8
CUT
 10
1889.002224321282
 20
823.0186485782975
 30
0.0
  0
VERTEX
  5
862
  8
CUT
 10
1889.002224321282
 20
786.0553112814009
 30
0.0
 42
0.9999999999999586
  0
SEQEND
  5
FBB
  8
CUT
  0
POLYLINE
  5
293
  8
CUT
 66
     1
 10
0.0
 20
0.0
 30
0.0
 70
     1
  0
VERTEX
  5
863
  8
CUT
 10
1608.592925177236
 20
923.8726570982556
 30
0.0
 42
1.0
  0
VERTEX
  5
864
  8
CUT
 10
1608.592925177236
 20
931.7610833427219
 30
0.0
  0
VERTEX
  5
865
  8
CUT
 10
1571.62958788034
 20
931.7610833427207
 30
0.0
 42
1.0
  0
VERTEX
  5
866
  8
CUT
 10
1571.62958788034
 20
923.8726570982546
 30
0.0
  0
SEQEND
  5
FBC
  8
CUT
  0
POLYLINE
  5
294
  8
CUT
 66
     1
 10
0.0
 20
0.0
 30
0.0
 70
     1
  0
VERTEX
  5
867
  8
CUT
 10
1896.89065056575
 20
845.9070748227639
 30
0.0
  0
VERTEX
  5
868
  8
CUT
 10
1896.890650565748
 20
882.8704121196602
 30
0.0
 42
0.9999999999999946
  0
VERTEX
  5
869
  8
CUT
 10
1889.002224321282
 20
882.8704121196604
 30
0.0
  0
VERTEX
  5
86A
  8
CUT
 10
1889.002224321282
 20
845.9070748227639
 30
0.0
 42
0.9999999999999514
  0
SEQEND
  5
FBD
  8
CUT
  0
POLYLINE
  5
295
  8
CUT
 66
     1
 10
0.0
 20
0.0
 30
0.0
 70
     1
  0
VERTEX
  5
86B
  8
CUT
 10
1847.999979342688
 20
565.4977756787182
 30
0.0
  0
VERTEX
  5
86C
  8
CUT
 10
1811.036642045791
 20
565.4977756787179
 30
0.0
 42
0.9999999999999982
  0
VERTEX
  5
86D
  8
CUT
 10
1811.036642045791
 20
557.6093494342509
 30
0.0
  0
VERTEX
  5
86E
  8
CUT
 10
1847.999979342688
 20
557.6093494342521
 30
0.0
 42
0.9999999999999982
  0
SEQEND
  5
FBE
  8
CUT
  0
POLYLINE
  5
296
  8
CUT
 66
     1
 10
0.0
 20
0.0
 30
0.0
 70
     1
  0
VERTEX
  5
86F
  8
CUT
 10
1509.351174777497
 20
894.6852163884864
 30
0.0
 42
0.4142135623730951
  0
VERTEX
  5
870
  8
CUT
 10
1511.351174777497
 20
892.6852163884864
 30
0.0
 42
0.4142135623730951
  0
VERTEX
  5
871
  8
CUT
 10
1513.351174777497
 20
894.6852163884864
 30
0.0
 42
0.4142135623730951
  0
VERTEX
  5
872
  8
CUT
 10
1511.351174777497
 20
896.6852163884864
 30
0.0
 42
0.4142135623730951
  0
SEQEND
  5
FBF
  8
CUT
  0
POLYLINE
  5
297
  8
CUT
 66
     1
 10
0.0
 20
0.0
 30
0.0
 70
     1
  0
VERTEX
  5
873
  8
CUT
 10
1707.814783611514
 20
943.1488252225033
 30
0.0
 42
0.4142135623730951
  0
VERTEX
  5
874
  8
CUT
 10
1709.814783611514
 20
941.1488252225033
 30
0.0
 42
0.4142135623730951
  0
VERTEX
  5
875
  8
CUT
 10
1711.814783611514
 20
943.1488252225033
 30
0.0
 42
0.4142135623730951
  0
VERTEX
  5
876
  8
CUT
 10
1709.814783611514
 20
945.1488252225033
 30
0.0
 42
0.4142135623730951
  0
SEQEND
  5
FC0
  8
CUT
  0
POLYLINE
  5
298
  8
CUT
 66
     1
 10
0.0
 20
0.0
 30
0.0
 70
     1
  0
VERTEX
  5
877
  8
CUT
 10
1632.814783611514
 20
943.1488252225035
 30
0.0
 42
0.4142135623730951
  0
VERTEX
  5
878
  8
CUT
 10
1634.814783611514
 20
941.1488252225035
 30
0.0
 42
0.4142135623730951
  0
VERTEX
  5
879
  8
CUT
 10
1636.814783611514
 20
943.1488252225035
 30
0.0
 42
0.4142135623730951
  0
VERTEX
  5
87A
  8
CUT
 10
1634.814783611514
 20
945.1488252225035
 30
0.0
 42
0.4142135623730951
  0
SEQEND
  5
FC1
  8
CUT
  0
POLYLINE
  5
299
  8
CUT
 66
     1
 10
0.0
 20
0.0
 30
0.0
 70
     1
  0
VERTEX
  5
87B
  8
CUT
 10
1782.814783611514
 20
943.1488252225033
 30
0.0
 42
0.4142135623730951
  0
VERTEX
  5
87C
  8
CUT
 10
1784.814783611514
 20
941.1488252225033
 30
0.0
 42
0.4142135623730951
  0
VERTEX
  5
87D
  8
CUT
 10
1786.814783611514
 20
943.1488252225033
 30
0.0
 42
0.4142135623730951
  0
VERTEX
  5
87E
  8
CUT
 10
1784.814783611514
 20
945.1488252225033
 30
0.0
 42
0.4142135623730951
  0
SEQEND
  5
FC2
  8
CUT
  0
POLYLINE
  5
29A
  8
CUT
 66
     1
 10
0.0
 20
0.0
 30
0.0
 70
     1
  0
VERTEX
  5
87F
  8
CUT
 10
1509.351174777497
 20
819.6852163884864
 30
0.0
 42
0.4142135623730951
  0
VERTEX
  5
880
  8
CUT
 10
1511.351174777497
 20
817.6852163884864
 30
0.0
 42
0.4142135623730951
  0
VERTEX
  5
881
  8
CUT
 10
1513.351174777497
 20
819.6852163884864
 30
0.0
 42
0.4142135623730951
  0
VERTEX
  5
882
  8
CUT
 10
1511.351174777497
 20
821.6852163884864
 30
0.0
 42
0.4142135623730951
  0
SEQEND
  5
FC3
  8
CUT
  0
POLYLINE
  5
29B
  8
CUT
 66
     1
 10
0.0
 20
0.0
 30
0.0
 70
     1
  0
VERTEX
  5
883
  8
CUT
 10
1782.814783611514
 20
546.2216075544692
 30
0.0
 42
0.4142135623730951
  0
VERTEX
  5
884
  8
CUT
 10
1784.814783611514
 20
544.2216075544692
 30
0.0
 42
0.4142135623730951
  0
VERTEX
  5
885
  8
CUT
 10
1786.814783611514
 20
546.2216075544692
 30
0.0
 42
0.4142135623730951
  0
VERTEX
  5
886
  8
CUT
 10
1784.814783611514
 20
548.2216075544692
 30
0.0
 42
0.4142135623730951
  0
SEQEND
  5
FC4
  8
CUT
  0
POLYLINE
  5
29C
  8
CUT
 66
     1
 10
0.0
 20
0.0
 30
0.0
 70
     1
  0
VERTEX
  5
887
  8
CUT
 10
1857.814783611514
 20
546.2216075544692
 30
0.0
 42
0.4142135623730951
  0
VERTEX
  5
888
  8
CUT
 10
1859.814783611514
 20
544.2216075544692
 30
0.0
 42
0.4142135623730951
  0
VERTEX
  5
889
  8
CUT
 10
1861.814783611514
 20
546.2216075544692
 30
0.0
 42
0.4142135623730951
  0
VERTEX
  5
88A
  8
CUT
 10
1859.814783611514
 20
548.2216075544692
 30
0.0
 42
0.4142135623730951
  0
SEQEND
  5
FC5
  8
CUT
  0
POLYLINE
  5
29D
  8
CUT
 66
     1
 10
0.0
 20
0.0
 30
0.0
 70
     1
  0
VERTEX
  5
88B
  8
CUT
 10
1906.278392445531
 20
594.6852163884862
 30
0.0
 42
0.4142135623730951
  0
VERTEX
  5
88C
  8
CUT
 10
1908.278392445531
 20
592.6852163884862
 30
0.0
 42
0.4142135623730951
  0
VERTEX
  5
88D
  8
CUT
 10
1910.278392445531
 20
594.6852163884862
 30
0.0
 42
0.4142135623730951
  0
VERTEX
  5
88E
  8
CUT
 10
1908.278392445531
 20
596.6852163884862
 30
0.0
 42
0.4142135623730951
  0
SEQEND
  5
FC6
  8
CUT
  0
POLYLINE
  5
29E
  8
CUT
 66
     1
 10
0.0
 20
0.0
 30
0.0
 70
     1
  0
VERTEX
  5
88F
  8
CUT
 10
1906.278392445531
 20
669.6852163884862
 30
0.0
 42
0.4142135623730951
  0
VERTEX
  5
890
  8
CUT
 10
1908.278392445531
 20
667.6852163884862
 30
0.0
 42
0.4142135623730951
  0
VERTEX
  5
891
  8
CUT
 10
1910.278392445531
 20
669.6852163884862
 30
0.0
 42
0.4142135623730951
  0
VERTEX
  5
892
  8
CUT
 10
1908.278392445531
 20
671.6852163884862
 30
0.0
 42
0.4142135623730951
  0
SEQEND
  5
FC7
  8
CUT
  0
POLYLINE
  5
29F
  8
CUT
 66
     1
 10
0.0
 20
0.0
 30
0.0
 70
     1
  0
VERTEX
  5
893
  8
CUT
 10
1632.814783611514
 20
546.2216075544692
 30
0.0
 42
0.4142135623730951
  0
VERTEX
  5
894
  8
CUT
 10
1634.814783611514
 20
544.2216075544692
 30
0.0
 42
0.4142135623730951
  0
VERTEX
  5
895
  8
CUT
 10
1636.814783611514
 20
546.2216075544692
 30
0.0
 42
0.4142135623730951
  0
VERTEX
  5
896
  8
CUT
 10
1634.814783611514
 20
548.2216075544692
 30
0.0
 42
0.4142135623730951
  0
SEQEND
  5
FC8
  8
CUT
  0
POLYLINE
  5
2A0
  8
CUT
 66
     1
 10
0.0
 20
0.0
 30
0.0
 70
     1
  0
VERTEX
  5
897
  8
CUT
 10
1707.814783611514
 20
546.2216075544693
 30
0.0
 42
0.4142135623730951
  0
VERTEX
  5
898
  8
CUT
 10
1709.814783611514
 20
544.2216075544693
 30
0.0
 42
0.4142135623730951
  0
VERTEX
  5
899
  8
CUT
 10
1711.814783611514
 20
546.2216075544693
 30
0.0
 42
0.4142135623730951
  0
VERTEX
  5
89A
  8
CUT
 10
1709.814783611514
 20
548.2216075544693
 30
0.0
 42
0.4142135623730951
  0
SEQEND
  5
FC9
  8
CUT
  0
POLYLINE
  5
2A1
  8
CUT
 66
     1
 10
0.0
 20
0.0
 30
0.0
 70
     1
  0
VERTEX
  5
89B
  8
CUT
 10
1557.814783611514
 20
546.2216075544693
 30
0.0
 42
0.4142135623730951
  0
VERTEX
  5
89C
  8
CUT
 10
1559.814783611514
 20
544.2216075544693
 30
0.0
 42
0.4142135623730951
  0
VERTEX
  5
89D
  8
CUT
 10
1561.814783611514
 20
546.2216075544693
 30
0.0
 42
0.4142135623730951
  0
VERTEX
  5
89E
  8
CUT
 10
1559.814783611514
 20
548.2216075544693
 30
0.0
 42
0.4142135623730951
  0
SEQEND
  5
FCA
  8
CUT
  0
POLYLINE
  5
2A2
  8
CUT
 66
     1
 10
0.0
 20
0.0
 30
0.0
 70
     1
  0
VERTEX
  5
89F
  8
CUT
 10
1857.814783611514
 20
943.1488252225033
 30
0.0
 42
0.4142135623730951
  0
VERTEX
  5
8A0
  8
CUT
 10
1859.814783611514
 20
941.1488252225033
 30
0.0
 42
0.4142135623730951
  0
VERTEX
  5
8A1
  8
CUT
 10
1861.814783611514
 20
943.1488252225033
 30
0.0
 42
0.4142135623730951
  0
VERTEX
  5
8A2
  8
CUT
 10
1859.814783611514
 20
945.1488252225033
 30
0.0
 42
0.4142135623730951
  0
SEQEND
  5
FCB
  8
CUT
  0
POLYLINE
  5
2A3
  8
CUT
 66
     1
 10
0.0
 20
0.0
 30
0.0
 70
     1
  0
VERTEX
  5
8A3
  8
CUT
 10
1906.278392445531
 20
819.6852163884862
 30
0.0
 42
0.4142135623730951
  0
VERTEX
  5
8A4
  8
CUT
 10
1908.278392445531
 20
817.6852163884862
 30
0.0
 42
0.4142135623730951
  0
VERTEX
  5
8A5
  8
CUT
 10
1910.278392445531
 20
819.6852163884862
 30
0.0
 42
0.4142135623730951
  0
VERTEX
  5
8A6
  8
CUT
 10
1908.278392445531
 20
821.6852163884862
 30
0.0
 42
0.4142135623730951
  0
SEQEND
  5
FCC
  8
CUT
  0
POLYLINE
  5
2A4
  8
CUT
 66
     1
 10
0.0
 20
0.0
 30
0.0
 70
     1
  0
VERTEX
  5
8A7
  8
CUT
 10
1906.278392445531
 20
744.6852163884862
 30
0.0
 42
0.4142135623730951
  0
VERTEX
  5
8A8
  8
CUT
 10
1908.278392445531
 20
742.6852163884862
 30
0.0
 42
0.4142135623730951
  0
VERTEX
  5
8A9
  8
CUT
 10
1910.278392445531
 20
744.6852163884862
 30
0.0
 42
0.4142135623730951
  0
VERTEX
  5
8AA
  8
CUT
 10
1908.278392445531
 20
746.6852163884862
 30
0.0
 42
0.4142135623730951
  0
SEQEND
  5
FCD
  8
CUT
  0
POLYLINE
  5
2A5
  8
CUT
 66
     1
 10
0.0
 20
0.0
 30
0.0
 70
     1
  0
VERTEX
  5
8AB
  8
CUT
 10
1906.278392445531
 20
894.6852163884862
 30
0.0
 42
0.4142135623730951
  0
VERTEX
  5
8AC
  8
CUT
 10
1908.278392445531
 20
892.6852163884862
 30
0.0
 42
0.4142135623730951
  0
VERTEX
  5
8AD
  8
CUT
 10
1910.278392445531
 20
894.6852163884862
 30
0.0
 42
0.4142135623730951
  0
VERTEX
  5
8AE
  8
CUT
 10
1908.278392445531
 20
896.6852163884862
 30
0.0
 42
0.4142135623730951
  0
SEQEND
  5
FCE
  8
CUT
  0
POLYLINE
  5
2A6
  8
CUT
 66
     1
 10
0.0
 20
0.0
 30
0.0
 70
     1
  0
VERTEX
  5
8AF
  8
CUT
 10
1509.351174777497
 20
669.6852163884864
 30
0.0
 42
0.4142135623730951
  0
VERTEX
  5
8B0
  8
CUT
 10
1511.351174777497
 20
667.6852163884864
 30
0.0
 42
0.4142135623730951
  0
VERTEX
  5
8B1
  8
CUT
 10
1513.351174777497
 20
669.6852163884864
 30
0.0
 42
0.4142135623730951
  0
VERTEX
  5
8B2
  8
CUT
 10
1511.351174777497
 20
671.6852163884864
 30
0.0
 42
0.4142135623730951
  0
SEQEND
  5
FCF
  8
CUT
  0
POLYLINE
  5
2A7
  8
CUT
 66
     1
 10
0.0
 20
0.0
 30
0.0
 70
     1
  0
VERTEX
  5
8B3
  8
CUT
 10
1509.351174777497
 20
594.6852163884864
 30
0.0
 42
0.4142135623730951
  0
VERTEX
  5
8B4
  8
CUT
 10
1511.351174777497
 20
592.6852163884864
 30
0.0
 42
0.4142135623730951
  0
VERTEX
  5
8B5
  8
CUT
 10
1513.351174777497
 20
594.6852163884864
 30
0.0
 42
0.4142135623730951
  0
VERTEX
  5
8B6
  8
CUT
 10
1511.351174777497
 20
596.6852163884864
 30
0.0
 42
0.4142135623730951
  0
SEQEND
  5
FD0
  8
CUT
  0
POLYLINE
  5
2A8
  8
CUT
 66
     1
 10
0.0
 20
0.0
 30
0.0
 70
     1
  0
VERTEX
  5
8B7
  8
CUT
 10
1557.814783611514
 20
943.1488252225035
 30
0.0
 42
0.4142135623730951
  0
VERTEX
  5
8B8
  8
CUT
 10
1559.814783611514
 20
941.1488252225035
 30
0.0
 42
0.4142135623730951
  0
VERTEX
  5
8B9
  8
CUT
 10
1561.814783611514
 20
943.1488252225035
 30
0.0
 42
0.4142135623730951
  0
VERTEX
  5
8BA
  8
CUT
 10
1559.814783611514
 20
945.1488252225035
 30
0.0
 42
0.4142135623730951
  0
SEQEND
  5
FD1
  8
CUT
  0
POLYLINE
  5
2A9
  8
CUT
 66
     1
 10
0.0
 20
0.0
 30
0.0
 70
     1
  0
VERTEX
  5
8BB
  8
CUT
 10
1509.351174777497
 20
744.6852163884864
 30
0.0
 42
0.4142135623730951
  0
VERTEX
  5
8BC
  8
CUT
 10
1511.351174777497
 20
742.6852163884864
 30
0.0
 42
0.4142135623730951
  0
VERTEX
  5
8BD
  8
CUT
 10
1513.351174777497
 20
744.6852163884864
 30
0.0
 42
0.4142135623730951
  0
VERTEX
  5
8BE
  8
CUT
 10
1511.351174777497
 20
746.6852163884864
 30
0.0
 42
0.4142135623730951
  0
SEQEND
  5
FD2
  8
CUT
  0
POLYLINE
  5
2AA
  8
CUT
 66
     1
 10
0.0
 20
0.0
 30
0.0
 70
     1
  0
VERTEX
  5
8BF
  8
CUT
 10
1571.741161635874
 20
525.5000000000003
 30
0.0
 42
0.4142135623731011
  0
VERTEX
  5
8C0
  8
CUT
 10
1567.741161635874
 20
521.5000000000003
 30
0.0
  0
VERTEX
  5
8C1
  8
CUT
 10
1567.741161635874
 20
509.6805807426074
 30
0.0
 42
0.2668618522089745
  0
VERTEX
  5
8C2
  8
CUT
 10
1569.727116977981
 20
506.2246258650086
 30
0.0
 42
-0.577927868306691
  0
VERTEX
  5
8C3
  8
CUT
 10
1569.693452779281
 20
499.3897174014602
 30
0.0
 42
0.2479756850728205
  0
VERTEX
  5
8C4
  8
CUT
 10
1567.686374665706
 20
496.236536537351
 30
0.0
 42
-0.3676934694025438
  0
VERTEX
  5
8C5
  8
CUT
 10
1552.26346346265
 20
480.8136253342944
 30
0.0
 42
0.2479756850728875
  0
VERTEX
  5
8C6
  8
CUT
 10
1549.11028259854
 20
478.8065472207199
 30
0.0
 42
-0.5779278683066288
  0
VERTEX
  5
8C7
  8
CUT
 10
1542.275374134993
 20
478.7728830220199
 30
0.0
 42
0.2668618522090569
  0
VERTEX
  5
8C8
  8
CUT
 10
1538.819419257394
 20
480.7588383641269
 30
0.0
  0
VERTEX
  5
8C9
  8
CUT
 10
1527.0
 20
480.7588383641268
 30
0.0
 42
0.4142135623730856
  0
VERTEX
  5
8CA
  8
CUT
 10
1523.0
 20
476.7588383641268
 30
0.0
  0
VERTEX
  5
8CB
  8
CUT
 10
1523.0
 20
237.5883332432714
 30
0.0
 42
0.4142135623731065
  0
VERTEX
  5
8CC
  8
CUT
 10
1527.0
 20
233.5883332432714
 30
0.0
  0
VERTEX
  5
8CD
  8
CUT
 10
1538.819419257392
 20
233.5883332432714
 30
0.0
 42
0.2668618522090898
  0
VERTEX
  5
8CE
  8
CUT
 10
1542.275374134992
 20
235.5742885853786
 30
0.0
 42
-0.5779278683066916
  0
VERTEX
  5
8CF
  8
CUT
 10
1549.11028259854
 20
235.5406243866785
 30
0.0
 42
0.2479756850728873
  0
VERTEX
  5
8D0
  8
CUT
 10
1552.263463462649
 20
233.5335462731039
 30
0.0
 42
-0.3676934694025453
  0
VERTEX
  5
8D1
  8
CUT
 10
1567.686374665706
 20
218.1106350700472
 30
0.0
 42
0.2479756850729324
  0
VERTEX
  5
8D2
  8
CUT
 10
1569.693452779281
 20
214.9574542059379
 30
0.0
 42
-0.5779278683066762
  0
VERTEX
  5
8D3
  8
CUT
 10
1569.72711697798
 20
208.1225457423914
 30
0.0
 42
0.2668618522090689
  0
VERTEX
  5
8D4
  8
CUT
 10
1567.741161635874
 20
204.6665908647913
 30
0.0
  0
VERTEX
  5
8D5
  8
CUT
 10
1567.741161635874
 20
192.8471716073977
 30
0.0
 42
0.4142135623730881
  0
VERTEX
  5
8D6
  8
CUT
 10
1571.741161635874
 20
188.8471716073977
 30
0.0
  0
VERTEX
  5
8D7
  8
CUT
 10
1810.911666756729
 20
188.8471716073977
 30
0.0
 42
0.4142135623731065
  0
VERTEX
  5
8D8
  8
CUT
 10
1814.911666756729
 20
192.8471716073977
 30
0.0
  0
VERTEX
  5
8D9
  8
CUT
 10
1814.911666756729
 20
204.6665908647905
 30
0.0
 42
0.2668618522090026
  0
VERTEX
  5
8DA
  8
CUT
 10
1812.925711414622
 20
208.1225457423897
 30
0.0
 42
-0.5779278683066902
  0
VERTEX
  5
8DB
  8
CUT
 10
1812.959375613322
 20
214.9574542059378
 30
0.0
 42
0.2479756850728995
  0
VERTEX
  5
8DC
  8
CUT
 10
1814.966453726897
 20
218.1106350700471
 30
0.0
 42
-0.367693469402544
  0
VERTEX
  5
8DD
  8
CUT
 10
1830.389364929953
 20
233.5335462731037
 30
0.0
 42
0.2479756850728306
  0
VERTEX
  5
8DE
  8
CUT
 10
1833.542545794064
 20
235.5406243866775
 30
0.0
 42
-0.5779278683065097
  0
VERTEX
  5
8DF
  8
CUT
 10
1840.377454257612
 20
235.574288585379
 30
0.0
 42
0.2668618522090898
  0
VERTEX
  5
8E0
  8
CUT
 10
1843.833409135211
 20
233.5883332432712
 30
0.0
  0
VERTEX
  5
8E1
  8
CUT
 10
1855.652828392602
 20
233.5883332432713
 30
0.0
 42
0.4142135623731023
  0
VERTEX
  5
8E2
  8
CUT
 10
1859.652828392602
 20
237.5883332432713
 30
0.0
  0
VERTEX
  5
8E3
  8
CUT
 10
1859.652828392602
 20
476.7588383641267
 30
0.0
 42
0.4142135623730994
  0
VERTEX
  5
8E4
  8
CUT
 10
1855.652828392602
 20
480.7588383641266
 30
0.0
  0
VERTEX
  5
8E5
  8
CUT
 10
1843.833409135213
 20
480.7588383641266
 30
0.0
 42
0.2668618522090853
  0
VERTEX
  5
8E6
  8
CUT
 10
1840.377454257614
 20
478.7728830220186
 30
0.0
 42
-0.5779278683065084
  0
VERTEX
  5
8E7
  8
CUT
 10
1833.542545794064
 20
478.8065472207202
 30
0.0
 42
0.2479756850727967
  0
VERTEX
  5
8E8
  8
CUT
 10
1830.389364929953
 20
480.8136253342942
 30
0.0
 42
-0.3676934694025369
  0
VERTEX
  5
8E9
  8
CUT
 10
1814.966453726897
 20
496.2365365373509
 30
0.0
 42
0.2479756850729234
  0
VERTEX
  5
8EA
  8
CUT
 10
1812.959375613322
 20
499.3897174014605
 30
0.0
 42
-0.5779278683066283
  0
VERTEX
  5
8EB
  8
CUT
 10
1812.925711414622
 20
506.224625865008
 30
0.0
 42
0.2668618522090331
  0
VERTEX
  5
8EC
  8
CUT
 10
1814.911666756729
 20
509.6805807426072
 30
0.0
  0
VERTEX
  5
8ED
  8
CUT
 10
1814.911666756729
 20
521.5000000000005
 30
0.0
 42
0.414213562373075
  0
VERTEX
  5
8EE
  8
CUT
 10
1810.911666756729
 20
525.5000000000003
 30
0.0
  0
SEQEND
  5
FD3
  8
CUT
  0
POLYLINE
  5
2AB
  8
CUT
 66
     1
 10
0.0
 20
0.0
 30
0.0
 70
     1
  0
VERTEX
  5
8EF
  8
CUT
 10
1631.326414196301
 20
432.173585803699
 30
0.0
 42
0.4142135623730951
  0
VERTEX
  5
8F0
  8
CUT
 10
1616.326414196301
 20
447.173585803699
 30
0.0
 42
0.4142135623730951
  0
VERTEX
  5
8F1
  8
CUT
 10
1601.326414196301
 20
432.173585803699
 30
0.0
 42
0.4142135623730951
  0
VERTEX
  5
8F2
  8
CUT
 10
1616.326414196301
 20
417.173585803699
 30
0.0
 42
0.4142135623730951
  0
SEQEND
  5
FD4
  8
CUT
  0
POLYLINE
  5
2AC
  8
CUT
 66
     1
 10
0.0
 20
0.0
 30
0.0
 70
     1
  0
VERTEX
  5
8F3
  8
CUT
 10
1631.326414196301
 20
282.1735858036991
 30
0.0
 42
0.4142135623730951
  0
VERTEX
  5
8F4
  8
CUT
 10
1616.326414196301
 20
297.1735858036991
 30
0.0
 42
0.4142135623730951
  0
VERTEX
  5
8F5
  8
CUT
 10
1601.326414196301
 20
282.1735858036991
 30
0.0
 42
0.4142135623730951
  0
VERTEX
  5
8F6
  8
CUT
 10
1616.326414196301
 20
267.1735858036991
 30
0.0
 42
0.4142135623730951
  0
SEQEND
  5
FD5
  8
CUT
  0
POLYLINE
  5
2AD
  8
CUT
 66
     1
 10
0.0
 20
0.0
 30
0.0
 70
     1
  0
VERTEX
  5
8F7
  8
CUT
 10
1781.326414196301
 20
432.173585803699
 30
0.0
 42
0.4142135623730951
  0
VERTEX
  5
8F8
  8
CUT
 10
1766.326414196301
 20
447.173585803699
 30
0.0
 42
0.4142135623730951
  0
VERTEX
  5
8F9
  8
CUT
 10
1751.326414196301
 20
432.173585803699
 30
0.0
 42
0.4142135623730951
  0
VERTEX
  5
8FA
  8
CUT
 10
1766.326414196301
 20
417.173585803699
 30
0.0
 42
0.4142135623730951
  0
SEQEND
  5
FD6
  8
CUT
  0
POLYLINE
  5
2AE
  8
CUT
 66
     1
 10
0.0
 20
0.0
 30
0.0
 70
     1
  0
VERTEX
  5
8FB
  8
CUT
 10
1781.326414196301
 20
282.173585803699
 30
0.0
 42
0.4142135623730951
  0
VERTEX
  5
8FC
  8
CUT
 10
1766.326414196301
 20
297.173585803699
 30
0.0
 42
0.4142135623730951
  0
VERTEX
  5
8FD
  8
CUT
 10
1751.326414196301
 20
282.173585803699
 30
0.0
 42
0.4142135623730951
  0
VERTEX
  5
8FE
  8
CUT
 10
1766.326414196301
 20
267.173585803699
 30
0.0
 42
0.4142135623730951
  0
SEQEND
  5
FD7
  8
CUT
  0
POLYLINE
  5
2AF
  8
CUT
 66
     1
 10
0.0
 20
0.0
 30
0.0
 70
     1
  0
VERTEX
  5
8FF
  8
CUT
 10
1541.73891665728
 20
457.8704121196607
 30
0.0
 42
-0.4142135623730985
  0
VERTEX
  5
900
  8
CUT
 10
1545.683129779513
 20
461.8146252418939
 30
0.0
 42
-0.4142135623730964
  0
VERTEX
  5
901
  8
CUT
 10
1549.627342901746
 20
457.8704121196606
 30
0.0
  0
VERTEX
  5
902
  8
CUT
 10
1549.627342901745
 20
435.902422588849
 30
0.0
 42
-0.9999999999999316
  0
VERTEX
  5
903
  8
CUT
 10
1541.738916657279
 20
435.9024225888489
 30
0.0
  0
SEQEND
  5
FD8
  8
CUT
  0
POLYLINE
  5
2B0
  8
CUT
 66
     1
 10
0.0
 20
0.0
 30
0.0
 70
     1
  0
VERTEX
  5
904
  8
CUT
 10
1541.73891665728
 20
413.0139963443827
 30
0.0
  0
VERTEX
  5
905
  8
CUT
 10
1541.738916657279
 20
391.0460068135711
 30
0.0
 42
0.9999999999999388
  0
VERTEX
  5
906
  8
CUT
 10
1549.627342901745
 20
391.0460068135712
 30
0.0
  0
VERTEX
  5
907
  8
CUT
 10
1549.627342901746
 20
413.0139963443828
 30
0.0
 42
0.4142135623730948
  0
VERTEX
  5
908
  8
CUT
 10
1545.683129779512
 20
416.958209466616
 30
0.0
 42
0.4142135623730949
  0
SEQEND
  5
FD9
  8
CUT
  0
POLYLINE
  5
2B1
  8
CUT
 66
     1
 10
0.0
 20
0.0
 30
0.0
 70
     1
  0
VERTEX
  5
909
  8
CUT
 10
1541.738916657281
 20
368.1575805691051
 30
0.0
 42
-0.4142135623730949
  0
VERTEX
  5
90A
  8
CUT
 10
1545.683129779514
 20
372.1017936913382
 30
0.0
 42
-0.4142135623730948
  0
VERTEX
  5
90B
  8
CUT
 10
1549.627342901746
 20
368.157580569105
 30
0.0
  0
VERTEX
  5
90C
  8
CUT
 10
1549.627342901746
 20
346.1895910382934
 30
0.0
 42
-0.9999999999999352
  0
VERTEX
  5
90D
  8
CUT
 10
1541.738916657279
 20
346.1895910382933
 30
0.0
  0
SEQEND
  5
FDA
  8
CUT
  0
POLYLINE
  5
2B2
  8
CUT
 66
     1
 10
0.0
 20
0.0
 30
0.0
 70
     1
  0
VERTEX
  5
90E
  8
CUT
 10
1541.73891665728
 20
323.3011647938272
 30
0.0
 42
-0.4142135623731021
  0
VERTEX
  5
90F
  8
CUT
 10
1545.683129779513
 20
327.2453779160604
 30
0.0
 42
-0.414213562373102
  0
VERTEX
  5
910
  8
CUT
 10
1549.627342901746
 20
323.3011647938272
 30
0.0
  0
VERTEX
  5
911
  8
CUT
 10
1549.627342901744
 20
301.3331752630155
 30
0.0
 42
-0.9999999999999352
  0
VERTEX
  5
912
  8
CUT
 10
1541.738916657278
 20
301.3331752630154
 30
0.0
  0
SEQEND
  5
FDB
  8
CUT
  0
POLYLINE
  5
2B3
  8
CUT
 66
     1
 10
0.0
 20
0.0
 30
0.0
 70
     1
  0
VERTEX
  5
913
  8
CUT
 10
1833.025485490862
 20
457.8704121196604
 30
0.0
 42
-0.9999999999999369
  0
VERTEX
  5
914
  8
CUT
 10
1840.913911735326
 20
457.8704121196604
 30
0.0
  0
VERTEX
  5
915
  8
CUT
 10
1840.913911735325
 20
435.9024225888488
 30
0.0
 42
-0.4142135623731129
  0
VERTEX
  5
916
  8
CUT
 10
1836.969698613094
 20
431.9582094666155
 30
0.0
 42
-0.4142135623731129
  0
VERTEX
  5
917
  8
CUT
 10
1833.025485490859
 20
435.9024225888488
 30
0.0
  0
SEQEND
  5
FDC
  8
CUT
  0
POLYLINE
  5
2B4
  8
CUT
 66
     1
 10
0.0
 20
0.0
 30
0.0
 70
     1
  0
VERTEX
  5
918
  8
CUT
 10
1833.025485490863
 20
413.0139963443826
 30
0.0
 42
-0.9999999999999352
  0
VERTEX
  5
919
  8
CUT
 10
1840.913911735326
 20
413.0139963443826
 30
0.0
  0
VERTEX
  5
91A
  8
CUT
 10
1840.913911735325
 20
391.046006813571
 30
0.0
 42
-0.4142135623730877
  0
VERTEX
  5
91B
  8
CUT
 10
1836.969698613094
 20
387.1017936913377
 30
0.0
 42
-0.4142135623730876
  0
VERTEX
  5
91C
  8
CUT
 10
1833.025485490859
 20
391.046006813571
 30
0.0
  0
SEQEND
  5
FDD
  8
CUT
  0
POLYLINE
  5
2B5
  8
CUT
 66
     1
 10
0.0
 20
0.0
 30
0.0
 70
     1
  0
VERTEX
  5
91D
  8
CUT
 10
1833.025485490862
 20
368.1575805691047
 30
0.0
 42
-0.9999999999999388
  0
VERTEX
  5
91E
  8
CUT
 10
1840.913911735325
 20
368.1575805691048
 30
0.0
  0
VERTEX
  5
91F
  8
CUT
 10
1840.913911735325
 20
346.1895910382931
 30
0.0
 42
-0.4142135623731092
  0
VERTEX
  5
920
  8
CUT
 10
1836.969698613093
 20
342.2453779160599
 30
0.0
 42
-0.4142135623731092
  0
VERTEX
  5
921
  8
CUT
 10
1833.025485490859
 20
346.1895910382931
 30
0.0
  0
SEQEND
  5
FDE
  8
CUT
  0
POLYLINE
  5
2B6
  8
CUT
 66
     1
 10
0.0
 20
0.0
 30
0.0
 70
     1
  0
VERTEX
  5
922
  8
CUT
 10
1725.198835206173
 20
215.4745145091437
 30
0.0
  0
VERTEX
  5
923
  8
CUT
 10
1747.166824736985
 20
215.4745145091422
 30
0.0
 42
-1.0
  0
VERTEX
  5
924
  8
CUT
 10
1747.166824736985
 20
207.586088264676
 30
0.0
  0
VERTEX
  5
925
  8
CUT
 10
1725.198835206173
 20
207.5860882646777
 30
0.0
 42
-1.0
  0
SEQEND
  5
FDF
  8
CUT
  0
POLYLINE
  5
2B7
  8
CUT
 66
     1
 10
0.0
 20
0.0
 30
0.0
 70
     1
  0
VERTEX
  5
926
  8
CUT
 10
1541.73891665728
 20
278.4447490185494
 30
0.0
 42
-1.0
  0
VERTEX
  5
927
  8
CUT
 10
1549.627342901746
 20
278.4447490185493
 30
0.0
  0
VERTEX
  5
928
  8
CUT
 10
1549.627342901745
 20
256.4767594877377
 30
0.0
 42
-0.9999999999999352
  0
VERTEX
  5
929
  8
CUT
 10
1541.738916657279
 20
256.4767594877377
 30
0.0
  0
SEQEND
  5
FE0
  8
CUT
  0
POLYLINE
  5
2B8
  8
CUT
 66
     1
 10
0.0
 20
0.0
 30
0.0
 70
     1
  0
VERTEX
  5
92A
  8
CUT
 10
1770.055250981451
 20
215.4745145091438
 30
0.0
  0
VERTEX
  5
92B
  8
CUT
 10
1792.023240512262
 20
215.4745145091428
 30
0.0
 42
-1.0
  0
VERTEX
  5
92C
  8
CUT
 10
1792.023240512262
 20
207.5860882646766
 30
0.0
  0
VERTEX
  5
92D
  8
CUT
 10
1770.055250981451
 20
207.5860882646776
 30
0.0
 42
-1.0
  0
SEQEND
  5
FE1
  8
CUT
  0
POLYLINE
  5
2B9
  8
CUT
 66
     1
 10
0.0
 20
0.0
 30
0.0
 70
     1
  0
VERTEX
  5
92E
  8
CUT
 10
1680.342419430895
 20
215.4745145091437
 30
0.0
  0
VERTEX
  5
92F
  8
CUT
 10
1702.310408961707
 20
215.4745145091435
 30
0.0
 42
-1.0
  0
VERTEX
  5
930
  8
CUT
 10
1702.310408961707
 20
207.5860882646773
 30
0.0
  0
VERTEX
  5
931
  8
CUT
 10
1680.342419430895
 20
207.5860882646778
 30
0.0
 42
-1.0
  0
SEQEND
  5
FE2
  8
CUT
  0
POLYLINE
  5
2BA
  8
CUT
 66
     1
 10
0.0
 20
0.0
 30
0.0
 70
     1
  0
VERTEX
  5
932
  8
CUT
 10
1635.486003655618
 20
506.7610833427204
 30
0.0
  0
VERTEX
  5
933
  8
CUT
 10
1657.45399318643
 20
506.7610833427215
 30
0.0
 42
-0.9999999999999946
  0
VERTEX
  5
934
  8
CUT
 10
1657.45399318643
 20
498.8726570982553
 30
0.0
  0
VERTEX
  5
935
  8
CUT
 10
1635.486003655618
 20
498.8726570982556
 30
0.0
 42
-0.9999999999999946
  0
SEQEND
  5
FE3
  8
CUT
  0
POLYLINE
  5
2BB
  8
CUT
 66
     1
 10
0.0
 20
0.0
 30
0.0
 70
     1
  0
VERTEX
  5
936
  8
CUT
 10
1770.055250981452
 20
506.7610833427207
 30
0.0
  0
VERTEX
  5
937
  8
CUT
 10
1792.023240512263
 20
506.7610833427207
 30
0.0
 42
-0.9999999999999946
  0
VERTEX
  5
938
  8
CUT
 10
1792.023240512263
 20
498.8726570982544
 30
0.0
  0
VERTEX
  5
939
  8
CUT
 10
1770.055250981452
 20
498.8726570982561
 30
0.0
 42
-0.9999999999999946
  0
SEQEND
  5
FE4
  8
CUT
  0
POLYLINE
  5
2BC
  8
CUT
 66
     1
 10
0.0
 20
0.0
 30
0.0
 70
     1
  0
VERTEX
  5
93A
  8
CUT
 10
1590.62958788034
 20
506.7610833427204
 30
0.0
  0
VERTEX
  5
93B
  8
CUT
 10
1612.597577411152
 20
506.7610833427216
 30
0.0
 42
-0.9999999999999946
  0
VERTEX
  5
93C
  8
CUT
 10
1612.597577411152
 20
498.8726570982553
 30
0.0
  0
VERTEX
  5
93D
  8
CUT
 10
1590.62958788034
 20
498.8726570982554
 30
0.0
 42
-0.9999999999999946
  0
SEQEND
  5
FE5
  8
CUT
  0
POLYLINE
  5
2BD
  8
CUT
 66
     1
 10
0.0
 20
0.0
 30
0.0
 70
     1
  0
VERTEX
  5
93E
  8
CUT
 10
1590.62958788034
 20
215.4745145091435
 30
0.0
  0
VERTEX
  5
93F
  8
CUT
 10
1612.597577411151
 20
215.474514509143
 30
0.0
 42
-1.0
  0
VERTEX
  5
940
  8
CUT
 10
1612.597577411151
 20
207.5860882646767
 30
0.0
  0
VERTEX
  5
941
  8
CUT
 10
1590.62958788034
 20
207.5860882646776
 30
0.0
 42
-1.0
  0
SEQEND
  5
FE6
  8
CUT
  0
POLYLINE
  5
2BE
  8
CUT
 66
     1
 10
0.0
 20
0.0
 30
0.0
 70
     1
  0
VERTEX
  5
942
  8
CUT
 10
1725.198835206173
 20
506.7610833427207
 30
0.0
  0
VERTEX
  5
943
  8
CUT
 10
1747.166824736985
 20
506.7610833427213
 30
0.0
 42
-0.9999999999999946
  0
VERTEX
  5
944
  8
CUT
 10
1747.166824736985
 20
498.872657098255
 30
0.0
  0
VERTEX
  5
945
  8
CUT
 10
1725.198835206174
 20
498.8726570982557
 30
0.0
 42
-0.9999999999999946
  0
SEQEND
  5
FE7
  8
CUT
  0
POLYLINE
  5
2BF
  8
CUT
 66
     1
 10
0.0
 20
0.0
 30
0.0
 70
     1
  0
VERTEX
  5
946
  8
CUT
 10
1635.486003655618
 20
215.4745145091436
 30
0.0
  0
VERTEX
  5
947
  8
CUT
 10
1657.453993186429
 20
215.474514509143
 30
0.0
 42
-1.0
  0
VERTEX
  5
948
  8
CUT
 10
1657.453993186429
 20
207.5860882646767
 30
0.0
  0
VERTEX
  5
949
  8
CUT
 10
1635.486003655618
 20
207.5860882646779
 30
0.0
 42
-1.0
  0
SEQEND
  5
FE8
  8
CUT
  0
POLYLINE
  5
2C0
  8
CUT
 66
     1
 10
0.0
 20
0.0
 30
0.0
 70
     1
  0
VERTEX
  5
94A
  8
CUT
 10
1680.342419430896
 20
506.7610833427206
 30
0.0
  0
VERTEX
  5
94B
  8
CUT
 10
1702.310408961707
 20
506.7610833427213
 30
0.0
 42
-0.9999999999999946
  0
VERTEX
  5
94C
  8
CUT
 10
1702.310408961707
 20
498.872657098255
 30
0.0
  0
VERTEX
  5
94D
  8
CUT
 10
1680.342419430896
 20
498.8726570982558
 30
0.0
 42
-0.9999999999999946
  0
SEQEND
  5
FE9
  8
CUT
  0
POLYLINE
  5
2C1
  8
CUT
 66
     1
 10
0.0
 20
0.0
 30
0.0
 70
     1
  0
VERTEX
  5
94E
  8
CUT
 10
1833.025485490862
 20
323.3011647938269
 30
0.0
 42
-0.9999999999999352
  0
VERTEX
  5
94F
  8
CUT
 10
1840.913911735326
 20
323.301164793827
 30
0.0
  0
VERTEX
  5
950
  8
CUT
 10
1840.913911735326
 20
301.3331752630153
 30
0.0
 42
-1.0
  0
VERTEX
  5
951
  8
CUT
 10
1833.025485490859
 20
301.3331752630153
 30
0.0
  0
SEQEND
  5
FEA
  8
CUT
  0
POLYLINE
  5
2C2
  8
CUT
 66
     1
 10
0.0
 20
0.0
 30
0.0
 70
     1
  0
VERTEX
  5
952
  8
CUT
 10
1833.025485490862
 20
278.4447490185491
 30
0.0
 42
-0.999999999999928
  0
VERTEX
  5
953
  8
CUT
 10
1840.913911735325
 20
278.4447490185492
 30
0.0
  0
VERTEX
  5
954
  8
CUT
 10
1840.913911735325
 20
256.4767594877375
 30
0.0
 42
-1.0
  0
VERTEX
  5
955
  8
CUT
 10
1833.025485490859
 20
256.4767594877375
 30
0.0
  0
SEQEND
  5
FEB
  8
CUT
  0
POLYLINE
  5
2C3
  8
CUT
 66
     1
 10
0.0
 20
0.0
 30
0.0
 70
     1
  0
VERTEX
  5
956
  8
CUT
 10
1532.351174777497
 20
244.673585803699
 30
0.0
 42
0.4142135623730951
  0
VERTEX
  5
957
  8
CUT
 10
1530.351174777497
 20
246.673585803699
 30
0.0
 42
0.4142135623730951
  0
VERTEX
  5
958
  8
CUT
 10
1528.351174777497
 20
244.673585803699
 30
0.0
 42
0.4142135623730951
  0
VERTEX
  5
959
  8
CUT
 10
1530.351174777497
 20
242.673585803699
 30
0.0
 42
0.4142135623730951
  0
SEQEND
  5
FEC
  8
CUT
  0
POLYLINE
  5
2C4
  8
CUT
 66
     1
 10
0.0
 20
0.0
 30
0.0
 70
     1
  0
VERTEX
  5
95A
  8
CUT
 10
1854.301653615106
 20
244.6735858036991
 30
0.0
 42
0.4142135623730951
  0
VERTEX
  5
95B
  8
CUT
 10
1852.301653615106
 20
246.6735858036991
 30
0.0
 42
0.4142135623730951
  0
VERTEX
  5
95C
  8
CUT
 10
1850.301653615106
 20
244.6735858036991
 30
0.0
 42
0.4142135623730951
  0
VERTEX
  5
95D
  8
CUT
 10
1852.301653615106
 20
242.6735858036991
 30
0.0
 42
0.4142135623730951
  0
SEQEND
  5
FED
  8
CUT
  0
POLYLINE
  5
2C5
  8
CUT
 66
     1
 10
0.0
 20
0.0
 30
0.0
 70
     1
  0
VERTEX
  5
95E
  8
CUT
 10
1655.826414196301
 20
196.1983463848944
 30
0.0
 42
0.4142135623730951
  0
VERTEX
  5
95F
  8
CUT
 10
1653.826414196301
 20
198.1983463848944
 30
0.0
 42
0.4142135623730951
  0
VERTEX
  5
960
  8
CUT
 10
1651.826414196301
 20
196.1983463848944
 30
0.0
 42
0.4142135623730951
  0
VERTEX
  5
961
  8
CUT
 10
1653.826414196301
 20
194.1983463848944
 30
0.0
 42
0.4142135623730951
  0
SEQEND
  5
FEE
  8
CUT
  0
POLYLINE
  5
2C6
  8
CUT
 66
     1
 10
0.0
 20
0.0
 30
0.0
 70
     1
  0
VERTEX
  5
962
  8
CUT
 10
1730.826414196301
 20
196.1983463848944
 30
0.0
 42
0.4142135623730951
  0
VERTEX
  5
963
  8
CUT
 10
1728.826414196301
 20
198.1983463848944
 30
0.0
 42
0.4142135623730951
  0
VERTEX
  5
964
  8
CUT
 10
1726.826414196301
 20
196.1983463848944
 30
0.0
 42
0.4142135623730951
  0
VERTEX
  5
965
  8
CUT
 10
1728.826414196301
 20
194.1983463848944
 30
0.0
 42
0.4142135623730951
  0
SEQEND
  5
FEF
  8
CUT
  0
POLYLINE
  5
2C7
  8
CUT
 66
     1
 10
0.0
 20
0.0
 30
0.0
 70
     1
  0
VERTEX
  5
966
  8
CUT
 10
1854.301653615106
 20
319.6735858036992
 30
0.0
 42
0.4142135623730951
  0
VERTEX
  5
967
  8
CUT
 10
1852.301653615106
 20
321.6735858036992
 30
0.0
 42
0.4142135623730951
  0
VERTEX
  5
968
  8
CUT
 10
1850.301653615106
 20
319.6735858036992
 30
0.0
 42
0.4142135623730951
  0
VERTEX
  5
969
  8
CUT
 10
1852.301653615106
 20
317.6735858036992
 30
0.0
 42
0.4142135623730951
  0
SEQEND
  5
FF0
  8
CUT
  0
POLYLINE
  5
2C8
  8
CUT
 66
     1
 10
0.0
 20
0.0
 30
0.0
 70
     1
  0
VERTEX
  5
96A
  8
CUT
 10
1655.826414196301
 20
518.1488252225037
 30
0.0
 42
0.4142135623730951
  0
VERTEX
  5
96B
  8
CUT
 10
1653.826414196301
 20
520.1488252225037
 30
0.0
 42
0.4142135623730951
  0
VERTEX
  5
96C
  8
CUT
 10
1651.826414196301
 20
518.1488252225037
 30
0.0
 42
0.4142135623730951
  0
VERTEX
  5
96D
  8
CUT
 10
1653.826414196301
 20
516.1488252225037
 30
0.0
 42
0.4142135623730951
  0
SEQEND
  5
FF1
  8
CUT
  0
POLYLINE
  5
2C9
  8
CUT
 66
     1
 10
0.0
 20
0.0
 30
0.0
 70
     1
  0
VERTEX
  5
96E
  8
CUT
 10
1854.301653615106
 20
394.6735858036991
 30
0.0
 42
0.4142135623730951
  0
VERTEX
  5
96F
  8
CUT
 10
1852.301653615106
 20
396.6735858036991
 30
0.0
 42
0.4142135623730951
  0
VERTEX
  5
970
  8
CUT
 10
1850.301653615106
 20
394.6735858036991
 30
0.0
 42
0.4142135623730951
  0
VERTEX
  5
971
  8
CUT
 10
1852.301653615106
 20
392.6735858036991
 30
0.0
 42
0.4142135623730951
  0
SEQEND
  5
FF2
  8
CUT
  0
POLYLINE
  5
2CA
  8
CUT
 66
     1
 10
0.0
 20
0.0
 30
0.0
 70
     1
  0
VERTEX
  5
972
  8
CUT
 10
1532.351174777497
 20
469.673585803699
 30
0.0
 42
0.4142135623730951
  0
VERTEX
  5
973
  8
CUT
 10
1530.351174777497
 20
471.673585803699
 30
0.0
 42
0.4142135623730951
  0
VERTEX
  5
974
  8
CUT
 10
1528.351174777497
 20
469.673585803699
 30
0.0
 42
0.4142135623730951
  0
VERTEX
  5
975
  8
CUT
 10
1530.351174777497
 20
467.673585803699
 30
0.0
 42
0.4142135623730951
  0
SEQEND
  5
FF3
  8
CUT
  0
POLYLINE
  5
2CB
  8
CUT
 66
     1
 10
0.0
 20
0.0
 30
0.0
 70
     1
  0
VERTEX
  5
976
  8
CUT
 10
1730.826414196301
 20
518.1488252225037
 30
0.0
 42
0.4142135623730951
  0
VERTEX
  5
977
  8
CUT
 10
1728.826414196301
 20
520.1488252225037
 30
0.0
 42
0.4142135623730951
  0
VERTEX
  5
978
  8
CUT
 10
1726.826414196301
 20
518.1488252225037
 30
0.0
 42
0.4142135623730951
  0
VERTEX
  5
979
  8
CUT
 10
1728.826414196301
 20
516.1488252225037
 30
0.0
 42
0.4142135623730951
  0
SEQEND
  5
FF4
  8
CUT
  0
POLYLINE
  5
2CC
  8
CUT
 66
     1
 10
0.0
 20
0.0
 30
0.0
 70
     1
  0
VERTEX
  5
97A
  8
CUT
 10
1580.826414196301
 20
518.1488252225037
 30
0.0
 42
0.4142135623730951
  0
VERTEX
  5
97B
  8
CUT
 10
1578.826414196301
 20
520.1488252225037
 30
0.0
 42
0.4142135623730951
  0
VERTEX
  5
97C
  8
CUT
 10
1576.826414196301
 20
518.1488252225037
 30
0.0
 42
0.4142135623730951
  0
VERTEX
  5
97D
  8
CUT
 10
1578.826414196301
 20
516.1488252225037
 30
0.0
 42
0.4142135623730951
  0
SEQEND
  5
FF5
  8
CUT
  0
POLYLINE
  5
2CD
  8
CUT
 66
     1
 10
0.0
 20
0.0
 30
0.0
 70
     1
  0
VERTEX
  5
97E
  8
CUT
 10
1805.826414196301
 20
518.1488252225037
 30
0.0
 42
0.4142135623730951
  0
VERTEX
  5
97F
  8
CUT
 10
1803.826414196301
 20
520.1488252225037
 30
0.0
 42
0.4142135623730951
  0
VERTEX
  5
980
  8
CUT
 10
1801.826414196301
 20
518.1488252225037
 30
0.0
 42
0.4142135623730951
  0
VERTEX
  5
981
  8
CUT
 10
1803.826414196301
 20
516.1488252225037
 30
0.0
 42
0.4142135623730951
  0
SEQEND
  5
FF6
  8
CUT
  0
POLYLINE
  5
2CE
  8
CUT
 66
     1
 10
0.0
 20
0.0
 30
0.0
 70
     1
  0
VERTEX
  5
982
  8
CUT
 10
1580.826414196301
 20
196.1983463848944
 30
0.0
 42
0.4142135623730951
  0
VERTEX
  5
983
  8
CUT
 10
1578.826414196301
 20
198.1983463848944
 30
0.0
 42
0.4142135623730951
  0
VERTEX
  5
984
  8
CUT
 10
1576.826414196301
 20
196.1983463848944
 30
0.0
 42
0.4142135623730951
  0
VERTEX
  5
985
  8
CUT
 10
1578.826414196301
 20
194.1983463848944
 30
0.0
 42
0.4142135623730951
  0
SEQEND
  5
FF7
  8
CUT
  0
POLYLINE
  5
2CF
  8
CUT
 66
     1
 10
0.0
 20
0.0
 30
0.0
 70
     1
  0
VERTEX
  5
986
  8
CUT
 10
1854.301653615106
 20
469.6735858036991
 30
0.0
 42
0.4142135623730951
  0
VERTEX
  5
987
  8
CUT
 10
1852.301653615106
 20
471.6735858036991
 30
0.0
 42
0.4142135623730951
  0
VERTEX
  5
988
  8
CUT
 10
1850.301653615106
 20
469.6735858036991
 30
0.0
 42
0.4142135623730951
  0
VERTEX
  5
989
  8
CUT
 10
1852.301653615106
 20
467.6735858036991
 30
0.0
 42
0.4142135623730951
  0
SEQEND
  5
FF8
  8
CUT
  0
POLYLINE
  5
2D0
  8
CUT
 66
     1
 10
0.0
 20
0.0
 30
0.0
 70
     1
  0
VERTEX
  5
98A
  8
CUT
 10
1532.351174777497
 20
394.673585803699
 30
0.0
 42
0.4142135623730951
  0
VERTEX
  5
98B
  8
CUT
 10
1530.351174777497
 20
396.673585803699
 30
0.0
 42
0.4142135623730951
  0
VERTEX
  5
98C
  8
CUT
 10
1528.351174777497
 20
394.673585803699
 30
0.0
 42
0.4142135623730951
  0
VERTEX
  5
98D
  8
CUT
 10
1530.351174777497
 20
392.673585803699
 30
0.0
 42
0.4142135623730951
  0
SEQEND
  5
FF9
  8
CUT
  0
POLYLINE
  5
2D1
  8
CUT
 66
     1
 10
0.0
 20
0.0
 30
0.0
 70
     1
  0
VERTEX
  5
98E
  8
CUT
 10
1532.351174777497
 20
319.673585803699
 30
0.0
 42
0.4142135623730951
  0
VERTEX
  5
98F
  8
CUT
 10
1530.351174777497
 20
321.673585803699
 30
0.0
 42
0.4142135623730951
  0
VERTEX
  5
990
  8
CUT
 10
1528.351174777497
 20
319.673585803699
 30
0.0
 42
0.4142135623730951
  0
VERTEX
  5
991
  8
CUT
 10
1530.351174777497
 20
317.673585803699
 30
0.0
 42
0.4142135623730951
  0
SEQEND
  5
FFA
  8
CUT
  0
POLYLINE
  5
2D2
  8
CUT
 66
     1
 10
0.0
 20
0.0
 30
0.0
 70
     1
  0
VERTEX
  5
992
  8
CUT
 10
1805.826414196301
 20
196.1983463848944
 30
0.0
 42
0.4142135623730951
  0
VERTEX
  5
993
  8
CUT
 10
1803.826414196301
 20
198.1983463848944
 30
0.0
 42
0.4142135623730951
  0
VERTEX
  5
994
  8
CUT
 10
1801.826414196301
 20
196.1983463848944
 30
0.0
 42
0.4142135623730951
  0
VERTEX
  5
995
  8
CUT
 10
1803.826414196301
 20
194.1983463848944
 30
0.0
 42
0.4142135623730951
  0
SEQEND
  5
FFB
  8
CUT
  0
POLYLINE
  5
2D3
  8
CUT
 66
     1
 10
0.0
 20
0.0
 30
0.0
 70
     1
  0
VERTEX
  5
996
  8
CUT
 10
159.614979439245
 20
713.1940614562419
 30
0.0
 42
0.4142135623730951
  0
VERTEX
  5
997
  8
CUT
 10
161.614979439245
 20
715.1940614562419
 30
0.0
 42
0.4142135623730951
  0
VERTEX
  5
998
  8
CUT
 10
159.614979439245
 20
717.1940614562419
 30
0.0
 42
0.4142135623730951
  0
VERTEX
  5
999
  8
CUT
 10
157.614979439245
 20
715.1940614562419
 30
0.0
 42
0.4142135623730951
  0
SEQEND
  5
FFC
  8
CUT
  0
POLYLINE
  5
2D4
  8
CUT
 66
     1
 10
0.0
 20
0.0
 30
0.0
 70
     1
  0
VERTEX
  5
99A
  8
CUT
 10
384.614979439245
 20
713.194061456242
 30
0.0
 42
0.4142135623730951
  0
VERTEX
  5
99B
  8
CUT
 10
386.614979439245
 20
715.194061456242
 30
0.0
 42
0.4142135623730951
  0
VERTEX
  5
99C
  8
CUT
 10
384.614979439245
 20
717.194061456242
 30
0.0
 42
0.4142135623730951
  0
VERTEX
  5
99D
  8
CUT
 10
382.614979439245
 20
715.194061456242
 30
0.0
 42
0.4142135623730951
  0
SEQEND
  5
FFD
  8
CUT
  0
POLYLINE
  5
2D5
  8
CUT
 66
     1
 10
0.0
 20
0.0
 30
0.0
 70
     1
  0
VERTEX
  5
99E
  8
CUT
 10
234.614979439245
 20
713.1940614562419
 30
0.0
 42
0.4142135623730951
  0
VERTEX
  5
99F
  8
CUT
 10
236.614979439245
 20
715.1940614562419
 30
0.0
 42
0.4142135623730951
  0
VERTEX
  5
9A0
  8
CUT
 10
234.614979439245
 20
717.1940614562419
 30
0.0
 42
0.4142135623730951
  0
VERTEX
  5
9A1
  8
CUT
 10
232.614979439245
 20
715.1940614562419
 30
0.0
 42
0.4142135623730951
  0
SEQEND
  5
FFE
  8
CUT
  0
POLYLINE
  5
2D6
  8
CUT
 66
     1
 10
0.0
 20
0.0
 30
0.0
 70
     1
  0
VERTEX
  5
9A2
  8
CUT
 10
309.614979439245
 20
713.1940614562419
 30
0.0
 42
0.4142135623730951
  0
VERTEX
  5
9A3
  8
CUT
 10
311.614979439245
 20
715.1940614562419
 30
0.0
 42
0.4142135623730951
  0
VERTEX
  5
9A4
  8
CUT
 10
309.614979439245
 20
717.1940614562419
 30
0.0
 42
0.4142135623730951
  0
VERTEX
  5
9A5
  8
CUT
 10
307.614979439245
 20
715.1940614562419
 30
0.0
 42
0.4142135623730951
  0
SEQEND
  5
FFF
  8
CUT
  0
POLYLINE
  5
2D7
  8
CUT
 66
     1
 10
0.0
 20
0.0
 30
0.0
 70
     1
  0
VERTEX
  5
9A6
  8
CUT
 10
84.61497943924496
 20
713.1940614562419
 30
0.0
 42
0.4142135623730951
  0
VERTEX
  5
9A7
  8
CUT
 10
86.61497943924496
 20
715.1940614562419
 30
0.0
 42
0.4142135623730951
  0
VERTEX
  5
9A8
  8
CUT
 10
84.61497943924496
 20
717.1940614562419
 30
0.0
 42
0.4142135623730951
  0
VERTEX
  5
9A9
  8
CUT
 10
82.61497943924496
 20
715.1940614562419
 30
0.0
 42
0.4142135623730951
  0
SEQEND
  5
1000
  8
CUT
  0
POLYLINE
  5
2D8
  8
CUT
 66
     1
 10
0.0
 20
0.0
 30
0.0
 70
     1
  0
VERTEX
  5
9AA
  8
CUT
 10
385.5725439720604
 20
354.2009532102636
 30
0.0
 42
0.4142135623730951
  0
VERTEX
  5
9AB
  8
CUT
 10
387.5725439720604
 20
356.2009532102636
 30
0.0
 42
0.4142135623730951
  0
VERTEX
  5
9AC
  8
CUT
 10
385.5725439720604
 20
358.2009532102636
 30
0.0
 42
0.4142135623730951
  0
VERTEX
  5
9AD
  8
CUT
 10
383.5725439720604
 20
356.2009532102636
 30
0.0
 42
0.4142135623730951
  0
SEQEND
  5
1001
  8
CUT
  0
POLYLINE
  5
2D9
  8
CUT
 66
     1
 10
0.0
 20
0.0
 30
0.0
 70
     1
  0
VERTEX
  5
9AE
  8
CUT
 10
393.4386399881018
 20
499.1507149076956
 30
0.0
 42
0.4142135623730951
  0
VERTEX
  5
9AF
  8
CUT
 10
395.4386399881018
 20
501.1507149076956
 30
0.0
 42
0.4142135623730951
  0
VERTEX
  5
9B0
  8
CUT
 10
393.4386399881018
 20
503.1507149076956
 30
0.0
 42
0.4142135623730951
  0
VERTEX
  5
9B1
  8
CUT
 10
391.4386399881018
 20
501.1507149076956
 30
0.0
 42
0.4142135623730951
  0
SEQEND
  5
1002
  8
CUT
  0
POLYLINE
  5
2DA
  8
CUT
 66
     1
 10
0.0
 20
0.0
 30
0.0
 70
     1
  0
VERTEX
  5
9B2
  8
CUT
 10
377.7064479560195
 20
209.2511915128314
 30
0.0
 42
0.4142135623730951
  0
VERTEX
  5
9B3
  8
CUT
 10
379.7064479560195
 20
211.2511915128314
 30
0.0
 42
0.4142135623730951
  0
VERTEX
  5
9B4
  8
CUT
 10
377.7064479560195
 20
213.2511915128314
 30
0.0
 42
0.4142135623730951
  0
VERTEX
  5
9B5
  8
CUT
 10
375.7064479560195
 20
211.2511915128314
 30
0.0
 42
0.4142135623730951
  0
SEQEND
  5
1003
  8
CUT
  0
POLYLINE
  5
2DB
  8
CUT
 66
     1
 10
0.0
 20
0.0
 30
0.0
 70
     1
  0
VERTEX
  5
9B6
  8
CUT
 10
401.304736004143
 20
644.1004766051274
 30
0.0
 42
0.4142135623730951
  0
VERTEX
  5
9B7
  8
CUT
 10
403.304736004143
 20
646.1004766051274
 30
0.0
 42
0.4142135623730951
  0
VERTEX
  5
9B8
  8
CUT
 10
401.304736004143
 20
648.1004766051274
 30
0.0
 42
0.4142135623730951
  0
VERTEX
  5
9B9
  8
CUT
 10
399.304736004143
 20
646.1004766051274
 30
0.0
 42
0.4142135623730951
  0
SEQEND
  5
1004
  8
CUT
  0
POLYLINE
  5
2DC
  8
CUT
 66
     1
 10
0.0
 20
0.0
 30
0.0
 70
     1
  0
VERTEX
  5
9BA
  8
CUT
 10
417.0369280362256
 20
933.9999999999917
 30
0.0
 42
0.4142135623730951
  0
VERTEX
  5
9BB
  8
CUT
 10
419.0369280362256
 20
935.9999999999917
 30
0.0
 42
0.4142135623730951
  0
VERTEX
  5
9BC
  8
CUT
 10
417.0369280362256
 20
937.9999999999917
 30
0.0
 42
0.4142135623730951
  0
VERTEX
  5
9BD
  8
CUT
 10
415.0369280362256
 20
935.9999999999917
 30
0.0
 42
0.4142135623730951
  0
SEQEND
  5
1005
  8
CUT
  0
POLYLINE
  5
2DD
  8
CUT
 66
     1
 10
0.0
 20
0.0
 30
0.0
 70
     1
  0
VERTEX
  5
9BE
  8
CUT
 10
405.2377840121635
 20
716.5753574538434
 30
0.0
 42
0.4142135623730951
  0
VERTEX
  5
9BF
  8
CUT
 10
407.2377840121635
 20
718.5753574538434
 30
0.0
 42
0.4142135623730951
  0
VERTEX
  5
9C0
  8
CUT
 10
405.2377840121635
 20
720.5753574538434
 30
0.0
 42
0.4142135623730951
  0
VERTEX
  5
9C1
  8
CUT
 10
403.2377840121635
 20
718.5753574538434
 30
0.0
 42
0.4142135623730951
  0
SEQEND
  5
1006
  8
CUT
  0
POLYLINE
  5
2DE
  8
CUT
 66
     1
 10
0.0
 20
0.0
 30
0.0
 70
     1
  0
VERTEX
  5
9C2
  8
CUT
 10
373.7733999479988
 20
136.7763106641155
 30
0.0
 42
0.4142135623730951
  0
VERTEX
  5
9C3
  8
CUT
 10
375.7733999479988
 20
138.7763106641155
 30
0.0
 42
0.4142135623730951
  0
VERTEX
  5
9C4
  8
CUT
 10
373.7733999479988
 20
140.7763106641155
 30
0.0
 42
0.4142135623730951
  0
VERTEX
  5
9C5
  8
CUT
 10
371.7733999479988
 20
138.7763106641155
 30
0.0
 42
0.4142135623730951
  0
SEQEND
  5
1007
  8
CUT
  0
POLYLINE
  5
2DF
  8
CUT
 66
     1
 10
0.0
 20
0.0
 30
0.0
 70
     1
  0
VERTEX
  5
9C6
  8
CUT
 10
389.5055919800811
 20
426.6758340589795
 30
0.0
 42
0.4142135623730951
  0
VERTEX
  5
9C7
  8
CUT
 10
391.5055919800811
 20
428.6758340589795
 30
0.0
 42
0.4142135623730951
  0
VERTEX
  5
9C8
  8
CUT
 10
389.5055919800811
 20
430.6758340589795
 30
0.0
 42
0.4142135623730951
  0
VERTEX
  5
9C9
  8
CUT
 10
387.5055919800811
 20
428.6758340589795
 30
0.0
 42
0.4142135623730951
  0
SEQEND
  5
1008
  8
CUT
  0
POLYLINE
  5
2E0
  8
CUT
 66
     1
 10
0.0
 20
0.0
 30
0.0
 70
     1
  0
VERTEX
  5
9CA
  8
CUT
 10
381.63949596404
 20
281.7260723615475
 30
0.0
 42
0.4142135623730951
  0
VERTEX
  5
9CB
  8
CUT
 10
383.63949596404
 20
283.7260723615475
 30
0.0
 42
0.4142135623730951
  0
VERTEX
  5
9CC
  8
CUT
 10
381.63949596404
 20
285.7260723615475
 30
0.0
 42
0.4142135623730951
  0
VERTEX
  5
9CD
  8
CUT
 10
379.63949596404
 20
283.7260723615475
 30
0.0
 42
0.4142135623730951
  0
SEQEND
  5
1009
  8
CUT
  0
POLYLINE
  5
2E1
  8
CUT
 66
     1
 10
0.0
 20
0.0
 30
0.0
 70
     1
  0
VERTEX
  5
9CE
  8
CUT
 10
397.3716879961225
 20
571.6255957564114
 30
0.0
 42
0.4142135623730951
  0
VERTEX
  5
9CF
  8
CUT
 10
399.3716879961225
 20
573.6255957564114
 30
0.0
 42
0.4142135623730951
  0
VERTEX
  5
9D0
  8
CUT
 10
397.3716879961225
 20
575.6255957564114
 30
0.0
 42
0.4142135623730951
  0
VERTEX
  5
9D1
  8
CUT
 10
395.3716879961225
 20
573.6255957564114
 30
0.0
 42
0.4142135623730951
  0
SEQEND
  5
100A
  8
CUT
  0
POLYLINE
  5
2E2
  8
CUT
 66
     1
 10
0.0
 20
0.0
 30
0.0
 70
     1
  0
VERTEX
  5
9D2
  8
CUT
 10
413.1038800282049
 20
861.5251191512752
 30
0.0
 42
0.4142135623730951
  0
VERTEX
  5
9D3
  8
CUT
 10
415.1038800282049
 20
863.5251191512752
 30
0.0
 42
0.4142135623730951
  0
VERTEX
  5
9D4
  8
CUT
 10
413.1038800282049
 20
865.5251191512752
 30
0.0
 42
0.4142135623730951
  0
VERTEX
  5
9D5
  8
CUT
 10
411.1038800282049
 20
863.5251191512752
 30
0.0
 42
0.4142135623730951
  0
SEQEND
  5
100B
  8
CUT
  0
POLYLINE
  5
2E3
  8
CUT
 66
     1
 10
0.0
 20
0.0
 30
0.0
 70
     1
  0
VERTEX
  5
9D6
  8
CUT
 10
409.1708320201842
 20
789.0502383025594
 30
0.0
 42
0.4142135623730951
  0
VERTEX
  5
9D7
  8
CUT
 10
411.1708320201842
 20
791.0502383025594
 30
0.0
 42
0.4142135623730951
  0
VERTEX
  5
9D8
  8
CUT
 10
409.1708320201842
 20
793.0502383025594
 30
0.0
 42
0.4142135623730951
  0
VERTEX
  5
9D9
  8
CUT
 10
407.1708320201842
 20
791.0502383025594
 30
0.0
 42
0.4142135623730951
  0
SEQEND
  5
100C
  8
CUT
  0
POLYLINE
  5
2E4
  8
CUT
 66
     1
 10
0.0
 20
0.0
 30
0.0
 70
     1
  0
VERTEX
  5
9DA
  8
CUT
 10
369.8403519399778
 20
64.30142981539916
 30
0.0
 42
0.4142135623730951
  0
VERTEX
  5
9DB
  8
CUT
 10
371.8403519399778
 20
66.30142981539916
 30
0.0
 42
0.4142135623730951
  0
VERTEX
  5
9DC
  8
CUT
 10
369.8403519399778
 20
68.30142981539916
 30
0.0
 42
0.4142135623730951
  0
VERTEX
  5
9DD
  8
CUT
 10
367.8403519399778
 20
66.30142981539916
 30
0.0
 42
0.4142135623730951
  0
SEQEND
  5
100D
  8
CUT
  0
POLYLINE
  5
2E5
  8
CUT
 66
     1
 10
0.0
 20
0.0
 30
0.0
 70
     1
  0
VERTEX
  5
9DE
  8
CUT
 10
54.89361967427521
 20
352.6400070422098
 30
0.0
 42
0.4142135623730951
  0
VERTEX
  5
9DF
  8
CUT
 10
56.89361967427521
 20
354.6400070422098
 30
0.0
 42
0.4142135623730951
  0
VERTEX
  5
9E0
  8
CUT
 10
54.89361967427521
 20
356.6400070422098
 30
0.0
 42
0.4142135623730951
  0
VERTEX
  5
9E1
  8
CUT
 10
52.89361967427521
 20
354.6400070422098
 30
0.0
 42
0.4142135623730951
  0
SEQEND
  5
100E
  8
CUT
  0
POLYLINE
  5
2E6
  8
CUT
 66
     1
 10
0.0
 20
0.0
 30
0.0
 70
     1
  0
VERTEX
  5
9E2
  8
CUT
 10
70.62581170635758
 20
62.7404836473454
 30
0.0
 42
0.4142135623730951
  0
VERTEX
  5
9E3
  8
CUT
 10
72.62581170635758
 20
64.7404836473454
 30
0.0
 42
0.4142135623730951
  0
VERTEX
  5
9E4
  8
CUT
 10
70.62581170635758
 20
66.7404836473454
 30
0.0
 42
0.4142135623730951
  0
VERTEX
  5
9E5
  8
CUT
 10
68.62581170635758
 20
64.7404836473454
 30
0.0
 42
0.4142135623730951
  0
SEQEND
  5
100F
  8
CUT
  0
POLYLINE
  5
2E7
  8
CUT
 66
     1
 10
0.0
 20
0.0
 30
0.0
 70
     1
  0
VERTEX
  5
9E6
  8
CUT
 10
31.29533162615144
 20
787.4892921345058
 30
0.0
 42
0.4142135623730951
  0
VERTEX
  5
9E7
  8
CUT
 10
33.29533162615144
 20
789.4892921345058
 30
0.0
 42
0.4142135623730951
  0
VERTEX
  5
9E8
  8
CUT
 10
31.29533162615144
 20
791.4892921345058
 30
0.0
 42
0.4142135623730951
  0
VERTEX
  5
9E9
  8
CUT
 10
29.29533162615144
 20
789.4892921345058
 30
0.0
 42
0.4142135623730951
  0
SEQEND
  5
1010
  8
CUT
  0
POLYLINE
  5
2E8
  8
CUT
 66
     1
 10
0.0
 20
0.0
 30
0.0
 70
     1
  0
VERTEX
  5
9EA
  8
CUT
 10
27.36228361813073
 20
859.9641729832217
 30
0.0
 42
0.4142135623730951
  0
VERTEX
  5
9EB
  8
CUT
 10
29.36228361813073
 20
861.9641729832217
 30
0.0
 42
0.4142135623730951
  0
VERTEX
  5
9EC
  8
CUT
 10
27.36228361813073
 20
863.9641729832217
 30
0.0
 42
0.4142135623730951
  0
VERTEX
  5
9ED
  8
CUT
 10
25.36228361813073
 20
861.9641729832217
 30
0.0
 42
0.4142135623730951
  0
SEQEND
  5
1011
  8
CUT
  0
POLYLINE
  5
2E9
  8
CUT
 66
     1
 10
0.0
 20
0.0
 30
0.0
 70
     1
  0
VERTEX
  5
9EE
  8
CUT
 10
43.0944756502131
 20
570.064649588358
 30
0.0
 42
0.4142135623730951
  0
VERTEX
  5
9EF
  8
CUT
 10
45.0944756502131
 20
572.064649588358
 30
0.0
 42
0.4142135623730951
  0
VERTEX
  5
9F0
  8
CUT
 10
43.0944756502131
 20
574.064649588358
 30
0.0
 42
0.4142135623730951
  0
VERTEX
  5
9F1
  8
CUT
 10
41.0944756502131
 20
572.064649588358
 30
0.0
 42
0.4142135623730951
  0
SEQEND
  5
1012
  8
CUT
  0
POLYLINE
  5
2EA
  8
CUT
 66
     1
 10
0.0
 20
0.0
 30
0.0
 70
     1
  0
VERTEX
  5
9F2
  8
CUT
 10
58.82666768229592
 20
280.165126193494
 30
0.0
 42
0.4142135623730951
  0
VERTEX
  5
9F3
  8
CUT
 10
60.82666768229592
 20
282.165126193494
 30
0.0
 42
0.4142135623730951
  0
VERTEX
  5
9F4
  8
CUT
 10
58.82666768229592
 20
284.165126193494
 30
0.0
 42
0.4142135623730951
  0
VERTEX
  5
9F5
  8
CUT
 10
56.82666768229592
 20
282.165126193494
 30
0.0
 42
0.4142135623730951
  0
SEQEND
  5
1013
  8
CUT
  0
POLYLINE
  5
2EB
  8
CUT
 66
     1
 10
0.0
 20
0.0
 30
0.0
 70
     1
  0
VERTEX
  5
9F6
  8
CUT
 10
50.96057166625451
 20
425.114887890926
 30
0.0
 42
0.4142135623730951
  0
VERTEX
  5
9F7
  8
CUT
 10
52.96057166625451
 20
427.114887890926
 30
0.0
 42
0.4142135623730951
  0
VERTEX
  5
9F8
  8
CUT
 10
50.96057166625451
 20
429.114887890926
 30
0.0
 42
0.4142135623730951
  0
VERTEX
  5
9F9
  8
CUT
 10
48.96057166625451
 20
427.114887890926
 30
0.0
 42
0.4142135623730951
  0
SEQEND
  5
1014
  8
CUT
  0
POLYLINE
  5
2EC
  8
CUT
 66
     1
 10
0.0
 20
0.0
 30
0.0
 70
     1
  0
VERTEX
  5
9FA
  8
CUT
 10
66.6927636983371
 20
135.2153644960617
 30
0.0
 42
0.4142135623730951
  0
VERTEX
  5
9FB
  8
CUT
 10
68.6927636983371
 20
137.2153644960617
 30
0.0
 42
0.4142135623730951
  0
VERTEX
  5
9FC
  8
CUT
 10
66.6927636983371
 20
139.2153644960617
 30
0.0
 42
0.4142135623730951
  0
VERTEX
  5
9FD
  8
CUT
 10
64.6927636983371
 20
137.2153644960617
 30
0.0
 42
0.4142135623730951
  0
SEQEND
  5
1015
  8
CUT
  0
POLYLINE
  5
2ED
  8
CUT
 66
     1
 10
0.0
 20
0.0
 30
0.0
 70
     1
  0
VERTEX
  5
9FE
  8
CUT
 10
35.22837963417192
 20
715.0144112857898
 30
0.0
 42
0.4142135623730951
  0
VERTEX
  5
9FF
  8
CUT
 10
37.22837963417192
 20
717.0144112857898
 30
0.0
 42
0.4142135623730951
  0
VERTEX
  5
A00
  8
CUT
 10
35.22837963417192
 20
719.0144112857898
 30
0.0
 42
0.4142135623730951
  0
VERTEX
  5
A01
  8
CUT
 10
33.22837963417192
 20
717.0144112857898
 30
0.0
 42
0.4142135623730951
  0
SEQEND
  5
1016
  8
CUT
  0
POLYLINE
  5
2EE
  8
CUT
 66
     1
 10
0.0
 20
0.0
 30
0.0
 70
     1
  0
VERTEX
  5
A02
  8
CUT
 10
23.42923561011003
 20
932.4390538319379
 30
0.0
 42
0.4142135623730951
  0
VERTEX
  5
A03
  8
CUT
 10
25.42923561011003
 20
934.4390538319379
 30
0.0
 42
0.4142135623730951
  0
VERTEX
  5
A04
  8
CUT
 10
23.42923561011003
 20
936.4390538319379
 30
0.0
 42
0.4142135623730951
  0
VERTEX
  5
A05
  8
CUT
 10
21.42923561011003
 20
934.4390538319379
 30
0.0
 42
0.4142135623730951
  0
SEQEND
  5
1017
  8
CUT
  0
POLYLINE
  5
2EF
  8
CUT
 66
     1
 10
0.0
 20
0.0
 30
0.0
 70
     1
  0
VERTEX
  5
A06
  8
CUT
 10
39.16142764219262
 20
642.5395304370737
 30
0.0
 42
0.4142135623730951
  0
VERTEX
  5
A07
  8
CUT
 10
41.16142764219262
 20
644.5395304370737
 30
0.0
 42
0.4142135623730951
  0
VERTEX
  5
A08
  8
CUT
 10
39.16142764219262
 20
646.5395304370737
 30
0.0
 42
0.4142135623730951
  0
VERTEX
  5
A09
  8
CUT
 10
37.16142764219262
 20
644.5395304370737
 30
0.0
 42
0.4142135623730951
  0
SEQEND
  5
1018
  8
CUT
  0
POLYLINE
  5
2F0
  8
CUT
 66
     1
 10
0.0
 20
0.0
 30
0.0
 70
     1
  0
VERTEX
  5
A0A
  8
CUT
 10
62.75971569031663
 20
207.6902453447778
 30
0.0
 42
0.4142135623730951
  0
VERTEX
  5
A0B
  8
CUT
 10
64.75971569031663
 20
209.6902453447778
 30
0.0
 42
0.4142135623730951
  0
VERTEX
  5
A0C
  8
CUT
 10
62.75971569031663
 20
211.6902453447778
 30
0.0
 42
0.4142135623730951
  0
VERTEX
  5
A0D
  8
CUT
 10
60.75971569031663
 20
209.6902453447778
 30
0.0
 42
0.4142135623730951
  0
SEQEND
  5
1019
  8
CUT
  0
POLYLINE
  5
2F1
  8
CUT
 66
     1
 10
0.0
 20
0.0
 30
0.0
 70
     1
  0
VERTEX
  5
A0E
  8
CUT
 10
47.0275236582338
 20
497.5897687396421
 30
0.0
 42
0.4142135623730951
  0
VERTEX
  5
A0F
  8
CUT
 10
49.0275236582338
 20
499.5897687396421
 30
0.0
 42
0.4142135623730951
  0
VERTEX
  5
A10
  8
CUT
 10
47.0275236582338
 20
501.5897687396421
 30
0.0
 42
0.4142135623730951
  0
VERTEX
  5
A11
  8
CUT
 10
45.0275236582338
 20
499.5897687396421
 30
0.0
 42
0.4142135623730951
  0
SEQEND
  5
101A
  8
CUT
  0
POLYLINE
  5
2F2
  8
CUT
 66
     1
 10
0.0
 20
0.0
 30
0.0
 70
     1
  0
VERTEX
  5
A12
  8
CUT
 10
197.114979439245
 20
22.39010965103375
 30
0.0
 42
0.4142135623730951
  0
VERTEX
  5
A13
  8
CUT
 10
199.114979439245
 20
24.39010965103375
 30
0.0
 42
0.4142135623730951
  0
VERTEX
  5
A14
  8
CUT
 10
197.114979439245
 20
26.39010965103375
 30
0.0
 42
0.4142135623730951
  0
VERTEX
  5
A15
  8
CUT
 10
195.114979439245
 20
24.39010965103375
 30
0.0
 42
0.4142135623730951
  0
SEQEND
  5
101B
  8
CUT
  0
POLYLINE
  5
2F3
  8
CUT
 66
     1
 10
0.0
 20
0.0
 30
0.0
 70
     1
  0
VERTEX
  5
A16
  8
CUT
 10
272.114979439245
 20
22.39010965103375
 30
0.0
 42
0.4142135623730951
  0
VERTEX
  5
A17
  8
CUT
 10
274.114979439245
 20
24.39010965103375
 30
0.0
 42
0.4142135623730951
  0
VERTEX
  5
A18
  8
CUT
 10
272.114979439245
 20
26.39010965103375
 30
0.0
 42
0.4142135623730951
  0
VERTEX
  5
A19
  8
CUT
 10
270.114979439245
 20
24.39010965103375
 30
0.0
 42
0.4142135623730951
  0
SEQEND
  5
101C
  8
CUT
  0
POLYLINE
  5
2F4
  8
CUT
 66
     1
 10
0.0
 20
0.0
 30
0.0
 70
     1
  0
VERTEX
  5
A1A
  8
CUT
 10
122.114979439245
 20
22.39010965103375
 30
0.0
 42
0.4142135623730951
  0
VERTEX
  5
A1B
  8
CUT
 10
124.114979439245
 20
24.39010965103375
 30
0.0
 42
0.4142135623730951
  0
VERTEX
  5
A1C
  8
CUT
 10
122.114979439245
 20
26.39010965103375
 30
0.0
 42
0.4142135623730951
  0
VERTEX
  5
A1D
  8
CUT
 10
120.114979439245
 20
24.39010965103375
 30
0.0
 42
0.4142135623730951
  0
SEQEND
  5
101D
  8
CUT
  0
POLYLINE
  5
2F5
  8
CUT
 66
     1
 10
0.0
 20
0.0
 30
0.0
 70
     1
  0
VERTEX
  5
A1E
  8
CUT
 10
347.114979439245
 20
22.39010965103375
 30
0.0
 42
0.4142135623730951
  0
VERTEX
  5
A1F
  8
CUT
 10
349.114979439245
 20
24.39010965103375
 30
0.0
 42
0.4142135623730951
  0
VERTEX
  5
A20
  8
CUT
 10
347.114979439245
 20
26.39010965103375
 30
0.0
 42
0.4142135623730951
  0
VERTEX
  5
A21
  8
CUT
 10
345.114979439245
 20
24.39010965103375
 30
0.0
 42
0.4142135623730951
  0
SEQEND
  5
101E
  8
CUT
  0
POLYLINE
  5
2F6
  8
CUT
 66
     1
 10
0.0
 20
0.0
 30
0.0
 70
     1
  0
VERTEX
  5
A22
  8
CUT
 10
87.0614088286743
 20
118.9733807796606
 30
0.0
  0
VERTEX
  5
A23
  8
CUT
 10
88.945646978073
 20
84.25223446059317
 30
0.0
 42
-0.9999999999999865
  0
VERTEX
  5
A24
  8
CUT
 10
81.06881079928803
 20
83.82477636090857
 30
0.0
  0
VERTEX
  5
A25
  8
CUT
 10
79.18457264991503
 20
118.5459226799769
 30
0.0
 42
-0.9999999999993654
  0
SEQEND
  5
101F
  8
CUT
  0
POLYLINE
  5
2F7
  8
CUT
 66
     1
 10
0.0
 20
0.0
 30
0.0
 70
     1
  0
VERTEX
  5
A26
  8
CUT
 10
83.9368924686637
 20
176.5493245362156
 30
0.0
  0
VERTEX
  5
A27
  8
CUT
 10
85.82113061806217
 20
141.8281782171484
 30
0.0
 42
-0.4142135623730863
  0
VERTEX
  5
A28
  8
CUT
 10
82.09644157853836
 20
137.6760310779143
 30
0.0
 42
-0.4142135623731231
  0
VERTEX
  5
A29
  8
CUT
 10
77.9442944392772
 20
141.4007201174636
 30
0.0
  0
VERTEX
  5
A2A
  8
CUT
 10
76.06005628990397
 20
176.1218664365319
 30
0.0
 42
-0.9999999999994094
  0
SEQEND
  5
1020
  8
CUT
  0
POLYLINE
  5
2F8
  8
CUT
 66
     1
 10
0.0
 20
0.0
 30
0.0
 70
     1
  0
VERTEX
  5
A2B
  8
CUT
 10
80.81237610865332
 20
234.1252682927707
 30
0.0
  0
VERTEX
  5
A2C
  8
CUT
 10
82.69661425805134
 20
199.4041219737035
 30
0.0
 42
-0.4142135623730903
  0
VERTEX
  5
A2D
  8
CUT
 10
78.9719252185273
 20
195.2519748344694
 30
0.0
 42
-0.4142135623730967
  0
VERTEX
  5
A2E
  8
CUT
 10
74.81977807926637
 20
198.9766638740184
 30
0.0
  0
VERTEX
  5
A2F
  8
CUT
 10
72.93553992989337
 20
233.6978101930872
 30
0.0
 42
-0.9999999999993942
  0
SEQEND
  5
1021
  8
CUT
  0
POLYLINE
  5
2F9
  8
CUT
 66
     1
 10
0.0
 20
0.0
 30
0.0
 70
     1
  0
VERTEX
  5
A30
  8
CUT
 10
77.68785974864295
 20
291.7012120493255
 30
0.0
  0
VERTEX
  5
A31
  8
CUT
 10
79.57209789804051
 20
256.9800657302583
 30
0.0
 42
-0.4142135623731031
  0
VERTEX
  5
A32
  8
CUT
 10
75.84740885851579
 20
252.8279185910239
 30
0.0
 42
-0.4142135623730949
  0
VERTEX
  5
A33
  8
CUT
 10
71.69526171925554
 20
256.5526076305734
 30
0.0
  0
VERTEX
  5
A34
  8
CUT
 10
69.81102356988276
 20
291.273753949642
 30
0.0
 42
-0.9999999999993654
  0
SEQEND
  5
1022
  8
CUT
  0
POLYLINE
  5
2FA
  8
CUT
 66
     1
 10
0.0
 20
0.0
 30
0.0
 70
     1
  0
VERTEX
  5
A35
  8
CUT
 10
74.56334338863235
 20
349.2771558058805
 30
0.0
  0
VERTEX
  5
A36
  8
CUT
 10
76.44758153802945
 20
314.5560094868133
 30
0.0
 42
-1.0
  0
VERTEX
  5
A37
  8
CUT
 10
68.57074535924448
 20
314.1285513871285
 30
0.0
  0
VERTEX
  5
A38
  8
CUT
 10
66.68650720987193
 20
348.849697706197
 30
0.0
 42
-0.9999999999993517
  0
SEQEND
  5
1023
  8
CUT
  0
POLYLINE
  5
2FB
  8
CUT
 66
     1
 10
0.0
 20
0.0
 30
0.0
 70
     1
  0
VERTEX
  5
A39
  8
CUT
 10
71.43882702862174
 20
406.8530995624355
 30
0.0
  0
VERTEX
  5
A3A
  8
CUT
 10
73.32306517801908
 20
372.1319532433681
 30
0.0
 42
-0.9999999999999789
  0
VERTEX
  5
A3B
  8
CUT
 10
65.44622899923411
 20
371.7044951436833
 30
0.0
  0
VERTEX
  5
A3C
  8
CUT
 10
63.56199084986065
 20
406.4256414627521
 30
0.0
 42
-0.999999999999351
  0
SEQEND
  5
1024
  8
CUT
  0
POLYLINE
  5
2FC
  8
CUT
 66
     1
 10
0.0
 20
0.0
 30
0.0
 70
     1
  0
VERTEX
  5
A3D
  8
CUT
 10
68.31431066861114
 20
464.4290433189906
 30
0.0
  0
VERTEX
  5
A3E
  8
CUT
 10
70.19854881800802
 20
429.7078969999232
 30
0.0
 42
-1.0
  0
VERTEX
  5
A3F
  8
CUT
 10
62.32171263922305
 20
429.2804389002383
 30
0.0
  0
VERTEX
  5
A40
  8
CUT
 10
60.43747448984982
 20
464.0015852193071
 30
0.0
 42
-0.999999999999351
  0
SEQEND
  5
1025
  8
CUT
  0
POLYLINE
  5
2FD
  8
CUT
 66
     1
 10
0.0
 20
0.0
 30
0.0
 70
     1
  0
VERTEX
  5
A41
  8
CUT
 10
65.18979430860077
 20
522.0049870755456
 30
0.0
  0
VERTEX
  5
A42
  8
CUT
 10
67.07403245799696
 20
487.2838407564782
 30
0.0
 42
-0.4142135623730901
  0
VERTEX
  5
A43
  8
CUT
 10
63.34934341847111
 20
483.1316936172439
 30
0.0
 42
-0.4142135623731015
  0
VERTEX
  5
A44
  8
CUT
 10
59.19719627921222
 20
486.8563826567934
 30
0.0
  0
VERTEX
  5
A45
  8
CUT
 10
57.31295812983899
 20
521.5775289758619
 30
0.0
 42
-0.9999999999993153
  0
SEQEND
  5
1026
  8
CUT
  0
POLYLINE
  5
2FE
  8
CUT
 66
     1
 10
0.0
 20
0.0
 30
0.0
 70
     1
  0
VERTEX
  5
A46
  8
CUT
 10
62.06527794859016
 20
579.5809308321005
 30
0.0
  0
VERTEX
  5
A47
  8
CUT
 10
63.94951609798613
 20
544.8597845130332
 30
0.0
 42
-0.9999999999999925
  0
VERTEX
  5
A48
  8
CUT
 10
56.07267991920116
 20
544.4323264133484
 30
0.0
  0
VERTEX
  5
A49
  8
CUT
 10
54.18844176982816
 20
579.153472732417
 30
0.0
 42
-0.999999999999329
  0
SEQEND
  5
1027
  8
CUT
  0
POLYLINE
  5
2FF
  8
CUT
 66
     1
 10
0.0
 20
0.0
 30
0.0
 70
     1
  0
VERTEX
  5
A4A
  8
CUT
 10
58.94076158857979
 20
637.1568745886557
 30
0.0
  0
VERTEX
  5
A4B
  8
CUT
 10
60.8249997379753
 20
602.435728269588
 30
0.0
 42
-0.9999999999999856
  0
VERTEX
  5
A4C
  8
CUT
 10
52.94816355919033
 20
602.0082701699033
 30
0.0
  0
VERTEX
  5
A4D
  8
CUT
 10
51.06392540981733
 20
636.729416488972
 30
0.0
 42
-0.9999999999993222
  0
SEQEND
  5
1028
  8
CUT
  0
POLYLINE
  5
300
  8
CUT
 66
     1
 10
0.0
 20
0.0
 30
0.0
 70
     1
  0
VERTEX
  5
A4E
  8
CUT
 10
55.81624522856919
 20
694.7328183452106
 30
0.0
  0
VERTEX
  5
A4F
  8
CUT
 10
57.70048337796447
 20
660.0116720261432
 30
0.0
 42
-0.4142135623730845
  0
VERTEX
  5
A50
  8
CUT
 10
53.97579433843748
 20
655.8595248869088
 30
0.0
 42
-0.4142135623730987
  0
VERTEX
  5
A51
  8
CUT
 10
49.8236471991795
 20
659.5842139264585
 30
0.0
  0
VERTEX
  5
A52
  8
CUT
 10
47.9394090498065
 20
694.3053602455271
 30
0.0
 42
-0.9999999999993294
  0
SEQEND
  5
1029
  8
CUT
  0
POLYLINE
  5
301
  8
CUT
 66
     1
 10
0.0
 20
0.0
 30
0.0
 70
     1
  0
VERTEX
  5
A53
  8
CUT
 10
52.69172886855881
 20
752.3087621017655
 30
0.0
  0
VERTEX
  5
A54
  8
CUT
 10
54.57596701795342
 20
717.5876157826981
 30
0.0
 42
-0.4142135623730785
  0
VERTEX
  5
A55
  8
CUT
 10
50.85127797842574
 20
713.4354686434635
 30
0.0
 42
-0.4142135623730944
  0
VERTEX
  5
A56
  8
CUT
 10
46.69913083916845
 20
717.1601576830132
 30
0.0
  0
VERTEX
  5
A57
  8
CUT
 10
44.81489268979544
 20
751.881304002082
 30
0.0
 42
-0.9999999999992858
  0
SEQEND
  5
102A
  8
CUT
  0
POLYLINE
  5
302
  8
CUT
 66
     1
 10
0.0
 20
0.0
 30
0.0
 70
     1
  0
VERTEX
  5
A58
  8
CUT
 10
49.56721250854821
 20
809.8847058583206
 30
0.0
  0
VERTEX
  5
A59
  8
CUT
 10
51.45145065794213
 20
775.1635595392529
 30
0.0
 42
-0.4142135623731024
  0
VERTEX
  5
A5A
  8
CUT
 10
47.726761618414
 20
771.0114124000181
 30
0.0
 42
-0.4142135623731041
  0
VERTEX
  5
A5B
  8
CUT
 10
43.57461447915739
 20
774.736101439568
 30
0.0
  0
VERTEX
  5
A5C
  8
CUT
 10
41.69037632978461
 20
809.4572477586369
 30
0.0
 42
-0.9999999999992414
  0
SEQEND
  5
102B
  8
CUT
  0
POLYLINE
  5
303
  8
CUT
 66
     1
 10
0.0
 20
0.0
 30
0.0
 70
     1
  0
VERTEX
  5
A5D
  8
CUT
 10
46.44269614853783
 20
867.4606496148755
 30
0.0
  0
VERTEX
  5
A5E
  8
CUT
 10
48.32693429793153
 20
832.739503295808
 30
0.0
 42
-0.4142135623730955
  0
VERTEX
  5
A5F
  8
CUT
 10
44.60224525840295
 20
828.5873561565735
 30
0.0
 42
-0.4142135623730892
  0
VERTEX
  5
A60
  8
CUT
 10
40.45009811914656
 20
832.3120451961232
 30
0.0
  0
VERTEX
  5
A61
  8
CUT
 10
38.56585996977378
 20
867.0331915151919
 30
0.0
 42
-0.9999999999992456
  0
SEQEND
  5
102C
  8
CUT
  0
POLYLINE
  5
304
  8
CUT
 66
     1
 10
0.0
 20
0.0
 30
0.0
 70
     1
  0
VERTEX
  5
A62
  8
CUT
 10
373.8953561265116
 20
696.1361352420904
 30
0.0
 42
0.4456095382750139
  0
VERTEX
  5
A63
  8
CUT
 10
363.9514739809201
 20
707.1940614562418
 30
0.0
  0
VERTEX
  5
A64
  8
CUT
 10
105.27848489757
 20
707.1940614562419
 30
0.0
 42
0.4456095382750124
  0
VERTEX
  5
A65
  8
CUT
 10
95.33460275197876
 20
696.1361352420904
 30
0.0
  0
VERTEX
  5
A66
  8
CUT
 10
156.7572285277311
 20
118.7996975806741
 30
0.0
 42
0.1829051208190555
  0
VERTEX
  5
A67
  8
CUT
 10
166.5992610435026
 20
99.7054533331418
 30
0.0
 42
0.1832377904857229
  0
VERTEX
  5
A68
  8
CUT
 10
186.5883818911084
 20
91.93852533120412
 30
0.0
  0
VERTEX
  5
A69
  8
CUT
 10
282.6415769873815
 20
91.93852533120412
 30
0.0
 42
0.1832377904857286
  0
VERTEX
  5
A6A
  8
CUT
 10
302.6306978349878
 20
99.70545333314203
 30
0.0
 42
0.1829051208190505
  0
VERTEX
  5
A6B
  8
CUT
 10
312.4727303507593
 20
118.7996975806741
 30
0.0
  0
SEQEND
  5
102D
  8
CUT
  0
POLYLINE
  5
305
  8
CUT
 66
     1
 10
0.0
 20
0.0
 30
0.0
 70
     1
  0
VERTEX
  5
A6C
  8
CUT
 10
43.31817978852723
 20
925.0365933714305
 30
0.0
  0
VERTEX
  5
A6D
  8
CUT
 10
45.20241793792047
 20
890.3154470523629
 30
0.0
 42
-0.4142135623730954
  0
VERTEX
  5
A6E
  8
CUT
 10
41.47772889839143
 20
886.1632999131283
 30
0.0
 42
-0.4142135623730887
  0
VERTEX
  5
A6F
  8
CUT
 10
37.32558175913573
 20
889.8879889526781
 30
0.0
  0
VERTEX
  5
A70
  8
CUT
 10
35.44134360976295
 20
924.6091352717469
 30
0.0
 42
-0.9999999999992226
  0
SEQEND
  5
102E
  8
CUT
  0
POLYLINE
  5
306
  8
CUT
 66
     1
 10
0.0
 20
0.0
 30
0.0
 70
     1
  0
VERTEX
  5
A71
  8
CUT
 10
421.476955603327
 20
947.9999999999912
 30
0.0
  0
VERTEX
  5
A72
  8
CUT
 10
407.8839737162637
 20
947.9999999999912
 30
0.0
 42
0.1813120094618831
  0
VERTEX
  5
A73
  8
CUT
 10
402.5687321246828
 20
945.9118833547462
 30
0.0
 42
0.1809851551784637
  0
VERTEX
  5
A74
  8
CUT
 10
399.9289994860296
 20
940.837020733466
 30
0.0
  0
VERTEX
  5
A75
  8
CUT
 10
381.117527325842
 20
764.0202828137874
 30
0.0
 42
-0.3834994492264608
  0
VERTEX
  5
A76
  8
CUT
 10
351.2858808890678
 20
737.1940614562418
 30
0.0
  0
VERTEX
  5
A77
  8
CUT
 10
117.9440779894223
 20
737.1940614562418
 30
0.0
 42
-0.3834994492264634
  0
VERTEX
  5
A78
  8
CUT
 10
88.1124315526481
 20
764.0202828137874
 30
0.0
  0
VERTEX
  5
A79
  8
CUT
 10
69.3009593924603
 20
940.837020733466
 30
0.0
 42
0.1809851551783977
  0
VERTEX
  5
A7A
  8
CUT
 10
66.66122675380711
 20
945.9118833547451
 30
0.0
 42
0.1813120094617822
  0
VERTEX
  5
A7B
  8
CUT
 10
61.34598516222604
 20
947.9999999999912
 30
0.0
  0
VERTEX
  5
A7C
  8
CUT
 10
45.16706269923179
 20
948.0000000000001
 30
0.0
 42
0.0517041660956841
  0
VERTEX
  5
A7D
  8
CUT
 10
44.34041236915346
 20
947.9129255411202
 30
0.0
 42
0.0516663261441014
  0
VERTEX
  5
A7E
  8
CUT
 10
43.54861614299398
 20
947.6579775002805
 30
0.0
 42
0.0830755646184238
  0
VERTEX
  5
A7F
  8
CUT
 10
42.43699871471404
 20
946.9221047904052
 30
0.0
 42
0.0830117673622984
  0
VERTEX
  5
A80
  8
CUT
 10
41.62469548426293
 20
945.8637755988141
 30
0.0
 42
-0.566081599835543
  0
VERTEX
  5
A81
  8
CUT
 10
34.87103195431791
 20
945.4972695406925
 30
0.0
 42
0.0830124675827987
  0
VERTEX
  5
A82
  8
CUT
 10
33.94896436750059
 20
946.4614873819244
 30
0.0
 42
0.08307749204511
  0
VERTEX
  5
A83
  8
CUT
 10
32.7642471079439
 20
947.0727341628049
 30
0.0
 42
0.0516652008243119
  0
VERTEX
  5
A84
  8
CUT
 10
31.94950625413844
 20
947.2404984448099
 30
0.0
 42
0.0517036397996203
  0
VERTEX
  5
A85
  8
CUT
 10
31.11829259608703
 20
947.2376049933146
 30
0.0
  0
VERTEX
  5
A86
  8
CUT
 10
19.5633882850459
 20
945.9797836335955
 30
0.0
 42
0.1862738792150982
  0
VERTEX
  5
A87
  8
CUT
 10
16.97543346598491
 20
944.5690340488048
 30
0.0
 42
0.1859305822343641
  0
VERTEX
  5
A88
  8
CUT
 10
16.00271926027267
 20
941.781291369871
 30
0.0
  0
VERTEX
  5
A89
  8
CUT
 10
63.68152069990651
 20
63.19668057939202
 30
0.0
 42
0.430183273295335
  0
VERTEX
  5
A8A
  8
CUT
 10
68.10851083581497
 20
59.43692333014474
 30
0.0
  0
VERTEX
  5
A8B
  8
CUT
 10
79.53585121807646
 20
60.68085858313839
 30
0.0
 42
0.0858427881036748
  0
VERTEX
  5
A8C
  8
CUT
 10
80.84630512631611
 20
61.05725234367083
 30
0.0
 42
0.1683874153580451
  0
VERTEX
  5
A8D
  8
CUT
 10
82.70033118732795
 20
62.90834132641407
 30
0.0
 42
-0.6475007239956572
  0
VERTEX
  5
A8E
  8
CUT
 10
89.8946726938857
 20
62.68537380806379
 30
0.0
  0
VERTEX
  5
A8F
  8
CUT
 10
91.82903323721143
 20
57.98730246771765
 30
0.0
  0
VERTEX
  5
A90
  8
CUT
 10
106.4062880818472
 20
22.58284622927158
 30
0.0
 42
0.3039248401968789
  0
VERTEX
  5
A91
  8
CUT
 10
115.6531656757875
 20
16.39010965103375
 30
0.0
  0
VERTEX
  5
A92
  8
CUT
 10
353.5767932027024
 20
16.39010965103375
 30
0.0
 42
0.3039248401968831
  0
VERTEX
  5
A93
  8
CUT
 10
362.8236707966428
 20
22.58284622927158
 30
0.0
  0
VERTEX
  5
A94
  8
CUT
 10
376.7545101607873
 20
56.41732315166746
 30
0.0
 42
0.0842905555495233
  0
VERTEX
  5
A95
  8
CUT
 10
377.4929400726496
 20
59.68270649946089
 30
0.0
  0
VERTEX
  5
A96
  8
CUT
 10
425.471078605648
 20
943.7832479704037
 30
0.0
 42
0.4301832732953306
  0
SEQEND
  5
102F
  8
CUT
  0
POLYLINE
  5
307
  8
CUT
 66
     1
 10
0.0
 20
0.0
 30
0.0
 70
     1
  0
VERTEX
  5
A97
  8
CUT
 10
649.3572899954563
 20
251.1960481947918
 30
0.0
 42
0.4142135623730951
  0
VERTEX
  5
A98
  8
CUT
 10
647.3572899954563
 20
249.1960481947918
 30
0.0
 42
0.4142135623730951
  0
VERTEX
  5
A99
  8
CUT
 10
649.3572899954563
 20
247.1960481947918
 30
0.0
 42
0.4142135623730951
  0
VERTEX
  5
A9A
  8
CUT
 10
651.3572899954563
 20
249.1960481947918
 30
0.0
 42
0.4142135623730951
  0
SEQEND
  5
1030
  8
CUT
  0
POLYLINE
  5
308
  8
CUT
 66
     1
 10
0.0
 20
0.0
 30
0.0
 70
     1
  0
VERTEX
  5
A9B
  8
CUT
 10
424.3572899954564
 20
251.1960481947916
 30
0.0
 42
0.4142135623730951
  0
VERTEX
  5
A9C
  8
CUT
 10
422.3572899954564
 20
249.1960481947916
 30
0.0
 42
0.4142135623730951
  0
VERTEX
  5
A9D
  8
CUT
 10
424.3572899954564
 20
247.1960481947916
 30
0.0
 42
0.4142135623730951
  0
VERTEX
  5
A9E
  8
CUT
 10
426.3572899954564
 20
249.1960481947916
 30
0.0
 42
0.4142135623730951
  0
SEQEND
  5
1031
  8
CUT
  0
POLYLINE
  5
309
  8
CUT
 66
     1
 10
0.0
 20
0.0
 30
0.0
 70
     1
  0
VERTEX
  5
A9F
  8
CUT
 10
574.3572899954563
 20
251.1960481947918
 30
0.0
 42
0.4142135623730951
  0
VERTEX
  5
AA0
  8
CUT
 10
572.3572899954563
 20
249.1960481947918
 30
0.0
 42
0.4142135623730951
  0
VERTEX
  5
AA1
  8
CUT
 10
574.3572899954563
 20
247.1960481947918
 30
0.0
 42
0.4142135623730951
  0
VERTEX
  5
AA2
  8
CUT
 10
576.3572899954563
 20
249.1960481947918
 30
0.0
 42
0.4142135623730951
  0
SEQEND
  5
1032
  8
CUT
  0
POLYLINE
  5
30A
  8
CUT
 66
     1
 10
0.0
 20
0.0
 30
0.0
 70
     1
  0
VERTEX
  5
AA3
  8
CUT
 10
499.3572899954564
 20
251.1960481947918
 30
0.0
 42
0.4142135623730951
  0
VERTEX
  5
AA4
  8
CUT
 10
497.3572899954564
 20
249.1960481947918
 30
0.0
 42
0.4142135623730951
  0
VERTEX
  5
AA5
  8
CUT
 10
499.3572899954564
 20
247.1960481947918
 30
0.0
 42
0.4142135623730951
  0
VERTEX
  5
AA6
  8
CUT
 10
501.3572899954564
 20
249.1960481947918
 30
0.0
 42
0.4142135623730951
  0
SEQEND
  5
1033
  8
CUT
  0
POLYLINE
  5
30B
  8
CUT
 66
     1
 10
0.0
 20
0.0
 30
0.0
 70
     1
  0
VERTEX
  5
AA7
  8
CUT
 10
724.3572899954563
 20
251.1960481947918
 30
0.0
 42
0.4142135623730951
  0
VERTEX
  5
AA8
  8
CUT
 10
722.3572899954563
 20
249.1960481947918
 30
0.0
 42
0.4142135623730951
  0
VERTEX
  5
AA9
  8
CUT
 10
724.3572899954563
 20
247.1960481947918
 30
0.0
 42
0.4142135623730951
  0
VERTEX
  5
AAA
  8
CUT
 10
726.3572899954563
 20
249.1960481947918
 30
0.0
 42
0.4142135623730951
  0
SEQEND
  5
1034
  8
CUT
  0
POLYLINE
  5
30C
  8
CUT
 66
     1
 10
0.0
 20
0.0
 30
0.0
 70
     1
  0
VERTEX
  5
AAB
  8
CUT
 10
423.399725462641
 20
610.18915644077
 30
0.0
 42
0.4142135623730951
  0
VERTEX
  5
AAC
  8
CUT
 10
421.399725462641
 20
608.18915644077
 30
0.0
 42
0.4142135623730951
  0
VERTEX
  5
AAD
  8
CUT
 10
423.399725462641
 20
606.18915644077
 30
0.0
 42
0.4142135623730951
  0
VERTEX
  5
AAE
  8
CUT
 10
425.399725462641
 20
608.18915644077
 30
0.0
 42
0.4142135623730951
  0
SEQEND
  5
1035
  8
CUT
  0
POLYLINE
  5
30D
  8
CUT
 66
     1
 10
0.0
 20
0.0
 30
0.0
 70
     1
  0
VERTEX
  5
AAF
  8
CUT
 10
415.5336294465997
 20
465.2393947433382
 30
0.0
 42
0.4142135623730951
  0
VERTEX
  5
AB0
  8
CUT
 10
413.5336294465997
 20
463.2393947433382
 30
0.0
 42
0.4142135623730951
  0
VERTEX
  5
AB1
  8
CUT
 10
415.5336294465997
 20
461.2393947433382
 30
0.0
 42
0.4142135623730951
  0
VERTEX
  5
AB2
  8
CUT
 10
417.5336294465997
 20
463.2393947433382
 30
0.0
 42
0.4142135623730951
  0
SEQEND
  5
1036
  8
CUT
  0
POLYLINE
  5
30E
  8
CUT
 66
     1
 10
0.0
 20
0.0
 30
0.0
 70
     1
  0
VERTEX
  5
AB3
  8
CUT
 10
431.2658214786821
 20
755.1389181382023
 30
0.0
 42
0.4142135623730951
  0
VERTEX
  5
AB4
  8
CUT
 10
429.2658214786821
 20
753.1389181382023
 30
0.0
 42
0.4142135623730951
  0
VERTEX
  5
AB5
  8
CUT
 10
431.2658214786821
 20
751.1389181382023
 30
0.0
 42
0.4142135623730951
  0
VERTEX
  5
AB6
  8
CUT
 10
433.2658214786821
 20
753.1389181382023
 30
0.0
 42
0.4142135623730951
  0
SEQEND
  5
1037
  8
CUT
  0
POLYLINE
  5
30F
  8
CUT
 66
     1
 10
0.0
 20
0.0
 30
0.0
 70
     1
  0
VERTEX
  5
AB7
  8
CUT
 10
407.6675334305584
 20
320.2896330459062
 30
0.0
 42
0.4142135623730951
  0
VERTEX
  5
AB8
  8
CUT
 10
405.6675334305584
 20
318.2896330459062
 30
0.0
 42
0.4142135623730951
  0
VERTEX
  5
AB9
  8
CUT
 10
407.6675334305584
 20
316.2896330459062
 30
0.0
 42
0.4142135623730951
  0
VERTEX
  5
ABA
  8
CUT
 10
409.6675334305584
 20
318.2896330459062
 30
0.0
 42
0.4142135623730951
  0
SEQEND
  5
1038
  8
CUT
  0
POLYLINE
  5
310
  8
CUT
 66
     1
 10
0.0
 20
0.0
 30
0.0
 70
     1
  0
VERTEX
  5
ABB
  8
CUT
 10
391.9353413984759
 20
30.39010965104197
 30
0.0
 42
0.4142135623730951
  0
VERTEX
  5
ABC
  8
CUT
 10
389.9353413984759
 20
28.39010965104197
 30
0.0
 42
0.4142135623730951
  0
VERTEX
  5
ABD
  8
CUT
 10
391.9353413984759
 20
26.39010965104197
 30
0.0
 42
0.4142135623730951
  0
VERTEX
  5
ABE
  8
CUT
 10
393.9353413984759
 20
28.39010965104197
 30
0.0
 42
0.4142135623730951
  0
SEQEND
  5
1039
  8
CUT
  0
POLYLINE
  5
311
  8
CUT
 66
     1
 10
0.0
 20
0.0
 30
0.0
 70
     1
  0
VERTEX
  5
ABF
  8
CUT
 10
403.7344854225378
 20
247.8147521971903
 30
0.0
 42
0.4142135623730951
  0
VERTEX
  5
AC0
  8
CUT
 10
401.7344854225378
 20
245.8147521971903
 30
0.0
 42
0.4142135623730951
  0
VERTEX
  5
AC1
  8
CUT
 10
403.7344854225378
 20
243.8147521971903
 30
0.0
 42
0.4142135623730951
  0
VERTEX
  5
AC2
  8
CUT
 10
405.7344854225378
 20
245.8147521971903
 30
0.0
 42
0.4142135623730951
  0
SEQEND
  5
103A
  8
CUT
  0
POLYLINE
  5
312
  8
CUT
 66
     1
 10
0.0
 20
0.0
 30
0.0
 70
     1
  0
VERTEX
  5
AC3
  8
CUT
 10
435.1988694867027
 20
827.6137989869183
 30
0.0
 42
0.4142135623730951
  0
VERTEX
  5
AC4
  8
CUT
 10
433.1988694867027
 20
825.6137989869183
 30
0.0
 42
0.4142135623730951
  0
VERTEX
  5
AC5
  8
CUT
 10
435.1988694867027
 20
823.6137989869183
 30
0.0
 42
0.4142135623730951
  0
VERTEX
  5
AC6
  8
CUT
 10
437.1988694867027
 20
825.6137989869183
 30
0.0
 42
0.4142135623730951
  0
SEQEND
  5
103B
  8
CUT
  0
POLYLINE
  5
313
  8
CUT
 66
     1
 10
0.0
 20
0.0
 30
0.0
 70
     1
  0
VERTEX
  5
AC7
  8
CUT
 10
419.4666774546204
 20
537.7142755920542
 30
0.0
 42
0.4142135623730951
  0
VERTEX
  5
AC8
  8
CUT
 10
417.4666774546204
 20
535.7142755920542
 30
0.0
 42
0.4142135623730951
  0
VERTEX
  5
AC9
  8
CUT
 10
419.4666774546204
 20
533.7142755920542
 30
0.0
 42
0.4142135623730951
  0
VERTEX
  5
ACA
  8
CUT
 10
421.4666774546204
 20
535.7142755920542
 30
0.0
 42
0.4142135623730951
  0
SEQEND
  5
103C
  8
CUT
  0
POLYLINE
  5
314
  8
CUT
 66
     1
 10
0.0
 20
0.0
 30
0.0
 70
     1
  0
VERTEX
  5
ACB
  8
CUT
 10
427.3327734706616
 20
682.6640372894861
 30
0.0
 42
0.4142135623730951
  0
VERTEX
  5
ACC
  8
CUT
 10
425.3327734706616
 20
680.6640372894861
 30
0.0
 42
0.4142135623730951
  0
VERTEX
  5
ACD
  8
CUT
 10
427.3327734706616
 20
678.6640372894861
 30
0.0
 42
0.4142135623730951
  0
VERTEX
  5
ACE
  8
CUT
 10
429.3327734706616
 20
680.6640372894861
 30
0.0
 42
0.4142135623730951
  0
SEQEND
  5
103D
  8
CUT
  0
POLYLINE
  5
315
  8
CUT
 66
     1
 10
0.0
 20
0.0
 30
0.0
 70
     1
  0
VERTEX
  5
ACF
  8
CUT
 10
411.600581438579
 20
392.7645138946223
 30
0.0
 42
0.4142135623730951
  0
VERTEX
  5
AD0
  8
CUT
 10
409.600581438579
 20
390.7645138946223
 30
0.0
 42
0.4142135623730951
  0
VERTEX
  5
AD1
  8
CUT
 10
411.600581438579
 20
388.7645138946223
 30
0.0
 42
0.4142135623730951
  0
VERTEX
  5
AD2
  8
CUT
 10
413.600581438579
 20
390.7645138946223
 30
0.0
 42
0.4142135623730951
  0
SEQEND
  5
103E
  8
CUT
  0
POLYLINE
  5
316
  8
CUT
 66
     1
 10
0.0
 20
0.0
 30
0.0
 70
     1
  0
VERTEX
  5
AD3
  8
CUT
 10
395.8683894064966
 20
102.8649904997584
 30
0.0
 42
0.4142135623730951
  0
VERTEX
  5
AD4
  8
CUT
 10
393.8683894064966
 20
100.8649904997584
 30
0.0
 42
0.4142135623730951
  0
VERTEX
  5
AD5
  8
CUT
 10
395.8683894064966
 20
98.86499049975845
 30
0.0
 42
0.4142135623730951
  0
VERTEX
  5
AD6
  8
CUT
 10
397.8683894064966
 20
100.8649904997584
 30
0.0
 42
0.4142135623730951
  0
SEQEND
  5
103F
  8
CUT
  0
POLYLINE
  5
317
  8
CUT
 66
     1
 10
0.0
 20
0.0
 30
0.0
 70
     1
  0
VERTEX
  5
AD7
  8
CUT
 10
399.8014374145172
 20
175.3398713484744
 30
0.0
 42
0.4142135623730951
  0
VERTEX
  5
AD8
  8
CUT
 10
397.8014374145172
 20
173.3398713484744
 30
0.0
 42
0.4142135623730951
  0
VERTEX
  5
AD9
  8
CUT
 10
399.8014374145172
 20
171.3398713484744
 30
0.0
 42
0.4142135623730951
  0
VERTEX
  5
ADA
  8
CUT
 10
401.8014374145172
 20
173.3398713484744
 30
0.0
 42
0.4142135623730951
  0
SEQEND
  5
1040
  8
CUT
  0
POLYLINE
  5
318
  8
CUT
 66
     1
 10
0.0
 20
0.0
 30
0.0
 70
     1
  0
VERTEX
  5
ADB
  8
CUT
 10
439.1319174947233
 20
900.0886798356346
 30
0.0
 42
0.4142135623730951
  0
VERTEX
  5
ADC
  8
CUT
 10
437.1319174947233
 20
898.0886798356346
 30
0.0
 42
0.4142135623730951
  0
VERTEX
  5
ADD
  8
CUT
 10
439.1319174947233
 20
896.0886798356346
 30
0.0
 42
0.4142135623730951
  0
VERTEX
  5
ADE
  8
CUT
 10
441.1319174947233
 20
898.0886798356346
 30
0.0
 42
0.4142135623730951
  0
SEQEND
  5
1041
  8
CUT
  0
POLYLINE
  5
319
  8
CUT
 66
     1
 10
0.0
 20
0.0
 30
0.0
 70
     1
  0
VERTEX
  5
ADF
  8
CUT
 10
754.0786497604262
 20
611.7501026088238
 30
0.0
 42
0.4142135623730951
  0
VERTEX
  5
AE0
  8
CUT
 10
752.0786497604262
 20
609.7501026088238
 30
0.0
 42
0.4142135623730951
  0
VERTEX
  5
AE1
  8
CUT
 10
754.0786497604262
 20
607.7501026088238
 30
0.0
 42
0.4142135623730951
  0
VERTEX
  5
AE2
  8
CUT
 10
756.0786497604262
 20
609.7501026088238
 30
0.0
 42
0.4142135623730951
  0
SEQEND
  5
1042
  8
CUT
  0
POLYLINE
  5
31A
  8
CUT
 66
     1
 10
0.0
 20
0.0
 30
0.0
 70
     1
  0
VERTEX
  5
AE3
  8
CUT
 10
738.3464577283436
 20
901.6496260036882
 30
0.0
 42
0.4142135623730951
  0
VERTEX
  5
AE4
  8
CUT
 10
736.3464577283436
 20
899.6496260036882
 30
0.0
 42
0.4142135623730951
  0
VERTEX
  5
AE5
  8
CUT
 10
738.3464577283436
 20
897.6496260036882
 30
0.0
 42
0.4142135623730951
  0
VERTEX
  5
AE6
  8
CUT
 10
740.3464577283436
 20
899.6496260036882
 30
0.0
 42
0.4142135623730951
  0
SEQEND
  5
1043
  8
CUT
  0
POLYLINE
  5
31B
  8
CUT
 66
     1
 10
0.0
 20
0.0
 30
0.0
 70
     1
  0
VERTEX
  5
AE7
  8
CUT
 10
777.67693780855
 20
176.9008175165278
 30
0.0
 42
0.4142135623730951
  0
VERTEX
  5
AE8
  8
CUT
 10
775.67693780855
 20
174.9008175165278
 30
0.0
 42
0.4142135623730951
  0
VERTEX
  5
AE9
  8
CUT
 10
777.67693780855
 20
172.9008175165278
 30
0.0
 42
0.4142135623730951
  0
VERTEX
  5
AEA
  8
CUT
 10
779.67693780855
 20
174.9008175165278
 30
0.0
 42
0.4142135623730951
  0
SEQEND
  5
1044
  8
CUT
  0
POLYLINE
  5
31C
  8
CUT
 66
     1
 10
0.0
 20
0.0
 30
0.0
 70
     1
  0
VERTEX
  5
AEB
  8
CUT
 10
781.6099858165705
 20
104.4259366678119
 30
0.0
 42
0.4142135623730951
  0
VERTEX
  5
AEC
  8
CUT
 10
779.6099858165705
 20
102.4259366678119
 30
0.0
 42
0.4142135623730951
  0
VERTEX
  5
AED
  8
CUT
 10
781.6099858165705
 20
100.4259366678119
 30
0.0
 42
0.4142135623730951
  0
VERTEX
  5
AEE
  8
CUT
 10
783.6099858165705
 20
102.4259366678119
 30
0.0
 42
0.4142135623730951
  0
SEQEND
  5
1045
  8
CUT
  0
POLYLINE
  5
31D
  8
CUT
 66
     1
 10
0.0
 20
0.0
 30
0.0
 70
     1
  0
VERTEX
  5
AEF
  8
CUT
 10
765.8777937844882
 20
394.3254600626758
 30
0.0
 42
0.4142135623730951
  0
VERTEX
  5
AF0
  8
CUT
 10
763.8777937844882
 20
392.3254600626758
 30
0.0
 42
0.4142135623730951
  0
VERTEX
  5
AF1
  8
CUT
 10
765.8777937844882
 20
390.3254600626758
 30
0.0
 42
0.4142135623730951
  0
VERTEX
  5
AF2
  8
CUT
 10
767.8777937844882
 20
392.3254600626758
 30
0.0
 42
0.4142135623730951
  0
SEQEND
  5
1046
  8
CUT
  0
POLYLINE
  5
31E
  8
CUT
 66
     1
 10
0.0
 20
0.0
 30
0.0
 70
     1
  0
VERTEX
  5
AF3
  8
CUT
 10
750.1456017524056
 20
684.2249834575398
 30
0.0
 42
0.4142135623730951
  0
VERTEX
  5
AF4
  8
CUT
 10
748.1456017524056
 20
682.2249834575398
 30
0.0
 42
0.4142135623730951
  0
VERTEX
  5
AF5
  8
CUT
 10
750.1456017524056
 20
680.2249834575398
 30
0.0
 42
0.4142135623730951
  0
VERTEX
  5
AF6
  8
CUT
 10
752.1456017524056
 20
682.2249834575398
 30
0.0
 42
0.4142135623730951
  0
SEQEND
  5
1047
  8
CUT
  0
POLYLINE
  5
31F
  8
CUT
 66
     1
 10
0.0
 20
0.0
 30
0.0
 70
     1
  0
VERTEX
  5
AF7
  8
CUT
 10
758.0116977684469
 20
539.2752217601078
 30
0.0
 42
0.4142135623730951
  0
VERTEX
  5
AF8
  8
CUT
 10
756.0116977684469
 20
537.2752217601078
 30
0.0
 42
0.4142135623730951
  0
VERTEX
  5
AF9
  8
CUT
 10
758.0116977684469
 20
535.2752217601078
 30
0.0
 42
0.4142135623730951
  0
VERTEX
  5
AFA
  8
CUT
 10
760.0116977684469
 20
537.2752217601078
 30
0.0
 42
0.4142135623730951
  0
SEQEND
  5
1048
  8
CUT
  0
POLYLINE
  5
320
  8
CUT
 66
     1
 10
0.0
 20
0.0
 30
0.0
 70
     1
  0
VERTEX
  5
AFB
  8
CUT
 10
742.2795057363643
 20
829.1747451549719
 30
0.0
 42
0.4142135623730951
  0
VERTEX
  5
AFC
  8
CUT
 10
740.2795057363643
 20
827.1747451549719
 30
0.0
 42
0.4142135623730951
  0
VERTEX
  5
AFD
  8
CUT
 10
742.2795057363643
 20
825.1747451549719
 30
0.0
 42
0.4142135623730951
  0
VERTEX
  5
AFE
  8
CUT
 10
744.2795057363643
 20
827.1747451549719
 30
0.0
 42
0.4142135623730951
  0
SEQEND
  5
1049
  8
CUT
  0
POLYLINE
  5
321
  8
CUT
 66
     1
 10
0.0
 20
0.0
 30
0.0
 70
     1
  0
VERTEX
  5
AFF
  8
CUT
 10
773.7438898005295
 20
249.3756983652439
 30
0.0
 42
0.4142135623730951
  0
VERTEX
  5
B00
  8
CUT
 10
771.7438898005295
 20
247.3756983652439
 30
0.0
 42
0.4142135623730951
  0
VERTEX
  5
B01
  8
CUT
 10
773.7438898005295
 20
245.3756983652439
 30
0.0
 42
0.4142135623730951
  0
VERTEX
  5
B02
  8
CUT
 10
775.7438898005295
 20
247.3756983652439
 30
0.0
 42
0.4142135623730951
  0
SEQEND
  5
104A
  8
CUT
  0
POLYLINE
  5
322
  8
CUT
 66
     1
 10
0.0
 20
0.0
 30
0.0
 70
     1
  0
VERTEX
  5
B03
  8
CUT
 10
785.5430338245912
 20
31.95105581909573
 30
0.0
 42
0.4142135623730951
  0
VERTEX
  5
B04
  8
CUT
 10
783.5430338245912
 20
29.95105581909573
 30
0.0
 42
0.4142135623730951
  0
VERTEX
  5
B05
  8
CUT
 10
785.5430338245912
 20
27.95105581909573
 30
0.0
 42
0.4142135623730951
  0
VERTEX
  5
B06
  8
CUT
 10
787.5430338245912
 20
29.95105581909573
 30
0.0
 42
0.4142135623730951
  0
SEQEND
  5
104B
  8
CUT
  0
POLYLINE
  5
323
  8
CUT
 66
     1
 10
0.0
 20
0.0
 30
0.0
 70
     1
  0
VERTEX
  5
B07
  8
CUT
 10
769.8108417925088
 20
321.8505792139599
 30
0.0
 42
0.4142135623730951
  0
VERTEX
  5
B08
  8
CUT
 10
767.8108417925088
 20
319.8505792139599
 30
0.0
 42
0.4142135623730951
  0
VERTEX
  5
B09
  8
CUT
 10
769.8108417925088
 20
317.8505792139599
 30
0.0
 42
0.4142135623730951
  0
VERTEX
  5
B0A
  8
CUT
 10
771.8108417925088
 20
319.8505792139599
 30
0.0
 42
0.4142135623730951
  0
SEQEND
  5
104C
  8
CUT
  0
POLYLINE
  5
324
  8
CUT
 66
     1
 10
0.0
 20
0.0
 30
0.0
 70
     1
  0
VERTEX
  5
B0B
  8
CUT
 10
746.2125537443849
 20
756.6998643062558
 30
0.0
 42
0.4142135623730951
  0
VERTEX
  5
B0C
  8
CUT
 10
744.2125537443849
 20
754.6998643062558
 30
0.0
 42
0.4142135623730951
  0
VERTEX
  5
B0D
  8
CUT
 10
746.2125537443849
 20
752.6998643062558
 30
0.0
 42
0.4142135623730951
  0
VERTEX
  5
B0E
  8
CUT
 10
748.2125537443849
 20
754.6998643062558
 30
0.0
 42
0.4142135623730951
  0
SEQEND
  5
104D
  8
CUT
  0
POLYLINE
  5
325
  8
CUT
 66
     1
 10
0.0
 20
0.0
 30
0.0
 70
     1
  0
VERTEX
  5
B0F
  8
CUT
 10
761.9447457764675
 20
466.8003409113917
 30
0.0
 42
0.4142135623730951
  0
VERTEX
  5
B10
  8
CUT
 10
759.9447457764675
 20
464.8003409113917
 30
0.0
 42
0.4142135623730951
  0
VERTEX
  5
B11
  8
CUT
 10
761.9447457764675
 20
462.8003409113917
 30
0.0
 42
0.4142135623730951
  0
VERTEX
  5
B12
  8
CUT
 10
763.9447457764675
 20
464.8003409113917
 30
0.0
 42
0.4142135623730951
  0
SEQEND
  5
104E
  8
CUT
  0
POLYLINE
  5
326
  8
CUT
 66
     1
 10
0.0
 20
0.0
 30
0.0
 70
     1
  0
VERTEX
  5
B13
  8
CUT
 10
611.8572899954562
 20
942.0
 30
0.0
 42
0.4142135623730951
  0
VERTEX
  5
B14
  8
CUT
 10
609.8572899954562
 20
940.0
 30
0.0
 42
0.4142135623730951
  0
VERTEX
  5
B15
  8
CUT
 10
611.8572899954562
 20
938.0
 30
0.0
 42
0.4142135623730951
  0
VERTEX
  5
B16
  8
CUT
 10
613.8572899954562
 20
940.0
 30
0.0
 42
0.4142135623730951
  0
SEQEND
  5
104F
  8
CUT
  0
POLYLINE
  5
327
  8
CUT
 66
     1
 10
0.0
 20
0.0
 30
0.0
 70
     1
  0
VERTEX
  5
B17
  8
CUT
 10
536.8572899954562
 20
942.0
 30
0.0
 42
0.4142135623730951
  0
VERTEX
  5
B18
  8
CUT
 10
534.8572899954562
 20
940.0
 30
0.0
 42
0.4142135623730951
  0
VERTEX
  5
B19
  8
CUT
 10
536.8572899954562
 20
938.0
 30
0.0
 42
0.4142135623730951
  0
VERTEX
  5
B1A
  8
CUT
 10
538.8572899954562
 20
940.0
 30
0.0
 42
0.4142135623730951
  0
SEQEND
  5
1050
  8
CUT
  0
POLYLINE
  5
328
  8
CUT
 66
     1
 10
0.0
 20
0.0
 30
0.0
 70
     1
  0
VERTEX
  5
B1B
  8
CUT
 10
686.8572899954562
 20
942.0
 30
0.0
 42
0.4142135623730951
  0
VERTEX
  5
B1C
  8
CUT
 10
684.8572899954562
 20
940.0
 30
0.0
 42
0.4142135623730951
  0
VERTEX
  5
B1D
  8
CUT
 10
686.8572899954562
 20
938.0
 30
0.0
 42
0.4142135623730951
  0
VERTEX
  5
B1E
  8
CUT
 10
688.8572899954562
 20
940.0
 30
0.0
 42
0.4142135623730951
  0
SEQEND
  5
1051
  8
CUT
  0
POLYLINE
  5
329
  8
CUT
 66
     1
 10
0.0
 20
0.0
 30
0.0
 70
     1
  0
VERTEX
  5
B1F
  8
CUT
 10
461.8572899954563
 20
942.0
 30
0.0
 42
0.4142135623730951
  0
VERTEX
  5
B20
  8
CUT
 10
459.8572899954563
 20
940.0
 30
0.0
 42
0.4142135623730951
  0
VERTEX
  5
B21
  8
CUT
 10
461.8572899954563
 20
938.0
 30
0.0
 42
0.4142135623730951
  0
VERTEX
  5
B22
  8
CUT
 10
463.8572899954563
 20
940.0
 30
0.0
 42
0.4142135623730951
  0
SEQEND
  5
1052
  8
CUT
  0
POLYLINE
  5
32A
  8
CUT
 66
     1
 10
0.0
 20
0.0
 30
0.0
 70
     1
  0
VERTEX
  5
B23
  8
CUT
 10
721.910860606027
 20
845.4167288713732
 30
0.0
  0
VERTEX
  5
B24
  8
CUT
 10
720.0266224566282
 20
880.1378751904405
 30
0.0
 42
-0.9999999999999865
  0
VERTEX
  5
B25
  8
CUT
 10
727.9034586354131
 20
880.5653332901251
 30
0.0
  0
VERTEX
  5
B26
  8
CUT
 10
729.7876967847864
 20
845.8441869710567
 30
0.0
 42
-0.9999999999993654
  0
SEQEND
  5
1053
  8
CUT
  0
POLYLINE
  5
32B
  8
CUT
 66
     1
 10
0.0
 20
0.0
 30
0.0
 70
     1
  0
VERTEX
  5
B27
  8
CUT
 10
725.0353769660376
 20
787.8407851148181
 30
0.0
  0
VERTEX
  5
B28
  8
CUT
 10
723.1511388166392
 20
822.5619314338852
 30
0.0
 42
-0.4142135623730863
  0
VERTEX
  5
B29
  8
CUT
 10
726.875827856163
 20
826.7140785731194
 30
0.0
 42
-0.4142135623731231
  0
VERTEX
  5
B2A
  8
CUT
 10
731.0279749954241
 20
822.98938953357
 30
0.0
  0
VERTEX
  5
B2B
  8
CUT
 10
732.9122131447975
 20
788.2682432145017
 30
0.0
 42
-0.9999999999994094
  0
SEQEND
  5
1054
  8
CUT
  0
POLYLINE
  5
32C
  8
CUT
 66
     1
 10
0.0
 20
0.0
 30
0.0
 70
     1
  0
VERTEX
  5
B2C
  8
CUT
 10
728.1598933260481
 20
730.2648413582631
 30
0.0
  0
VERTEX
  5
B2D
  8
CUT
 10
726.2756551766499
 20
764.9859876773302
 30
0.0
 42
-0.4142135623730903
  0
VERTEX
  5
B2E
  8
CUT
 10
730.0003442161741
 20
769.1381348165644
 30
0.0
 42
-0.4142135623730967
  0
VERTEX
  5
B2F
  8
CUT
 10
734.152491355435
 20
765.4134457770152
 30
0.0
  0
VERTEX
  5
B30
  8
CUT
 10
736.036729504808
 20
730.6922994579464
 30
0.0
 42
-0.9999999999993942
  0
SEQEND
  5
1055
  8
CUT
  0
POLYLINE
  5
32D
  8
CUT
 66
     1
 10
0.0
 20
0.0
 30
0.0
 70
     1
  0
VERTEX
  5
B31
  8
CUT
 10
731.2844096860586
 20
672.6888976017082
 30
0.0
  0
VERTEX
  5
B32
  8
CUT
 10
729.4001715366609
 20
707.4100439207754
 30
0.0
 42
-0.4142135623731031
  0
VERTEX
  5
B33
  8
CUT
 10
733.1248605761856
 20
711.5621910600098
 30
0.0
 42
-0.4142135623730949
  0
VERTEX
  5
B34
  8
CUT
 10
737.2770077154458
 20
707.8375020204602
 30
0.0
  0
VERTEX
  5
B35
  8
CUT
 10
739.1612458648187
 20
673.1163557013916
 30
0.0
 42
-0.9999999999993654
  0
SEQEND
  5
1056
  8
CUT
  0
POLYLINE
  5
32E
  8
CUT
 66
     1
 10
0.0
 20
0.0
 30
0.0
 70
     1
  0
VERTEX
  5
B36
  8
CUT
 10
734.4089260460692
 20
615.1129538451532
 30
0.0
  0
VERTEX
  5
B37
  8
CUT
 10
732.5246878966719
 20
649.8341001642203
 30
0.0
 42
-1.0
  0
VERTEX
  5
B38
  8
CUT
 10
740.4015240754569
 20
650.2615582639053
 30
0.0
  0
VERTEX
  5
B39
  8
CUT
 10
742.2857622248295
 20
615.5404119448366
 30
0.0
 42
-0.9999999999993517
  0
SEQEND
  5
1057
  8
CUT
  0
POLYLINE
  5
32F
  8
CUT
 66
     1
 10
0.0
 20
0.0
 30
0.0
 70
     1
  0
VERTEX
  5
B3A
  8
CUT
 10
737.5334424060796
 20
557.5370100885982
 30
0.0
  0
VERTEX
  5
B3B
  8
CUT
 10
735.6492042566823
 20
592.2581564076655
 30
0.0
 42
-0.9999999999999789
  0
VERTEX
  5
B3C
  8
CUT
 10
743.5260404354673
 20
592.6856145073504
 30
0.0
  0
VERTEX
  5
B3D
  8
CUT
 10
745.4102785848407
 20
557.9644681882817
 30
0.0
 42
-0.999999999999351
  0
SEQEND
  5
1058
  8
CUT
  0
POLYLINE
  5
330
  8
CUT
 66
     1
 10
0.0
 20
0.0
 30
0.0
 70
     1
  0
VERTEX
  5
B3E
  8
CUT
 10
740.6579587660901
 20
499.9610663320432
 30
0.0
  0
VERTEX
  5
B3F
  8
CUT
 10
738.7737206166934
 20
534.6822126511106
 30
0.0
 42
-1.0
  0
VERTEX
  5
B40
  8
CUT
 10
746.6505567954783
 20
535.1096707507954
 30
0.0
  0
VERTEX
  5
B41
  8
CUT
 10
748.5347949448516
 20
500.3885244317266
 30
0.0
 42
-0.999999999999351
  0
SEQEND
  5
1059
  8
CUT
  0
POLYLINE
  5
331
  8
CUT
 66
     1
 10
0.0
 20
0.0
 30
0.0
 70
     1
  0
VERTEX
  5
B42
  8
CUT
 10
743.7824751261006
 20
442.3851225754881
 30
0.0
  0
VERTEX
  5
B43
  8
CUT
 10
741.8982369767043
 20
477.1062688945555
 30
0.0
 42
-0.4142135623730901
  0
VERTEX
  5
B44
  8
CUT
 10
745.6229260162303
 20
481.2584160337899
 30
0.0
 42
-0.4142135623731015
  0
VERTEX
  5
B45
  8
CUT
 10
749.7750731554893
 20
477.5337269942404
 30
0.0
  0
VERTEX
  5
B46
  8
CUT
 10
751.6593113048624
 20
442.8125806751717
 30
0.0
 42
-0.9999999999993153
  0
SEQEND
  5
105A
  8
CUT
  0
POLYLINE
  5
332
  8
CUT
 66
     1
 10
0.0
 20
0.0
 30
0.0
 70
     1
  0
VERTEX
  5
B47
  8
CUT
 10
746.9069914861112
 20
384.8091788189332
 30
0.0
  0
VERTEX
  5
B48
  8
CUT
 10
745.0227533367153
 20
419.5303251380005
 30
0.0
 42
-0.9999999999999925
  0
VERTEX
  5
B49
  8
CUT
 10
752.8995895155002
 20
419.9577832376854
 30
0.0
  0
VERTEX
  5
B4A
  8
CUT
 10
754.7838276648732
 20
385.2366369186167
 30
0.0
 42
-0.999999999999329
  0
SEQEND
  5
105B
  8
CUT
  0
POLYLINE
  5
333
  8
CUT
 66
     1
 10
0.0
 20
0.0
 30
0.0
 70
     1
  0
VERTEX
  5
B4B
  8
CUT
 10
750.0315078461216
 20
327.2332350623781
 30
0.0
  0
VERTEX
  5
B4C
  8
CUT
 10
748.1472696967261
 20
361.9543813814456
 30
0.0
 42
-0.9999999999999856
  0
VERTEX
  5
B4D
  8
CUT
 10
756.024105875511
 20
362.3818394811304
 30
0.0
  0
VERTEX
  5
B4E
  8
CUT
 10
757.9083440248841
 20
327.6606931620618
 30
0.0
 42
-0.9999999999993222
  0
SEQEND
  5
105C
  8
CUT
  0
POLYLINE
  5
334
  8
CUT
 66
     1
 10
0.0
 20
0.0
 30
0.0
 70
     1
  0
VERTEX
  5
B4F
  8
CUT
 10
753.1560242061322
 20
269.657291305823
 30
0.0
  0
VERTEX
  5
B50
  8
CUT
 10
751.2717860567369
 20
304.3784376248905
 30
0.0
 42
-0.4142135623730845
  0
VERTEX
  5
B51
  8
CUT
 10
754.9964750962638
 20
308.5305847641248
 30
0.0
 42
-0.4142135623730987
  0
VERTEX
  5
B52
  8
CUT
 10
759.1486222355219
 20
304.8058957245753
 30
0.0
  0
VERTEX
  5
B53
  8
CUT
 10
761.0328603848949
 20
270.0847494055066
 30
0.0
 42
-0.9999999999993294
  0
SEQEND
  5
105D
  8
CUT
  0
POLYLINE
  5
335
  8
CUT
 66
     1
 10
0.0
 20
0.0
 30
0.0
 70
     1
  0
VERTEX
  5
B54
  8
CUT
 10
756.2805405661426
 20
212.0813475492682
 30
0.0
  0
VERTEX
  5
B55
  8
CUT
 10
754.396302416748
 20
246.8024938683357
 30
0.0
 42
-0.4142135623730785
  0
VERTEX
  5
B56
  8
CUT
 10
758.1209914562756
 20
250.9546410075702
 30
0.0
 42
-0.4142135623730944
  0
VERTEX
  5
B57
  8
CUT
 10
762.2731385955329
 20
247.2299519680205
 30
0.0
  0
VERTEX
  5
B58
  8
CUT
 10
764.157376744906
 20
212.5088056489517
 30
0.0
 42
-0.9999999999992858
  0
SEQEND
  5
105E
  8
CUT
  0
POLYLINE
  5
336
  8
CUT
 66
     1
 10
0.0
 20
0.0
 30
0.0
 70
     1
  0
VERTEX
  5
B59
  8
CUT
 10
759.4050569261532
 20
154.5054037927132
 30
0.0
  0
VERTEX
  5
B5A
  8
CUT
 10
757.5208187767591
 20
189.2265501117808
 30
0.0
 42
-0.4142135623731024
  0
VERTEX
  5
B5B
  8
CUT
 10
761.2455078162873
 20
193.3786972510155
 30
0.0
 42
-0.4142135623731041
  0
VERTEX
  5
B5C
  8
CUT
 10
765.3976549555441
 20
189.6540082114657
 30
0.0
  0
VERTEX
  5
B5D
  8
CUT
 10
767.2818931049168
 20
154.9328618923968
 30
0.0
 42
-0.9999999999992414
  0
SEQEND
  5
105F
  8
CUT
  0
POLYLINE
  5
337
  8
CUT
 66
     1
 10
0.0
 20
0.0
 30
0.0
 70
     1
  0
VERTEX
  5
B5E
  8
CUT
 10
762.5295732861636
 20
96.92946003615819
 30
0.0
  0
VERTEX
  5
B5F
  8
CUT
 10
760.6453351367699
 20
131.6506063552257
 30
0.0
 42
-0.4142135623730955
  0
VERTEX
  5
B60
  8
CUT
 10
764.3700241762986
 20
135.8027534944602
 30
0.0
 42
-0.4142135623730892
  0
VERTEX
  5
B61
  8
CUT
 10
768.5221713155548
 20
132.0780644549105
 30
0.0
  0
VERTEX
  5
B62
  8
CUT
 10
770.4064094649276
 20
97.35691813584178
 30
0.0
 42
-0.9999999999992456
  0
SEQEND
  5
1060
  8
CUT
  0
POLYLINE
  5
338
  8
CUT
 66
     1
 10
0.0
 20
0.0
 30
0.0
 70
     1
  0
VERTEX
  5
B63
  8
CUT
 10
435.0769133081899
 20
268.2539744089432
 30
0.0
 42
0.4456095382750139
  0
VERTEX
  5
B64
  8
CUT
 10
445.0207954537813
 20
257.1960481947917
 30
0.0
  0
VERTEX
  5
B65
  8
CUT
 10
703.6937845371314
 20
257.1960481947917
 30
0.0
 42
0.4456095382750124
  0
VERTEX
  5
B66
  8
CUT
 10
713.6376666827227
 20
268.2539744089433
 30
0.0
  0
VERTEX
  5
B67
  8
CUT
 10
652.2150409069703
 20
845.5904120703595
 30
0.0
 42
0.1829051208190555
  0
VERTEX
  5
B68
  8
CUT
 10
642.3730083911986
 20
864.6846563178918
 30
0.0
 42
0.1832377904857229
  0
VERTEX
  5
B69
  8
CUT
 10
622.3838875435928
 20
872.4515843198295
 30
0.0
  0
VERTEX
  5
B6A
  8
CUT
 10
526.3306924473196
 20
872.4515843198295
 30
0.0
 42
0.1832377904857286
  0
VERTEX
  5
B6B
  8
CUT
 10
506.3415715997135
 20
864.6846563178916
 30
0.0
 42
0.1829051208190505
  0
VERTEX
  5
B6C
  8
CUT
 10
496.4995390839421
 20
845.5904120703595
 30
0.0
  0
SEQEND
  5
1061
  8
CUT
  0
POLYLINE
  5
339
  8
CUT
 66
     1
 10
0.0
 20
0.0
 30
0.0
 70
     1
  0
VERTEX
  5
B6D
  8
CUT
 10
765.6540896461742
 20
39.35351627960318
 30
0.0
  0
VERTEX
  5
B6E
  8
CUT
 10
763.7698514967808
 20
74.07466259867081
 30
0.0
 42
-0.4142135623730954
  0
VERTEX
  5
B6F
  8
CUT
 10
767.4945405363098
 20
78.22680973790536
 30
0.0
 42
-0.4142135623730887
  0
VERTEX
  5
B70
  8
CUT
 10
771.6466876755658
 20
74.50212069835555
 30
0.0
  0
VERTEX
  5
B71
  8
CUT
 10
773.5309258249384
 20
39.78097437928683
 30
0.0
 42
-0.9999999999992226
  0
SEQEND
  5
1062
  8
CUT
  0
POLYLINE
  5
33A
  8
CUT
 66
     1
 10
0.0
 20
0.0
 30
0.0
 70
     1
  0
VERTEX
  5
B72
  8
CUT
 10
387.4953138313743
 20
16.39010965104237
 30
0.0
  0
VERTEX
  5
B73
  8
CUT
 10
401.0882957184378
 20
16.39010965104237
 30
0.0
 42
0.1813120094618831
  0
VERTEX
  5
B74
  8
CUT
 10
406.4035373100186
 20
18.4782262962874
 30
0.0
 42
0.1809851551784637
  0
VERTEX
  5
B75
  8
CUT
 10
409.0432699486717
 20
23.55308891756759
 30
0.0
  0
VERTEX
  5
B76
  8
CUT
 10
427.8547421088594
 20
200.3698268372463
 30
0.0
 42
-0.3834994492264608
  0
VERTEX
  5
B77
  8
CUT
 10
457.6863885456335
 20
227.1960481947919
 30
0.0
  0
VERTEX
  5
B78
  8
CUT
 10
691.028191445279
 20
227.1960481947919
 30
0.0
 42
-0.3834994492264634
  0
VERTEX
  5
B79
  8
CUT
 10
720.8598378820533
 20
200.3698268372463
 30
0.0
  0
VERTEX
  5
B7A
  8
CUT
 10
739.6713100422411
 20
23.55308891756771
 30
0.0
 42
0.1809851551783977
  0
VERTEX
  5
B7B
  8
CUT
 10
742.3110426808944
 20
18.47822629628863
 30
0.0
 42
0.1813120094617822
  0
VERTEX
  5
B7C
  8
CUT
 10
747.6262842724753
 20
16.39010965104241
 30
0.0
  0
VERTEX
  5
B7D
  8
CUT
 10
763.8052067354695
 20
16.39010965103355
 30
0.0
 42
0.0517041660956841
  0
VERTEX
  5
B7E
  8
CUT
 10
764.6318570655478
 20
16.47718410991348
 30
0.0
 42
0.0516663261441014
  0
VERTEX
  5
B7F
  8
CUT
 10
765.4236532917073
 20
16.73213215075317
 30
0.0
 42
0.0830755646184238
  0
VERTEX
  5
B80
  8
CUT
 10
766.5352707199874
 20
17.4680048606285
 30
0.0
 42
0.0830117673622984
  0
VERTEX
  5
B81
  8
CUT
 10
767.3475739504385
 20
18.52633405221968
 30
0.0
 42
-0.566081599835543
  0
VERTEX
  5
B82
  8
CUT
 10
774.1012374803834
 20
18.89284011034121
 30
0.0
 42
0.0830124675827987
  0
VERTEX
  5
B83
  8
CUT
 10
775.0233050672007
 20
17.92862226910933
 30
0.0
 42
0.08307749204511
  0
VERTEX
  5
B84
  8
CUT
 10
776.2080223267574
 20
17.31737548822888
 30
0.0
 42
0.0516652008243119
  0
VERTEX
  5
B85
  8
CUT
 10
777.022763180563
 20
17.14961120622384
 30
0.0
 42
0.0517036397996203
  0
VERTEX
  5
B86
  8
CUT
 10
777.8539768386145
 20
17.15250465771919
 30
0.0
  0
VERTEX
  5
B87
  8
CUT
 10
789.4088811496555
 20
18.41032601743822
 30
0.0
 42
0.1862738792150982
  0
VERTEX
  5
B88
  8
CUT
 10
791.9968359687165
 20
19.82107560222883
 30
0.0
 42
0.1859305822343641
  0
VERTEX
  5
B89
  8
CUT
 10
792.9695501744287
 20
22.60881828116261
 30
0.0
  0
VERTEX
  5
B8A
  8
CUT
 10
745.2907487347946
 20
901.1934290716417
 30
0.0
 42
0.430183273295335
  0
VERTEX
  5
B8B
  8
CUT
 10
740.8637585988861
 20
904.953186320889
 30
0.0
  0
VERTEX
  5
B8C
  8
CUT
 10
729.4364182166247
 20
903.7092510678953
 30
0.0
 42
0.0858427881036748
  0
VERTEX
  5
B8D
  8
CUT
 10
728.125964308385
 20
903.3328573073628
 30
0.0
 42
0.1683874153580451
  0
VERTEX
  5
B8E
  8
CUT
 10
726.2719382473732
 20
901.4817683246196
 30
0.0
 42
-0.6475007239956572
  0
VERTEX
  5
B8F
  8
CUT
 10
719.0775967408155
 20
901.7047358429699
 30
0.0
  0
VERTEX
  5
B90
  8
CUT
 10
717.1432361974898
 20
906.4028071833161
 30
0.0
  0
VERTEX
  5
B91
  8
CUT
 10
702.5659813528539
 20
941.8072634217621
 30
0.0
 42
0.3039248401968789
  0
VERTEX
  5
B92
  8
CUT
 10
693.3191037589137
 20
948.0
 30
0.0
  0
VERTEX
  5
B93
  8
CUT
 10
455.3954762319987
 20
948.0
 30
0.0
 42
0.3039248401968831
  0
VERTEX
  5
B94
  8
CUT
 10
446.1485986380586
 20
941.8072634217621
 30
0.0
  0
VERTEX
  5
B95
  8
CUT
 10
432.2177592739138
 20
907.9727864993662
 30
0.0
 42
0.0842905555495233
  0
VERTEX
  5
B96
  8
CUT
 10
431.4793293620516
 20
904.7074031515727
 30
0.0
  0
VERTEX
  5
B97
  8
CUT
 10
383.5011908290534
 20
20.60686168062989
 30
0.0
 42
0.4301832732953306
  0
SEQEND
  5
1063
  8
CUT
  0
POLYLINE
  5
33B
  8
CUT
 66
     1
 10
0.0
 20
0.0
 30
0.0
 70
     1
  0
VERTEX
  5
B98
  8
CUT
 10
894.1149794392447
 20
719.1940614562418
 30
0.0
 42
0.4142135623730951
  0
VERTEX
  5
B99
  8
CUT
 10
896.1149794392447
 20
721.1940614562418
 30
0.0
 42
0.4142135623730951
  0
VERTEX
  5
B9A
  8
CUT
 10
894.1149794392447
 20
723.1940614562418
 30
0.0
 42
0.4142135623730951
  0
VERTEX
  5
B9B
  8
CUT
 10
892.1149794392447
 20
721.1940614562418
 30
0.0
 42
0.4142135623730951
  0
SEQEND
  5
1064
  8
CUT
  0
POLYLINE
  5
33C
  8
CUT
 66
     1
 10
0.0
 20
0.0
 30
0.0
 70
     1
  0
VERTEX
  5
B9C
  8
CUT
 10
1119.114979439245
 20
719.194061456242
 30
0.0
 42
0.4142135623730951
  0
VERTEX
  5
B9D
  8
CUT
 10
1121.114979439245
 20
721.194061456242
 30
0.0
 42
0.4142135623730951
  0
VERTEX
  5
B9E
  8
CUT
 10
1119.114979439245
 20
723.194061456242
 30
0.0
 42
0.4142135623730951
  0
VERTEX
  5
B9F
  8
CUT
 10
1117.114979439245
 20
721.194061456242
 30
0.0
 42
0.4142135623730951
  0
SEQEND
  5
1065
  8
CUT
  0
POLYLINE
  5
33D
  8
CUT
 66
     1
 10
0.0
 20
0.0
 30
0.0
 70
     1
  0
VERTEX
  5
BA0
  8
CUT
 10
969.1149794392447
 20
719.1940614562418
 30
0.0
 42
0.4142135623730951
  0
VERTEX
  5
BA1
  8
CUT
 10
971.1149794392447
 20
721.1940614562418
 30
0.0
 42
0.4142135623730951
  0
VERTEX
  5
BA2
  8
CUT
 10
969.1149794392447
 20
723.1940614562418
 30
0.0
 42
0.4142135623730951
  0
VERTEX
  5
BA3
  8
CUT
 10
967.1149794392447
 20
721.1940614562418
 30
0.0
 42
0.4142135623730951
  0
SEQEND
  5
1066
  8
CUT
  0
POLYLINE
  5
33E
  8
CUT
 66
     1
 10
0.0
 20
0.0
 30
0.0
 70
     1
  0
VERTEX
  5
BA4
  8
CUT
 10
1044.114979439245
 20
719.1940614562418
 30
0.0
 42
0.4142135623730951
  0
VERTEX
  5
BA5
  8
CUT
 10
1046.114979439245
 20
721.1940614562418
 30
0.0
 42
0.4142135623730951
  0
VERTEX
  5
BA6
  8
CUT
 10
1044.114979439245
 20
723.1940614562418
 30
0.0
 42
0.4142135623730951
  0
VERTEX
  5
BA7
  8
CUT
 10
1042.114979439245
 20
721.1940614562418
 30
0.0
 42
0.4142135623730951
  0
SEQEND
  5
1067
  8
CUT
  0
POLYLINE
  5
33F
  8
CUT
 66
     1
 10
0.0
 20
0.0
 30
0.0
 70
     1
  0
VERTEX
  5
BA8
  8
CUT
 10
819.1149794392447
 20
719.1940614562418
 30
0.0
 42
0.4142135623730951
  0
VERTEX
  5
BA9
  8
CUT
 10
821.1149794392447
 20
721.1940614562418
 30
0.0
 42
0.4142135623730951
  0
VERTEX
  5
BAA
  8
CUT
 10
819.1149794392447
 20
723.1940614562418
 30
0.0
 42
0.4142135623730951
  0
VERTEX
  5
BAB
  8
CUT
 10
817.1149794392447
 20
721.1940614562418
 30
0.0
 42
0.4142135623730951
  0
SEQEND
  5
1068
  8
CUT
  0
POLYLINE
  5
340
  8
CUT
 66
     1
 10
0.0
 20
0.0
 30
0.0
 70
     1
  0
VERTEX
  5
BAC
  8
CUT
 10
1120.07254397206
 20
360.2009532102636
 30
0.0
 42
0.4142135623730951
  0
VERTEX
  5
BAD
  8
CUT
 10
1122.07254397206
 20
362.2009532102636
 30
0.0
 42
0.4142135623730951
  0
VERTEX
  5
BAE
  8
CUT
 10
1120.07254397206
 20
364.2009532102636
 30
0.0
 42
0.4142135623730951
  0
VERTEX
  5
BAF
  8
CUT
 10
1118.07254397206
 20
362.2009532102636
 30
0.0
 42
0.4142135623730951
  0
SEQEND
  5
1069
  8
CUT
  0
POLYLINE
  5
341
  8
CUT
 66
     1
 10
0.0
 20
0.0
 30
0.0
 70
     1
  0
VERTEX
  5
BB0
  8
CUT
 10
1127.938639988101
 20
505.1507149076955
 30
0.0
 42
0.4142135623730951
  0
VERTEX
  5
BB1
  8
CUT
 10
1129.938639988101
 20
507.1507149076955
 30
0.0
 42
0.4142135623730951
  0
VERTEX
  5
BB2
  8
CUT
 10
1127.938639988101
 20
509.1507149076955
 30
0.0
 42
0.4142135623730951
  0
VERTEX
  5
BB3
  8
CUT
 10
1125.938639988101
 20
507.1507149076955
 30
0.0
 42
0.4142135623730951
  0
SEQEND
  5
106A
  8
CUT
  0
POLYLINE
  5
342
  8
CUT
 66
     1
 10
0.0
 20
0.0
 30
0.0
 70
     1
  0
VERTEX
  5
BB4
  8
CUT
 10
1112.206447956019
 20
215.2511915128314
 30
0.0
 42
0.4142135623730951
  0
VERTEX
  5
BB5
  8
CUT
 10
1114.206447956019
 20
217.2511915128314
 30
0.0
 42
0.4142135623730951
  0
VERTEX
  5
BB6
  8
CUT
 10
1112.206447956019
 20
219.2511915128314
 30
0.0
 42
0.4142135623730951
  0
VERTEX
  5
BB7
  8
CUT
 10
1110.206447956019
 20
217.2511915128314
 30
0.0
 42
0.4142135623730951
  0
SEQEND
  5
106B
  8
CUT
  0
POLYLINE
  5
343
  8
CUT
 66
     1
 10
0.0
 20
0.0
 30
0.0
 70
     1
  0
VERTEX
  5
BB8
  8
CUT
 10
1135.804736004143
 20
650.1004766051275
 30
0.0
 42
0.4142135623730951
  0
VERTEX
  5
BB9
  8
CUT
 10
1137.804736004143
 20
652.1004766051275
 30
0.0
 42
0.4142135623730951
  0
VERTEX
  5
BBA
  8
CUT
 10
1135.804736004143
 20
654.1004766051275
 30
0.0
 42
0.4142135623730951
  0
VERTEX
  5
BBB
  8
CUT
 10
1133.804736004143
 20
652.1004766051275
 30
0.0
 42
0.4142135623730951
  0
SEQEND
  5
106C
  8
CUT
  0
POLYLINE
  5
344
  8
CUT
 66
     1
 10
0.0
 20
0.0
 30
0.0
 70
     1
  0
VERTEX
  5
BBC
  8
CUT
 10
1151.536928036225
 20
939.9999999999919
 30
0.0
 42
0.4142135623730951
  0
VERTEX
  5
BBD
  8
CUT
 10
1153.536928036225
 20
941.9999999999919
 30
0.0
 42
0.4142135623730951
  0
VERTEX
  5
BBE
  8
CUT
 10
1151.536928036225
 20
943.9999999999919
 30
0.0
 42
0.4142135623730951
  0
VERTEX
  5
BBF
  8
CUT
 10
1149.536928036225
 20
941.9999999999919
 30
0.0
 42
0.4142135623730951
  0
SEQEND
  5
106D
  8
CUT
  0
POLYLINE
  5
345
  8
CUT
 66
     1
 10
0.0
 20
0.0
 30
0.0
 70
     1
  0
VERTEX
  5
BC0
  8
CUT
 10
1139.737784012164
 20
722.5753574538434
 30
0.0
 42
0.4142135623730951
  0
VERTEX
  5
BC1
  8
CUT
 10
1141.737784012164
 20
724.5753574538434
 30
0.0
 42
0.4142135623730951
  0
VERTEX
  5
BC2
  8
CUT
 10
1139.737784012164
 20
726.5753574538434
 30
0.0
 42
0.4142135623730951
  0
VERTEX
  5
BC3
  8
CUT
 10
1137.737784012164
 20
724.5753574538434
 30
0.0
 42
0.4142135623730951
  0
SEQEND
  5
106E
  8
CUT
  0
POLYLINE
  5
346
  8
CUT
 66
     1
 10
0.0
 20
0.0
 30
0.0
 70
     1
  0
VERTEX
  5
BC4
  8
CUT
 10
1108.273399947998
 20
142.7763106641154
 30
0.0
 42
0.4142135623730951
  0
VERTEX
  5
BC5
  8
CUT
 10
1110.273399947998
 20
144.7763106641154
 30
0.0
 42
0.4142135623730951
  0
VERTEX
  5
BC6
  8
CUT
 10
1108.273399947998
 20
146.7763106641154
 30
0.0
 42
0.4142135623730951
  0
VERTEX
  5
BC7
  8
CUT
 10
1106.273399947998
 20
144.7763106641154
 30
0.0
 42
0.4142135623730951
  0
SEQEND
  5
106F
  8
CUT
  0
POLYLINE
  5
347
  8
CUT
 66
     1
 10
0.0
 20
0.0
 30
0.0
 70
     1
  0
VERTEX
  5
BC8
  8
CUT
 10
1124.005591980081
 20
432.6758340589795
 30
0.0
 42
0.4142135623730951
  0
VERTEX
  5
BC9
  8
CUT
 10
1126.005591980081
 20
434.6758340589795
 30
0.0
 42
0.4142135623730951
  0
VERTEX
  5
BCA
  8
CUT
 10
1124.005591980081
 20
436.6758340589795
 30
0.0
 42
0.4142135623730951
  0
VERTEX
  5
BCB
  8
CUT
 10
1122.005591980081
 20
434.6758340589795
 30
0.0
 42
0.4142135623730951
  0
SEQEND
  5
1070
  8
CUT
  0
POLYLINE
  5
348
  8
CUT
 66
     1
 10
0.0
 20
0.0
 30
0.0
 70
     1
  0
VERTEX
  5
BCC
  8
CUT
 10
1116.139495964039
 20
287.7260723615475
 30
0.0
 42
0.4142135623730951
  0
VERTEX
  5
BCD
  8
CUT
 10
1118.139495964039
 20
289.7260723615475
 30
0.0
 42
0.4142135623730951
  0
VERTEX
  5
BCE
  8
CUT
 10
1116.139495964039
 20
291.7260723615475
 30
0.0
 42
0.4142135623730951
  0
VERTEX
  5
BCF
  8
CUT
 10
1114.139495964039
 20
289.7260723615475
 30
0.0
 42
0.4142135623730951
  0
SEQEND
  5
1071
  8
CUT
  0
POLYLINE
  5
349
  8
CUT
 66
     1
 10
0.0
 20
0.0
 30
0.0
 70
     1
  0
VERTEX
  5
BD0
  8
CUT
 10
1131.871687996122
 20
577.6255957564114
 30
0.0
 42
0.4142135623730951
  0
VERTEX
  5
BD1
  8
CUT
 10
1133.871687996122
 20
579.6255957564114
 30
0.0
 42
0.4142135623730951
  0
VERTEX
  5
BD2
  8
CUT
 10
1131.871687996122
 20
581.6255957564114
 30
0.0
 42
0.4142135623730951
  0
VERTEX
  5
BD3
  8
CUT
 10
1129.871687996122
 20
579.6255957564114
 30
0.0
 42
0.4142135623730951
  0
SEQEND
  5
1072
  8
CUT
  0
POLYLINE
  5
34A
  8
CUT
 66
     1
 10
0.0
 20
0.0
 30
0.0
 70
     1
  0
VERTEX
  5
BD4
  8
CUT
 10
1147.603880028204
 20
867.5251191512754
 30
0.0
 42
0.4142135623730951
  0
VERTEX
  5
BD5
  8
CUT
 10
1149.603880028204
 20
869.5251191512754
 30
0.0
 42
0.4142135623730951
  0
VERTEX
  5
BD6
  8
CUT
 10
1147.603880028204
 20
871.5251191512754
 30
0.0
 42
0.4142135623730951
  0
VERTEX
  5
BD7
  8
CUT
 10
1145.603880028204
 20
869.5251191512754
 30
0.0
 42
0.4142135623730951
  0
SEQEND
  5
1073
  8
CUT
  0
POLYLINE
  5
34B
  8
CUT
 66
     1
 10
0.0
 20
0.0
 30
0.0
 70
     1
  0
VERTEX
  5
BD8
  8
CUT
 10
1143.670832020184
 20
795.0502383025593
 30
0.0
 42
0.4142135623730951
  0
VERTEX
  5
BD9
  8
CUT
 10
1145.670832020184
 20
797.0502383025593
 30
0.0
 42
0.4142135623730951
  0
VERTEX
  5
BDA
  8
CUT
 10
1143.670832020184
 20
799.0502383025593
 30
0.0
 42
0.4142135623730951
  0
VERTEX
  5
BDB
  8
CUT
 10
1141.670832020184
 20
797.0502383025593
 30
0.0
 42
0.4142135623730951
  0
SEQEND
  5
1074
  8
CUT
  0
POLYLINE
  5
34C
  8
CUT
 66
     1
 10
0.0
 20
0.0
 30
0.0
 70
     1
  0
VERTEX
  5
BDC
  8
CUT
 10
1104.340351939978
 20
70.30142981539908
 30
0.0
 42
0.4142135623730951
  0
VERTEX
  5
BDD
  8
CUT
 10
1106.340351939978
 20
72.30142981539908
 30
0.0
 42
0.4142135623730951
  0
VERTEX
  5
BDE
  8
CUT
 10
1104.340351939978
 20
74.30142981539908
 30
0.0
 42
0.4142135623730951
  0
VERTEX
  5
BDF
  8
CUT
 10
1102.340351939978
 20
72.30142981539908
 30
0.0
 42
0.4142135623730951
  0
SEQEND
  5
1075
  8
CUT
  0
POLYLINE
  5
34D
  8
CUT
 66
     1
 10
0.0
 20
0.0
 30
0.0
 70
     1
  0
VERTEX
  5
BE0
  8
CUT
 10
789.393619674275
 20
358.6400070422098
 30
0.0
 42
0.4142135623730951
  0
VERTEX
  5
BE1
  8
CUT
 10
791.393619674275
 20
360.6400070422098
 30
0.0
 42
0.4142135623730951
  0
VERTEX
  5
BE2
  8
CUT
 10
789.393619674275
 20
362.6400070422098
 30
0.0
 42
0.4142135623730951
  0
VERTEX
  5
BE3
  8
CUT
 10
787.393619674275
 20
360.6400070422098
 30
0.0
 42
0.4142135623730951
  0
SEQEND
  5
1076
  8
CUT
  0
POLYLINE
  5
34E
  8
CUT
 66
     1
 10
0.0
 20
0.0
 30
0.0
 70
     1
  0
VERTEX
  5
BE4
  8
CUT
 10
805.1258117063574
 20
68.74048364734548
 30
0.0
 42
0.4142135623730951
  0
VERTEX
  5
BE5
  8
CUT
 10
807.1258117063574
 20
70.74048364734548
 30
0.0
 42
0.4142135623730951
  0
VERTEX
  5
BE6
  8
CUT
 10
805.1258117063574
 20
72.74048364734548
 30
0.0
 42
0.4142135623730951
  0
VERTEX
  5
BE7
  8
CUT
 10
803.1258117063574
 20
70.74048364734548
 30
0.0
 42
0.4142135623730951
  0
SEQEND
  5
1077
  8
CUT
  0
POLYLINE
  5
34F
  8
CUT
 66
     1
 10
0.0
 20
0.0
 30
0.0
 70
     1
  0
VERTEX
  5
BE8
  8
CUT
 10
765.7953316261514
 20
793.4892921345058
 30
0.0
 42
0.4142135623730951
  0
VERTEX
  5
BE9
  8
CUT
 10
767.7953316261514
 20
795.4892921345058
 30
0.0
 42
0.4142135623730951
  0
VERTEX
  5
BEA
  8
CUT
 10
765.7953316261514
 20
797.4892921345058
 30
0.0
 42
0.4142135623730951
  0
VERTEX
  5
BEB
  8
CUT
 10
763.7953316261514
 20
795.4892921345058
 30
0.0
 42
0.4142135623730951
  0
SEQEND
  5
1078
  8
CUT
  0
POLYLINE
  5
350
  8
CUT
 66
     1
 10
0.0
 20
0.0
 30
0.0
 70
     1
  0
VERTEX
  5
BEC
  8
CUT
 10
761.8622836181305
 20
865.9641729832217
 30
0.0
 42
0.4142135623730951
  0
VERTEX
  5
BED
  8
CUT
 10
763.8622836181307
 20
867.9641729832218
 30
0.0
 42
0.4142135623730951
  0
VERTEX
  5
BEE
  8
CUT
 10
761.8622836181305
 20
869.9641729832218
 30
0.0
 42
0.4142135623730951
  0
VERTEX
  5
BEF
  8
CUT
 10
759.8622836181305
 20
867.9641729832218
 30
0.0
 42
0.4142135623730951
  0
SEQEND
  5
1079
  8
CUT
  0
POLYLINE
  5
351
  8
CUT
 66
     1
 10
0.0
 20
0.0
 30
0.0
 70
     1
  0
VERTEX
  5
BF0
  8
CUT
 10
777.5944756502129
 20
576.0646495883578
 30
0.0
 42
0.4142135623730951
  0
VERTEX
  5
BF1
  8
CUT
 10
779.5944756502129
 20
578.0646495883578
 30
0.0
 42
0.4142135623730951
  0
VERTEX
  5
BF2
  8
CUT
 10
777.5944756502129
 20
580.0646495883578
 30
0.0
 42
0.4142135623730951
  0
VERTEX
  5
BF3
  8
CUT
 10
775.5944756502129
 20
578.0646495883578
 30
0.0
 42
0.4142135623730951
  0
SEQEND
  5
107A
  8
CUT
  0
POLYLINE
  5
352
  8
CUT
 66
     1
 10
0.0
 20
0.0
 30
0.0
 70
     1
  0
VERTEX
  5
BF4
  8
CUT
 10
793.3266676822955
 20
286.165126193494
 30
0.0
 42
0.4142135623730951
  0
VERTEX
  5
BF5
  8
CUT
 10
795.3266676822955
 20
288.165126193494
 30
0.0
 42
0.4142135623730951
  0
VERTEX
  5
BF6
  8
CUT
 10
793.3266676822955
 20
290.165126193494
 30
0.0
 42
0.4142135623730951
  0
VERTEX
  5
BF7
  8
CUT
 10
791.3266676822955
 20
288.165126193494
 30
0.0
 42
0.4142135623730951
  0
SEQEND
  5
107B
  8
CUT
  0
POLYLINE
  5
353
  8
CUT
 66
     1
 10
0.0
 20
0.0
 30
0.0
 70
     1
  0
VERTEX
  5
BF8
  8
CUT
 10
785.4605716662543
 20
431.1148878909258
 30
0.0
 42
0.4142135623730951
  0
VERTEX
  5
BF9
  8
CUT
 10
787.4605716662543
 20
433.1148878909258
 30
0.0
 42
0.4142135623730951
  0
VERTEX
  5
BFA
  8
CUT
 10
785.4605716662543
 20
435.1148878909258
 30
0.0
 42
0.4142135623730951
  0
VERTEX
  5
BFB
  8
CUT
 10
783.4605716662543
 20
433.1148878909258
 30
0.0
 42
0.4142135623730951
  0
SEQEND
  5
107C
  8
CUT
  0
POLYLINE
  5
354
  8
CUT
 66
     1
 10
0.0
 20
0.0
 30
0.0
 70
     1
  0
VERTEX
  5
BFC
  8
CUT
 10
801.1927636983366
 20
141.2153644960618
 30
0.0
 42
0.4142135623730951
  0
VERTEX
  5
BFD
  8
CUT
 10
803.1927636983366
 20
143.2153644960618
 30
0.0
 42
0.4142135623730951
  0
VERTEX
  5
BFE
  8
CUT
 10
801.1927636983366
 20
145.2153644960618
 30
0.0
 42
0.4142135623730951
  0
VERTEX
  5
BFF
  8
CUT
 10
799.1927636983366
 20
143.2153644960618
 30
0.0
 42
0.4142135623730951
  0
SEQEND
  5
107D
  8
CUT
  0
POLYLINE
  5
355
  8
CUT
 66
     1
 10
0.0
 20
0.0
 30
0.0
 70
     1
  0
VERTEX
  5
C00
  8
CUT
 10
769.7283796341715
 20
721.0144112857897
 30
0.0
 42
0.4142135623730951
  0
VERTEX
  5
C01
  8
CUT
 10
771.7283796341715
 20
723.0144112857897
 30
0.0
 42
0.4142135623730951
  0
VERTEX
  5
C02
  8
CUT
 10
769.7283796341715
 20
725.0144112857897
 30
0.0
 42
0.4142135623730951
  0
VERTEX
  5
C03
  8
CUT
 10
767.7283796341715
 20
723.0144112857897
 30
0.0
 42
0.4142135623730951
  0
SEQEND
  5
107E
  8
CUT
  0
POLYLINE
  5
356
  8
CUT
 66
     1
 10
0.0
 20
0.0
 30
0.0
 70
     1
  0
VERTEX
  5
C04
  8
CUT
 10
757.9292356101098
 20
938.4390538319382
 30
0.0
 42
0.4142135623730951
  0
VERTEX
  5
C05
  8
CUT
 10
759.9292356101098
 20
940.4390538319382
 30
0.0
 42
0.4142135623730951
  0
VERTEX
  5
C06
  8
CUT
 10
757.9292356101098
 20
942.4390538319382
 30
0.0
 42
0.4142135623730951
  0
VERTEX
  5
C07
  8
CUT
 10
755.9292356101098
 20
940.4390538319382
 30
0.0
 42
0.4142135623730951
  0
SEQEND
  5
107F
  8
CUT
  0
POLYLINE
  5
357
  8
CUT
 66
     1
 10
0.0
 20
0.0
 30
0.0
 70
     1
  0
VERTEX
  5
C08
  8
CUT
 10
773.6614276421922
 20
648.5395304370737
 30
0.0
 42
0.4142135623730951
  0
VERTEX
  5
C09
  8
CUT
 10
775.6614276421922
 20
650.5395304370737
 30
0.0
 42
0.4142135623730951
  0
VERTEX
  5
C0A
  8
CUT
 10
773.6614276421922
 20
652.5395304370737
 30
0.0
 42
0.4142135623730951
  0
VERTEX
  5
C0B
  8
CUT
 10
771.6614276421922
 20
650.5395304370737
 30
0.0
 42
0.4142135623730951
  0
SEQEND
  5
1080
  8
CUT
  0
POLYLINE
  5
358
  8
CUT
 66
     1
 10
0.0
 20
0.0
 30
0.0
 70
     1
  0
VERTEX
  5
C0C
  8
CUT
 10
797.2597156903162
 20
213.6902453447779
 30
0.0
 42
0.4142135623730951
  0
VERTEX
  5
C0D
  8
CUT
 10
799.2597156903162
 20
215.6902453447779
 30
0.0
 42
0.4142135623730951
  0
VERTEX
  5
C0E
  8
CUT
 10
797.2597156903162
 20
217.6902453447779
 30
0.0
 42
0.4142135623730951
  0
VERTEX
  5
C0F
  8
CUT
 10
795.2597156903162
 20
215.6902453447779
 30
0.0
 42
0.4142135623730951
  0
SEQEND
  5
1081
  8
CUT
  0
POLYLINE
  5
359
  8
CUT
 66
     1
 10
0.0
 20
0.0
 30
0.0
 70
     1
  0
VERTEX
  5
C10
  8
CUT
 10
781.5275236582336
 20
503.589768739642
 30
0.0
 42
0.4142135623730951
  0
VERTEX
  5
C11
  8
CUT
 10
783.5275236582336
 20
505.589768739642
 30
0.0
 42
0.4142135623730951
  0
VERTEX
  5
C12
  8
CUT
 10
781.5275236582336
 20
507.589768739642
 30
0.0
 42
0.4142135623730951
  0
VERTEX
  5
C13
  8
CUT
 10
779.5275236582336
 20
505.589768739642
 30
0.0
 42
0.4142135623730951
  0
SEQEND
  5
1082
  8
CUT
  0
POLYLINE
  5
35A
  8
CUT
 66
     1
 10
0.0
 20
0.0
 30
0.0
 70
     1
  0
VERTEX
  5
C14
  8
CUT
 10
931.6149794392447
 20
28.3901096510337
 30
0.0
 42
0.4142135623730951
  0
VERTEX
  5
C15
  8
CUT
 10
933.6149794392447
 20
30.3901096510337
 30
0.0
 42
0.4142135623730951
  0
VERTEX
  5
C16
  8
CUT
 10
931.6149794392447
 20
32.3901096510337
 30
0.0
 42
0.4142135623730951
  0
VERTEX
  5
C17
  8
CUT
 10
929.6149794392447
 20
30.3901096510337
 30
0.0
 42
0.4142135623730951
  0
SEQEND
  5
1083
  8
CUT
  0
POLYLINE
  5
35B
  8
CUT
 66
     1
 10
0.0
 20
0.0
 30
0.0
 70
     1
  0
VERTEX
  5
C18
  8
CUT
 10
1006.614979439245
 20
28.3901096510337
 30
0.0
 42
0.4142135623730951
  0
VERTEX
  5
C19
  8
CUT
 10
1008.614979439245
 20
30.3901096510337
 30
0.0
 42
0.4142135623730951
  0
VERTEX
  5
C1A
  8
CUT
 10
1006.614979439245
 20
32.3901096510337
 30
0.0
 42
0.4142135623730951
  0
VERTEX
  5
C1B
  8
CUT
 10
1004.614979439245
 20
30.3901096510337
 30
0.0
 42
0.4142135623730951
  0
SEQEND
  5
1084
  8
CUT
  0
POLYLINE
  5
35C
  8
CUT
 66
     1
 10
0.0
 20
0.0
 30
0.0
 70
     1
  0
VERTEX
  5
C1C
  8
CUT
 10
856.6149794392447
 20
28.39010965103373
 30
0.0
 42
0.4142135623730951
  0
VERTEX
  5
C1D
  8
CUT
 10
858.6149794392447
 20
30.3901096510337
 30
0.0
 42
0.4142135623730951
  0
VERTEX
  5
C1E
  8
CUT
 10
856.6149794392447
 20
32.39010965103373
 30
0.0
 42
0.4142135623730951
  0
VERTEX
  5
C1F
  8
CUT
 10
854.6149794392447
 20
30.39010965103373
 30
0.0
 42
0.4142135623730951
  0
SEQEND
  5
1085
  8
CUT
  0
POLYLINE
  5
35D
  8
CUT
 66
     1
 10
0.0
 20
0.0
 30
0.0
 70
     1
  0
VERTEX
  5
C20
  8
CUT
 10
1081.614979439245
 20
28.3901096510337
 30
0.0
 42
0.4142135623730951
  0
VERTEX
  5
C21
  8
CUT
 10
1083.614979439245
 20
30.3901096510337
 30
0.0
 42
0.4142135623730951
  0
VERTEX
  5
C22
  8
CUT
 10
1081.614979439245
 20
32.3901096510337
 30
0.0
 42
0.4142135623730951
  0
VERTEX
  5
C23
  8
CUT
 10
1079.614979439245
 20
30.3901096510337
 30
0.0
 42
0.4142135623730951
  0
SEQEND
  5
1086
  8
CUT
  0
POLYLINE
  5
35E
  8
CUT
 66
     1
 10
0.0
 20
0.0
 30
0.0
 70
     1
  0
VERTEX
  5
C24
  8
CUT
 10
821.5614088286741
 20
124.9733807796606
 30
0.0
  0
VERTEX
  5
C25
  8
CUT
 10
823.4456469780728
 20
90.25223446059326
 30
0.0
 42
-0.9999999999999865
  0
VERTEX
  5
C26
  8
CUT
 10
815.568810799288
 20
89.82477636090866
 30
0.0
  0
VERTEX
  5
C27
  8
CUT
 10
813.6845726499148
 20
124.545922679977
 30
0.0
 42
-0.9999999999993654
  0
SEQEND
  5
1087
  8
CUT
  0
POLYLINE
  5
35F
  8
CUT
 66
     1
 10
0.0
 20
0.0
 30
0.0
 70
     1
  0
VERTEX
  5
C28
  8
CUT
 10
818.4368924686635
 20
182.5493245362156
 30
0.0
  0
VERTEX
  5
C29
  8
CUT
 10
820.3211306180617
 20
147.8281782171485
 30
0.0
 42
-0.4142135623730863
  0
VERTEX
  5
C2A
  8
CUT
 10
816.5964415785381
 20
143.6760310779143
 30
0.0
 42
-0.4142135623731231
  0
VERTEX
  5
C2B
  8
CUT
 10
812.444294439277
 20
147.4007201174637
 30
0.0
  0
VERTEX
  5
C2C
  8
CUT
 10
810.5600562899035
 20
182.121866436532
 30
0.0
 42
-0.9999999999994094
  0
SEQEND
  5
1088
  8
CUT
  0
POLYLINE
  5
360
  8
CUT
 66
     1
 10
0.0
 20
0.0
 30
0.0
 70
     1
  0
VERTEX
  5
C2D
  8
CUT
 10
815.3123761086529
 20
240.1252682927706
 30
0.0
  0
VERTEX
  5
C2E
  8
CUT
 10
817.1966142580511
 20
205.4041219737036
 30
0.0
 42
-0.4142135623730903
  0
VERTEX
  5
C2F
  8
CUT
 10
813.4719252185271
 20
201.2519748344693
 30
0.0
 42
-0.4142135623730967
  0
VERTEX
  5
C30
  8
CUT
 10
809.3197780792659
 20
204.9766638740185
 30
0.0
  0
VERTEX
  5
C31
  8
CUT
 10
807.4355399298931
 20
239.6978101930873
 30
0.0
 42
-0.9999999999993942
  0
SEQEND
  5
1089
  8
CUT
  0
POLYLINE
  5
361
  8
CUT
 66
     1
 10
0.0
 20
0.0
 30
0.0
 70
     1
  0
VERTEX
  5
C32
  8
CUT
 10
812.1878597486425
 20
297.7012120493256
 30
0.0
  0
VERTEX
  5
C33
  8
CUT
 10
814.07209789804
 20
262.9800657302584
 30
0.0
 42
-0.4142135623731031
  0
VERTEX
  5
C34
  8
CUT
 10
810.3474088585156
 20
258.8279185910239
 30
0.0
 42
-0.4142135623730949
  0
VERTEX
  5
C35
  8
CUT
 10
806.1952617192553
 20
262.5526076305736
 30
0.0
  0
VERTEX
  5
C36
  8
CUT
 10
804.3110235698823
 20
297.2737539496421
 30
0.0
 42
-0.9999999999993654
  0
SEQEND
  5
108A
  8
CUT
  0
POLYLINE
  5
362
  8
CUT
 66
     1
 10
0.0
 20
0.0
 30
0.0
 70
     1
  0
VERTEX
  5
C37
  8
CUT
 10
809.0633433886319
 20
355.2771558058805
 30
0.0
  0
VERTEX
  5
C38
  8
CUT
 10
810.947581538029
 20
320.5560094868134
 30
0.0
 42
-1.0
  0
VERTEX
  5
C39
  8
CUT
 10
803.0707453592443
 20
320.1285513871285
 30
0.0
  0
VERTEX
  5
C3A
  8
CUT
 10
801.1865072098715
 20
354.8496977061972
 30
0.0
 42
-0.9999999999993517
  0
SEQEND
  5
108B
  8
CUT
  0
POLYLINE
  5
363
  8
CUT
 66
     1
 10
0.0
 20
0.0
 30
0.0
 70
     1
  0
VERTEX
  5
C3B
  8
CUT
 10
805.9388270286215
 20
412.8530995624355
 30
0.0
  0
VERTEX
  5
C3C
  8
CUT
 10
807.8230651780189
 20
378.1319532433681
 30
0.0
 42
-0.9999999999999789
  0
VERTEX
  5
C3D
  8
CUT
 10
799.9462289992337
 20
377.7044951436833
 30
0.0
  0
VERTEX
  5
C3E
  8
CUT
 10
798.0619908498604
 20
412.425641462752
 30
0.0
 42
-0.999999999999351
  0
SEQEND
  5
108C
  8
CUT
  0
POLYLINE
  5
364
  8
CUT
 66
     1
 10
0.0
 20
0.0
 30
0.0
 70
     1
  0
VERTEX
  5
C3F
  8
CUT
 10
802.8143106686109
 20
470.4290433189905
 30
0.0
  0
VERTEX
  5
C40
  8
CUT
 10
804.6985488180078
 20
435.707896999923
 30
0.0
 42
-1.0
  0
VERTEX
  5
C41
  8
CUT
 10
796.8217126392226
 20
435.2804389002383
 30
0.0
  0
VERTEX
  5
C42
  8
CUT
 10
794.9374744898494
 20
470.001585219307
 30
0.0
 42
-0.999999999999351
  0
SEQEND
  5
108D
  8
CUT
  0
POLYLINE
  5
365
  8
CUT
 66
     1
 10
0.0
 20
0.0
 30
0.0
 70
     1
  0
VERTEX
  5
C43
  8
CUT
 10
799.6897943086003
 20
528.0049870755456
 30
0.0
  0
VERTEX
  5
C44
  8
CUT
 10
801.5740324579967
 20
493.2838407564782
 30
0.0
 42
-0.4142135623730901
  0
VERTEX
  5
C45
  8
CUT
 10
797.8493434184709
 20
489.1316936172437
 30
0.0
 42
-0.4142135623731015
  0
VERTEX
  5
C46
  8
CUT
 10
793.6971962792118
 20
492.8563826567932
 30
0.0
  0
VERTEX
  5
C47
  8
CUT
 10
791.8129581298388
 20
527.5775289758619
 30
0.0
 42
-0.9999999999993153
  0
SEQEND
  5
108E
  8
CUT
  0
POLYLINE
  5
366
  8
CUT
 66
     1
 10
0.0
 20
0.0
 30
0.0
 70
     1
  0
VERTEX
  5
C48
  8
CUT
 10
796.5652779485897
 20
585.5809308321004
 30
0.0
  0
VERTEX
  5
C49
  8
CUT
 10
798.4495160979857
 20
550.8597845130332
 30
0.0
 42
-0.9999999999999925
  0
VERTEX
  5
C4A
  8
CUT
 10
790.5726799192009
 20
550.4323264133483
 30
0.0
  0
VERTEX
  5
C4B
  8
CUT
 10
788.6884417698277
 20
585.153472732417
 30
0.0
 42
-0.999999999999329
  0
SEQEND
  5
108F
  8
CUT
  0
POLYLINE
  5
367
  8
CUT
 66
     1
 10
0.0
 20
0.0
 30
0.0
 70
     1
  0
VERTEX
  5
C4C
  8
CUT
 10
793.4407615885796
 20
643.1568745886556
 30
0.0
  0
VERTEX
  5
C4D
  8
CUT
 10
795.3249997379751
 20
608.435728269588
 30
0.0
 42
-0.9999999999999856
  0
VERTEX
  5
C4E
  8
CUT
 10
787.4481635591899
 20
608.0082701699032
 30
0.0
  0
VERTEX
  5
C4F
  8
CUT
 10
785.5639254098171
 20
642.7294164889719
 30
0.0
 42
-0.9999999999993222
  0
SEQEND
  5
1090
  8
CUT
  0
POLYLINE
  5
368
  8
CUT
 66
     1
 10
0.0
 20
0.0
 30
0.0
 70
     1
  0
VERTEX
  5
C50
  8
CUT
 10
790.316245228569
 20
700.7328183452106
 30
0.0
  0
VERTEX
  5
C51
  8
CUT
 10
792.200483377964
 20
666.0116720261431
 30
0.0
 42
-0.4142135623730845
  0
VERTEX
  5
C52
  8
CUT
 10
788.4757943384373
 20
661.8595248869088
 30
0.0
 42
-0.4142135623730987
  0
VERTEX
  5
C53
  8
CUT
 10
784.3236471991793
 20
665.5842139264583
 30
0.0
  0
VERTEX
  5
C54
  8
CUT
 10
782.439409049806
 20
700.305360245527
 30
0.0
 42
-0.9999999999993294
  0
SEQEND
  5
1091
  8
CUT
  0
POLYLINE
  5
369
  8
CUT
 66
     1
 10
0.0
 20
0.0
 30
0.0
 70
     1
  0
VERTEX
  5
C55
  8
CUT
 10
787.1917288685584
 20
758.3087621017654
 30
0.0
  0
VERTEX
  5
C56
  8
CUT
 10
789.075967017953
 20
723.587615782698
 30
0.0
 42
-0.4142135623730785
  0
VERTEX
  5
C57
  8
CUT
 10
785.3512779784253
 20
719.4354686434634
 30
0.0
 42
-0.4142135623730944
  0
VERTEX
  5
C58
  8
CUT
 10
781.1991308391682
 20
723.160157683013
 30
0.0
  0
VERTEX
  5
C59
  8
CUT
 10
779.314892689795
 20
757.881304002082
 30
0.0
 42
-0.9999999999992858
  0
SEQEND
  5
1092
  8
CUT
  0
POLYLINE
  5
36A
  8
CUT
 66
     1
 10
0.0
 20
0.0
 30
0.0
 70
     1
  0
VERTEX
  5
C5A
  8
CUT
 10
784.067212508548
 20
815.8847058583204
 30
0.0
  0
VERTEX
  5
C5B
  8
CUT
 10
785.9514506579421
 20
781.1635595392528
 30
0.0
 42
-0.4142135623731024
  0
VERTEX
  5
C5C
  8
CUT
 10
782.226761618414
 20
777.0114124000181
 30
0.0
 42
-0.4142135623731041
  0
VERTEX
  5
C5D
  8
CUT
 10
778.0746144791572
 20
780.736101439568
 30
0.0
  0
VERTEX
  5
C5E
  8
CUT
 10
776.1903763297846
 20
815.4572477586368
 30
0.0
 42
-0.9999999999992414
  0
SEQEND
  5
1093
  8
CUT
  0
POLYLINE
  5
36B
  8
CUT
 66
     1
 10
0.0
 20
0.0
 30
0.0
 70
     1
  0
VERTEX
  5
C5F
  8
CUT
 10
780.9426961485378
 20
873.4606496148755
 30
0.0
  0
VERTEX
  5
C60
  8
CUT
 10
782.8269342979315
 20
838.7395032958079
 30
0.0
 42
-0.4142135623730955
  0
VERTEX
  5
C61
  8
CUT
 10
779.1022452584027
 20
834.5873561565734
 30
0.0
 42
-0.4142135623730892
  0
VERTEX
  5
C62
  8
CUT
 10
774.9500981191463
 20
838.3120451961232
 30
0.0
  0
VERTEX
  5
C63
  8
CUT
 10
773.0658599697736
 20
873.033191515192
 30
0.0
 42
-0.9999999999992456
  0
SEQEND
  5
1094
  8
CUT
  0
POLYLINE
  5
36C
  8
CUT
 66
     1
 10
0.0
 20
0.0
 30
0.0
 70
     1
  0
VERTEX
  5
C64
  8
CUT
 10
1108.395356126511
 20
702.1361352420904
 30
0.0
 42
0.4456095382750139
  0
VERTEX
  5
C65
  8
CUT
 10
1098.45147398092
 20
713.1940614562419
 30
0.0
  0
VERTEX
  5
C66
  8
CUT
 10
839.7784848975696
 20
713.1940614562419
 30
0.0
 42
0.4456095382750124
  0
VERTEX
  5
C67
  8
CUT
 10
829.8346027519783
 20
702.1361352420903
 30
0.0
  0
VERTEX
  5
C68
  8
CUT
 10
891.2572285277308
 20
124.7996975806742
 30
0.0
 42
0.1829051208190555
  0
VERTEX
  5
C69
  8
CUT
 10
901.0992610435026
 20
105.7054533331419
 30
0.0
 42
0.1832377904857229
  0
VERTEX
  5
C6A
  8
CUT
 10
921.0883818911082
 20
97.93852533120418
 30
0.0
  0
VERTEX
  5
C6B
  8
CUT
 10
1017.141576987381
 20
97.93852533120418
 30
0.0
 42
0.1832377904857286
  0
VERTEX
  5
C6C
  8
CUT
 10
1037.130697834988
 20
105.7054533331421
 30
0.0
 42
0.1829051208190505
  0
VERTEX
  5
C6D
  8
CUT
 10
1046.972730350759
 20
124.7996975806741
 30
0.0
  0
SEQEND
  5
1095
  8
CUT
  0
POLYLINE
  5
36D
  8
CUT
 66
     1
 10
0.0
 20
0.0
 30
0.0
 70
     1
  0
VERTEX
  5
C6E
  8
CUT
 10
777.8181797885272
 20
931.0365933714307
 30
0.0
  0
VERTEX
  5
C6F
  8
CUT
 10
779.7024179379205
 20
896.3154470523629
 30
0.0
 42
-0.4142135623730954
  0
VERTEX
  5
C70
  8
CUT
 10
775.9777288983914
 20
892.1632999131285
 30
0.0
 42
-0.4142135623730887
  0
VERTEX
  5
C71
  8
CUT
 10
771.8255817591355
 20
895.887988952678
 30
0.0
  0
VERTEX
  5
C72
  8
CUT
 10
769.941343609763
 20
930.6091352717468
 30
0.0
 42
-0.9999999999992226
  0
SEQEND
  5
1096
  8
CUT
  0
POLYLINE
  5
36E
  8
CUT
 66
     1
 10
0.0
 20
0.0
 30
0.0
 70
     1
  0
VERTEX
  5
C73
  8
CUT
 10
1155.976955603327
 20
953.9999999999915
 30
0.0
  0
VERTEX
  5
C74
  8
CUT
 10
1142.383973716263
 20
953.9999999999915
 30
0.0
 42
0.1813120094618831
  0
VERTEX
  5
C75
  8
CUT
 10
1137.068732124683
 20
951.9118833547465
 30
0.0
 42
0.1809851551784637
  0
VERTEX
  5
C76
  8
CUT
 10
1134.42899948603
 20
946.8370207334661
 30
0.0
  0
VERTEX
  5
C77
  8
CUT
 10
1115.617527325842
 20
770.0202828137874
 30
0.0
 42
-0.3834994492264608
  0
VERTEX
  5
C78
  8
CUT
 10
1085.785880889068
 20
743.1940614562418
 30
0.0
  0
VERTEX
  5
C79
  8
CUT
 10
852.4440779894219
 20
743.1940614562418
 30
0.0
 42
-0.3834994492264634
  0
VERTEX
  5
C7A
  8
CUT
 10
822.6124315526479
 20
770.0202828137874
 30
0.0
  0
VERTEX
  5
C7B
  8
CUT
 10
803.8009593924603
 20
946.8370207334661
 30
0.0
 42
0.1809851551783977
  0
VERTEX
  5
C7C
  8
CUT
 10
801.1612267538069
 20
951.9118833547451
 30
0.0
 42
0.1813120094617822
  0
VERTEX
  5
C7D
  8
CUT
 10
795.845985162226
 20
953.9999999999915
 30
0.0
  0
VERTEX
  5
C7E
  8
CUT
 10
779.6670626992318
 20
954.0000000000001
 30
0.0
 42
0.0517041660956841
  0
VERTEX
  5
C7F
  8
CUT
 10
778.8404123691535
 20
953.9129255411204
 30
0.0
 42
0.0516663261441014
  0
VERTEX
  5
C80
  8
CUT
 10
778.048616142994
 20
953.6579775002807
 30
0.0
 42
0.0830755646184238
  0
VERTEX
  5
C81
  8
CUT
 10
776.9369987147138
 20
952.9221047904053
 30
0.0
 42
0.0830117673622984
  0
VERTEX
  5
C82
  8
CUT
 10
776.1246954842627
 20
951.863775598814
 30
0.0
 42
-0.566081599835543
  0
VERTEX
  5
C83
  8
CUT
 10
769.3710319543179
 20
951.4972695406924
 30
0.0
 42
0.0830124675827987
  0
VERTEX
  5
C84
  8
CUT
 10
768.4489643675006
 20
952.4614873819243
 30
0.0
 42
0.08307749204511
  0
VERTEX
  5
C85
  8
CUT
 10
767.2642471079439
 20
953.072734162805
 30
0.0
 42
0.0516652008243119
  0
VERTEX
  5
C86
  8
CUT
 10
766.4495062541382
 20
953.24049844481
 30
0.0
 42
0.0517036397996203
  0
VERTEX
  5
C87
  8
CUT
 10
765.6182925960868
 20
953.2376049933147
 30
0.0
  0
VERTEX
  5
C88
  8
CUT
 10
754.0633882850454
 20
951.9797836335955
 30
0.0
 42
0.1862738792150982
  0
VERTEX
  5
C89
  8
CUT
 10
751.4754334659849
 20
950.5690340488051
 30
0.0
 42
0.1859305822343641
  0
VERTEX
  5
C8A
  8
CUT
 10
750.5027192602722
 20
947.7812913698712
 30
0.0
  0
VERTEX
  5
C8B
  8
CUT
 10
798.1815206999065
 20
69.196680579392
 30
0.0
 42
0.430183273295335
  0
VERTEX
  5
C8C
  8
CUT
 10
802.608510835815
 20
65.43692333014471
 30
0.0
  0
VERTEX
  5
C8D
  8
CUT
 10
814.0358512180762
 20
66.68085858313847
 30
0.0
 42
0.0858427881036748
  0
VERTEX
  5
C8E
  8
CUT
 10
815.3463051263159
 20
67.05725234367091
 30
0.0
 42
0.1683874153580451
  0
VERTEX
  5
C8F
  8
CUT
 10
817.200331187328
 20
68.90834132641416
 30
0.0
 42
-0.6475007239956572
  0
VERTEX
  5
C90
  8
CUT
 10
824.3946726938855
 20
68.68537380806387
 30
0.0
  0
VERTEX
  5
C91
  8
CUT
 10
826.3290332372112
 20
63.98730246771763
 30
0.0
  0
VERTEX
  5
C92
  8
CUT
 10
840.9062880818472
 20
28.58284622927167
 30
0.0
 42
0.3039248401968789
  0
VERTEX
  5
C93
  8
CUT
 10
850.1531656757872
 20
22.39010965103373
 30
0.0
  0
VERTEX
  5
C94
  8
CUT
 10
1088.076793202702
 20
22.3901096510337
 30
0.0
 42
0.3039248401968831
  0
VERTEX
  5
C95
  8
CUT
 10
1097.323670796643
 20
28.58284622927161
 30
0.0
  0
VERTEX
  5
C96
  8
CUT
 10
1111.254510160787
 20
62.41732315166749
 30
0.0
 42
0.0842905555495233
  0
VERTEX
  5
C97
  8
CUT
 10
1111.992940072649
 20
65.68270649946092
 30
0.0
  0
VERTEX
  5
C98
  8
CUT
 10
1159.971078605648
 20
949.783247970404
 30
0.0
 42
0.4301832732953306
  0
SEQEND
  5
1097
  8
CUT
  0
POLYLINE
  5
36F
  8
CUT
 66
     1
 10
0.0
 20
0.0
 30
0.0
 70
     1
  0
VERTEX
  5
C99
  8
CUT
 10
1383.857289995456
 20
251.1960481947917
 30
0.0
 42
0.4142135623730951
  0
VERTEX
  5
C9A
  8
CUT
 10
1381.857289995456
 20
249.1960481947917
 30
0.0
 42
0.4142135623730951
  0
VERTEX
  5
C9B
  8
CUT
 10
1383.857289995456
 20
247.1960481947917
 30
0.0
 42
0.4142135623730951
  0
VERTEX
  5
C9C
  8
CUT
 10
1385.857289995456
 20
249.1960481947917
 30
0.0
 42
0.4142135623730951
  0
SEQEND
  5
1098
  8
CUT
  0
POLYLINE
  5
370
  8
CUT
 66
     1
 10
0.0
 20
0.0
 30
0.0
 70
     1
  0
VERTEX
  5
C9D
  8
CUT
 10
1158.857289995456
 20
251.1960481947916
 30
0.0
 42
0.4142135623730951
  0
VERTEX
  5
C9E
  8
CUT
 10
1156.857289995456
 20
249.1960481947916
 30
0.0
 42
0.4142135623730951
  0
VERTEX
  5
C9F
  8
CUT
 10
1158.857289995456
 20
247.1960481947916
 30
0.0
 42
0.4142135623730951
  0
VERTEX
  5
CA0
  8
CUT
 10
1160.857289995456
 20
249.1960481947916
 30
0.0
 42
0.4142135623730951
  0
SEQEND
  5
1099
  8
CUT
  0
POLYLINE
  5
371
  8
CUT
 66
     1
 10
0.0
 20
0.0
 30
0.0
 70
     1
  0
VERTEX
  5
CA1
  8
CUT
 10
1308.857289995456
 20
251.1960481947917
 30
0.0
 42
0.4142135623730951
  0
VERTEX
  5
CA2
  8
CUT
 10
1306.857289995456
 20
249.1960481947917
 30
0.0
 42
0.4142135623730951
  0
VERTEX
  5
CA3
  8
CUT
 10
1308.857289995456
 20
247.1960481947917
 30
0.0
 42
0.4142135623730951
  0
VERTEX
  5
CA4
  8
CUT
 10
1310.857289995456
 20
249.1960481947917
 30
0.0
 42
0.4142135623730951
  0
SEQEND
  5
109A
  8
CUT
  0
POLYLINE
  5
372
  8
CUT
 66
     1
 10
0.0
 20
0.0
 30
0.0
 70
     1
  0
VERTEX
  5
CA5
  8
CUT
 10
1233.857289995456
 20
251.1960481947917
 30
0.0
 42
0.4142135623730951
  0
VERTEX
  5
CA6
  8
CUT
 10
1231.857289995456
 20
249.1960481947917
 30
0.0
 42
0.4142135623730951
  0
VERTEX
  5
CA7
  8
CUT
 10
1233.857289995456
 20
247.1960481947917
 30
0.0
 42
0.4142135623730951
  0
VERTEX
  5
CA8
  8
CUT
 10
1235.857289995456
 20
249.1960481947917
 30
0.0
 42
0.4142135623730951
  0
SEQEND
  5
109B
  8
CUT
  0
POLYLINE
  5
373
  8
CUT
 66
     1
 10
0.0
 20
0.0
 30
0.0
 70
     1
  0
VERTEX
  5
CA9
  8
CUT
 10
1458.857289995456
 20
251.1960481947917
 30
0.0
 42
0.4142135623730951
  0
VERTEX
  5
CAA
  8
CUT
 10
1456.857289995456
 20
249.1960481947917
 30
0.0
 42
0.4142135623730951
  0
VERTEX
  5
CAB
  8
CUT
 10
1458.857289995456
 20
247.1960481947917
 30
0.0
 42
0.4142135623730951
  0
VERTEX
  5
CAC
  8
CUT
 10
1460.857289995456
 20
249.1960481947917
 30
0.0
 42
0.4142135623730951
  0
SEQEND
  5
109C
  8
CUT
  0
POLYLINE
  5
374
  8
CUT
 66
     1
 10
0.0
 20
0.0
 30
0.0
 70
     1
  0
VERTEX
  5
CAD
  8
CUT
 10
1157.899725462641
 20
610.18915644077
 30
0.0
 42
0.4142135623730951
  0
VERTEX
  5
CAE
  8
CUT
 10
1155.899725462641
 20
608.18915644077
 30
0.0
 42
0.4142135623730951
  0
VERTEX
  5
CAF
  8
CUT
 10
1157.899725462641
 20
606.18915644077
 30
0.0
 42
0.4142135623730951
  0
VERTEX
  5
CB0
  8
CUT
 10
1159.899725462641
 20
608.18915644077
 30
0.0
 42
0.4142135623730951
  0
SEQEND
  5
109D
  8
CUT
  0
POLYLINE
  5
375
  8
CUT
 66
     1
 10
0.0
 20
0.0
 30
0.0
 70
     1
  0
VERTEX
  5
CB1
  8
CUT
 10
1150.0336294466
 20
465.2393947433382
 30
0.0
 42
0.4142135623730951
  0
VERTEX
  5
CB2
  8
CUT
 10
1148.0336294466
 20
463.2393947433382
 30
0.0
 42
0.4142135623730951
  0
VERTEX
  5
CB3
  8
CUT
 10
1150.0336294466
 20
461.2393947433382
 30
0.0
 42
0.4142135623730951
  0
VERTEX
  5
CB4
  8
CUT
 10
1152.0336294466
 20
463.2393947433382
 30
0.0
 42
0.4142135623730951
  0
SEQEND
  5
109E
  8
CUT
  0
POLYLINE
  5
376
  8
CUT
 66
     1
 10
0.0
 20
0.0
 30
0.0
 70
     1
  0
VERTEX
  5
CB5
  8
CUT
 10
1165.765821478682
 20
755.1389181382023
 30
0.0
 42
0.4142135623730951
  0
VERTEX
  5
CB6
  8
CUT
 10
1163.765821478682
 20
753.1389181382023
 30
0.0
 42
0.4142135623730951
  0
VERTEX
  5
CB7
  8
CUT
 10
1165.765821478682
 20
751.1389181382023
 30
0.0
 42
0.4142135623730951
  0
VERTEX
  5
CB8
  8
CUT
 10
1167.765821478682
 20
753.1389181382023
 30
0.0
 42
0.4142135623730951
  0
SEQEND
  5
109F
  8
CUT
  0
POLYLINE
  5
377
  8
CUT
 66
     1
 10
0.0
 20
0.0
 30
0.0
 70
     1
  0
VERTEX
  5
CB9
  8
CUT
 10
1142.167533430558
 20
320.2896330459062
 30
0.0
 42
0.4142135623730951
  0
VERTEX
  5
CBA
  8
CUT
 10
1140.167533430558
 20
318.2896330459062
 30
0.0
 42
0.4142135623730951
  0
VERTEX
  5
CBB
  8
CUT
 10
1142.167533430558
 20
316.2896330459062
 30
0.0
 42
0.4142135623730951
  0
VERTEX
  5
CBC
  8
CUT
 10
1144.167533430558
 20
318.2896330459062
 30
0.0
 42
0.4142135623730951
  0
SEQEND
  5
10A0
  8
CUT
  0
POLYLINE
  5
378
  8
CUT
 66
     1
 10
0.0
 20
0.0
 30
0.0
 70
     1
  0
VERTEX
  5
CBD
  8
CUT
 10
1126.435341398476
 20
30.39010965104194
 30
0.0
 42
0.4142135623730951
  0
VERTEX
  5
CBE
  8
CUT
 10
1124.435341398476
 20
28.39010965104194
 30
0.0
 42
0.4142135623730951
  0
VERTEX
  5
CBF
  8
CUT
 10
1126.435341398476
 20
26.39010965104194
 30
0.0
 42
0.4142135623730951
  0
VERTEX
  5
CC0
  8
CUT
 10
1128.435341398476
 20
28.39010965104194
 30
0.0
 42
0.4142135623730951
  0
SEQEND
  5
10A1
  8
CUT
  0
POLYLINE
  5
379
  8
CUT
 66
     1
 10
0.0
 20
0.0
 30
0.0
 70
     1
  0
VERTEX
  5
CC1
  8
CUT
 10
1138.234485422538
 20
247.8147521971903
 30
0.0
 42
0.4142135623730951
  0
VERTEX
  5
CC2
  8
CUT
 10
1136.234485422538
 20
245.8147521971903
 30
0.0
 42
0.4142135623730951
  0
VERTEX
  5
CC3
  8
CUT
 10
1138.234485422538
 20
243.8147521971903
 30
0.0
 42
0.4142135623730951
  0
VERTEX
  5
CC4
  8
CUT
 10
1140.234485422538
 20
245.8147521971903
 30
0.0
 42
0.4142135623730951
  0
SEQEND
  5
10A2
  8
CUT
  0
POLYLINE
  5
37A
  8
CUT
 66
     1
 10
0.0
 20
0.0
 30
0.0
 70
     1
  0
VERTEX
  5
CC5
  8
CUT
 10
1169.698869486703
 20
827.6137989869183
 30
0.0
 42
0.4142135623730951
  0
VERTEX
  5
CC6
  8
CUT
 10
1167.698869486703
 20
825.6137989869183
 30
0.0
 42
0.4142135623730951
  0
VERTEX
  5
CC7
  8
CUT
 10
1169.698869486703
 20
823.6137989869183
 30
0.0
 42
0.4142135623730951
  0
VERTEX
  5
CC8
  8
CUT
 10
1171.698869486703
 20
825.6137989869183
 30
0.0
 42
0.4142135623730951
  0
SEQEND
  5
10A3
  8
CUT
  0
POLYLINE
  5
37B
  8
CUT
 66
     1
 10
0.0
 20
0.0
 30
0.0
 70
     1
  0
VERTEX
  5
CC9
  8
CUT
 10
1153.96667745462
 20
537.7142755920542
 30
0.0
 42
0.4142135623730951
  0
VERTEX
  5
CCA
  8
CUT
 10
1151.96667745462
 20
535.7142755920542
 30
0.0
 42
0.4142135623730951
  0
VERTEX
  5
CCB
  8
CUT
 10
1153.96667745462
 20
533.7142755920542
 30
0.0
 42
0.4142135623730951
  0
VERTEX
  5
CCC
  8
CUT
 10
1155.96667745462
 20
535.7142755920542
 30
0.0
 42
0.4142135623730951
  0
SEQEND
  5
10A4
  8
CUT
  0
POLYLINE
  5
37C
  8
CUT
 66
     1
 10
0.0
 20
0.0
 30
0.0
 70
     1
  0
VERTEX
  5
CCD
  8
CUT
 10
1161.832773470662
 20
682.6640372894861
 30
0.0
 42
0.4142135623730951
  0
VERTEX
  5
CCE
  8
CUT
 10
1159.832773470662
 20
680.6640372894861
 30
0.0
 42
0.4142135623730951
  0
VERTEX
  5
CCF
  8
CUT
 10
1161.832773470662
 20
678.6640372894861
 30
0.0
 42
0.4142135623730951
  0
VERTEX
  5
CD0
  8
CUT
 10
1163.832773470662
 20
680.6640372894861
 30
0.0
 42
0.4142135623730951
  0
SEQEND
  5
10A5
  8
CUT
  0
POLYLINE
  5
37D
  8
CUT
 66
     1
 10
0.0
 20
0.0
 30
0.0
 70
     1
  0
VERTEX
  5
CD1
  8
CUT
 10
1146.100581438579
 20
392.7645138946223
 30
0.0
 42
0.4142135623730951
  0
VERTEX
  5
CD2
  8
CUT
 10
1144.100581438579
 20
390.7645138946223
 30
0.0
 42
0.4142135623730951
  0
VERTEX
  5
CD3
  8
CUT
 10
1146.100581438579
 20
388.7645138946223
 30
0.0
 42
0.4142135623730951
  0
VERTEX
  5
CD4
  8
CUT
 10
1148.100581438579
 20
390.7645138946223
 30
0.0
 42
0.4142135623730951
  0
SEQEND
  5
10A6
  8
CUT
  0
POLYLINE
  5
37E
  8
CUT
 66
     1
 10
0.0
 20
0.0
 30
0.0
 70
     1
  0
VERTEX
  5
CD5
  8
CUT
 10
1130.368389406497
 20
102.8649904997584
 30
0.0
 42
0.4142135623730951
  0
VERTEX
  5
CD6
  8
CUT
 10
1128.368389406497
 20
100.8649904997584
 30
0.0
 42
0.4142135623730951
  0
VERTEX
  5
CD7
  8
CUT
 10
1130.368389406497
 20
98.86499049975842
 30
0.0
 42
0.4142135623730951
  0
VERTEX
  5
CD8
  8
CUT
 10
1132.368389406497
 20
100.8649904997584
 30
0.0
 42
0.4142135623730951
  0
SEQEND
  5
10A7
  8
CUT
  0
POLYLINE
  5
37F
  8
CUT
 66
     1
 10
0.0
 20
0.0
 30
0.0
 70
     1
  0
VERTEX
  5
CD9
  8
CUT
 10
1134.301437414517
 20
175.3398713484743
 30
0.0
 42
0.4142135623730951
  0
VERTEX
  5
CDA
  8
CUT
 10
1132.301437414517
 20
173.3398713484743
 30
0.0
 42
0.4142135623730951
  0
VERTEX
  5
CDB
  8
CUT
 10
1134.301437414517
 20
171.3398713484743
 30
0.0
 42
0.4142135623730951
  0
VERTEX
  5
CDC
  8
CUT
 10
1136.301437414517
 20
173.3398713484743
 30
0.0
 42
0.4142135623730951
  0
SEQEND
  5
10A8
  8
CUT
  0
POLYLINE
  5
380
  8
CUT
 66
     1
 10
0.0
 20
0.0
 30
0.0
 70
     1
  0
VERTEX
  5
CDD
  8
CUT
 10
1173.631917494723
 20
900.0886798356346
 30
0.0
 42
0.4142135623730951
  0
VERTEX
  5
CDE
  8
CUT
 10
1171.631917494723
 20
898.0886798356346
 30
0.0
 42
0.4142135623730951
  0
VERTEX
  5
CDF
  8
CUT
 10
1173.631917494723
 20
896.0886798356346
 30
0.0
 42
0.4142135623730951
  0
VERTEX
  5
CE0
  8
CUT
 10
1175.631917494723
 20
898.0886798356346
 30
0.0
 42
0.4142135623730951
  0
SEQEND
  5
10A9
  8
CUT
  0
POLYLINE
  5
381
  8
CUT
 66
     1
 10
0.0
 20
0.0
 30
0.0
 70
     1
  0
VERTEX
  5
CE1
  8
CUT
 10
1488.578649760426
 20
611.7501026088238
 30
0.0
 42
0.4142135623730951
  0
VERTEX
  5
CE2
  8
CUT
 10
1486.578649760426
 20
609.7501026088238
 30
0.0
 42
0.4142135623730951
  0
VERTEX
  5
CE3
  8
CUT
 10
1488.578649760426
 20
607.7501026088238
 30
0.0
 42
0.4142135623730951
  0
VERTEX
  5
CE4
  8
CUT
 10
1490.578649760426
 20
609.7501026088238
 30
0.0
 42
0.4142135623730951
  0
SEQEND
  5
10AA
  8
CUT
  0
POLYLINE
  5
382
  8
CUT
 66
     1
 10
0.0
 20
0.0
 30
0.0
 70
     1
  0
VERTEX
  5
CE5
  8
CUT
 10
1472.846457728344
 20
901.6496260036882
 30
0.0
 42
0.4142135623730951
  0
VERTEX
  5
CE6
  8
CUT
 10
1470.846457728344
 20
899.6496260036882
 30
0.0
 42
0.4142135623730951
  0
VERTEX
  5
CE7
  8
CUT
 10
1472.846457728344
 20
897.6496260036882
 30
0.0
 42
0.4142135623730951
  0
VERTEX
  5
CE8
  8
CUT
 10
1474.846457728344
 20
899.6496260036882
 30
0.0
 42
0.4142135623730951
  0
SEQEND
  5
10AB
  8
CUT
  0
POLYLINE
  5
383
  8
CUT
 66
     1
 10
0.0
 20
0.0
 30
0.0
 70
     1
  0
VERTEX
  5
CE9
  8
CUT
 10
1512.17693780855
 20
176.9008175165278
 30
0.0
 42
0.4142135623730951
  0
VERTEX
  5
CEA
  8
CUT
 10
1510.17693780855
 20
174.9008175165278
 30
0.0
 42
0.4142135623730951
  0
VERTEX
  5
CEB
  8
CUT
 10
1512.17693780855
 20
172.9008175165278
 30
0.0
 42
0.4142135623730951
  0
VERTEX
  5
CEC
  8
CUT
 10
1514.17693780855
 20
174.9008175165278
 30
0.0
 42
0.4142135623730951
  0
SEQEND
  5
10AC
  8
CUT
  0
POLYLINE
  5
384
  8
CUT
 66
     1
 10
0.0
 20
0.0
 30
0.0
 70
     1
  0
VERTEX
  5
CED
  8
CUT
 10
1516.109985816571
 20
104.4259366678119
 30
0.0
 42
0.4142135623730951
  0
VERTEX
  5
CEE
  8
CUT
 10
1514.109985816571
 20
102.4259366678119
 30
0.0
 42
0.4142135623730951
  0
VERTEX
  5
CEF
  8
CUT
 10
1516.109985816571
 20
100.4259366678119
 30
0.0
 42
0.4142135623730951
  0
VERTEX
  5
CF0
  8
CUT
 10
1518.109985816571
 20
102.4259366678119
 30
0.0
 42
0.4142135623730951
  0
SEQEND
  5
10AD
  8
CUT
  0
POLYLINE
  5
385
  8
CUT
 66
     1
 10
0.0
 20
0.0
 30
0.0
 70
     1
  0
VERTEX
  5
CF1
  8
CUT
 10
1500.377793784488
 20
394.3254600626758
 30
0.0
 42
0.4142135623730951
  0
VERTEX
  5
CF2
  8
CUT
 10
1498.377793784488
 20
392.3254600626758
 30
0.0
 42
0.4142135623730951
  0
VERTEX
  5
CF3
  8
CUT
 10
1500.377793784488
 20
390.3254600626758
 30
0.0
 42
0.4142135623730951
  0
VERTEX
  5
CF4
  8
CUT
 10
1502.377793784488
 20
392.3254600626758
 30
0.0
 42
0.4142135623730951
  0
SEQEND
  5
10AE
  8
CUT
  0
POLYLINE
  5
386
  8
CUT
 66
     1
 10
0.0
 20
0.0
 30
0.0
 70
     1
  0
VERTEX
  5
CF5
  8
CUT
 10
1484.645601752406
 20
684.2249834575398
 30
0.0
 42
0.4142135623730951
  0
VERTEX
  5
CF6
  8
CUT
 10
1482.645601752406
 20
682.2249834575398
 30
0.0
 42
0.4142135623730951
  0
VERTEX
  5
CF7
  8
CUT
 10
1484.645601752406
 20
680.2249834575398
 30
0.0
 42
0.4142135623730951
  0
VERTEX
  5
CF8
  8
CUT
 10
1486.645601752406
 20
682.2249834575398
 30
0.0
 42
0.4142135623730951
  0
SEQEND
  5
10AF
  8
CUT
  0
POLYLINE
  5
387
  8
CUT
 66
     1
 10
0.0
 20
0.0
 30
0.0
 70
     1
  0
VERTEX
  5
CF9
  8
CUT
 10
1492.511697768447
 20
539.2752217601078
 30
0.0
 42
0.4142135623730951
  0
VERTEX
  5
CFA
  8
CUT
 10
1490.511697768447
 20
537.2752217601078
 30
0.0
 42
0.4142135623730951
  0
VERTEX
  5
CFB
  8
CUT
 10
1492.511697768447
 20
535.2752217601078
 30
0.0
 42
0.4142135623730951
  0
VERTEX
  5
CFC
  8
CUT
 10
1494.511697768447
 20
537.2752217601078
 30
0.0
 42
0.4142135623730951
  0
SEQEND
  5
10B0
  8
CUT
  0
POLYLINE
  5
388
  8
CUT
 66
     1
 10
0.0
 20
0.0
 30
0.0
 70
     1
  0
VERTEX
  5
CFD
  8
CUT
 10
1476.779505736364
 20
829.1747451549719
 30
0.0
 42
0.4142135623730951
  0
VERTEX
  5
CFE
  8
CUT
 10
1474.779505736364
 20
827.1747451549719
 30
0.0
 42
0.4142135623730951
  0
VERTEX
  5
CFF
  8
CUT
 10
1476.779505736364
 20
825.1747451549719
 30
0.0
 42
0.4142135623730951
  0
VERTEX
  5
D00
  8
CUT
 10
1478.779505736364
 20
827.1747451549719
 30
0.0
 42
0.4142135623730951
  0
SEQEND
  5
10B1
  8
CUT
  0
POLYLINE
  5
389
  8
CUT
 66
     1
 10
0.0
 20
0.0
 30
0.0
 70
     1
  0
VERTEX
  5
D01
  8
CUT
 10
1508.24388980053
 20
249.3756983652439
 30
0.0
 42
0.4142135623730951
  0
VERTEX
  5
D02
  8
CUT
 10
1506.24388980053
 20
247.3756983652439
 30
0.0
 42
0.4142135623730951
  0
VERTEX
  5
D03
  8
CUT
 10
1508.24388980053
 20
245.3756983652439
 30
0.0
 42
0.4142135623730951
  0
VERTEX
  5
D04
  8
CUT
 10
1510.24388980053
 20
247.3756983652439
 30
0.0
 42
0.4142135623730951
  0
SEQEND
  5
10B2
  8
CUT
  0
POLYLINE
  5
38A
  8
CUT
 66
     1
 10
0.0
 20
0.0
 30
0.0
 70
     1
  0
VERTEX
  5
D05
  8
CUT
 10
1520.043033824591
 20
31.9510558190957
 30
0.0
 42
0.4142135623730951
  0
VERTEX
  5
D06
  8
CUT
 10
1518.043033824591
 20
29.9510558190957
 30
0.0
 42
0.4142135623730951
  0
VERTEX
  5
D07
  8
CUT
 10
1520.043033824591
 20
27.9510558190957
 30
0.0
 42
0.4142135623730951
  0
VERTEX
  5
D08
  8
CUT
 10
1522.043033824591
 20
29.9510558190957
 30
0.0
 42
0.4142135623730951
  0
SEQEND
  5
10B3
  8
CUT
  0
POLYLINE
  5
38B
  8
CUT
 66
     1
 10
0.0
 20
0.0
 30
0.0
 70
     1
  0
VERTEX
  5
D09
  8
CUT
 10
1504.310841792509
 20
321.8505792139599
 30
0.0
 42
0.4142135623730951
  0
VERTEX
  5
D0A
  8
CUT
 10
1502.310841792509
 20
319.8505792139599
 30
0.0
 42
0.4142135623730951
  0
VERTEX
  5
D0B
  8
CUT
 10
1504.310841792509
 20
317.8505792139599
 30
0.0
 42
0.4142135623730951
  0
VERTEX
  5
D0C
  8
CUT
 10
1506.310841792509
 20
319.8505792139599
 30
0.0
 42
0.4142135623730951
  0
SEQEND
  5
10B4
  8
CUT
  0
POLYLINE
  5
38C
  8
CUT
 66
     1
 10
0.0
 20
0.0
 30
0.0
 70
     1
  0
VERTEX
  5
D0D
  8
CUT
 10
1480.712553744385
 20
756.6998643062558
 30
0.0
 42
0.4142135623730951
  0
VERTEX
  5
D0E
  8
CUT
 10
1478.712553744385
 20
754.6998643062558
 30
0.0
 42
0.4142135623730951
  0
VERTEX
  5
D0F
  8
CUT
 10
1480.712553744385
 20
752.6998643062558
 30
0.0
 42
0.4142135623730951
  0
VERTEX
  5
D10
  8
CUT
 10
1482.712553744385
 20
754.6998643062558
 30
0.0
 42
0.4142135623730951
  0
SEQEND
  5
10B5
  8
CUT
  0
POLYLINE
  5
38D
  8
CUT
 66
     1
 10
0.0
 20
0.0
 30
0.0
 70
     1
  0
VERTEX
  5
D11
  8
CUT
 10
1496.444745776467
 20
466.8003409113917
 30
0.0
 42
0.4142135623730951
  0
VERTEX
  5
D12
  8
CUT
 10
1494.444745776467
 20
464.8003409113917
 30
0.0
 42
0.4142135623730951
  0
VERTEX
  5
D13
  8
CUT
 10
1496.444745776467
 20
462.8003409113917
 30
0.0
 42
0.4142135623730951
  0
VERTEX
  5
D14
  8
CUT
 10
1498.444745776467
 20
464.8003409113917
 30
0.0
 42
0.4142135623730951
  0
SEQEND
  5
10B6
  8
CUT
  0
POLYLINE
  5
38E
  8
CUT
 66
     1
 10
0.0
 20
0.0
 30
0.0
 70
     1
  0
VERTEX
  5
D15
  8
CUT
 10
1346.357289995456
 20
942.0
 30
0.0
 42
0.4142135623730951
  0
VERTEX
  5
D16
  8
CUT
 10
1344.357289995456
 20
940.0
 30
0.0
 42
0.4142135623730951
  0
VERTEX
  5
D17
  8
CUT
 10
1346.357289995456
 20
938.0
 30
0.0
 42
0.4142135623730951
  0
VERTEX
  5
D18
  8
CUT
 10
1348.357289995456
 20
940.0
 30
0.0
 42
0.4142135623730951
  0
SEQEND
  5
10B7
  8
CUT
  0
POLYLINE
  5
38F
  8
CUT
 66
     1
 10
0.0
 20
0.0
 30
0.0
 70
     1
  0
VERTEX
  5
D19
  8
CUT
 10
1271.357289995456
 20
942.0
 30
0.0
 42
0.4142135623730951
  0
VERTEX
  5
D1A
  8
CUT
 10
1269.357289995456
 20
940.0
 30
0.0
 42
0.4142135623730951
  0
VERTEX
  5
D1B
  8
CUT
 10
1271.357289995456
 20
938.0
 30
0.0
 42
0.4142135623730951
  0
VERTEX
  5
D1C
  8
CUT
 10
1273.357289995456
 20
940.0
 30
0.0
 42
0.4142135623730951
  0
SEQEND
  5
10B8
  8
CUT
  0
POLYLINE
  5
390
  8
CUT
 66
     1
 10
0.0
 20
0.0
 30
0.0
 70
     1
  0
VERTEX
  5
D1D
  8
CUT
 10
1421.357289995456
 20
942.0
 30
0.0
 42
0.4142135623730951
  0
VERTEX
  5
D1E
  8
CUT
 10
1419.357289995456
 20
940.0
 30
0.0
 42
0.4142135623730951
  0
VERTEX
  5
D1F
  8
CUT
 10
1421.357289995456
 20
938.0
 30
0.0
 42
0.4142135623730951
  0
VERTEX
  5
D20
  8
CUT
 10
1423.357289995456
 20
940.0
 30
0.0
 42
0.4142135623730951
  0
SEQEND
  5
10B9
  8
CUT
  0
POLYLINE
  5
391
  8
CUT
 66
     1
 10
0.0
 20
0.0
 30
0.0
 70
     1
  0
VERTEX
  5
D21
  8
CUT
 10
1196.357289995456
 20
942.0
 30
0.0
 42
0.4142135623730951
  0
VERTEX
  5
D22
  8
CUT
 10
1194.357289995456
 20
940.0
 30
0.0
 42
0.4142135623730951
  0
VERTEX
  5
D23
  8
CUT
 10
1196.357289995456
 20
938.0
 30
0.0
 42
0.4142135623730951
  0
VERTEX
  5
D24
  8
CUT
 10
1198.357289995456
 20
940.0
 30
0.0
 42
0.4142135623730951
  0
SEQEND
  5
10BA
  8
CUT
  0
POLYLINE
  5
392
  8
CUT
 66
     1
 10
0.0
 20
0.0
 30
0.0
 70
     1
  0
VERTEX
  5
D25
  8
CUT
 10
1456.410860606027
 20
845.4167288713732
 30
0.0
  0
VERTEX
  5
D26
  8
CUT
 10
1454.526622456628
 20
880.1378751904405
 30
0.0
 42
-0.9999999999999865
  0
VERTEX
  5
D27
  8
CUT
 10
1462.403458635413
 20
880.5653332901251
 30
0.0
  0
VERTEX
  5
D28
  8
CUT
 10
1464.287696784786
 20
845.8441869710567
 30
0.0
 42
-0.9999999999993654
  0
SEQEND
  5
10BB
  8
CUT
  0
POLYLINE
  5
393
  8
CUT
 66
     1
 10
0.0
 20
0.0
 30
0.0
 70
     1
  0
VERTEX
  5
D29
  8
CUT
 10
1459.535376966038
 20
787.8407851148181
 30
0.0
  0
VERTEX
  5
D2A
  8
CUT
 10
1457.651138816639
 20
822.5619314338852
 30
0.0
 42
-0.4142135623730863
  0
VERTEX
  5
D2B
  8
CUT
 10
1461.375827856163
 20
826.7140785731194
 30
0.0
 42
-0.4142135623731231
  0
VERTEX
  5
D2C
  8
CUT
 10
1465.527974995424
 20
822.98938953357
 30
0.0
  0
VERTEX
  5
D2D
  8
CUT
 10
1467.412213144798
 20
788.2682432145017
 30
0.0
 42
-0.9999999999994094
  0
SEQEND
  5
10BC
  8
CUT
  0
POLYLINE
  5
394
  8
CUT
 66
     1
 10
0.0
 20
0.0
 30
0.0
 70
     1
  0
VERTEX
  5
D2E
  8
CUT
 10
1462.659893326048
 20
730.2648413582631
 30
0.0
  0
VERTEX
  5
D2F
  8
CUT
 10
1460.77565517665
 20
764.9859876773302
 30
0.0
 42
-0.4142135623730903
  0
VERTEX
  5
D30
  8
CUT
 10
1464.500344216174
 20
769.1381348165644
 30
0.0
 42
-0.4142135623730967
  0
VERTEX
  5
D31
  8
CUT
 10
1468.652491355435
 20
765.4134457770152
 30
0.0
  0
VERTEX
  5
D32
  8
CUT
 10
1470.536729504808
 20
730.6922994579464
 30
0.0
 42
-0.9999999999993942
  0
SEQEND
  5
10BD
  8
CUT
  0
POLYLINE
  5
395
  8
CUT
 66
     1
 10
0.0
 20
0.0
 30
0.0
 70
     1
  0
VERTEX
  5
D33
  8
CUT
 10
1465.784409686059
 20
672.6888976017082
 30
0.0
  0
VERTEX
  5
D34
  8
CUT
 10
1463.900171536661
 20
707.4100439207754
 30
0.0
 42
-0.4142135623731031
  0
VERTEX
  5
D35
  8
CUT
 10
1467.624860576186
 20
711.5621910600098
 30
0.0
 42
-0.4142135623730949
  0
VERTEX
  5
D36
  8
CUT
 10
1471.777007715446
 20
707.8375020204602
 30
0.0
  0
VERTEX
  5
D37
  8
CUT
 10
1473.661245864819
 20
673.1163557013916
 30
0.0
 42
-0.9999999999993654
  0
SEQEND
  5
10BE
  8
CUT
  0
POLYLINE
  5
396
  8
CUT
 66
     1
 10
0.0
 20
0.0
 30
0.0
 70
     1
  0
VERTEX
  5
D38
  8
CUT
 10
1468.908926046069
 20
615.1129538451532
 30
0.0
  0
VERTEX
  5
D39
  8
CUT
 10
1467.024687896672
 20
649.8341001642203
 30
0.0
 42
-1.0
  0
VERTEX
  5
D3A
  8
CUT
 10
1474.901524075457
 20
650.2615582639053
 30
0.0
  0
VERTEX
  5
D3B
  8
CUT
 10
1476.78576222483
 20
615.5404119448366
 30
0.0
 42
-0.9999999999993517
  0
SEQEND
  5
10BF
  8
CUT
  0
POLYLINE
  5
397
  8
CUT
 66
     1
 10
0.0
 20
0.0
 30
0.0
 70
     1
  0
VERTEX
  5
D3C
  8
CUT
 10
1472.03344240608
 20
557.5370100885981
 30
0.0
  0
VERTEX
  5
D3D
  8
CUT
 10
1470.149204256682
 20
592.2581564076655
 30
0.0
 42
-0.9999999999999789
  0
VERTEX
  5
D3E
  8
CUT
 10
1478.026040435467
 20
592.6856145073504
 30
0.0
  0
VERTEX
  5
D3F
  8
CUT
 10
1479.910278584841
 20
557.9644681882817
 30
0.0
 42
-0.999999999999351
  0
SEQEND
  5
10C0
  8
CUT
  0
POLYLINE
  5
398
  8
CUT
 66
     1
 10
0.0
 20
0.0
 30
0.0
 70
     1
  0
VERTEX
  5
D40
  8
CUT
 10
1475.15795876609
 20
499.9610663320432
 30
0.0
  0
VERTEX
  5
D41
  8
CUT
 10
1473.273720616693
 20
534.6822126511106
 30
0.0
 42
-1.0
  0
VERTEX
  5
D42
  8
CUT
 10
1481.150556795478
 20
535.1096707507953
 30
0.0
  0
VERTEX
  5
D43
  8
CUT
 10
1483.034794944852
 20
500.3885244317266
 30
0.0
 42
-0.999999999999351
  0
SEQEND
  5
10C1
  8
CUT
  0
POLYLINE
  5
399
  8
CUT
 66
     1
 10
0.0
 20
0.0
 30
0.0
 70
     1
  0
VERTEX
  5
D44
  8
CUT
 10
1478.282475126101
 20
442.385122575488
 30
0.0
  0
VERTEX
  5
D45
  8
CUT
 10
1476.398236976704
 20
477.1062688945555
 30
0.0
 42
-0.4142135623730901
  0
VERTEX
  5
D46
  8
CUT
 10
1480.12292601623
 20
481.2584160337899
 30
0.0
 42
-0.4142135623731015
  0
VERTEX
  5
D47
  8
CUT
 10
1484.27507315549
 20
477.5337269942404
 30
0.0
  0
VERTEX
  5
D48
  8
CUT
 10
1486.159311304863
 20
442.8125806751717
 30
0.0
 42
-0.9999999999993153
  0
SEQEND
  5
10C2
  8
CUT
  0
POLYLINE
  5
39A
  8
CUT
 66
     1
 10
0.0
 20
0.0
 30
0.0
 70
     1
  0
VERTEX
  5
D49
  8
CUT
 10
1481.406991486111
 20
384.8091788189331
 30
0.0
  0
VERTEX
  5
D4A
  8
CUT
 10
1479.522753336715
 20
419.5303251380004
 30
0.0
 42
-0.9999999999999925
  0
VERTEX
  5
D4B
  8
CUT
 10
1487.3995895155
 20
419.9577832376854
 30
0.0
  0
VERTEX
  5
D4C
  8
CUT
 10
1489.283827664873
 20
385.2366369186167
 30
0.0
 42
-0.999999999999329
  0
SEQEND
  5
10C3
  8
CUT
  0
POLYLINE
  5
39B
  8
CUT
 66
     1
 10
0.0
 20
0.0
 30
0.0
 70
     1
  0
VERTEX
  5
D4D
  8
CUT
 10
1484.531507846122
 20
327.2332350623781
 30
0.0
  0
VERTEX
  5
D4E
  8
CUT
 10
1482.647269696726
 20
361.9543813814456
 30
0.0
 42
-0.9999999999999856
  0
VERTEX
  5
D4F
  8
CUT
 10
1490.524105875511
 20
362.3818394811303
 30
0.0
  0
VERTEX
  5
D50
  8
CUT
 10
1492.408344024884
 20
327.6606931620618
 30
0.0
 42
-0.9999999999993222
  0
SEQEND
  5
10C4
  8
CUT
  0
POLYLINE
  5
39C
  8
CUT
 66
     1
 10
0.0
 20
0.0
 30
0.0
 70
     1
  0
VERTEX
  5
D51
  8
CUT
 10
1487.656024206132
 20
269.657291305823
 30
0.0
  0
VERTEX
  5
D52
  8
CUT
 10
1485.771786056737
 20
304.3784376248905
 30
0.0
 42
-0.4142135623730845
  0
VERTEX
  5
D53
  8
CUT
 10
1489.496475096264
 20
308.5305847641248
 30
0.0
 42
-0.4142135623730987
  0
VERTEX
  5
D54
  8
CUT
 10
1493.648622235522
 20
304.8058957245753
 30
0.0
  0
VERTEX
  5
D55
  8
CUT
 10
1495.532860384895
 20
270.0847494055066
 30
0.0
 42
-0.9999999999993294
  0
SEQEND
  5
10C5
  8
CUT
  0
POLYLINE
  5
39D
  8
CUT
 66
     1
 10
0.0
 20
0.0
 30
0.0
 70
     1
  0
VERTEX
  5
D56
  8
CUT
 10
1490.780540566143
 20
212.0813475492682
 30
0.0
  0
VERTEX
  5
D57
  8
CUT
 10
1488.896302416748
 20
246.8024938683357
 30
0.0
 42
-0.4142135623730785
  0
VERTEX
  5
D58
  8
CUT
 10
1492.620991456276
 20
250.9546410075702
 30
0.0
 42
-0.4142135623730944
  0
VERTEX
  5
D59
  8
CUT
 10
1496.773138595533
 20
247.2299519680205
 30
0.0
  0
VERTEX
  5
D5A
  8
CUT
 10
1498.657376744906
 20
212.5088056489517
 30
0.0
 42
-0.9999999999992858
  0
SEQEND
  5
10C6
  8
CUT
  0
POLYLINE
  5
39E
  8
CUT
 66
     1
 10
0.0
 20
0.0
 30
0.0
 70
     1
  0
VERTEX
  5
D5B
  8
CUT
 10
1493.905056926153
 20
154.5054037927132
 30
0.0
  0
VERTEX
  5
D5C
  8
CUT
 10
1492.020818776759
 20
189.2265501117808
 30
0.0
 42
-0.4142135623731024
  0
VERTEX
  5
D5D
  8
CUT
 10
1495.745507816287
 20
193.3786972510155
 30
0.0
 42
-0.4142135623731041
  0
VERTEX
  5
D5E
  8
CUT
 10
1499.897654955544
 20
189.6540082114657
 30
0.0
  0
VERTEX
  5
D5F
  8
CUT
 10
1501.781893104917
 20
154.9328618923968
 30
0.0
 42
-0.9999999999992414
  0
SEQEND
  5
10C7
  8
CUT
  0
POLYLINE
  5
39F
  8
CUT
 66
     1
 10
0.0
 20
0.0
 30
0.0
 70
     1
  0
VERTEX
  5
D60
  8
CUT
 10
1497.029573286164
 20
96.92946003615816
 30
0.0
  0
VERTEX
  5
D61
  8
CUT
 10
1495.14533513677
 20
131.6506063552256
 30
0.0
 42
-0.4142135623730955
  0
VERTEX
  5
D62
  8
CUT
 10
1498.870024176299
 20
135.8027534944602
 30
0.0
 42
-0.4142135623730892
  0
VERTEX
  5
D63
  8
CUT
 10
1503.022171315555
 20
132.0780644549104
 30
0.0
  0
VERTEX
  5
D64
  8
CUT
 10
1504.906409464928
 20
97.35691813584174
 30
0.0
 42
-0.9999999999992456
  0
SEQEND
  5
10C8
  8
CUT
  0
POLYLINE
  5
3A0
  8
CUT
 66
     1
 10
0.0
 20
0.0
 30
0.0
 70
     1
  0
VERTEX
  5
D65
  8
CUT
 10
1169.57691330819
 20
268.2539744089432
 30
0.0
 42
0.4456095382750139
  0
VERTEX
  5
D66
  8
CUT
 10
1179.520795453781
 20
257.1960481947917
 30
0.0
  0
VERTEX
  5
D67
  8
CUT
 10
1438.193784537131
 20
257.1960481947917
 30
0.0
 42
0.4456095382750124
  0
VERTEX
  5
D68
  8
CUT
 10
1448.137666682723
 20
268.2539744089433
 30
0.0
  0
VERTEX
  5
D69
  8
CUT
 10
1386.71504090697
 20
845.5904120703595
 30
0.0
 42
0.1829051208190555
  0
VERTEX
  5
D6A
  8
CUT
 10
1376.873008391199
 20
864.6846563178918
 30
0.0
 42
0.1832377904857229
  0
VERTEX
  5
D6B
  8
CUT
 10
1356.883887543593
 20
872.4515843198295
 30
0.0
  0
VERTEX
  5
D6C
  8
CUT
 10
1260.83069244732
 20
872.4515843198295
 30
0.0
 42
0.1832377904857286
  0
VERTEX
  5
D6D
  8
CUT
 10
1240.841571599714
 20
864.6846563178916
 30
0.0
 42
0.1829051208190505
  0
VERTEX
  5
D6E
  8
CUT
 10
1230.999539083942
 20
845.5904120703595
 30
0.0
  0
SEQEND
  5
10C9
  8
CUT
  0
POLYLINE
  5
3A1
  8
CUT
 66
     1
 10
0.0
 20
0.0
 30
0.0
 70
     1
  0
VERTEX
  5
D6F
  8
CUT
 10
1500.154089646174
 20
39.35351627960316
 30
0.0
  0
VERTEX
  5
D70
  8
CUT
 10
1498.269851496781
 20
74.07466259867078
 30
0.0
 42
-0.4142135623730954
  0
VERTEX
  5
D71
  8
CUT
 10
1501.99454053631
 20
78.22680973790534
 30
0.0
 42
-0.4142135623730887
  0
VERTEX
  5
D72
  8
CUT
 10
1506.146687675566
 20
74.50212069835553
 30
0.0
  0
VERTEX
  5
D73
  8
CUT
 10
1508.030925824939
 20
39.78097437928682
 30
0.0
 42
-0.9999999999992226
  0
SEQEND
  5
10CA
  8
CUT
  0
POLYLINE
  5
3A2
  8
CUT
 66
     1
 10
0.0
 20
0.0
 30
0.0
 70
     1
  0
VERTEX
  5
D74
  8
CUT
 10
1121.995313831374
 20
16.39010965104234
 30
0.0
  0
VERTEX
  5
D75
  8
CUT
 10
1135.588295718438
 20
16.39010965104234
 30
0.0
 42
0.1813120094618831
  0
VERTEX
  5
D76
  8
CUT
 10
1140.903537310019
 20
18.47822629628737
 30
0.0
 42
0.1809851551784637
  0
VERTEX
  5
D77
  8
CUT
 10
1143.543269948672
 20
23.55308891756756
 30
0.0
  0
VERTEX
  5
D78
  8
CUT
 10
1162.354742108859
 20
200.3698268372463
 30
0.0
 42
-0.3834994492264608
  0
VERTEX
  5
D79
  8
CUT
 10
1192.186388545633
 20
227.1960481947918
 30
0.0
  0
VERTEX
  5
D7A
  8
CUT
 10
1425.528191445279
 20
227.1960481947918
 30
0.0
 42
-0.3834994492264634
  0
VERTEX
  5
D7B
  8
CUT
 10
1455.359837882053
 20
200.3698268372463
 30
0.0
  0
VERTEX
  5
D7C
  8
CUT
 10
1474.171310042241
 20
23.55308891756768
 30
0.0
 42
0.1809851551783977
  0
VERTEX
  5
D7D
  8
CUT
 10
1476.811042680895
 20
18.4782262962886
 30
0.0
 42
0.1813120094617822
  0
VERTEX
  5
D7E
  8
CUT
 10
1482.126284272475
 20
16.39010965104238
 30
0.0
  0
VERTEX
  5
D7F
  8
CUT
 10
1498.305206735469
 20
16.39010965103353
 30
0.0
 42
0.0517041660956841
  0
VERTEX
  5
D80
  8
CUT
 10
1499.131857065548
 20
16.47718410991345
 30
0.0
 42
0.0516663261441014
  0
VERTEX
  5
D81
  8
CUT
 10
1499.923653291707
 20
16.73213215075315
 30
0.0
 42
0.0830755646184238
  0
VERTEX
  5
D82
  8
CUT
 10
1501.035270719987
 20
17.46800486062847
 30
0.0
 42
0.0830117673622984
  0
VERTEX
  5
D83
  8
CUT
 10
1501.847573950439
 20
18.52633405221965
 30
0.0
 42
-0.566081599835543
  0
VERTEX
  5
D84
  8
CUT
 10
1508.601237480383
 20
18.89284011034118
 30
0.0
 42
0.0830124675827987
  0
VERTEX
  5
D85
  8
CUT
 10
1509.523305067201
 20
17.9286222691093
 30
0.0
 42
0.08307749204511
  0
VERTEX
  5
D86
  8
CUT
 10
1510.708022326757
 20
17.31737548822885
 30
0.0
 42
0.0516652008243119
  0
VERTEX
  5
D87
  8
CUT
 10
1511.522763180563
 20
17.14961120622381
 30
0.0
 42
0.0517036397996203
  0
VERTEX
  5
D88
  8
CUT
 10
1512.353976838615
 20
17.15250465771916
 30
0.0
  0
VERTEX
  5
D89
  8
CUT
 10
1523.908881149656
 20
18.41032601743819
 30
0.0
 42
0.1862738792150982
  0
VERTEX
  5
D8A
  8
CUT
 10
1526.496835968717
 20
19.8210756022288
 30
0.0
 42
0.1859305822343641
  0
VERTEX
  5
D8B
  8
CUT
 10
1527.469550174429
 20
22.60881828116258
 30
0.0
  0
VERTEX
  5
D8C
  8
CUT
 10
1479.790748734795
 20
901.1934290716417
 30
0.0
 42
0.430183273295335
  0
VERTEX
  5
D8D
  8
CUT
 10
1475.363758598886
 20
904.953186320889
 30
0.0
  0
VERTEX
  5
D8E
  8
CUT
 10
1463.936418216625
 20
903.7092510678953
 30
0.0
 42
0.0858427881036748
  0
VERTEX
  5
D8F
  8
CUT
 10
1462.625964308385
 20
903.3328573073628
 30
0.0
 42
0.1683874153580451
  0
VERTEX
  5
D90
  8
CUT
 10
1460.771938247373
 20
901.4817683246196
 30
0.0
 42
-0.6475007239956572
  0
VERTEX
  5
D91
  8
CUT
 10
1453.577596740816
 20
901.7047358429699
 30
0.0
  0
VERTEX
  5
D92
  8
CUT
 10
1451.64323619749
 20
906.4028071833161
 30
0.0
  0
VERTEX
  5
D93
  8
CUT
 10
1437.065981352854
 20
941.807263421762
 30
0.0
 42
0.3039248401968789
  0
VERTEX
  5
D94
  8
CUT
 10
1427.819103758914
 20
948.0
 30
0.0
  0
VERTEX
  5
D95
  8
CUT
 10
1189.895476231999
 20
948.0
 30
0.0
 42
0.3039248401968831
  0
VERTEX
  5
D96
  8
CUT
 10
1180.648598638059
 20
941.807263421762
 30
0.0
  0
VERTEX
  5
D97
  8
CUT
 10
1166.717759273914
 20
907.9727864993662
 30
0.0
 42
0.0842905555495233
  0
VERTEX
  5
D98
  8
CUT
 10
1165.979329362052
 20
904.7074031515727
 30
0.0
  0
VERTEX
  5
D99
  8
CUT
 10
1118.001190829053
 20
20.60686168062986
 30
0.0
 42
0.4301832732953306
  0
SEQEND
  5
10CB
  8
CUT
  0
ENDSEC
  0
EOF
