0
SECTION
2
HEADER
9
$INSUNITS
70
4
9
$ACADVER
1
AC1014
9
$HANDSEED
5
FFFF
0
ENDSEC
0
SECTION
2
TABLES
0
TABLE
2
VPORT
5
8
100
AcDbSymbolTable
0
ENDTAB
0
TABLE
2
LTYPE
5
5
100
AcDbSymbolTable
0
LTYPE
5
14
100
AcDbSymbolTableRecord
100
AcDbLinetypeTableRecord
2
BYBLOCK
70
0
0
LTYPE
5
15
100
AcDbSymbolTableRecord
100
AcDbLinetypeTableRecord
2
BYLAYER
70
0
0
ENDTAB
0
TABLE
2
LAYER
5
2
100
AcDbSymbolTable
70
2
0
LAYER
5
50
100
AcDbSymbolTableRecord
100
AcDbLayerTableRecord
2
0
70
0
6
CONTINUOUS
0
ENDTAB
0
TABLE
2
STYLE
5
3
100
AcDbSymbolTable
70
1
0
STYLE
5
11
100
AcDbSymbolTableRecord
100
AcDbTextStyleTableRecord
2
STANDARD
70
0
0
ENDTAB
0
TABLE
2
VIEW
5
6
100
AcDbSymbolTable
70
0
0
ENDTAB
0
TABLE
2
UCS
5
7
100
AcDbSymbolTable
70
0
0
ENDTAB
0
TABLE
2
APPID
5
9
100
AcDbSymbolTable
70
2
0
APPID
5
12
100
AcDbSymbolTableRecord
100
AcDbRegAppTableRecord
2
ACAD
70
0
0
ENDTAB
0
TABLE
2
DIMSTYLE
5
A
100
AcDbSymbolTable
70
1
0
ENDTAB
0
TABLE
2
BLOCK_RECORD
5
1
100
AcDbSymbolTable
70
1
0
BLOCK_RECORD
5
1F
100
AcDbSymbolTableRecord
100
AcDbBlockTableRecord
2
*MODEL_SPACE
0
BLOCK_RECORD
5
1B
100
AcDbSymbolTableRecord
100
AcDbBlockTableRecord
2
*PAPER_SPACE
0
ENDTAB
0
ENDSEC
0
SECTION
2
BLOCKS
0
BLOCK
5
20
100
AcDbEntity
100
AcDbBlockBegin
2
*MODEL_SPACE
0
ENDBLK
5
21
100
AcDbEntity
100
AcDbBlockEnd
0
BLOCK
5
1C
100
AcDbEntity
100
AcDbBlockBegin
2
*PAPER_SPACE
0
ENDBLK
5
1D
100
AcDbEntity
100
AcDbBlockEnd
0
ENDSEC
0
SECTION
2
ENTITIES
0
SPLINE
5
100
100
AcDbEntity
8
0
100
AcDbSpline
70
0
71
3
72
8
73
4
74
0
42
0.000000001
43
0.0000000001
44
0.0000000001
40
0
40
0
40
0
40
0
40
1
40
1
40
1
40
1
10
1.925953139907115
20
59.786910961857842
30
0
10
0.056953139907136574
20
57.094110961857858
30
0
10
0.72465313990713653
20
53.39601096185789
30
0
10
3.4173531399071067
20
51.526910961857922
30
0
0
SPLINE
5
101
100
AcDbEntity
8
0
100
AcDbSpline
70
0
71
3
72
8
73
4
74
0
42
0.000000001
43
0.0000000001
44
0.0000000001
40
0
40
0
40
0
40
0
40
1
40
1
40
1
40
1
10
143.26285313990579
20
8.321410961858394
30
0
10
168.09485313990552
20
17.517410961858339
30
0
10
193.42185313990529
20
28.433810961858249
30
0
10
217.25585313990507
20
38.858210961858148
30
0
0
SPLINE
5
102
100
AcDbEntity
8
0
100
AcDbSpline
70
0
71
1
72
4
73
2
74
0
42
0.000000001
43
0.0000000001
44
0.0000000001
40
0
40
0
40
2.9113700000000002
40
2.9113700000000002
10
219.00485313990509
20
43.496510961858121
30
0
10
217.77285313990504
20
46.134110961858084
30
0
0
SPLINE
5
103
100
AcDbEntity
8
0
100
AcDbSpline
70
0
71
3
72
8
73
4
74
0
42
0.000000001
43
0.0000000001
44
0.0000000001
40
0
40
0
40
0
40
0
40
1
40
1
40
1
40
1
10
14.239336965164346
20
73.31392597374527
30
0
10
12.491951340090157
20
73.337134749758164
30
0
10
10.764432387126197
20
72.519830750532492
30
0
10
9.691953139907028
20
70.97691096185774
30
0
0
SPLINE
5
104
100
AcDbEntity
8
0
100
AcDbSpline
70
0
71
3
72
8
73
4
74
0
42
0.000000001
43
0.0000000001
44
0.0000000001
40
0
40
0
40
0
40
0
40
1
40
1
40
1
40
1
10
49.955653139906673
20
20.448710961858225
30
0
10
67.406053139906504
20
10.691410961858343
30
0
10
87.396853139906327
20
1.6484109618584522
30
0
10
106.87285313990614
20
1.2404109618584549
30
0
0
SPLINE
5
105
100
AcDbEntity
8
0
100
AcDbSpline
70
0
71
1
72
4
73
2
74
0
42
0.000000001
43
0.0000000001
44
0.0000000001
40
0
40
0
40
13.620799999999999
40
13.620799999999999
10
9.6919531399070369
20
70.976910961857726
30
0
10
1.925953139907115
20
59.786910961857842
30
0
0
SPLINE
5
106
100
AcDbEntity
8
0
100
AcDbSpline
70
0
71
1
72
4
73
2
74
0
42
0.000000001
43
0.0000000001
44
0.0000000001
40
0
40
0
40
16.6035
40
16.6035
10
213.2508531399051
20
50.299610961858043
30
0
10
197.68385313990521
20
56.073910961857969
30
0
0
SPLINE
5
107
100
AcDbEntity
8
0
100
AcDbSpline
70
0
71
3
72
8
73
4
74
0
42
0.000000001
43
0.0000000001
44
0.0000000001
40
0
40
0
40
0
40
0
40
1
40
1
40
1
40
1
10
106.87285313990614
20
1.2404109618584549
30
0
10
118.15785313990601
20
1.7174109618584656
30
0
10
129.24685313990591
20
3.3694109618584278
30
0
10
143.26285313990579
20
8.321410961858394
30
0
0
SPLINE
5
108
100
AcDbEntity
8
0
100
AcDbSpline
70
0
71
3
72
8
73
4
74
0
42
0.000000001
43
0.0000000001
44
0.0000000001
40
0
40
0
40
0
40
0
40
1
40
1
40
1
40
1
10
197.68385313990521
20
56.073910961857969
30
0
10
196.11085313990526
20
56.657610961857969
30
0
10
193.5828531399053
20
56.600110961857965
30
0
10
192.03685313990533
20
55.945310961857963
30
0
0
SPLINE
5
109
100
AcDbEntity
8
0
100
AcDbSpline
70
0
71
3
72
8
73
4
74
0
42
0.000000001
43
0.0000000001
44
0.0000000001
40
0
40
0
40
0
40
0
40
1
40
1
40
1
40
1
10
192.0368531399053
20
55.945310961857942
30
0
10
174.22274873846536
20
48.551299159419969
30
0
10
156.44255919943151
20
41.145636515468162
30
0
10
137.29357682554149
20
33.231571053618481
30
0
0
SPLINE
5
110
100
AcDbEntity
8
0
100
AcDbSpline
70
0
71
3
72
8
73
4
74
0
42
0.000000001
43
0.0000000001
44
0.0000000001
40
0
40
0
40
0
40
0
40
1
40
1
40
1
40
1
10
137.29357682554152
20
33.231571053618488
30
0
10
127.05156758363856
20
29.305226226839739
30
0
10
116.88057895844284
20
26.533932616242577
30
0
10
106.57750345651596
20
26.240410961858341
30
0
0
SPLINE
5
111
100
AcDbEntity
8
0
100
AcDbSpline
70
0
71
3
72
8
73
4
74
0
42
0.000000001
43
0.0000000001
44
0.0000000001
40
0
40
0
40
0
40
0
40
1
40
1
40
1
40
1
10
17.268679210351962
20
72.338945126978217
30
0
10
16.343212166494148
20
72.982755946033791
30
0
10
15.287823471100053
20
73.299694428446927
30
0
10
14.239336965169462
20
73.313925973739998
30
0
0
SPLINE
5
112
100
AcDbEntity
8
0
100
AcDbSpline
70
0
71
3
72
8
73
4
74
0
42
0.000000001
43
0.0000000001
44
0.0000000001
40
0
40
0
40
0
40
0
40
1
40
1
40
1
40
1
10
106.57750345650528
20
26.24041096184278
30
0
10
95.500951919051317
20
26.867261540628085
30
0
10
84.805222787787514
20
31.828980014164422
30
0
10
73.327800055774134
20
38.119998440513186
30
0
0
SPLINE
5
113
100
AcDbEntity
8
0
100
AcDbSpline
70
0
71
3
72
8
73
4
74
0
42
0.000000001
43
0.0000000001
44
0.0000000001
40
0
40
0
40
0
40
0
40
1
40
1
40
1
40
1
10
3.4173531399071067
20
51.526910961857922
30
0
10
31.599153139906839
20
32.587610961858118
30
0
10
26.80145313990689
20
34.628110961858091
30
0
10
49.955653139906673
20
20.448710961858225
30
0
0
SPLINE
5
114
100
AcDbEntity
8
0
100
AcDbSpline
70
0
71
3
72
8
73
4
74
0
42
0.000000001
43
0.0000000001
44
0.0000000001
40
0
40
0
40
0
40
0
40
1
40
1
40
1
40
1
10
217.25585313990507
20
38.858210961858148
30
0
10
219.05185313990506
20
39.643610961858144
30
0
10
219.83485313990502
20
41.720710961858131
30
0
10
219.00485313990509
20
43.496510961858121
30
0
0
ELLIPSE
5
115
100
AcDbEntity
8
0
100
AcDbEllipse
10
213.64717008442241
20
45.075766573867561
30
0
11
3.4435944670377658
21
-4.6673476752554226
31
0.0
40
0.70809886685244317
41
1.291716971247129
42
1.8386549186763239
0
SPLINE
5
116
100
AcDbEntity
8
0
100
AcDbSpline
70
0
71
3
72
8
73
4
74
0
42
0.000000001
43
0.0000000001
44
0.0000000001
40
0.38924000000000003
40
0.38924000000000003
40
0.38924000000000003
40
0.38924000000000003
40
0.77848000000000006
40
0.77848000000000006
40
0.77848000000000006
40
0.77848000000000006
10
215.9228531399051
20
48.662510961858061
30
0
10
215.13985313990509
20
49.385310961858039
30
0
10
214.21185313990514
20
49.944910961858042
30
0
10
213.2508531399051
20
50.299610961858043
30
0
0
SPLINE
5
117
100
AcDbEntity
8
0
100
AcDbSpline
70
0
71
3
72
8
73
4
74
0
42
0.000000001
43
0.0000000001
44
0.0000000001
40
0
40
0
40
0
40
0
40
1
40
1
40
1
40
1
10
73.327800055768677
20
38.11999844052886
30
0
10
52.923989063092208
20
47.682940953433814
30
0
10
34.618926099552738
20
60.743067613648307
30
0
10
17.268679210358336
20
72.338945126971439
30
0
0
ENDSEC
0
SECTION
2
OBJECTS
0
DICTIONARY
5
C
100
AcDbDictionary
3
ACAD_GROUP
350
D
3
ACAD_MLINESTYLE
350
17
0
DICTIONARY
5
D
100
AcDbDictionary
0
DICTIONARY
5
1A
330
C
100
AcDbDictionary
0
DICTIONARY
5
17
100
AcDbDictionary
0
ENDSEC
0
EOF
