999
DXF created by G-Code Ripper <by Scorch, www.scorchworks.com>
0
SECTION
2
HEADER
0
ENDSEC
0
SECTION
2
TABLES
0
TABLE
2
LTYPE
70
1
0
LTYPE
2
CONTINUOUS
70
64
3
Solid line
72
65
73
0
40
0.000000
0
ENDTAB
0
TABLE
2
LAYER
70
6
0
LAYER
2
1
70
64
62
7
6
CONTINUOUS
0
LAYER
2
2
70
64
62
7
6
CONTINUOUS
0
ENDTAB
0
TABLE
2
STYLE
70
0
0
ENDTAB
0
ENDSEC
0
SECTION
2
BLOCKS
0
ENDSEC
0
SECTION
2
ENTITIES
  0
LINE
  5
30
100
AcDbEntity
  8
1
 62
10
100
AcDbLine
 10
0.5516
 20
0.6881
 30
0.0000
 11
0.7880
 21
0.5516
 31
0.0300
  0
LINE
  5
30
100
AcDbEntity
  8
1
 62
10
100
AcDbLine
 10
0.7880
 20
0.5516
 30
0.0300
 11
0.3152
 21
0.2786
 31
0.0300
  0
LINE
  5
30
100
AcDbEntity
  8
1
 62
10
100
AcDbLine
 10
0.3152
 20
0.2786
 30
0.0300
 11
0.3152
 21
0.8246
 31
0.0300
  0
LINE
  5
30
100
AcDbEntity
  8
1
 62
10
100
AcDbLine
 10
0.3152
 20
0.8246
 30
0.0300
 11
0.5516
 21
0.6881
 31
0.0300
  0
LINE
  5
30
100
AcDbEntity
  8
1
 62
10
100
AcDbLine
 10
0.2971
 20
1.5312
 30
0.0000
 11
0.2912
 21
1.5158
 31
0.0300
  0
LINE
  5
30
100
AcDbEntity
  8
1
 62
10
100
AcDbLine
 10
0.2912
 20
1.5158
 30
0.0300
 11
0.2827
 21
1.4839
 31
0.0300
  0
LINE
  5
30
100
AcDbEntity
  8
1
 62
10
100
AcDbLine
 10
0.2827
 20
1.4839
 30
0.0300
 11
0.2775
 21
1.4513
 31
0.0300
  0
LINE
  5
30
100
AcDbEntity
  8
1
 62
10
100
AcDbLine
 10
0.2775
 20
1.4513
 30
0.0300
 11
0.2758
 21
1.4184
 31
0.0300
  0
LINE
  5
30
100
AcDbEntity
  8
1
 62
10
100
AcDbLine
 10
0.2758
 20
1.4184
 30
0.0300
 11
0.2775
 21
1.3855
 31
0.0300
  0
LINE
  5
30
100
AcDbEntity
  8
1
 62
10
100
AcDbLine
 10
0.2775
 20
1.3855
 30
0.0300
 11
0.2827
 21
1.3529
 31
0.0300
  0
LINE
  5
30
100
AcDbEntity
  8
1
 62
10
100
AcDbLine
 10
0.2827
 20
1.3529
 30
0.0300
 11
0.2912
 21
1.3210
 31
0.0300
  0
LINE
  5
30
100
AcDbEntity
  8
1
 62
10
100
AcDbLine
 10
0.2912
 20
1.3210
 30
0.0300
 11
0.3030
 21
1.2902
 31
0.0300
  0
LINE
  5
30
100
AcDbEntity
  8
1
 62
10
100
AcDbLine
 10
0.3030
 20
1.2902
 30
0.0300
 11
0.3180
 21
1.2608
 31
0.0300
  0
LINE
  5
30
100
AcDbEntity
  8
1
 62
10
100
AcDbLine
 10
0.3180
 20
1.2608
 30
0.0300
 11
0.3360
 21
1.2331
 31
0.0300
  0
LINE
  5
30
100
AcDbEntity
  8
1
 62
10
100
AcDbLine
 10
0.3360
 20
1.2331
 30
0.0300
 11
0.3568
 21
1.2075
 31
0.0300
  0
LINE
  5
30
100
AcDbEntity
  8
1
 62
10
100
AcDbLine
 10
0.3568
 20
1.2075
 30
0.0300
 11
0.3801
 21
1.1842
 31
0.0300
  0
LINE
  5
30
100
AcDbEntity
  8
1
 62
10
100
AcDbLine
 10
0.3801
 20
1.1842
 30
0.0300
 11
0.4057
 21
1.1634
 31
0.0300
  0
LINE
  5
30
100
AcDbEntity
  8
1
 62
10
100
AcDbLine
 10
0.4057
 20
1.1634
 30
0.0300
 11
0.4334
 21
1.1454
 31
0.0300
  0
LINE
  5
30
100
AcDbEntity
  8
1
 62
10
100
AcDbLine
 10
0.4334
 20
1.1454
 30
0.0300
 11
0.4628
 21
1.1304
 31
0.0300
  0
LINE
  5
30
100
AcDbEntity
  8
1
 62
10
100
AcDbLine
 10
0.4628
 20
1.1304
 30
0.0300
 11
0.4936
 21
1.1186
 31
0.0300
  0
LINE
  5
30
100
AcDbEntity
  8
1
 62
10
100
AcDbLine
 10
0.4936
 20
1.1186
 30
0.0300
 11
0.5255
 21
1.1101
 31
0.0300
  0
LINE
  5
30
100
AcDbEntity
  8
1
 62
10
100
AcDbLine
 10
0.5255
 20
1.1101
 30
0.0300
 11
0.5581
 21
1.1049
 31
0.0300
  0
LINE
  5
30
100
AcDbEntity
  8
1
 62
10
100
AcDbLine
 10
0.5581
 20
1.1049
 30
0.0300
 11
0.5910
 21
1.1032
 31
0.0300
  0
LINE
  5
30
100
AcDbEntity
  8
1
 62
10
100
AcDbLine
 10
0.5910
 20
1.1032
 30
0.0300
 11
0.6239
 21
1.1049
 31
0.0300
  0
LINE
  5
30
100
AcDbEntity
  8
1
 62
10
100
AcDbLine
 10
0.6239
 20
1.1049
 30
0.0300
 11
0.6565
 21
1.1101
 31
0.0300
  0
LINE
  5
30
100
AcDbEntity
  8
1
 62
10
100
AcDbLine
 10
0.6565
 20
1.1101
 30
0.0300
 11
0.6884
 21
1.1186
 31
0.0300
  0
LINE
  5
30
100
AcDbEntity
  8
1
 62
10
100
AcDbLine
 10
0.6884
 20
1.1186
 30
0.0300
 11
0.7192
 21
1.1304
 31
0.0300
  0
LINE
  5
30
100
AcDbEntity
  8
1
 62
10
100
AcDbLine
 10
0.7192
 20
1.1304
 30
0.0300
 11
0.7486
 21
1.1454
 31
0.0300
  0
LINE
  5
30
100
AcDbEntity
  8
1
 62
10
100
AcDbLine
 10
0.7486
 20
1.1454
 30
0.0300
 11
0.7763
 21
1.1634
 31
0.0300
  0
LINE
  5
30
100
AcDbEntity
  8
1
 62
10
100
AcDbLine
 10
0.7763
 20
1.1634
 30
0.0300
 11
0.8019
 21
1.1842
 31
0.0300
  0
LINE
  5
30
100
AcDbEntity
  8
1
 62
10
100
AcDbLine
 10
0.8019
 20
1.1842
 30
0.0300
 11
0.8252
 21
1.2075
 31
0.0300
  0
LINE
  5
30
100
AcDbEntity
  8
1
 62
10
100
AcDbLine
 10
0.8252
 20
1.2075
 30
0.0300
 11
0.8460
 21
1.2331
 31
0.0300
  0
LINE
  5
30
100
AcDbEntity
  8
1
 62
10
100
AcDbLine
 10
0.8460
 20
1.2331
 30
0.0300
 11
0.8640
 21
1.2608
 31
0.0300
  0
LINE
  5
30
100
AcDbEntity
  8
1
 62
10
100
AcDbLine
 10
0.8640
 20
1.2608
 30
0.0300
 11
0.8789
 21
1.2902
 31
0.0300
  0
LINE
  5
30
100
AcDbEntity
  8
1
 62
10
100
AcDbLine
 10
0.8789
 20
1.2902
 30
0.0300
 11
0.8908
 21
1.3210
 31
0.0300
  0
LINE
  5
30
100
AcDbEntity
  8
1
 62
10
100
AcDbLine
 10
0.8908
 20
1.3210
 30
0.0300
 11
0.8993
 21
1.3529
 31
0.0300
  0
LINE
  5
30
100
AcDbEntity
  8
1
 62
10
100
AcDbLine
 10
0.8993
 20
1.3529
 30
0.0300
 11
0.9045
 21
1.3855
 31
0.0300
  0
LINE
  5
30
100
AcDbEntity
  8
1
 62
10
100
AcDbLine
 10
0.9045
 20
1.3855
 30
0.0300
 11
0.9062
 21
1.4184
 31
0.0300
  0
LINE
  5
30
100
AcDbEntity
  8
1
 62
10
100
AcDbLine
 10
0.9062
 20
1.4184
 30
0.0300
 11
0.9045
 21
1.4513
 31
0.0300
  0
LINE
  5
30
100
AcDbEntity
  8
1
 62
10
100
AcDbLine
 10
0.9045
 20
1.4513
 30
0.0300
 11
0.8993
 21
1.4839
 31
0.0300
  0
LINE
  5
30
100
AcDbEntity
  8
1
 62
10
100
AcDbLine
 10
0.8993
 20
1.4839
 30
0.0300
 11
0.8908
 21
1.5158
 31
0.0300
  0
LINE
  5
30
100
AcDbEntity
  8
1
 62
10
100
AcDbLine
 10
0.8908
 20
1.5158
 30
0.0300
 11
0.8789
 21
1.5466
 31
0.0300
  0
LINE
  5
30
100
AcDbEntity
  8
1
 62
10
100
AcDbLine
 10
0.8789
 20
1.5466
 30
0.0300
 11
0.8640
 21
1.5760
 31
0.0300
  0
LINE
  5
30
100
AcDbEntity
  8
1
 62
10
100
AcDbLine
 10
0.8640
 20
1.5760
 30
0.0300
 11
0.8460
 21
1.6037
 31
0.0300
  0
LINE
  5
30
100
AcDbEntity
  8
1
 62
10
100
AcDbLine
 10
0.8460
 20
1.6037
 30
0.0300
 11
0.8252
 21
1.6293
 31
0.0300
  0
LINE
  5
30
100
AcDbEntity
  8
1
 62
10
100
AcDbLine
 10
0.8252
 20
1.6293
 30
0.0300
 11
0.8019
 21
1.6526
 31
0.0300
  0
LINE
  5
30
100
AcDbEntity
  8
1
 62
10
100
AcDbLine
 10
0.8019
 20
1.6526
 30
0.0300
 11
0.7763
 21
1.6734
 31
0.0300
  0
LINE
  5
30
100
AcDbEntity
  8
1
 62
10
100
AcDbLine
 10
0.7763
 20
1.6734
 30
0.0300
 11
0.7486
 21
1.6914
 31
0.0300
  0
LINE
  5
30
100
AcDbEntity
  8
1
 62
10
100
AcDbLine
 10
0.7486
 20
1.6914
 30
0.0300
 11
0.7192
 21
1.7063
 31
0.0300
  0
LINE
  5
30
100
AcDbEntity
  8
1
 62
10
100
AcDbLine
 10
0.7192
 20
1.7063
 30
0.0300
 11
0.6884
 21
1.7182
 31
0.0300
  0
LINE
  5
30
100
AcDbEntity
  8
1
 62
10
100
AcDbLine
 10
0.6884
 20
1.7182
 30
0.0300
 11
0.6565
 21
1.7267
 31
0.0300
  0
LINE
  5
30
100
AcDbEntity
  8
1
 62
10
100
AcDbLine
 10
0.6565
 20
1.7267
 30
0.0300
 11
0.6239
 21
1.7319
 31
0.0300
  0
LINE
  5
30
100
AcDbEntity
  8
1
 62
10
100
AcDbLine
 10
0.6239
 20
1.7319
 30
0.0300
 11
0.5910
 21
1.7336
 31
0.0300
  0
LINE
  5
30
100
AcDbEntity
  8
1
 62
10
100
AcDbLine
 10
0.5910
 20
1.7336
 30
0.0300
 11
0.5581
 21
1.7319
 31
0.0300
  0
LINE
  5
30
100
AcDbEntity
  8
1
 62
10
100
AcDbLine
 10
0.5581
 20
1.7319
 30
0.0300
 11
0.5255
 21
1.7267
 31
0.0300
  0
LINE
  5
30
100
AcDbEntity
  8
1
 62
10
100
AcDbLine
 10
0.5255
 20
1.7267
 30
0.0300
 11
0.4936
 21
1.7182
 31
0.0300
  0
LINE
  5
30
100
AcDbEntity
  8
1
 62
10
100
AcDbLine
 10
0.4936
 20
1.7182
 30
0.0300
 11
0.4628
 21
1.7063
 31
0.0300
  0
LINE
  5
30
100
AcDbEntity
  8
1
 62
10
100
AcDbLine
 10
0.4628
 20
1.7063
 30
0.0300
 11
0.4334
 21
1.6914
 31
0.0300
  0
LINE
  5
30
100
AcDbEntity
  8
1
 62
10
100
AcDbLine
 10
0.4334
 20
1.6914
 30
0.0300
 11
0.4057
 21
1.6734
 31
0.0300
  0
LINE
  5
30
100
AcDbEntity
  8
1
 62
10
100
AcDbLine
 10
0.4057
 20
1.6734
 30
0.0300
 11
0.3801
 21
1.6526
 31
0.0300
  0
LINE
  5
30
100
AcDbEntity
  8
1
 62
10
100
AcDbLine
 10
0.3801
 20
1.6526
 30
0.0300
 11
0.3568
 21
1.6293
 31
0.0300
  0
LINE
  5
30
100
AcDbEntity
  8
1
 62
10
100
AcDbLine
 10
0.3568
 20
1.6293
 30
0.0300
 11
0.3360
 21
1.6037
 31
0.0300
  0
LINE
  5
30
100
AcDbEntity
  8
1
 62
10
100
AcDbLine
 10
0.3360
 20
1.6037
 30
0.0300
 11
0.3180
 21
1.5760
 31
0.0300
  0
LINE
  5
30
100
AcDbEntity
  8
1
 62
10
100
AcDbLine
 10
0.3180
 20
1.5760
 30
0.0300
 11
0.3030
 21
1.5466
 31
0.0300
  0
LINE
  5
30
100
AcDbEntity
  8
1
 62
10
100
AcDbLine
 10
0.3030
 20
1.5466
 30
0.0300
 11
0.2971
 21
1.5312
 31
0.0300
  0
LINE
  5
30
100
AcDbEntity
  8
1
 62
10
100
AcDbLine
 10
1.4184
 20
1.1820
 30
0.0000
 11
1.6548
 21
1.1820
 31
0.0300
  0
LINE
  5
30
100
AcDbEntity
  8
1
 62
10
100
AcDbLine
 10
1.6548
 20
1.1820
 30
0.0300
 11
1.6548
 21
1.6548
 31
0.0300
  0
LINE
  5
30
100
AcDbEntity
  8
1
 62
10
100
AcDbLine
 10
1.6548
 20
1.6548
 30
0.0300
 11
1.1820
 21
1.6548
 31
0.0300
  0
LINE
  5
30
100
AcDbEntity
  8
1
 62
10
100
AcDbLine
 10
1.1820
 20
1.6548
 30
0.0300
 11
1.1820
 21
1.1820
 31
0.0300
  0
LINE
  5
30
100
AcDbEntity
  8
1
 62
10
100
AcDbLine
 10
1.1820
 20
1.1820
 30
0.0300
 11
1.4184
 21
1.1820
 31
0.0300
  0
LINE
  5
30
100
AcDbEntity
  8
1
 62
10
100
AcDbLine
 10
1.4184
 20
0.2786
 30
0.0000
 11
1.5760
 21
0.2786
 31
0.0300
  0
LINE
  5
30
100
AcDbEntity
  8
1
 62
10
100
AcDbLine
 10
1.5760
 20
0.2786
 30
0.0300
 11
1.7336
 21
0.5516
 31
0.0300
  0
LINE
  5
30
100
AcDbEntity
  8
1
 62
10
100
AcDbLine
 10
1.7336
 20
0.5516
 30
0.0300
 11
1.5760
 21
0.8246
 31
0.0300
  0
LINE
  5
30
100
AcDbEntity
  8
1
 62
10
100
AcDbLine
 10
1.5760
 20
0.8246
 30
0.0300
 11
1.2608
 21
0.8246
 31
0.0300
  0
LINE
  5
30
100
AcDbEntity
  8
1
 62
10
100
AcDbLine
 10
1.2608
 20
0.8246
 30
0.0300
 11
1.1032
 21
0.5516
 31
0.0300
  0
LINE
  5
30
100
AcDbEntity
  8
1
 62
10
100
AcDbLine
 10
1.1032
 20
0.5516
 30
0.0300
 11
1.2608
 21
0.2786
 31
0.0300
  0
LINE
  5
30
100
AcDbEntity
  8
1
 62
10
100
AcDbLine
 10
1.2608
 20
0.2786
 30
0.0300
 11
1.4184
 21
0.2786
 31
0.0300
  0
LINE
  5
30
100
AcDbEntity
  8
1
 62
10
100
AcDbLine
 10
0.9850
 20
1.9700
 30
0.0000
 11
0.0000
 21
1.9700
 31
0.0300
  0
LINE
  5
30
100
AcDbEntity
  8
1
 62
10
100
AcDbLine
 10
0.0000
 20
1.9700
 30
0.0300
 11
0.0000
 21
0.0000
 31
0.0300
  0
LINE
  5
30
100
AcDbEntity
  8
1
 62
10
100
AcDbLine
 10
0.0000
 20
0.0000
 30
0.0300
 11
1.9700
 21
0.0000
 31
0.0300
  0
LINE
  5
30
100
AcDbEntity
  8
1
 62
10
100
AcDbLine
 10
1.9700
 20
0.0000
 30
0.0300
 11
1.9700
 21
1.9700
 31
0.0300
  0
LINE
  5
30
100
AcDbEntity
  8
1
 62
10
100
AcDbLine
 10
1.9700
 20
1.9700
 30
0.0300
 11
0.9850
 21
1.9700
 31
0.0300
  0
ENDSEC
0
EOF
