0
SECTION
2
HEADER
9
$INSUNITS
70
1
9
$ACADVER
1
AC1014
9
$HANDSEED
5
FFFF
0
ENDSEC
0
SECTION
2
TABLES
0
TABLE
2
VPORT
5
8
100
AcDbSymbolTable
0
ENDTAB
0
TABLE
2
LTYPE
5
5
100
AcDbSymbolTable
0
LTYPE
5
14
100
AcDbSymbolTableRecord
100
AcDbLinetypeTableRecord
2
BYBLOCK
70
0
0
LTYPE
5
15
100
AcDbSymbolTableRecord
100
AcDbLinetypeTableRecord
2
BYLAYER
70
0
0
ENDTAB
0
TABLE
2
LAYER
5
2
100
AcDbSymbolTable
70
2
0
LAYER
5
50
100
AcDbSymbolTableRecord
100
AcDbLayerTableRecord
2
0
70
0
6
CONTINUOUS
0
ENDTAB
0
TABLE
2
STYLE
5
3
100
AcDbSymbolTable
70
1
0
STYLE
5
11
100
AcDbSymbolTableRecord
100
AcDbTextStyleTableRecord
2
STANDARD
70
0
0
ENDTAB
0
TABLE
2
VIEW
5
6
100
AcDbSymbolTable
70
0
0
ENDTAB
0
TABLE
2
UCS
5
7
100
AcDbSymbolTable
70
0
0
ENDTAB
0
TABLE
2
APPID
5
9
100
AcDbSymbolTable
70
2
0
APPID
5
12
100
AcDbSymbolTableRecord
100
AcDbRegAppTableRecord
2
ACAD
70
0
0
ENDTAB
0
TABLE
2
DIMSTYLE
5
A
100
AcDbSymbolTable
70
1
0
ENDTAB
0
TABLE
2
BLOCK_RECORD
5
1
100
AcDbSymbolTable
70
1
0
BLOCK_RECORD
5
1F
100
AcDbSymbolTableRecord
100
AcDbBlockTableRecord
2
*MODEL_SPACE
0
BLOCK_RECORD
5
1B
100
AcDbSymbolTableRecord
100
AcDbBlockTableRecord
2
*PAPER_SPACE
0
ENDTAB
0
ENDSEC
0
SECTION
2
BLOCKS
0
BLOCK
5
20
100
AcDbEntity
100
AcDbBlockBegin
2
*MODEL_SPACE
0
ENDBLK
5
21
100
AcDbEntity
100
AcDbBlockEnd
0
BLOCK
5
1C
100
AcDbEntity
100
AcDbBlockBegin
2
*PAPER_SPACE
0
ENDBLK
5
1D
100
AcDbEntity
100
AcDbBlockEnd
0
ENDSEC
0
SECTION
2
ENTITIES
0
LWPOLYLINE
5
100
100
AcDbEntity
8
0
100
AcDbPolyline
90
21
70
1
43
0.0
10
-3.4805071938712957
20
-6.4846052041621967
10
-3.4231061024661118
20
-6.6369244401785688
10
-3.4663359796830275
20
-6.6369244401785688
10
-3.4863359796830276
20
-6.6369244401785688
10
-3.4863359796830276
20
-6.696201384244052
10
-3.4663359796830275
20
-6.696201384244052
10
-3.4005958705425088
20
-6.696201384244052
10
-3.336441709560245
20
-6.8627771004787048
10
-3.2535290219749786
20
-6.8627771004787048
10
-3.4786313412109955
20
-6.3127771004787041
10
-3.55704198241154
20
-6.3127771004787041
10
-3.7682629919613362
20
-6.8627771004787048
10
-3.6909778623569705
20
-6.8627771004787048
10
-3.6305754066953058
20
-6.696201384244052
10
-3.5663359796830281
20
-6.696201384244052
10
-3.5463359796830276
20
-6.696201384244052
10
-3.5463359796830276
20
-6.6369244401785688
10
-3.5663359796830281
20
-6.6369244401785688
10
-3.6095658568999442
20
-6.6369244401785688
10
-3.5491634012382804
20
-6.4756011113927583
42
0.038978528532130227
10
-3.5195249292055375
20
-6.3705533624159481
42
0.020027516996521194
0
ARC
5
101
100
AcDbEntity
8
0
100
AcDbCircle
10
2.9848440797484388
20
-6.7848544060140314
30
0
40
0.18874642023861915
210
0
220
0
230
-1
100
AcDbArc
50
122.91678095783377
51
129.83894842427515
0
ARC
5
102
100
AcDbEntity
8
0
100
AcDbCircle
10
-3.058198108485866
20
-6.7697853174966651
30
0
40
0.16514279825731495
210
0
220
-0
230
1
100
AcDbArc
50
36.064858260063914
51
54.22672268577287
0
LWPOLYLINE
5
103
100
AcDbEntity
8
0
100
AcDbPolyline
90
16
70
1
43
0.0
10
-4.0561062358144859
20
-6.695451043179923
42
0.0061129832133672152
10
-4.0853695373151702
20
-6.7836161182140362
42
0.0052684585217220936
10
-4.1116314745593723
20
-6.7022041127570136
10
-4.2418156491842014
20
-6.3127771004787041
10
-4.3513654445457295
20
-6.3127771004787041
10
-4.3513654445457295
20
-6.8627771004787048
10
-4.2812085550505055
20
-6.8627771004787048
10
-4.2812085550505055
20
-6.3945642764677899
10
-4.1221362494570535
20
-6.8627771004787048
10
-4.0564814063465482
20
-6.8627771004787048
10
-4.0494814063465485
20
-6.8627771004787048
10
-3.896658759688977
20
-6.4226048294720375
10
-3.896658759688977
20
-6.8627771004787048
10
-3.8265018701937521
20
-6.8627771004787048
10
-3.8265018701937521
20
-6.3127771004787041
10
-3.924421379061418
20
-6.3127771004787041
0
ARC
5
104
100
AcDbEntity
8
0
100
AcDbCircle
10
2.9215493249441766
20
-6.421267909800533
30
0
40
0.191762407554289
210
0
220
-0
230
-1
100
AcDbArc
50
227.00048491068853
51
257.19768962203688
0
LINE
5
105
100
AcDbEntity
8
0
100
AcDbLine
10
-2.707856176833475
20
-6.8627771004787048
30
0
11
-2.7993977866561219
21
-6.8627771004787048
31
0
0
ARC
5
106
100
AcDbEntity
8
0
100
AcDbCircle
10
-3.754893839685606
20
-7.3040377880226801
30
0
40
1.0430584867610664
210
0
220
-0
230
1
100
AcDbArc
50
32.191339313854961
51
37.257944356389181
0
ARC
5
107
100
AcDbEntity
8
0
100
AcDbCircle
10
3.1230511214685648
20
-6.9153837118840347
30
0
40
0.37818290265613258
210
0
220
0
230
-1
100
AcDbArc
50
133.24989832147057
51
147.66114526236987
0
LWPOLYLINE
5
108
100
AcDbEntity
8
0
100
AcDbPolyline
90
12
70
1
43
0.0
10
-5.002740471471844
20
-6.3776816025250875
10
-4.6778427907078619
20
-6.3776816025250875
10
-4.6778427907078619
20
-6.3127771004787041
10
-5.0755235546914896
20
-6.3127771004787041
10
-5.0755235546914896
20
-6.8627771004787048
10
-4.6650869926178204
20
-6.8627771004787048
10
-4.6650869926178204
20
-6.7978725984323205
10
-5.002740471471844
20
-6.7978725984323205
10
-5.002740471471844
20
-6.6106625029343666
10
-4.6984771699711612
20
-6.6106625029343666
10
-4.6984771699711612
20
-6.5461331714200419
10
-5.002740471471844
20
-6.5461331714200419
0
ARC
5
109
100
AcDbEntity
8
0
100
AcDbCircle
10
2.9090079353722591
20
-6.4613256401041488
30
0
40
0.15613869023627483
210
0
220
0
230
-1
100
AcDbArc
50
148.58140309399988
51
180.55765957253584
0
ARC
5
110
100
AcDbEntity
8
0
100
AcDbCircle
10
-3.0216986360596221
20
-6.7270546261452591
30
0
40
0.10923532038630401
210
0
220
-0
230
1
100
AcDbArc
50
56.657999486026831
51
75.777939667531655
0
LINE
5
111
100
AcDbEntity
8
0
100
AcDbLine
10
-3.03538005132188
20
-6.6185410841076262
30
0
11
-3.1197934210353857
21
-6.6185410841076262
31
0
0
ARC
5
112
100
AcDbEntity
8
0
100
AcDbCircle
10
-3.029201930585192
20
-6.8371052528857961
30
0
40
0.21865146935140747
210
0
220
-0
230
1
100
AcDbArc
50
80.964003585170289
51
91.619140100568401
0
LINE
5
113
100
AcDbEntity
8
0
100
AcDbLine
10
-3.1197934210353857
20
-6.6185410841076262
30
0
11
-3.1197934210353857
21
-6.8627771004787048
31
0
0
LWPOLYLINE
5
114
100
AcDbEntity
8
0
100
AcDbPolyline
90
12
70
1
43
0.0
10
-5.5565880850487614
20
-6.6035342628252245
10
-5.2707081396190203
20
-6.6035342628252245
10
-5.2707081396190203
20
-6.8627771004787048
10
-5.1979250563993764
20
-6.8627771004787048
10
-5.1979250563993764
20
-6.3127771004787041
10
-5.2707081396190203
20
-6.3127771004787041
10
-5.2707081396190203
20
-6.5386297607788402
10
-5.5565880850487614
20
-6.5386297607788402
10
-5.5565880850487614
20
-6.3127771004787041
10
-5.6293711682684053
20
-6.3127771004787041
10
-5.6293711682684053
20
-6.8627771004787048
10
-5.5565880850487614
20
-6.8627771004787048
0
LWPOLYLINE
5
115
100
AcDbEntity
8
0
100
AcDbPolyline
90
35
70
1
43
0.0
10
-1.0448239372987578
20
-6.3810581373136301
42
0.15176826927723172
10
-1.116669094188254
20
-6.3230942901103555
42
0.10042568076914081
10
-1.2245306221555119
20
-6.3033978371772044
42
0.09894903704012635
10
-1.3254514952796588
20
-6.3221563637802056
42
0.15431884504292878
10
-1.3944828731787038
20
-6.377118846726999
42
0.14872251120536326
10
-1.4181186166984863
20
-6.4549667321294564
42
0.14467537872711958
10
-1.3987973342973936
20
-6.5234353542304087
42
0.13315292603770101
10
-1.3400831460299993
20
-6.5746461318566034
42
0.055931415707454128
10
-1.2339098854570114
20
-6.6089742355400967
42
-0.026240615773194802
10
-1.1359903765893451
20
-6.6357989285823873
42
-0.13560918988609014
10
-1.0864678663574221
20
-6.6682511796055808
42
-0.1712546538744798
10
-1.0714610450750199
20
-6.7134592287188157
42
-0.16153203887735057
10
-1.0870306221555117
20
-6.7605431304923469
42
-0.14607649589955771
10
-1.1344896944611051
20
-6.7944960636437788
42
-0.092959490747111836
10
-1.2080231187448698
20
-6.8068766912017606
42
-0.10366694724596502
10
-1.2924364884583766
20
-6.7905567730571486
42
-0.14404394436119575
10
-1.3477741419372309
20
-6.7477873324023045
42
-0.11945639928457114
10
-1.3704719591268633
20
-6.6800690513654724
10
-1.4391281664938476
20
-6.6860717798784313
42
0.14202825753603737
10
-1.4089269386630154
20
-6.7849292150762484
42
0.14984762074566069
10
-1.3297659563983495
20
-6.8503964729207238
42
0.10135670931141354
10
-1.2046465839563303
20
-6.8721563637802046
42
0.108739485881464
10
-1.0986609086493726
20
-6.8505840581867536
42
0.14521340640105695
10
-1.0264405812278179
20
-6.790181602525089
42
0.14763069264237322
10
-1.0013041555797946
20
-6.7074565002058542
42
0.15258962183977159
10
-1.024189558035457
20
-6.6292334442713363
42
0.13813927779150367
10
-1.0950967885948022
20
-6.5731454497283632
42
0.043720016801980406
10
-1.2168396262482808
20
-6.5380670049807508
42
-0.1015734454766527
10
-1.3265770068758387
20
-6.4988616843804765
42
-0.22350507682758153
10
-1.3479617272032616
20
-6.4500895152126736
42
-0.23925812215457287
10
-1.3177604993724277
20
-6.3917504974773394
42
-0.16569047349298885
10
-1.2215292578990307
20
-6.3675519981594686
42
-0.172813998453309
10
-1.1256731869576941
20
-6.3941891059357285
42
-0.20224425453072589
10
-1.0875933779536022
20
-6.4729749176683358
10
-1.0178116589904371
20
-6.4677225302194952
42
0.13895003641968137
0
LWPOLYLINE
5
116
100
AcDbEntity
8
0
100
AcDbPolyline
90
8
70
1
43
0.0
10
-2.5107195768068058
20
-6.8627771004787048
10
-2.4379364935871606
20
-6.8627771004787048
10
-2.4379364935871606
20
-6.3776816025250875
10
-2.2559787855380478
20
-6.3776816025250875
10
-2.2559787855380478
20
-6.3127771004787041
10
-2.691926943791799
20
-6.3127771004787041
10
-2.691926943791799
20
-6.3776816025250875
10
-2.5107195768068058
20
-6.3776816025250875
0
LWPOLYLINE
5
117
100
AcDbEntity
8
0
100
AcDbPolyline
90
10
70
1
43
0.0
10
-1.536393242553711
20
-6.8627771004787048
10
-1.536393242553711
20
-6.3127771004787041
10
-1.6061749615168754
20
-6.3127771004787041
10
-1.6061749615168754
20
-6.7445983828797962
10
-1.8950562712030965
20
-6.3127771004787041
10
-1.9697152070830415
20
-6.3127771004787041
10
-1.9697152070830415
20
-6.8627771004787048
10
-1.8999334881198773
20
-6.8627771004787048
10
-1.8999334881198773
20
-6.4305806475455531
10
-1.6110521784336556
20
-6.8627771004787048
0
ARC
5
118
100
AcDbEntity
8
0
100
AcDbCircle
10
-2.9546465879631985
20
-6.3210469693869662
30
0
40
0.23462684625595315
210
0
220
0
230
1
100
AcDbArc
50
267.87480018124268
51
287.18816520345945
0
LINE
5
119
100
AcDbEntity
8
0
100
AcDbLine
10
-3.1197934210353857
20
-6.5555124347215425
30
0
11
-2.9633473091663527
21
-6.5555124347215425
31
0
0
ARC
5
120
100
AcDbEntity
8
0
100
AcDbCircle
10
-2.9098347097286035
20
-6.4606862226731288
30
0
40
0.081952408911015434
210
-0
220
0
230
1
100
AcDbArc
50
-1.5096700324803085
51
49.154549671672314
0
LWPOLYLINE
5
121
100
AcDbEntity
8
0
100
AcDbPolyline
90
4
70
1
43
0.0
10
-2.1703355334788403
20
-6.3127771004787041
10
-2.1703355334788403
20
-6.8627771004787048
10
-2.0975524502591951
20
-6.8627771004787048
10
-2.0975524502591951
20
-6.3127771004787041
0
ARC
5
122
100
AcDbEntity
8
0
100
AcDbCircle
10
-2.9119102382033697
20
-6.4665277907275058
30
0
40
0.083042418333955106
210
-0
220
0
230
1
100
AcDbArc
50
288.68100529612661
51
326.65023710103776
0
ARC
5
123
100
AcDbEntity
8
0
100
AcDbCircle
10
-2.9172084141098753
20
-6.4631987695192086
30
0
40
0.089298366536069429
210
-0
220
0
230
1
100
AcDbArc
50
-33.265176289737724
51
0.22678580934346468
0
ARC
5
124
100
AcDbEntity
8
0
100
AcDbCircle
10
-2.9345420019837114
20
-6.505610705387519
30
0
40
0.13252773908454946
210
0
220
-0
230
1
100
AcDbArc
50
53.78165054524105
51
94.835861761361244
0
LINE
5
125
100
AcDbEntity
8
0
100
AcDbLine
10
-3.1197934210353857
20
-6.8627771004787048
30
0
11
-3.1925765042550309
21
-6.8627771004787048
31
0
0
LINE
5
126
100
AcDbEntity
8
0
100
AcDbLine
10
-2.9457142941595325
20
-6.3735547266724284
30
0
11
-3.1197934210353857
21
-6.3735547266724284
31
0
0
LINE
5
127
100
AcDbEntity
8
0
100
AcDbLine
10
-5.2905823611111114
20
-3.1874043055555568
30
0
11
-5.2563487500000008
21
-3.1894540277777792
31
0
0
LINE
5
128
100
AcDbEntity
8
0
100
AcDbLine
10
-4.9389086111111107
20
-5.8690451388888887
30
0
11
-4.9385391666666676
21
-5.8990212499999988
31
0
0
LINE
5
129
100
AcDbEntity
8
0
100
AcDbLine
10
-2.2953609722222219
20
-2.3913945833333341
30
0
11
-2.256686666666667
21
-2.3935854166666672
31
0
0
ARC
5
130
100
AcDbEntity
8
0
100
AcDbCircle
10
-4.8998281392972975
20
-3.7526371395392952
30
0
40
0.23871071737729099
210
0
220
0
230
1
100
AcDbArc
50
-4.7183460618021833
51
14.875159271784057
0
LINE
5
131
100
AcDbEntity
8
0
100
AcDbLine
10
-4.9638058333333337
20
-5.8782140277777764
30
0
11
-4.9389086111111107
21
-5.8690451388888887
31
0
0
ARC
5
132
100
AcDbEntity
8
0
100
AcDbCircle
10
1.2707616418141434
20
-5.8629995054765676
30
0
40
6.2647455602309678
210
0
220
0
230
1
100
AcDbArc
50
162.22464239887361
51
168.88865091553276
0
ARC
5
133
100
AcDbEntity
8
0
100
AcDbCircle
10
-2.6719829691531221
20
-1.6634913085724194
30
0
40
0.15270087533861368
210
0
220
0
230
1
100
AcDbArc
50
202.18294208566013
51
233.55664583422976
0
LWPOLYLINE
5
134
100
AcDbEntity
8
0
100
AcDbPolyline
90
8
70
1
43
0.0
10
-5.8868425240111044
20
-6.3776816025250875
10
-5.704884815961992
20
-6.3776816025250875
10
-5.704884815961992
20
-6.3127771004787041
10
-6.1408329742157441
20
-6.3127771004787041
10
-6.1408329742157441
20
-6.3776816025250875
10
-5.9596256072307519
20
-6.3776816025250875
10
-5.9596256072307519
20
-6.8627771004787048
10
-5.8868425240111044
20
-6.8627771004787048
0
ARC
5
135
100
AcDbEntity
8
0
100
AcDbCircle
10
-2.7551580178688324
20
-1.8816812073555411
30
0
40
0.36305101831705106
210
0
220
0
230
1
100
AcDbArc
50
317.81634151932184
51
348.4028375006053
0
ARC
5
136
100
AcDbEntity
8
0
100
AcDbCircle
10
-5.2312482907362403
20
-5.1419678735164265
30
0
40
0.59134306674478632
210
0
220
0
230
1
100
AcDbArc
50
260.75706942539773
51
278.30168111282291
0
ARC
5
137
100
AcDbEntity
8
0
100
AcDbCircle
10
-4.606149398000519
20
-5.879821967974407
30
0
40
0.33294379517304828
210
0
220
0
230
1
100
AcDbArc
50
183.30580841357263
51
227.92441982263321
0
ARC
5
138
100
AcDbEntity
8
0
100
AcDbCircle
10
-5.6650248763936206
20
-5.1734721409336135
30
0
40
0.21236279018027848
210
0
220
0
230
1
100
AcDbArc
50
-4.0050370975586542
51
64.371792547952779
0
ARC
5
139
100
AcDbEntity
8
0
100
AcDbCircle
10
-5.376658159925876
20
-5.1904904020145803
30
0
40
0.60365803468374901
210
0
220
0
230
1
100
AcDbArc
50
308.85330048063133
51
324.07799889445158
0
LINE
5
140
100
AcDbEntity
8
0
100
AcDbLine
10
-5.2563487500000008
20
-3.1894540277777792
30
0
11
-5.1925494444444436
21
-3.2274702777777797
31
0
0
ARC
5
141
100
AcDbEntity
8
0
100
AcDbCircle
10
-5.1277861800578766
20
-3.84138784422225
30
0
40
0.48258317982027898
210
0
220
-0
230
1
100
AcDbArc
50
18.112968374977449
51
43.640640612587944
0
ARC
5
142
100
AcDbEntity
8
0
100
AcDbCircle
10
-5.1128049120655676
20
-3.7809606387042414
30
0
40
0.45096221479873883
210
0
220
0
230
1
100
AcDbArc
50
-22.077820029746512
51
1.1038632175421326
0
ARC
5
143
100
AcDbEntity
8
0
100
AcDbCircle
10
-5.7443427209366149
20
-5.1393778613795833
30
0
40
0.30756373912343649
210
0
220
0
230
1
100
AcDbArc
50
145.3439377968563
51
153.9704406336235
0
ARC
5
144
100
AcDbEntity
8
0
100
AcDbCircle
10
-4.9488805759690075
20
-5.4609396181665044
30
0
40
0.10361927397688324
210
0
220
0
230
1
100
AcDbArc
50
-53.88459728998383
51
28.629306027156712
0
ARC
5
145
100
AcDbEntity
8
0
100
AcDbCircle
10
-2.7855587404978301
20
-1.586631107037316
30
0
40
0.27553600950116869
210
0
220
0
230
1
100
AcDbArc
50
107.66467335710338
51
158.79759255211198
0
ARC
5
146
100
AcDbEntity
8
0
100
AcDbCircle
10
-6.0124367815120072
20
-5.1732729710256686
30
0
40
0.55945805572469731
210
0
220
0
230
1
100
AcDbArc
50
335.22565523299244
51
358.46039639433661
0
ARC
5
147
100
AcDbEntity
8
0
100
AcDbCircle
10
-4.500245530258761
20
-7.1039705711731793
30
0
40
1.310483597098121
210
0
220
0
230
1
100
AcDbArc
50
110.71576651624042
51
113.35823923620164
0
ARC
5
148
100
AcDbEntity
8
0
100
AcDbCircle
10
-1.7767719430328615
20
-2.986550121557924
30
0
40
0.1472834070098451
210
0
220
0
230
1
100
AcDbArc
50
184.97839482920483
51
263.25279706802024
0
ARC
5
149
100
AcDbEntity
8
0
100
AcDbCircle
10
-2.9190592055733959
20
-1.7606073443983892
30
0
40
0.11280519400604627
210
0
220
-0
230
1
100
AcDbArc
50
20.476304877678942
51
56.12556553765674
0
ARC
5
150
100
AcDbEntity
8
0
100
AcDbCircle
10
-5.8136989566385981
20
-5.3871586012248684
30
0
40
0.25230633035756128
210
0
220
-0
230
1
100
AcDbArc
50
58.445175063858322
51
97.535278061651866
0
ARC
5
151
100
AcDbEntity
8
0
100
AcDbCircle
10
-5.2087989575536131
20
-5.5545037329348403
30
0
40
0.33010357775170523
210
0
220
0
230
1
100
AcDbArc
50
153.59676762346382
51
183.40275184236941
0
ARC
5
152
100
AcDbEntity
8
0
100
AcDbCircle
10
-2.3892980088518994
20
-2.2419720940790415
30
0
40
0.13285328682020528
210
0
220
0
230
1
100
AcDbArc
50
172.21359038564853
51
224.90743715979477
0
ARC
5
153
100
AcDbEntity
8
0
100
AcDbCircle
10
-5.3479018173317474
20
-5.6105277964892775
30
0
40
0.33518033152926241
210
0
220
0
230
1
100
AcDbArc
50
176.18328603261449
51
211.08133647987714
0
ARC
5
154
100
AcDbEntity
8
0
100
AcDbCircle
10
-2.9740551136053921
20
-1.5550739275855807
30
0
40
0.074651689678288183
210
0
220
0
230
1
100
AcDbArc
50
170.91483769419506
51
276.47392726552346
0
ARC
5
155
100
AcDbEntity
8
0
100
AcDbCircle
10
-2.5160085750128798
20
-1.7599047794848608
30
0
40
0.11697666731854481
210
0
220
0
230
1
100
AcDbArc
50
224.80250276222131
51
283.63671499034723
0
ARC
5
156
100
AcDbEntity
8
0
100
AcDbCircle
10
-6.0007403018016978
20
-5.3339813048403499
30
0
40
0.35908100435542667
210
0
220
0
230
1
100
AcDbArc
50
-20.240584065326537
51
14.701279834909696
0
ARC
5
157
100
AcDbEntity
8
0
100
AcDbCircle
10
-2.3150147083853447
20
-2.1122490079482001
30
0
40
0.27983659803940453
210
0
220
0
230
1
100
AcDbArc
50
233.00857924041563
51
274.02736440191677
0
ARC
5
158
100
AcDbEntity
8
0
100
AcDbCircle
10
-4.6392640733119022
20
-5.2964081819133115
30
0
40
0.24700797302791452
210
0
220
0
230
1
100
AcDbArc
50
183.44122142640805
51
207.7166413285174
0
ARC
5
159
100
AcDbEntity
8
0
100
AcDbCircle
10
-5.2227195980389496
20
-2.0382890783692003
30
0
40
1.1511173528200067
210
0
220
0
230
1
100
AcDbArc
50
259.86364154570293
51
266.62023534490345
0
ARC
5
160
100
AcDbEntity
8
0
100
AcDbCircle
10
-5.3424416354888162
20
-5.5702782632172996
30
0
40
0.3403701364521719
210
0
220
0
230
1
100
AcDbArc
50
160.77649129100305
51
183.02101483227094
0
ARC
5
161
100
AcDbEntity
8
0
100
AcDbCircle
10
-5.2430964697212845
20
-5.367675880445467
30
0
40
0.57266739184113147
210
0
220
0
230
1
100
AcDbArc
50
236.31332814199763
51
270.07529626876715
0
ARC
5
162
100
AcDbEntity
8
0
100
AcDbCircle
10
-5.4900944559432157
20
-5.6819166685266644
30
0
40
0.17697242339802599
210
0
220
0
230
1
100
AcDbArc
50
215.05623348534328
51
246.47708615295434
0
ARC
5
163
100
AcDbEntity
8
0
100
AcDbCircle
10
-3.5006754028050753
20
-4.9132513063975152
30
0
40
1.3997744671608328
210
0
220
0
230
1
100
AcDbArc
50
169.39665989157757
51
183.10725320867618
0
ARC
5
164
100
AcDbEntity
8
0
100
AcDbCircle
10
-5.9559157896000494
20
-5.0468891159950875
30
0
40
0.077478154354265819
210
0
220
0
230
1
100
AcDbArc
50
146.74984606266784
51
233.11113877933519
0
ARC
5
165
100
AcDbEntity
8
0
100
AcDbCircle
10
-0.82911073106273281
20
-4.8853180181567568
30
0
40
0.80365952653025108
210
0
220
-0
230
1
100
AcDbArc
50
61.696989129872939
51
70.679471323333814
0
ARC
5
166
100
AcDbEntity
8
0
100
AcDbCircle
10
-2.4554760575990469
20
-1.948384426901391
30
0
40
0.056308819562481231
210
0
220
0
230
1
100
AcDbArc
50
-6.4041243179294476
51
36.577347307002249
0
ARC
5
167
100
AcDbEntity
8
0
100
AcDbCircle
10
-3.0506082310452265
20
-2.0536788681269784
30
0
40
0.43285118518168653
210
0
220
-0
230
1
100
AcDbArc
50
63.309552599911292
51
78.679123165586347
0
ARC
5
168
100
AcDbEntity
8
0
100
AcDbCircle
10
-5.7604118312143582
20
-5.1416771601604445
30
0
40
0.29585874042186228
210
0
220
0
230
1
100
AcDbArc
50
124.45947182909083
51
143.2075673289045
0
ARC
5
169
100
AcDbEntity
8
0
100
AcDbCircle
10
-2.7475978692088932
20
-2.0602336919801054
30
0
40
0.26374058197104705
210
0
220
-0
230
1
100
AcDbArc
50
55.709207117053005
51
82.278565328874848
0
LINE
5
170
100
AcDbEntity
8
0
100
AcDbLine
10
-1.3598851388888893
20
-3.0464027777777773
30
0
11
-1.3001556388888893
21
-3.039783194444444
31
0
0
ARC
5
171
100
AcDbEntity
8
0
100
AcDbCircle
10
-9.579059511359592
20
-6.726478267638921
30
0
40
9.0860933834815167
210
0
220
-0
230
1
100
AcDbArc
50
19.31652434693201
51
21.493646312972583
0
ARC
5
172
100
AcDbEntity
8
0
100
AcDbCircle
10
-5.2345144758820252
20
-5.3372669585552197
30
0
40
0.60312663963631341
210
0
220
0
230
1
100
AcDbArc
50
269.25620111597942
51
290.85238696940252
0
ARC
5
173
100
AcDbEntity
8
0
100
AcDbCircle
10
-1.9057262026202051
20
1.5550003879703258
30
0
40
3.4494757530432771
210
0
220
0
230
1
100
AcDbArc
50
255.6151660271729
51
256.47997609667902
0
ARC
5
174
100
AcDbEntity
8
0
100
AcDbCircle
10
-5.3746921665455938
20
-2.9931882196218642
30
0
40
0.18529786467783849
210
0
220
0
230
1
100
AcDbArc
50
211.04422713754622
51
254.14816791516353
0
ARC
5
175
100
AcDbEntity
8
0
100
AcDbCircle
10
-2.9049650292166569
20
-1.5283912615964936
30
0
40
0.14357994183082812
210
0
220
0
230
1
100
AcDbArc
50
163.23652406705435
51
185.95457953172604
0
SPLINE
5
176
100
AcDbEntity
8
0
100
AcDbSpline
70
0
71
3
72
8
73
4
74
0
42
0.000000001
43
0.0000000001
44
0.0000000001
40
0
40
0
40
0
40
0
40
1
40
1
40
1
40
1
10
-5.6168548611111113
20
-3.050352222222223
30
0
10
-5.5877862500000006
20
-3.0281561111111119
30
0
10
-5.5810183333333336
20
-3.0312718055555563
30
0
10
-5.5334497222222225
20
-3.0887462500000007
30
0
0
ARC
5
177
100
AcDbEntity
8
0
100
AcDbCircle
10
-5.8289984932468411
20
-5.2702577048904899
30
0
40
0.38540745811488408
210
0
220
-0
230
1
100
AcDbArc
50
48.41099024733181
51
104.85634071421548
0
ARC
5
178
100
AcDbEntity
8
0
100
AcDbCircle
10
-5.8752279899451203
20
-4.8501890445520672
30
0
40
0.28824875233358432
210
0
220
0
230
1
100
AcDbArc
50
243.81513118257556
51
275.6627740767774
0
ARC
5
179
100
AcDbEntity
8
0
100
AcDbCircle
10
-2.4586449206322065
20
-2.003333110159017
30
0
40
0.13312395183596637
210
0
220
-0
230
1
100
AcDbArc
50
87.486622565294113
51
102.92858019265471
0
LINE
5
180
100
AcDbEntity
8
0
100
AcDbLine
10
-2.256686666666667
20
-2.3935854166666672
30
0
11
-2.2531244444444445
21
-2.4094362500000002
31
0
0
ARC
5
181
100
AcDbEntity
8
0
100
AcDbCircle
10
-6.6047783481215818
20
-5.7546289916555393
30
0
40
2.8949821487376091
210
0
220
-0
230
1
100
AcDbArc
50
50.888931464583841
51
60.802632268724459
0
ARC
5
182
100
AcDbEntity
8
0
100
AcDbCircle
10
-5.7584575099368589
20
-5.2438353669140163
30
0
40
0.10504723400186913
210
0
220
-0
230
1
100
AcDbArc
50
0.53533410243213586
51
43.026102063525357
0
ARC
5
183
100
AcDbEntity
8
0
100
AcDbCircle
10
-2.3533156924588066
20
-2.2277762264869163
30
0
40
0.16765383880755655
210
0
220
0
230
1
100
AcDbArc
50
142.39580970856704
51
178.70015301865951
0
ARC
5
184
100
AcDbEntity
8
0
100
AcDbCircle
10
-2.505860310506705
20
-1.9636667525314315
30
0
40
0.10735476766891643
210
0
220
-0
230
1
100
AcDbArc
50
27.059390438064714
51
60.383908999794095
0
ARC
5
185
100
AcDbEntity
8
0
100
AcDbCircle
10
-2.4968594444686882
20
-5.0567431100219933
30
0
40
2.4024842079432278
210
0
220
0
230
1
100
AcDbArc
50
178.38722586556867
51
186.080665573434
0
ARC
5
186
100
AcDbEntity
8
0
100
AcDbCircle
10
-1.7899284217135001
20
-2.6357449864704003
30
0
40
0.114989110039
210
0
220
0
230
1
100
AcDbArc
50
290.37971969734286
51
326.59384846118883
0
SPLINE
5
187
100
AcDbEntity
8
0
100
AcDbSpline
70
0
71
3
72
8
73
4
74
0
42
0.000000001
43
0.0000000001
44
0.0000000001
40
0
40
0
40
0
40
0
40
1
40
1
40
1
40
1
10
-2.2531244444444445
20
-2.4094362500000002
30
0
10
-2.2349193055555561
20
-2.4904416666666664
30
0
10
-2.1087418055555553
20
-2.5280087500000001
30
0
10
-1.9201184722222224
20
-2.5085818055555555
30
0
0
ARC
5
188
100
AcDbEntity
8
0
100
AcDbCircle
10
-3.1695108660639462
20
-4.1781512887822032
30
0
40
2.1886915916987681
210
0
220
-0
230
1
100
AcDbArc
50
20.900292557550102
51
31.339866697952427
0
ARC
5
189
100
AcDbEntity
8
0
100
AcDbCircle
10
-1.5457505878060438
20
-2.6865778402210241
30
0
40
0.51067778960147092
210
0
220
0
230
1
100
AcDbArc
50
240.90451377462364
51
271.0736532787966
0
ARC
5
190
100
AcDbEntity
8
0
100
AcDbCircle
10
2.89115136747222
20
-6.4663544203706111
30
0
40
0.13831924631695072
210
0
220
0
230
-1
100
AcDbArc
50
178.54627173177607
51
223.47034484042183
0
ARC
5
191
100
AcDbEntity
8
0
100
AcDbCircle
10
-1.0991258675192497
20
-4.9648964180461608
30
0
40
1.021518928486852
210
0
220
-0
230
1
100
AcDbArc
50
33.901609354021318
51
50.406030374384791
0
SPLINE
5
192
100
AcDbEntity
8
0
100
AcDbSpline
70
0
71
3
72
8
73
4
74
0
42
0.000000001
43
0.0000000001
44
0.0000000001
40
0
40
0
40
0
40
0
40
1
40
1
40
1
40
1
10
-0.82113615277777818
20
-4.0642474999999996
30
0
10
-0.78163440277777829
20
-4.0462133333333341
30
0
10
-0.74975131944444506
20
-4.0539602777777777
30
0
10
-0.56321794444444506
20
-4.1269186111111109
30
0
0
ARC
5
193
100
AcDbEntity
8
0
100
AcDbCircle
10
-1.4085257664486981
20
-3.1081562413834036
30
0
40
0.067206891415391254
210
0
220
0
230
1
100
AcDbArc
50
289.68199389313816
51
336.23885884271363
0
ARC
5
194
100
AcDbEntity
8
0
100
AcDbCircle
10
23.381100902662062
20
4.9282110503902397
30
0
40
25.873986445524924
210
0
220
0
230
1
100
AcDbArc
50
199.52870331217349
51
200.2037654645043
0
LINE
5
195
100
AcDbEntity
8
0
100
AcDbLine
10
-2.803524662508782
20
-6.7130840581867526
30
0
11
-2.707856176833475
21
-6.8627771004787048
31
0
0
ARC
5
196
100
AcDbEntity
8
0
100
AcDbCircle
10
-1.6135020096343875
20
-3.0029400366504362
30
0
40
0.29307074040365289
210
0
220
0
230
1
100
AcDbArc
50
117.73334066217161
51
156.52619719577447
0
LINE
5
197
100
AcDbEntity
8
0
100
AcDbLine
10
-3.1925765042550309
20
-6.3127771004787041
30
0
11
-2.9487156584160128
21
-6.3127771004787041
31
0
0
ARC
5
198
100
AcDbEntity
8
0
100
AcDbCircle
10
-4.5889390972222213
20
-5.8943882638888878
30
0
40
0.33442475016973727
210
0
220
0
230
1
100
AcDbArc
50
224.06055449421686
51
314.06055449421655
0
ARC
5
199
100
AcDbEntity
8
0
100
AcDbCircle
10
2.8814014939184314
20
-6.4414725638613115
30
0
40
0.12225734149036697
210
0
220
0
230
-1
100
AcDbArc
50
111.33849746303216
51
149.77719227915642
0
ARC
5
200
100
AcDbEntity
8
0
100
AcDbCircle
10
-1.5404609420901267
20
-3.0747022102194825
30
0
40
0.39038374427367306
210
0
220
0
230
1
100
AcDbArc
50
151.12759518583348
51
168.86808462025704
0
ARC
5
201
100
AcDbEntity
8
0
100
AcDbCircle
10
2.9348138614996837
20
-6.6370370092074653
30
0
40
0.32455777354161081
210
0
220
0
230
-1
100
AcDbArc
50
87.545096392823382
51
107.55602363135729
0
ARC
5
202
100
AcDbEntity
8
0
100
AcDbCircle
10
-1.9469972222222214
20
-5.8620109722222224
30
0
40
0.37797858674661344
210
0
220
0
230
1
100
AcDbArc
50
228.26509230944927
51
318.26509230944907
0
ARC
5
203
100
AcDbEntity
8
0
100
AcDbCircle
10
-1.8698285292903909
20
-2.7293385185236181
30
0
40
0.22641246582410271
210
0
220
-0
230
1
100
AcDbArc
50
51.904993627872472
51
102.83337530443379
0
ARC
5
204
100
AcDbEntity
8
0
100
AcDbCircle
10
0.15033426643741471
20
-4.1242322573614487
30
0
40
0.48442540706864085
210
0
220
0
230
1
100
AcDbArc
50
214.00084307826799
51
223.09080082754858
0
ARC
5
205
100
AcDbEntity
8
0
100
AcDbCircle
10
-0.84684309941093527
20
-4.0159990154156011
30
0
40
0.054669583589881221
210
0
220
0
230
1
100
AcDbArc
50
171.18976687819662
51
298.04883351688835
0
ARC
5
206
100
AcDbEntity
8
0
100
AcDbCircle
10
-1.4723283683039987
20
-3.1080411994496688
30
0
40
0.12822938379131643
210
0
220
0
230
1
100
AcDbArc
50
-12.244030407930268
51
28.730394753275657
0
LINE
5
207
100
AcDbEntity
8
0
100
AcDbLine
10
-2.7993977866561219
20
-6.8627771004787048
30
0
11
-2.872180869875768
21
-6.7483500882003957
31
0
0
ARC
5
208
100
AcDbEntity
8
0
100
AcDbCircle
10
-1.5710612953374086
20
-2.5416173458913187
30
0
40
0.65647588682338043
210
0
220
0
230
1
100
AcDbArc
50
273.04565181065874
51
286.38366162995817
0
ARC
5
209
100
AcDbEntity
8
0
100
AcDbCircle
10
-1.834438807861503
20
-2.6550654575004242
30
0
40
0.1472272252116566
210
0
220
0
230
1
100
AcDbArc
50
-17.384576509837334
51
44.893133035748193
0
ARC
5
210
100
AcDbEntity
8
0
100
AcDbCircle
10
-5.20411076046096
20
-2.7342263869480483
30
0
40
0.082784328239870114
210
0
220
0
230
1
100
AcDbArc
50
313.09987897914397
51
333.1289281471287
0
ARC
5
211
100
AcDbEntity
8
0
100
AcDbCircle
10
-5.0081052045466778
20
-2.8129089301354258
30
0
40
0.12633303998445838
210
0
220
-0
230
1
100
AcDbArc
50
21.226510692825599
51
78.602456352742436
0
ARC
5
212
100
AcDbEntity
8
0
100
AcDbCircle
10
-4.3410802634479628
20
-3.3491556436694796
30
0
40
0.059166499841384647
210
0
220
-0
230
1
100
AcDbArc
50
39.37619313542362
51
90.514339279141922
0
ARC
5
213
100
AcDbEntity
8
0
100
AcDbCircle
10
-4.8936456237020591
20
-3.0898915129598037
30
0
40
0.15177771176843033
210
0
220
0
230
1
100
AcDbArc
50
119.99677604700906
51
132.54929044143117
0
ARC
5
214
100
AcDbEntity
8
0
100
AcDbCircle
10
-5.5611247974118463
20
-2.6877015113343719
30
0
40
0.10917644983218121
210
0
220
0
230
1
100
AcDbArc
50
164.0174768530882
51
233.42580679085759
0
ARC
5
215
100
AcDbEntity
8
0
100
AcDbCircle
10
-4.0493015811776036
20
-2.2516711892425509
30
0
40
1.0786816718106034
210
0
220
0
230
1
100
AcDbArc
50
251.95777666175005
51
254.27693190221612
0
ARC
5
216
100
AcDbEntity
8
0
100
AcDbCircle
10
-4.957551586788238
20
-2.8318326745822917
30
0
40
0.081309319791779841
210
0
220
0
230
1
100
AcDbArc
50
-30.114567615391152
51
6.1513214612580578
0
ARC
5
217
100
AcDbEntity
8
0
100
AcDbCircle
10
-5.4563656111222389
20
-2.5714094041184703
30
0
40
0.2482027954317205
210
0
220
0
230
1
100
AcDbArc
50
-8.7655922193946001
51
26.748195208899936
0
ARC
5
218
100
AcDbEntity
8
0
100
AcDbCircle
10
-5.1946641832168678
20
-2.530856237825843
30
0
40
0.24520948448015942
210
0
220
0
230
1
100
AcDbArc
50
175.4099285152748
51
196.81342660997649
0
ARC
5
219
100
AcDbEntity
8
0
100
AcDbCircle
10
-5.6720455557308345
20
-2.988680235350119
30
0
40
0.082761384336902513
210
0
220
0
230
1
100
AcDbArc
50
265.80340547413596
51
311.8255850113797
0
ARC
5
220
100
AcDbEntity
8
0
100
AcDbCircle
10
-4.984504242032318
20
-2.8589898684383481
30
0
40
0.16992812372408719
210
0
220
-0
230
1
100
AcDbArc
50
89.53995779695839
51
149.06810447483016
0
ARC
5
221
100
AcDbEntity
8
0
100
AcDbCircle
10
-4.9781496917316632
20
-2.6694070254450102
30
0
40
0.24055954056846698
210
0
220
0
230
1
100
AcDbArc
50
165.51423987268129
51
199.55610101178831
0
ARC
5
222
100
AcDbEntity
8
0
100
AcDbCircle
10
-5.2303562455352433
20
-5.3415920466695104
30
0
40
0.39467207249220138
210
0
220
0
230
1
100
AcDbArc
50
282.36122635963426
51
306.0731702259859
0
ARC
5
223
100
AcDbEntity
8
0
100
AcDbCircle
10
-5.3268134771090185
20
-5.5022603009321802
30
0
40
0.22337351595364788
210
0
220
0
230
1
100
AcDbArc
50
198.75960046943661
51
270.14959203249833
0
ARC
5
224
100
AcDbEntity
8
0
100
AcDbCircle
10
-4.0365483225463166
20
-1.6009334604201757
30
0
40
1.3752284592957875
210
0
220
0
230
1
100
AcDbArc
50
257.72511681370389
51
259.98935598775364
0
ARC
5
225
100
AcDbEntity
8
0
100
AcDbCircle
10
-4.328549351518209
20
-3.3089366680581893
30
0
40
0.10248919094498481
210
0
220
0
230
1
100
AcDbArc
50
100.56989643067566
51
111.58199644886686
0
ARC
5
226
100
AcDbEntity
8
0
100
AcDbCircle
10
-3.4944370749531566
20
-4.6098058563005244
30
0
40
3.3624915607910122
210
0
220
0
230
1
100
AcDbArc
50
111.90852085285255
51
153.45851878517874
0
ARC
5
227
100
AcDbEntity
8
0
100
AcDbCircle
10
-3.4696003092159811
20
-4.648663573079495
30
0
40
3.3921241020581565
210
0
220
0
230
1
100
AcDbArc
50
186.92398095838593
51
212.29843744006041
0
ARC
5
228
100
AcDbEntity
8
0
100
AcDbCircle
10
-3.9307448228193458
20
-4.6770630392059092
30
0
40
2.9310471763585841
210
0
220
0
230
1
100
AcDbArc
50
179.13437880118795
51
187.45959507849264
0
ARC
5
229
100
AcDbEntity
8
0
100
AcDbCircle
10
-4.4064243204712064
20
-4.5853556413126277
30
0
40
2.455491240604688
210
0
220
0
230
1
100
AcDbArc
50
175.18258717461796
51
181.10671776575862
0
ARC
5
230
100
AcDbEntity
8
0
100
AcDbCircle
10
0.15103278808230858
20
-4.3788653119110492
30
0
40
0.36258099054082737
210
0
220
0
230
1
100
AcDbArc
50
192.1487501658026
51
193.69801399273308
0
ARC
5
231
100
AcDbEntity
8
0
100
AcDbCircle
10
-3.5820458720106312
20
-3.6156351092481271
30
0
40
2.3576275246646148
210
0
220
-0
230
1
100
AcDbArc
50
88.788928476210046
51
94.883351148443353
0
ARC
5
232
100
AcDbEntity
8
0
100
AcDbCircle
10
-0.64791035360429361
20
-4.5496660974116869
30
0
40
0.45467932452810905
210
0
220
0
230
1
100
AcDbArc
50
-4.9896892683506877
51
10.766849769541285
0
ARC
5
233
100
AcDbEntity
8
0
100
AcDbCircle
10
-3.5368795003946314
20
-4.529180043306348
30
0
40
3.2718653185614595
210
0
220
0
230
1
100
AcDbArc
50
94.30956711264534
51
111.74577258754323
0
ARC
5
234
100
AcDbEntity
8
0
100
AcDbCircle
10
-3.5242506197608559
20
-4.5131044388517507
30
0
40
3.2556050854993099
210
0
220
-0
230
1
100
AcDbArc
50
78.391890353714999
51
85.727140998098704
0
ARC
5
235
100
AcDbEntity
8
0
100
AcDbCircle
10
-3.4816606745976202
20
-3.5980632629452298
30
0
40
2.3400751922785097
210
0
220
-0
230
1
100
AcDbArc
50
85.097756583122191
51
91.237921998855313
0
ARC
5
236
100
AcDbEntity
8
0
100
AcDbCircle
10
-1.8336359099411568
20
-6.1132007101585621
30
0
40
0.1686992230264675
210
0
220
0
230
1
100
AcDbArc
50
-0.14433873054587365
51
40.686434648994933
0
ARC
5
237
100
AcDbEntity
8
0
100
AcDbCircle
10
-1.7452007291448159
20
-5.2843880566966002
30
0
40
0.035614441632342286
210
0
220
0
230
1
100
AcDbArc
50
-5.0229164899759207
51
43.601549020687685
0
ARC
5
238
100
AcDbEntity
8
0
100
AcDbCircle
10
-3.5281524684654806
20
-4.7299560915667342
30
0
40
3.287132972305999
210
0
220
0
230
1
100
AcDbArc
50
270.77000701371981
51
314.23434050150786
0
ARC
5
239
100
AcDbEntity
8
0
100
AcDbCircle
10
-3.5227803320766728
20
-4.697233830644219
30
0
40
3.3212438233086008
210
0
220
0
230
1
100
AcDbArc
50
212.08038652313357
51
267.63531191620632
0
SPLINE
5
240
100
AcDbEntity
8
0
100
AcDbSpline
70
0
71
3
72
8
73
4
74
0
42
0.000000001
43
0.0000000001
44
0.0000000001
40
0
40
0
40
0
40
0
40
1
40
1
40
1
40
1
10
-1.4582898611111106
20
-5.9567827777777804
30
0
10
-1.4202355555555555
20
-5.9573550000000006
30
0
10
-1.4005858333333332
20
-5.9173608333333343
30
0
10
-1.3804178472222219
20
-5.7982855555555579
30
0
0
ARC
5
241
100
AcDbEntity
8
0
100
AcDbCircle
10
-1.4791406606153599
20
-5.2383383141305027
30
0
40
0.056376739216349982
210
0
220
-0
230
1
100
AcDbArc
50
37.287860468854909
51
128.71074781527111
0
ARC
5
242
100
AcDbEntity
8
0
100
AcDbCircle
10
-1.6894308867430621
20
-5.625128360063032
30
0
40
0.23310454607240394
210
0
220
-0
230
1
100
AcDbArc
50
78.154418722940136
51
114.55343709943998
0
ARC
5
243
100
AcDbEntity
8
0
100
AcDbCircle
10
-1.5945236700428067
20
-6.4118981361272249
30
0
40
0.51869225516547812
210
0
220
-0
230
1
100
AcDbArc
50
84.09598927137192
51
107.21384364191381
0
ARC
5
244
100
AcDbEntity
8
0
100
AcDbCircle
10
-3.4654781412393798
20
-4.6289640209064649
30
0
40
3.3969618809109776
210
0
220
0
230
1
100
AcDbArc
50
153.38769630812098
51
175.7824981990928
0
ARC
5
245
100
AcDbEntity
8
0
100
AcDbCircle
10
-1.5111684913871035
20
-5.2108385405195357
30
0
40
0.07716871282959667
210
0
220
0
230
1
100
AcDbArc
50
-69.212080970063269
51
4.9468446550179568
0
ARC
5
246
100
AcDbEntity
8
0
100
AcDbCircle
10
-1.4058550602895843
20
-5.3325085916701722
30
0
40
0.11535825848840024
210
0
220
0
230
1
100
AcDbArc
50
172.57906940992928
51
209.46103181939324
0
ARC
5
247
100
AcDbEntity
8
0
100
AcDbCircle
10
-1.6398387285412206
20
-5.4536273358812695
30
0
40
0.14825177233872844
210
0
220
-0
230
1
100
AcDbArc
50
12.865739370562272
51
25.739118823273017
0
ARC
5
248
100
AcDbEntity
8
0
100
AcDbCircle
10
-1.6175722116109894
20
-5.1476845996243377
30
0
40
0.52540312774863129
210
0
220
0
230
1
100
AcDbArc
50
259.69844940976122
51
271.23912776905206
0
ARC
5
249
100
AcDbEntity
8
0
100
AcDbCircle
10
-1.6981571977431962
20
-5.2273476136828361
30
0
40
0.029425972568395579
210
0
220
-0
230
1
100
AcDbArc
50
67.011224923071737
51
136.39806073702104
0
ARC
5
250
100
AcDbEntity
8
0
100
AcDbCircle
10
-1.6827881947328134
20
-5.5874755288599625
30
0
40
0.082322971988404187
210
0
220
0
230
1
100
AcDbArc
50
200.43957594503172
51
249.56601462503286
0
ARC
5
251
100
AcDbEntity
8
0
100
AcDbCircle
10
-1.7357084606576938
20
-5.5710513772744061
30
0
40
0.16585204853257157
210
0
220
0
230
1
100
AcDbArc
50
107.75896924189092
51
116.77283244736074
0
ARC
5
252
100
AcDbEntity
8
0
100
AcDbCircle
10
-1.7454899365248056
20
-5.9769907176222619
30
0
40
0.060604033583530163
210
0
220
0
230
1
100
AcDbArc
50
92.397247442869613
51
144.38572844428288
0
ARC
5
253
100
AcDbEntity
8
0
100
AcDbCircle
10
-2.7031289577665225
20
-6.0940531092883177
30
0
40
1.0573306226569026
210
0
220
-0
230
1
100
AcDbArc
50
26.866932927692819
51
29.546359660655181
0
ARC
5
254
100
AcDbEntity
8
0
100
AcDbCircle
10
-1.6721676089392161
20
-5.1630909614003233
30
0
40
0.039894918292427868
210
0
220
0
230
1
100
AcDbArc
50
248.69171592608899
51
331.17370416651971
0
LINE
5
255
100
AcDbEntity
8
0
100
AcDbLine
10
-3.6598144444444434
20
-8.0156505555555544
30
0
11
-3.6598144444444483
21
-8.0156494444444419
31
0
0
ARC
5
256
100
AcDbEntity
8
0
100
AcDbCircle
10
-1.7837526408309883
20
-6.1280305657066805
30
0
40
0.14719785480013478
210
0
220
-0
230
1
100
AcDbArc
50
57.983260364278465
51
72.083641863912334
0
ARC
5
257
100
AcDbEntity
8
0
100
AcDbCircle
10
-1.48022758388542
20
-5.6401046807280917
30
0
40
0.11204155188190838
210
0
220
0
230
1
100
AcDbArc
50
118.47905533229034
51
185.32446823202378
0
ARC
5
258
100
AcDbEntity
8
0
100
AcDbCircle
10
-3.5939173897543757
20
-4.6482455728621215
30
0
40
3.3915696076513107
210
0
220
0
230
1
100
AcDbArc
50
314.06741911098158
51
344.23793764643716
0
ARC
5
259
100
AcDbEntity
8
0
100
AcDbCircle
10
-1.6084450660710019
20
-5.6556668875115195
30
0
40
0.017441736420661404
210
0
220
0
230
1
100
AcDbArc
50
-82.638525360989433
51
17.225995405520912
0
ARC
5
260
100
AcDbEntity
8
0
100
AcDbCircle
10
-1.7410751594252065
20
-5.9337673608833956
30
0
40
0.054266021693778456
210
0
220
0
230
1
100
AcDbArc
50
188.40505762582009
51
272.75122680668659
0
SPLINE
5
261
100
AcDbEntity
8
0
100
AcDbSpline
70
0
71
3
72
8
73
4
74
0
42
0.000000001
43
0.0000000001
44
0.0000000001
40
0
40
0
40
0
40
0
40
1
40
1
40
1
40
1
10
-1.3804178472222219
20
-5.7982855555555579
30
0
10
-1.3528206666666662
20
-5.635342500000001
30
0
10
-1.371051944444444
20
-5.5426558333333356
30
0
10
-1.4325133333333329
20
-5.5334390277777805
30
0
0
ARC
5
262
100
AcDbEntity
8
0
100
AcDbCircle
10
-1.5526699810540368
20
-5.3940492782933447
30
0
40
0.063214821359763251
210
0
220
0
230
1
100
AcDbArc
50
287.84292824044979
51
335.14840854984419
0
ARC
5
263
100
AcDbEntity
8
0
100
AcDbCircle
10
-1.6194087059086226
20
-5.1956982000749408
30
0
40
0.095675838770325747
210
0
220
-0
230
1
100
AcDbArc
50
12.328403862955724
51
50.976425162075778
0
ARC
5
264
100
AcDbEntity
8
0
100
AcDbCircle
10
-3.5500541841613429
20
-4.6268978351920715
30
0
40
3.3553117258859029
210
0
220
0
230
1
100
AcDbArc
50
-16.316365254635368
51
0.64353366588947358
0
ARC
5
265
100
AcDbEntity
8
0
100
AcDbCircle
10
-1.5610828211434709
20
-5.954873278035226
30
0
40
0.062190253334516735
210
0
220
-0
230
1
100
AcDbArc
50
23.70915586091721
51
71.325328745549683
0
ARC
5
266
100
AcDbEntity
8
0
100
AcDbCircle
10
-1.695455646132987
20
-5.2334153083760224
30
0
40
0.035656774267060251
210
0
220
0
230
1
100
AcDbArc
50
132.32796842331595
51
227.79266565433059
0
ARC
5
267
100
AcDbEntity
8
0
100
AcDbCircle
10
-1.4554287206587997
20
-5.8993962295239513
30
0
40
0.057457828406376671
210
0
220
0
230
1
100
AcDbArc
50
212.02670135151712
51
267.14574845878542
0
ARC
5
268
100
AcDbEntity
8
0
100
AcDbCircle
10
-1.4684891301451135
20
-5.3356035195315723
30
0
40
0.054796737615122541
210
0
220
0
230
1
100
AcDbArc
50
106.20394487857587
51
160.82930086646766
0
ARC
5
269
100
AcDbEntity
8
0
100
AcDbCircle
10
-1.6374306211585969
20
-5.4907492538282812
30
0
40
0.16728824972959397
210
0
220
0
230
1
100
AcDbArc
50
178.79386232975796
51
209.31452421614523
0
ARC
5
270
100
AcDbEntity
8
0
100
AcDbCircle
10
-1.3845278629609203
20
-5.4173408913754404
30
0
40
0.42592667418450392
210
0
220
0
230
1
100
AcDbArc
50
180.7584285227492
51
189.44392715365106
0
ARC
5
271
100
AcDbEntity
8
0
100
AcDbCircle
10
-1.4464179911962221
20
-5.9907545645592792
30
0
40
0.45752687319111035
210
0
220
-0
230
1
100
AcDbArc
50
88.258460988593313
51
100.99170278350923
0
ARC
5
272
100
AcDbEntity
8
0
100
AcDbCircle
10
-1.4360803714669732
20
-5.2899072160148801
30
0
40
0.2215930144635396
210
0
220
0
230
1
100
AcDbArc
50
219.06298512803164
51
229.98175368156583
0
ARC
5
273
100
AcDbEntity
8
0
100
AcDbCircle
10
-1.5607883640960534
20
-5.4161509208800238
30
0
40
0.046958560663473613
210
0
220
0
230
1
100
AcDbArc
50
247.74669301597405
51
305.82885436703879
0
ARC
5
274
100
AcDbEntity
8
0
100
AcDbCircle
10
-1.9173412670204855
20
-5.3711386926499074
30
0
40
0.2172461846294936
210
0
220
0
230
1
100
AcDbArc
50
92.784612091247482
51
136.44405898352178
0
ARC
5
275
100
AcDbEntity
8
0
100
AcDbCircle
10
-3.543305141009701
20
-3.6127255644595251
30
0
40
4.4044662440532818
210
0
220
0
230
1
100
AcDbArc
50
268.48420449823271
51
270.77179073458296
0
ARC
5
276
100
AcDbEntity
8
0
100
AcDbCircle
10
-1.5106323988281329
20
-5.1790391724306728
30
0
40
0.015764003377152884
210
0
220
0
230
1
100
AcDbArc
50
166.16657517462096
51
256.17973466498711
0
ARC
5
277
100
AcDbEntity
8
0
100
AcDbCircle
10
-1.5549498561752269
20
-5.2072137980317237
30
0
40
0.085948448349143849
210
0
220
0
230
1
100
AcDbArc
50
92.812643140037991
51
163.16835814514772
0
ARC
5
278
100
AcDbEntity
8
0
100
AcDbCircle
10
-1.7712269315903801
20
-5.5636006895364618
30
0
40
0.2111114277229594
210
0
220
-0
230
1
100
AcDbArc
50
39.418399490789824
51
52.112419006541693
0
ARC
5
279
100
AcDbEntity
8
0
100
AcDbCircle
10
0.1369318898829964
20
-3.9911410055810763
30
0
40
2.5266408261678039
210
0
220
0
230
1
100
AcDbArc
50
188.17178474741863
51
191.40381118940144
0
LINE
5
280
100
AcDbEntity
8
0
100
AcDbLine
10
-1.9107788888888886
20
-5.2225365277777795
30
0
11
-1.9434563888888883
21
-5.2227448611111136
31
0
0
LINE
5
281
100
AcDbEntity
8
0
100
AcDbLine
10
-1.7740422222222219
20
-5.0647022222222242
30
0
11
-1.7718565277777774
21
-5.0451443055555583
31
0
0
ARC
5
282
100
AcDbEntity
8
0
100
AcDbCircle
10
-1.4913499560588617
20
-5.2564511997428731
30
0
40
0.41866646563030757
210
0
220
0
230
1
100
AcDbArc
50
180.25662619748041
51
186.11670918851493
0
ARC
5
283
100
AcDbEntity
8
0
100
AcDbCircle
10
-1.8405113277343679
20
-5.2092071826125705
30
0
40
0.11376545810040446
210
0
220
0
230
1
100
AcDbArc
50
233.84301135215492
51
299.35847898865171
0
ARC
5
284
100
AcDbEntity
8
0
100
AcDbCircle
10
-3.0154689476063297
20
-5.5949866178875443
30
0
40
0.79878322940488811
210
0
220
-0
230
1
100
AcDbArc
50
70.426444126286896
51
75.008898829303874
0
LINE
5
285
100
AcDbEntity
8
0
100
AcDbLine
10
-1.7718565277777774
20
-5.0451443055555583
30
0
11
-1.7460002777777772
21
-5.0202470833333361
31
0
0
ARC
5
286
100
AcDbEntity
8
0
100
AcDbCircle
10
-1.796859357395985
20
-5.119425374428177
30
0
40
0.18932489490666018
210
0
220
0
230
1
100
AcDbArc
50
273.67164741886501
51
297.40307674296935
0
LINE
5
287
100
AcDbEntity
8
0
100
AcDbLine
10
-1.8267504166666664
20
-4.878537500000002
30
0
11
-1.8372716666666662
21
-4.8582326388888921
31
0
0
ARC
5
288
100
AcDbEntity
8
0
100
AcDbCircle
10
-1.7959707922232029
20
-4.9727797081894032
30
0
40
0.096693867230630171
210
0
220
-0
230
1
100
AcDbArc
50
31.008884567366845
51
96.151706310841618
0
ARC
5
289
100
AcDbEntity
8
0
100
AcDbCircle
10
-0.61852286438342696
20
-6.7383042853910258
30
0
40
2.8267837830036826
210
0
220
0
230
1
100
AcDbArc
50
120.52381643329727
51
127.21739528401029
0
ARC
5
290
100
AcDbEntity
8
0
100
AcDbCircle
10
-1.694593649789637
20
-5.8835745267730175
30
0
40
1.4273801649768836
210
0
220
0
230
1
100
AcDbArc
50
99.494284334453312
51
105.74767708364901
0
ARC
5
291
100
AcDbEntity
8
0
100
AcDbCircle
10
-4.3383133331716124
20
-3.7848327543181965
30
0
40
2.3421733241915965
210
0
220
0
230
1
100
AcDbArc
50
344.52529877453486
51
347.21194589179038
0
ARC
5
292
100
AcDbEntity
8
0
100
AcDbCircle
10
-1.8938979074040958
20
-9.8255117719912466
30
0
40
4.6030337038718407
210
0
220
0
230
1
100
AcDbArc
50
90.616885921617211
51
91.61254483142848
0
ARC
5
293
100
AcDbEntity
8
0
100
AcDbCircle
10
-2.1263363273122424
20
-4.3871101746166081
30
0
40
0.13043065131354875
210
0
220
0
230
1
100
AcDbArc
50
278.1922102300191
51
289.87838713757344
0
ARC
5
294
100
AcDbEntity
8
0
100
AcDbCircle
10
-2.3341628955874474
20
-4.4885974776973274
30
0
40
0.0060479211292172241
210
0
220
0
230
1
100
AcDbArc
50
-159.50650534590383
51
13.307187883017461
0
LINE
5
295
100
AcDbEntity
8
0
100
AcDbLine
10
-2.6896955555555557
20
-4.7451234722222253
30
0
11
-2.6887372222222221
21
-4.8621306944444473
31
0
0
ARC
5
296
100
AcDbEntity
8
0
100
AcDbCircle
10
-2.043187542994362
20
-5.1165725800511401
30
0
40
0.10952526397929237
210
0
220
0
230
1
100
AcDbArc
50
253.23487506094881
51
280.39284787707055
0
LINE
5
297
100
AcDbEntity
8
0
100
AcDbLine
10
-1.9326029166666665
20
-4.6141106944444479
30
0
11
-1.9933288888888885
21
-4.6141106944444479
31
0
0
ARC
5
298
100
AcDbEntity
8
0
100
AcDbCircle
10
-2.4163861341402391
20
-4.3400966555710792
30
0
40
0.05331371216566564
210
0
220
0
230
1
100
AcDbArc
50
-11.013287245740264
51
38.770813430401603
0
ARC
5
299
100
AcDbEntity
8
0
100
AcDbCircle
10
-1.7161215034230106
20
-4.7106108875658252
30
0
40
0.29137446479293372
210
0
220
0
230
1
100
AcDbArc
50
125.85991780006759
51
155.88140427009665
0
SPLINE
5
300
100
AcDbEntity
8
0
100
AcDbSpline
70
0
71
3
72
8
73
4
74
0
42
0.000000001
43
0.0000000001
44
0.0000000001
40
0
40
0
40
0
40
0
40
1
40
1
40
1
40
1
10
-1.8868102777777769
20
-4.4744659722222258
30
0
10
-1.8697301388888885
20
-4.4660115277777805
30
0
10
-1.8740297222222215
20
-4.4661387500000034
30
0
10
-1.9300388888888886
20
-4.4757465277777797
30
0
0
ARC
5
301
100
AcDbEntity
8
0
100
AcDbCircle
10
-1.7503025929325602
20
-3.8051282697908593
30
0
40
1.1825534627658225
210
0
220
0
230
1
100
AcDbArc
50
219.76597214569742
51
226.7869662337722
0
LINE
5
302
100
AcDbEntity
8
0
100
AcDbLine
10
-2.6592883333333335
20
-4.561552500000003
30
0
11
-2.685705833333333
21
-4.5292220833333365
31
0
0
LINE
5
303
100
AcDbEntity
8
0
100
AcDbLine
10
-2.685705833333333
20
-4.5292220833333365
30
0
11
-2.6881801388888888
21
-4.5786693055555583
31
0
0
LINE
5
304
100
AcDbEntity
8
0
100
AcDbLine
10
-1.93630875
20
-4.6992720833333363
30
0
11
-1.9178097222222219
21
-4.6776986111111132
31
0
0
ARC
5
305
100
AcDbEntity
8
0
100
AcDbCircle
10
-1.8353139334597506
20
-5.0610470170166453
30
0
40
0.061380641272880204
210
0
220
0
230
1
100
AcDbArc
50
329.75265713711883
51
356.58602772414724
0
ARC
5
306
100
AcDbEntity
8
0
100
AcDbCircle
10
-1.7436953200824326
20
-4.9471496707439453
30
0
40
0.039002500959398299
210
0
220
0
230
1
100
AcDbArc
50
-10.960670831341357
51
38.320416258852788
0
ARC
5
307
100
AcDbEntity
8
0
100
AcDbCircle
10
-2.7350896849068116
20
-5.8129761146863119
30
0
40
0.82743953515634661
210
0
220
0
230
1
100
AcDbArc
50
93.85642781170273
51
97.218044569626642
0
LINE
5
308
100
AcDbEntity
8
0
100
AcDbLine
10
-1.9933288888888885
20
-4.6141106944444479
30
0
11
-1.9820594444444437
21
-4.5915475000000026
31
0
0
LINE
5
309
100
AcDbEntity
8
0
100
AcDbLine
10
-1.9213958333333325
20
-4.7197126388888924
30
0
11
-1.93630875
21
-4.6992720833333363
31
0
0
ARC
5
310
100
AcDbEntity
8
0
100
AcDbCircle
10
-2.4304707270860293
20
-4.4964234192558736
30
0
40
0.642362370142459
210
0
220
0
230
1
100
AcDbArc
50
230.5011040754155
51
235.37276551009111
0
ARC
5
311
100
AcDbEntity
8
0
100
AcDbCircle
10
-2.2589686786577206
20
-4.3755729841107538
30
0
40
0.45570750273231114
210
0
220
0
230
1
100
AcDbArc
50
318.47234551827137
51
328.14985258874367
0
ARC
5
312
100
AcDbEntity
8
0
100
AcDbCircle
10
-1.8068198290416477
20
-4.9372698046092038
30
0
40
0.10287976769219735
210
0
220
0
230
1
100
AcDbArc
50
306.24016114635697
51
350.32177212588169
0
ARC
5
313
100
AcDbEntity
8
0
100
AcDbCircle
10
-2.6872299041701644
20
-4.5942475312181568
30
0
40
0.14654549838997216
210
0
220
0
230
1
100
AcDbArc
50
330.23980123234742
51
342.54669467651013
0
LINE
5
314
100
AcDbEntity
8
0
100
AcDbLine
10
-2.6887372222222221
20
-4.8621306944444473
30
0
11
-2.7478631944444443
21
-4.8423633333333376
31
0
0
ARC
5
315
100
AcDbEntity
8
0
100
AcDbCircle
10
0.017905154260403899
20
-4.9928297017651895
30
0
40
2.1784350482945878
210
0
220
0
230
1
100
AcDbArc
50
164.47506445639817
51
167.36202519917677
0
ARC
5
316
100
AcDbEntity
8
0
100
AcDbCircle
10
1.3444214896928139
20
-4.6986165268356688
30
0
40
4.0343851118519432
210
0
220
0
230
1
100
AcDbArc
50
178.29627508581339
51
180.66049983687552
0
ARC
5
317
100
AcDbEntity
8
0
100
AcDbCircle
10
-1.994880817078843
20
-4.5340524081194395
30
0
40
0.86386289622035983
210
0
220
0
230
1
100
AcDbArc
50
199.56850368233711
51
205.0946864532232
0
ARC
5
318
100
AcDbEntity
8
0
100
AcDbCircle
10
0.53195453811217064
20
-6.0309963622962579
30
0
40
3.3797182943300257
210
0
220
0
230
1
100
AcDbArc
50
149.32377705073611
51
155.66292204524621
0
ARC
5
319
100
AcDbEntity
8
0
100
AcDbCircle
10
-2.787503197310349
20
-4.8518091458473434
30
0
40
0.13563962880742159
210
0
220
0
230
1
100
AcDbArc
50
268.63243050128204
51
288.93526008668249
0
ARC
5
320
100
AcDbEntity
8
0
100
AcDbCircle
10
-2.0368741065590497
20
-4.6974006081761939
30
0
40
0.46956945562845859
210
0
220
0
230
1
100
AcDbArc
50
283.41968781055266
51
302.83117955959864
0
ARC
5
321
100
AcDbEntity
8
0
100
AcDbCircle
10
-3.4460069081980942
20
-5.7404242261863914
30
0
40
1.8347455066149265
210
0
220
-0
230
1
100
AcDbArc
50
28.739300750902135
51
33.801905555402904
0
ARC
5
322
100
AcDbEntity
8
0
100
AcDbCircle
10
-4.3182465877145564
20
-5.5994528630133988
30
0
40
1.6921734921393308
210
0
220
-0
230
1
100
AcDbArc
50
21.469450815036485
51
24.399200533580544
0
LINE
5
323
100
AcDbEntity
8
0
100
AcDbLine
10
-1.806332638888889
20
-4.8766426388888906
30
0
11
-1.8267504166666664
21
-4.878537500000002
31
0
0
ARC
5
324
100
AcDbEntity
8
0
100
AcDbCircle
10
-1.9175241154262941
20
-5.0937903996780074
30
0
40
0.47991664886707186
210
0
220
-0
230
1
100
AcDbArc
50
84.542023351624749
51
91.800508242905863
0
LINE
5
325
100
AcDbEntity
8
0
100
AcDbLine
10
-1.9100122222222218
20
-5.2583263888888983
30
0
11
-1.9107788888888886
21
-5.2225365277777795
31
0
0
ARC
5
326
100
AcDbEntity
8
0
100
AcDbCircle
10
-2.7124399538003745
20
-5.554208153672672
30
0
40
0.031552886174808871
210
0
220
-0
230
1
100
AcDbArc
50
83.445150100811517
51
136.11744990140465
0
ARC
5
327
100
AcDbEntity
8
0
100
AcDbCircle
10
-2.798262573619835
20
-5.6072189214787933
30
0
40
0.05849008585394247
210
0
220
0
230
1
100
AcDbArc
50
310.91033922344764
51
340.05699207075185
0
ARC
5
328
100
AcDbEntity
8
0
100
AcDbCircle
10
-3.2575996419638762
20
-4.9043989570575572
30
0
40
0.58011477272758916
210
0
220
0
230
1
100
AcDbArc
50
334.87171276828957
51
337.53838711743379
0
ARC
5
329
100
AcDbEntity
8
0
100
AcDbCircle
10
-2.7423474337236056
20
-5.6981537962842159
30
0
40
0.044565396054621099
210
0
220
0
230
1
100
AcDbArc
50
183.30716308098687
51
234.73985186444739
0
ARC
5
330
100
AcDbEntity
8
0
100
AcDbCircle
10
-3.0973997487545444
20
-3.5879324101480234
30
0
40
1.9714378449887124
210
0
220
0
230
1
100
AcDbArc
50
289.05266370955297
51
294.61026842438849
0
ARC
5
331
100
AcDbEntity
8
0
100
AcDbCircle
10
-2.6522699458930585
20
-4.5052411502164125
30
0
40
0.62276561676643327
210
0
220
0
230
1
100
AcDbArc
50
257.57109763085742
51
260.80001109297575
0
ARC
5
332
100
AcDbEntity
8
0
100
AcDbCircle
10
-2.6716449913113163
20
-5.5981009640491486
30
0
40
0.091443751435405632
210
0
220
0
230
1
100
AcDbArc
50
134.01300129402344
51
170.73678854323168
0
ARC
5
333
100
AcDbEntity
8
0
100
AcDbCircle
10
-2.796831490308485
20
-5.425049274369699
30
0
40
0.30835380782439203
210
0
220
-0
230
1
100
AcDbArc
50
75.858420084633323
51
81.609785864762316
0
ARC
5
334
100
AcDbEntity
8
0
100
AcDbCircle
10
-2.7357260722414054
20
-5.1579224370342152
30
0
40
0.11357969051280402
210
0
220
0
230
1
100
AcDbArc
50
341.08938860965588
51
352.81417870041923
0
ARC
5
335
100
AcDbEntity
8
0
100
AcDbCircle
10
-2.5095284168036343
20
-5.2589570452700043
30
0
40
0.24774274319596057
210
0
220
0
230
1
100
AcDbArc
50
154.10001720013
51
160.65229753161194
0
ARC
5
336
100
AcDbEntity
8
0
100
AcDbCircle
10
-1.7684544980864825
20
-7.3300390265980413
30
0
40
1.9997882179275774
210
0
220
0
230
1
100
AcDbArc
50
110.04351340022707
51
111.9479408217056
0
ARC
5
337
100
AcDbEntity
8
0
100
AcDbCircle
10
-2.7095391861288198
20
-5.5996131850277662
30
0
40
0.076754859616183682
210
0
220
-0
230
1
100
AcDbArc
50
44.525290477150875
51
89.476614488922991
0
ARC
5
338
100
AcDbEntity
8
0
100
AcDbCircle
10
-2.742823704503595
20
-5.5663070374320132
30
0
40
0.17012057902554575
210
0
220
0
230
1
100
AcDbArc
50
261.46408671718103
51
289.17441287836238
0
ARC
5
339
100
AcDbEntity
8
0
100
AcDbCircle
10
-2.7394984386515024
20
-5.1220295632176036
30
0
40
0.047594828947012162
210
0
220
0
230
1
100
AcDbArc
50
129.48595956494401
51
169.56786085306533
0
ARC
5
340
100
AcDbEntity
8
0
100
AcDbCircle
10
-2.5474133932811647
20
-5.531054959392117
30
0
40
0.051834207684260739
210
0
220
0
230
1
100
AcDbArc
50
-3.4179602677644008
51
35.76552349853349
0
ARC
5
341
100
AcDbEntity
8
0
100
AcDbCircle
10
-2.4342025719149865
20
-5.3985221843159685
30
0
40
0.1072241001439789
210
0
220
-0
230
1
100
AcDbArc
50
81.721331472491201
51
124.09404883889199
0
ARC
5
342
100
AcDbEntity
8
0
100
AcDbCircle
10
-2.4539834079554179
20
-5.4251815779882868
30
0
40
0.13735824577298547
210
0
220
-0
230
1
100
AcDbArc
50
58.294898669982359
51
75.142949323760064
0
ARC
5
343
100
AcDbEntity
8
0
100
AcDbCircle
10
-2.7094172352013888
20
-5.575738683993829
30
0
40
0.053032591954302905
210
0
220
0
230
1
100
AcDbArc
50
188.28578743991454
51
215.5595482363191
0
ARC
5
344
100
AcDbEntity
8
0
100
AcDbCircle
10
-278.09926137824186
20
-386.10228101886793
30
0
40
470.11920069483199
210
0
220
-0
230
1
100
AcDbArc
50
54.14748749510472
51
54.154314631710967
0
SPLINE
5
345
100
AcDbEntity
8
0
100
AcDbSpline
70
0
71
3
72
8
73
4
74
0
42
0.000000001
43
0.0000000001
44
0.0000000001
40
0
40
0
40
0
40
0
40
1
40
1
40
1
40
1
10
-2.3181088888888888
20
-5.3421804166666691
30
0
10
-2.2718693055555561
20
-5.3648366666666689
30
0
10
-2.2650362500000001
20
-5.3710805555555581
30
0
10
-2.2764068055555562
20
-5.3802877777777818
30
0
0
ARC
5
346
100
AcDbEntity
8
0
100
AcDbCircle
10
-2.4044256642319399
20
-5.444161838924801
30
0
40
0.11571464725776337
210
0
220
0
230
1
100
AcDbArc
50
195.55269765786591
51
209.28233647839258
0
ARC
5
347
100
AcDbEntity
8
0
100
AcDbCircle
10
-2.5595507020863564
20
-5.7618453266855507
30
0
40
0.059818382924774503
210
0
220
0
230
1
100
AcDbArc
50
271.97059676006882
51
326.37218282548076
0
ARC
5
348
100
AcDbEntity
8
0
100
AcDbCircle
10
-2.5338148703897176
20
-5.7369125331920658
30
0
40
0.08796281108044593
210
0
220
0
230
1
100
AcDbArc
50
183.93005862456184
51
254.38381186231237
0
ARC
5
349
100
AcDbEntity
8
0
100
AcDbCircle
10
-2.3356765117841878
20
-5.739606110537534
30
0
40
0.16450963509751362
210
0
220
0
230
1
100
AcDbArc
50
152.13390481822074
51
181.66028100576375
0
ARC
5
350
100
AcDbEntity
8
0
100
AcDbCircle
10
-2.6585476918929585
20
-5.7838004378496679
30
0
40
0.063514139785390417
210
0
220
-0
230
1
100
AcDbArc
50
72.415892904362423
51
116.56141382812326
0
ARC
5
351
100
AcDbEntity
8
0
100
AcDbCircle
10
-2.6449075807414872
20
-5.5249900674543415
30
0
40
0.03728142177909937
210
0
220
0
230
1
100
AcDbArc
50
289.15573820941961
51
344.53749267998688
0
ARC
5
352
100
AcDbEntity
8
0
100
AcDbCircle
10
-1.9020812683943902
20
-4.4828232431504036
30
0
40
0.95476370515860176
210
0
220
0
230
1
100
AcDbArc
50
239.83827298111734
51
244.1676838559936
0
ARC
5
353
100
AcDbEntity
8
0
100
AcDbCircle
10
-2.575073516443636
20
-5.5436643176974849
30
0
40
0.030248652904178608
210
0
220
-0
230
1
100
AcDbArc
50
9.8769264957992124
51
94.872990085390114
0
ARC
5
354
100
AcDbEntity
8
0
100
AcDbCircle
10
-2.6102981688107407
20
-6.0490375290958154
30
0
40
0.87700021294260933
210
0
220
0
230
1
100
AcDbArc
50
90.832372993654332
51
94.799113849145286
0
ARC
5
355
100
AcDbEntity
8
0
100
AcDbCircle
10
-2.7253069870459248
20
-4.7770523449731161
30
0
40
0.40023127296068262
210
0
220
0
230
1
100
AcDbArc
50
267.42617761342302
51
275.97139714057772
0
ARC
5
356
100
AcDbEntity
8
0
100
AcDbCircle
10
-2.5432666845537528
20
-5.196690142558964
30
0
40
0.1231850385687559
210
0
220
0
230
1
100
AcDbArc
50
255.70016837904441
51
293.41857316245211
0
ARC
5
357
100
AcDbEntity
8
0
100
AcDbCircle
10
-2.6054589590330806
20
-5.7505487507723023
30
0
40
0.10552277881833558
210
0
220
0
230
1
100
AcDbArc
50
-24.896935257198066
51
3.3554410350930213
0
ARC
5
358
100
AcDbEntity
8
0
100
AcDbCircle
10
-2.7138092845222794
20
-5.7085614559354561
30
0
40
0.073448600649096252
210
0
220
0
230
1
100
AcDbArc
50
128.92652503372392
51
173.87506231117649
0
ARC
5
359
100
AcDbEntity
8
0
100
AcDbCircle
10
-2.6501631518195259
20
-5.7508960963802851
30
0
40
0.029678241991221366
210
0
220
-0
230
1
100
AcDbArc
50
15.547170709138626
51
68.652807038273608
0
ARC
5
360
100
AcDbEntity
8
0
100
AcDbCircle
10
-2.2517099361164266
20
-5.5917697190293305
30
0
40
0.1417747561788234
210
0
220
0
230
1
100
AcDbArc
50
203.48951268593805
51
232.59120881112057
0
ARC
5
361
100
AcDbEntity
8
0
100
AcDbCircle
10
-2.5109055329347614
20
-5.5289980747576886
30
0
40
0.035650546034681589
210
0
220
0
230
1
100
AcDbArc
50
195.4173360481665
51
261.44337764655063
0
ARC
5
362
100
AcDbEntity
8
0
100
AcDbCircle
10
-2.3671100693842959
20
-5.764422801569137
30
0
40
0.15277705443503081
210
0
220
0
230
1
100
AcDbArc
50
111.13857758870387
51
138.26097379438457
0
ARC
5
363
100
AcDbEntity
8
0
100
AcDbCircle
10
-2.9521637551530042
20
-4.9338776228749515
30
0
40
0.23706039757178432
210
0
220
0
230
1
100
AcDbArc
50
320.30231514147937
51
328.48092922093872
0
ARC
5
364
100
AcDbEntity
8
0
100
AcDbCircle
10
-3.7144819451870883
20
-5.6654978156760132
30
0
40
0.32447351624408849
210
0
220
0
230
1
100
AcDbArc
50
267.59220145579155
51
308.55967631355389
0
ARC
5
365
100
AcDbEntity
8
0
100
AcDbCircle
10
-1.760828167468
20
-6.2965212516709963
30
0
40
0.46447576111963801
210
0
220
0
230
1
100
AcDbArc
50
137.64059322218228
51
156.04659620859687
0
ARC
5
366
100
AcDbEntity
8
0
100
AcDbCircle
10
-2.0738337293371591
20
-5.7171333051017124
30
0
40
0.24048516127125646
210
0
220
0
230
1
100
AcDbArc
50
249.06770175403358
51
260.04628133274582
0
ARC
5
367
100
AcDbEntity
8
0
100
AcDbCircle
10
-3.5109754318588884
20
-5.1697754734771006
30
0
40
0.35911098509693296
210
0
220
0
230
1
100
AcDbArc
50
230.59090162622795
51
236.67626808461537
0
ARC
5
368
100
AcDbEntity
8
0
100
AcDbCircle
10
-2.5826378342830845
20
-5.5398484260955732
30
0
40
0.026793106873708988
210
0
220
-0
230
1
100
AcDbArc
50
79.256050386054966
51
169.42128823317242
0
ARC
5
369
100
AcDbEntity
8
0
100
AcDbCircle
10
-4.1916617579791966
20
-5.763191361084596
30
0
40
0.028534007635839902
210
0
220
0
230
1
100
AcDbArc
50
132.6051745123693
51
189.38946220902034
0
ARC
5
370
100
AcDbEntity
8
0
100
AcDbCircle
10
-3.7571731329408888
20
-5.8916652079364127
30
0
40
0.10223653073859455
210
0
220
0
230
1
100
AcDbArc
50
215.73355907223754
51
286.51331422918201
0
ARC
5
371
100
AcDbEntity
8
0
100
AcDbCircle
10
-4.0327434855336151
20
-5.3879592356704391
30
0
40
0.73925711871001243
210
0
220
0
230
1
100
AcDbArc
50
325.06311625843836
51
345.90524134262614
0
ARC
5
372
100
AcDbEntity
8
0
100
AcDbCircle
10
-3.6708185407324874
20
-5.8801216623354158
30
0
40
0.18372324745731602
210
0
220
0
230
1
100
AcDbArc
50
171.4319986079274
51
202.81886828414733
0
ARC
5
373
100
AcDbEntity
8
0
100
AcDbCircle
10
-4.1919542461606722
20
-6.2650198849884609
30
0
40
0.95349108401706717
210
0
220
-0
230
1
100
AcDbArc
50
71.195117401997706
51
75.446202973065567
0
ARC
5
374
100
AcDbEntity
8
0
100
AcDbCircle
10
0.52860892303257812
20
-4.9971532423676601
30
0
40
4.7436337275223197
210
0
220
0
230
1
100
AcDbArc
50
172.37192156169266
51
173.32851792938595
0
LINE
5
375
100
AcDbEntity
8
0
100
AcDbLine
10
-4.1730465277777755
20
-4.3674731944444423
30
0
11
-4.1712124999999993
21
-4.3558026388888891
31
0
0
SPLINE
5
376
100
AcDbEntity
8
0
100
AcDbSpline
70
0
71
3
72
8
73
4
74
0
42
0.000000001
43
0.0000000001
44
0.0000000001
40
0
40
0
40
0
40
0
40
1
40
1
40
1
40
1
10
-4.3952188888888886
20
-6.0289765277777798
30
0
10
-4.4578856944444434
20
-5.9629120833333351
30
0
10
-4.459616944444444
20
-5.9417245833333343
30
0
10
-4.4034120833333326
20
-5.9287025000000009
30
0
0
ARC
5
377
100
AcDbEntity
8
0
100
AcDbCircle
10
-3.6104442741063529
20
-5.5086430840718243
30
0
40
0.30061785052749507
210
0
220
0
230
1
100
AcDbArc
50
-11.385489900415136
51
10.070020053733559
0
ARC
5
378
100
AcDbEntity
8
0
100
AcDbCircle
10
-2.5179978262827527
20
-5.184337847724894
30
0
40
0.14301141916238549
210
0
220
0
230
1
100
AcDbArc
50
218.43023008876884
51
247.0800263209606
0
ARC
5
379
100
AcDbEntity
8
0
100
AcDbCircle
10
-4.4056589703301849
20
-5.7233207970373394
30
0
40
0.19613151998592393
210
0
220
0
230
1
100
AcDbArc
50
312.96742606691794
51
337.03558820511194
0
ARC
5
380
100
AcDbEntity
8
0
100
AcDbCircle
10
-4.0038248196606396
20
-5.4418107771522948
30
0
40
0.68526617415007474
210
0
220
0
230
1
100
AcDbArc
50
315.83865182025875
51
327.37020210880115
0
ARC
5
381
100
AcDbEntity
8
0
100
AcDbCircle
10
-5.1389030499690396
20
-5.4156256036208328
30
0
40
1.0441602816962861
210
0
220
-0
230
1
100
AcDbArc
50
13.450759172725487
51
17.692334430737112
0
ARC
5
382
100
AcDbEntity
8
0
100
AcDbCircle
10
-3.9366073864148752
20
-5.1551862873624144
30
0
40
0.18759992336828799
210
0
220
0
230
1
100
AcDbArc
50
185.37020943504555
51
265.185546841453
0
ARC
5
383
100
AcDbEntity
8
0
100
AcDbCircle
10
-2.1493188383397714
20
-4.6524377639953824
30
0
40
2.0440306842624723
210
0
220
0
230
1
100
AcDbArc
50
174.20505480911311
51
192.5991441127465
0
ARC
5
384
100
AcDbEntity
8
0
100
AcDbCircle
10
-3.4708045300052577
20
-5.5093649197548
30
0
40
0.16576501179701097
210
0
220
-0
230
1
100
AcDbArc
50
86.481545875973936
51
105.49682270407779
0
ARC
5
385
100
AcDbEntity
8
0
100
AcDbCircle
10
-2.7954618899636774
20
-5.6383021389946171
30
0
40
0.05335630989440527
210
0
220
-0
230
1
100
AcDbArc
50
12.043598764830287
51
36.479788308565013
0
ARC
5
386
100
AcDbEntity
8
0
100
AcDbCircle
10
-2.4972673765201003
20
-5.236922870656449
30
0
40
0.13763529501296823
210
0
220
0
230
1
100
AcDbArc
50
162.14943771587218
51
195.29442346002276
0
ARC
5
387
100
AcDbEntity
8
0
100
AcDbCircle
10
-2.541655851833478
20
-5.5248338523991398
30
0
40
0.046917730922160727
210
0
220
0
230
1
100
AcDbArc
50
302.84398889863201
51
348.5529164508356
0
LINE
5
388
100
AcDbEntity
8
0
100
AcDbLine
10
-4.1712124999999993
20
-4.3558026388888891
30
0
11
-4.1419204166666654
21
-4.3558026388888891
31
0
0
ARC
5
389
100
AcDbEntity
8
0
100
AcDbCircle
10
-4.43986346476298
20
-5.6807107213193726
30
0
40
0.25065638930877465
210
0
220
0
230
1
100
AcDbArc
50
278.36181591273237
51
312.04998321873217
0
ARC
5
390
100
AcDbEntity
8
0
100
AcDbCircle
10
-2.5925551979811576
20
-5.4743710640841856
30
0
40
0.094749024756391256
210
0
220
0
230
1
100
AcDbArc
50
228.91874413285055
51
244.94907982962795
0
ARC
5
391
100
AcDbEntity
8
0
100
AcDbCircle
10
-2.4134618477638843
20
-5.6527488588803774
30
0
40
0.032039006076174728
210
0
220
-0
230
1
100
AcDbArc
50
8.0206216520845288
51
105.83687947627459
0
ARC
5
392
100
AcDbEntity
8
0
100
AcDbCircle
10
-2.2934513041162568
20
-5.7411005773609114
30
0
40
0.035336742102566016
210
0
220
-0
230
1
100
AcDbArc
50
53.007365661339989
51
108.03128294983706
0
ARC
5
393
100
AcDbEntity
8
0
100
AcDbCircle
10
-2.354783031352929
20
-5.784660958890532
30
0
40
0.1094294289589776
210
0
220
0
230
1
100
AcDbArc
50
-0.094107164742071217
51
40.994538482230318
0
ARC
5
394
100
AcDbEntity
8
0
100
AcDbCircle
10
-2.3154571816327509
20
-5.645201895038003
30
0
40
0.06327294238497938
210
0
220
0
230
1
100
AcDbArc
50
249.28528266507158
51
280.07416174334048
0
ARC
5
395
100
AcDbEntity
8
0
100
AcDbCircle
10
-3.5645806095021286
20
-2.805453258072006
30
0
40
0.21447759995783722
210
0
220
0
230
1
100
AcDbArc
50
113.98319244380126
51
136.33442155269034
0
ARC
5
396
100
AcDbEntity
8
0
100
AcDbCircle
10
-3.9296250299728044
20
-5.8545602625644735
30
0
40
0.1109351531971343
210
0
220
-0
230
1
100
AcDbArc
50
49.222497173563212
51
80.803355895710339
0
ARC
5
397
100
AcDbEntity
8
0
100
AcDbCircle
10
-1.6780344332384198
20
-5.6787498001531187
30
0
40
0.57715377935378698
210
0
220
0
230
1
100
AcDbArc
50
190.5921907574662
51
202.35217782647035
0
ARC
5
398
100
AcDbEntity
8
0
100
AcDbCircle
10
-3.1553520608344789
20
-4.310390002035672
30
0
40
0.11024688218750237
210
0
220
-0
230
1
100
AcDbArc
50
10.431188706996004
51
27.707568466985421
0
ARC
5
399
100
AcDbEntity
8
0
100
AcDbCircle
10
-4.1635038991054616
20
-4.4640837604558001
30
0
40
0.17577026566903922
210
0
220
-0
230
1
100
AcDbArc
50
63.934284101651301
51
72.259872776678179
0
ARC
5
400
100
AcDbEntity
8
0
100
AcDbCircle
10
-2.8285646755671734
20
-4.0449860866367935
30
0
40
1.1787612571016763
210
0
220
0
230
1
100
AcDbArc
50
183.48521683053951
51
186.95617352428886
0
ARC
5
401
100
AcDbEntity
8
0
100
AcDbCircle
10
-4.1026554323046778
20
-4.2768998865613082
30
0
40
0.18759002545578335
210
0
220
-0
230
1
100
AcDbArc
50
48.59929630223774
51
58.681054555001751
0
ARC
5
402
100
AcDbEntity
8
0
100
AcDbCircle
10
-3.7818013997333111
20
-3.6179551547678495
30
0
40
0.026363194098060195
210
0
220
0
230
1
100
AcDbArc
50
95.138625296885039
51
130.77962373041191
0
ARC
5
403
100
AcDbEntity
8
0
100
AcDbCircle
10
-3.1889521785459096
20
-2.6278633631332848
30
0
40
1.14600760375505
210
0
220
0
230
1
100
AcDbArc
50
237.83614521224652
51
247.26765103829624
0
ARC
5
404
100
AcDbEntity
8
0
100
AcDbCircle
10
-2.1185096523380658
20
-6.0151475826166241
30
0
40
0.061227876315502985
210
0
220
-0
230
1
100
AcDbArc
50
58.605901595635231
51
87.09088143266473
0
LINE
5
405
100
AcDbEntity
8
0
100
AcDbLine
10
-2.8266233333333344
20
-3.761647777777779
30
0
11
-2.8319086111111118
21
-3.7373950000000011
31
0
0
ARC
5
406
100
AcDbEntity
8
0
100
AcDbCircle
10
-4.4205073106732673
20
-5.7512976616588514
30
0
40
0.20137497799388324
210
0
220
0
230
1
100
AcDbArc
50
346.0502384626181
51
355.28615373321645
0
LINE
5
407
100
AcDbEntity
8
0
100
AcDbLine
10
-3.0683490277777787
20
-3.706697638888889
30
0
11
-3.0779844444444446
21
-3.7354706944444453
31
0
0
ARC
5
408
100
AcDbEntity
8
0
100
AcDbCircle
10
-3.7114527330612028
20
-5.39792969744519
30
0
40
0.071982538143521471
210
0
220
0
230
1
100
AcDbArc
50
272.54225723030686
51
333.54071680771114
0
ARC
5
409
100
AcDbEntity
8
0
100
AcDbCircle
10
-4.0913229341944799
20
-5.8848717681971454
30
0
40
0.56185908824312125
210
0
220
-0
230
1
100
AcDbArc
50
51.160512842450046
51
68.412179417776329
0
ARC
5
410
100
AcDbEntity
8
0
100
AcDbCircle
10
-4.0517168695346317
20
-4.2433015504604228
30
0
40
0.071756587102518518
210
0
220
0
230
1
100
AcDbArc
50
241.21433200691229
51
260.44567324151512
0
ARC
5
411
100
AcDbEntity
8
0
100
AcDbCircle
10
-3.9947304052225756
20
-2.6582379720214657
30
0
40
0.14463463354681758
210
0
220
-0
230
1
100
AcDbArc
50
64.834812485750973
51
121.64595417610795
0
ARC
5
412
100
AcDbEntity
8
0
100
AcDbCircle
10
-3.65173717420529
20
-3.4506374487292653
30
0
40
0.14260731836237797
210
0
220
0
230
1
100
AcDbArc
50
281.85796423222814
51
331.92724619027848
0
ARC
5
413
100
AcDbEntity
8
0
100
AcDbCircle
10
-5.1143754626730944
20
-4.3233076137864357
30
0
40
1.1239315487447648
210
0
220
-0
230
1
100
AcDbArc
50
2.994393150016418
51
6.9275273417024863
0
ARC
5
414
100
AcDbEntity
8
0
100
AcDbCircle
10
-4.0002325383832487
20
-4.2331935332333908
30
0
40
0.032468567744016096
210
0
220
0
230
1
100
AcDbArc
50
198.02874104036482
51
284.72720148677587
0
ARC
5
415
100
AcDbEntity
8
0
100
AcDbCircle
10
-2.7723931714233605
20
-4.0756363078734523
30
0
40
0.066056994823628354
210
0
220
0
230
1
100
AcDbArc
50
105.81876289808559
51
153.48167625630555
0
ARC
5
416
100
AcDbEntity
8
0
100
AcDbCircle
10
-3.1438533480122506
20
-3.8014995872529247
30
0
40
0.082655373221334719
210
0
220
0
230
1
100
AcDbArc
50
110.02380370132289
51
153.24881027159515
0
ARC
5
417
100
AcDbEntity
8
0
100
AcDbCircle
10
-2.1589292252004522
20
-5.9196315985217964
30
0
40
0.084262019266361246
210
0
220
0
230
1
100
AcDbArc
50
310.6439794205578
51
329.11618592410616
0
ARC
5
418
100
AcDbEntity
8
0
100
AcDbCircle
10
-2.7276148086147107
20
-3.8563060208037307
30
0
40
0.13527024986605202
210
0
220
-0
230
1
100
AcDbArc
50
49.069284265141626
51
132.67523937260376
0
LINE
5
419
100
AcDbEntity
8
0
100
AcDbLine
10
-3.5259074999999998
20
-3.5177473611111125
30
0
11
-3.5238566666666666
21
-3.5068156944444451
31
0
0
ARC
5
420
100
AcDbEntity
8
0
100
AcDbCircle
10
-3.8879767221021067
20
-2.7484342734631784
30
0
40
0.31136571183424833
210
0
220
0
230
1
100
AcDbArc
50
166.10875182108882
51
190.76837869826898
0
ARC
5
421
100
AcDbEntity
8
0
100
AcDbCircle
10
-2.0979633749942219
20
-5.8148792952349293
30
0
40
0.14111387805518102
210
0
220
0
230
1
100
AcDbArc
50
216.20936131367148
51
244.03300522285716
0
LINE
5
422
100
AcDbEntity
8
0
100
AcDbLine
10
-4.1419204166666654
20
-4.3558026388888891
30
0
11
-4.1126284722222204
21
-4.3558026388888891
31
0
0
ARC
5
423
100
AcDbEntity
8
0
100
AcDbCircle
10
-3.9803459369384977
20
-2.7339498502361592
30
0
40
0.21837142867639275
210
0
220
0
230
1
100
AcDbArc
50
114.41715900985874
51
163.97901975596028
0
ARC
5
424
100
AcDbEntity
8
0
100
AcDbCircle
10
-3.6492931364891996
20
-4.2087581139213972
30
0
40
0.42153268330986665
210
0
220
0
230
1
100
AcDbArc
50
181.04097033020824
51
187.68005093601147
0
ARC
5
425
100
AcDbEntity
8
0
100
AcDbCircle
10
-3.7855886275991382
20
-3.5681052832878017
30
0
40
0.023635688979831402
210
0
220
0
230
1
100
AcDbArc
50
273.45887027357742
51
328.77649896716184
0
ARC
5
426
100
AcDbEntity
8
0
100
AcDbCircle
10
-3.3757620698523589
20
-5.7267432695508962
30
0
40
0.40203327852855569
210
0
220
0
230
1
100
AcDbArc
50
110.27761850995253
51
132.43015400178382
0
ARC
5
427
100
AcDbEntity
8
0
100
AcDbCircle
10
-3.9514450752675758
20
-5.8171523563975773
30
0
40
0.10516189556097258
210
0
220
0
230
1
100
AcDbArc
50
-19.785710289606577
51
26.30225211215086
0
ARC
5
428
100
AcDbEntity
8
0
100
AcDbCircle
10
-4.2237706842625089
20
-4.4852874949896995
30
0
40
0.30936251142468124
210
0
220
-0
230
1
100
AcDbArc
50
51.480817154830603
51
60.355826502568625
0
ARC
5
429
100
AcDbEntity
8
0
100
AcDbCircle
10
-4.4433547058744978
20
-6.1066625048258212
30
0
40
0.091390195900770119
210
0
220
0
230
1
100
AcDbArc
50
-17.870850995914733
51
58.216799813568628
0
ARC
5
430
100
AcDbEntity
8
0
100
AcDbCircle
10
-4.0286467153927799
20
-4.3189505217315096
30
0
40
0.084297268402579076
210
0
220
0
230
1
100
AcDbArc
50
164.67528057361659
51
184.95877128275217
0
ARC
5
431
100
AcDbEntity
8
0
100
AcDbCircle
10
-1.8699251871858629
20
-6.2446678441486085
30
0
40
0.34373640342351808
210
0
220
0
230
1
100
AcDbArc
50
156.56247625258547
51
162.98290484336093
0
ARC
5
432
100
AcDbEntity
8
0
100
AcDbCircle
10
-3.4645412976493684
20
-5.4964075834675326
30
0
40
0.15540750918691518
210
0
220
-0
230
1
100
AcDbArc
50
15.040301123641317
51
65.409146515013489
0
ARC
5
433
100
AcDbEntity
8
0
100
AcDbCircle
10
-4.0812870449670795
20
-7.8181872108478325
30
0
40
2.0800449401226198
210
0
220
-0
230
1
100
AcDbArc
50
85.328846567668279
51
93.574704793583749
0
ARC
5
434
100
AcDbEntity
8
0
100
AcDbCircle
10
-3.446923845010303
20
-5.4400938722210634
30
0
40
0.097153402648838746
210
0
220
-0
230
1
100
AcDbArc
50
61.032194714483332
51
98.111108933695093
0
LINE
5
435
100
AcDbEntity
8
0
100
AcDbLine
10
-4.1126284722222204
20
-4.3558026388888891
30
0
11
-4.1126284722222213
21
-4.3262370833333339
31
0
0
ARC
5
436
100
AcDbEntity
8
0
100
AcDbCircle
10
-4.4174676873189878
20
-4.3141506634617111
30
0
40
0.35384047601113755
210
0
220
-0
230
1
100
AcDbArc
50
0.014230929363550306
51
7.9694831765471275
0
ARC
5
437
100
AcDbEntity
8
0
100
AcDbCircle
10
-3.3904968490587937
20
-3.3667441704373253
30
0
40
0.08954102226712328
210
0
220
0
230
1
100
AcDbArc
50
-25.4397022632918
51
13.738932620228763
0
ARC
5
438
100
AcDbEntity
8
0
100
AcDbCircle
10
-2.5291763076108893
20
-1.3671714689129806
30
0
40
2.5665949291330383
210
0
220
0
230
1
100
AcDbArc
50
244.55745658944036
51
252.3596768527625
0
ARC
5
439
100
AcDbEntity
8
0
100
AcDbCircle
10
-2.565248661738996
20
-4.1122986097268388
30
0
40
0.27301959041778701
210
0
220
0
230
1
100
AcDbArc
50
177.87217619719021
51
196.04213184187938
0
ARC
5
440
100
AcDbEntity
8
0
100
AcDbCircle
10
-2.7372035964549242
20
-4.0856141547941336
30
0
40
0.10222460047053673
210
0
220
0
230
1
100
AcDbArc
50
157.2865438217971
51
189.31569056422163
0
ARC
5
441
100
AcDbEntity
8
0
100
AcDbCircle
10
-3.0443239346391526
20
-3.7692145613684129
30
0
40
0.2147853676468692
210
0
220
-0
230
1
100
AcDbArc
50
8.5194912485445773
51
56.538431929028356
0
ARC
5
442
100
AcDbEntity
8
0
100
AcDbCircle
10
-3.8384557766100098
20
-3.9755323547294839
30
0
40
0.21319041133315023
210
0
220
0
230
1
100
AcDbArc
50
228.90131287146252
51
237.77675909797867
0
LINE
5
443
100
AcDbEntity
8
0
100
AcDbLine
10
-4.2514800000000008
20
-2.9105645833333331
30
0
11
-4.2677073611111114
21
-2.9086576388888892
31
0
0
ARC
5
444
100
AcDbEntity
8
0
100
AcDbCircle
10
-3.6140800218100257
20
-3.5196547822327968
30
0
40
0.35607069911686412
210
0
220
-0
230
1
100
AcDbArc
50
29.285552851056313
51
56.001691327827714
0
ARC
5
445
100
AcDbEntity
8
0
100
AcDbCircle
10
-2.7472877947672929
20
-3.790992209155656
30
0
40
0.12859934177282456
210
0
220
0
230
1
100
AcDbArc
50
329.47934461118473
51
357.50302029277952
0
ARC
5
446
100
AcDbEntity
8
0
100
AcDbCircle
10
-1.2219135116333837
20
0.16719575534148218
30
0
40
4.7762357502459931
210
0
220
0
230
1
100
AcDbArc
50
243.80220551798413
51
245.50347817188455
0
ARC
5
447
100
AcDbEntity
8
0
100
AcDbCircle
10
-4.4122639925668148
20
-7.6328380949332635
30
0
40
3.6960969179373921
210
0
220
-0
230
1
100
AcDbArc
50
78.292781661507078
51
82.913026662146436
0
ARC
5
448
100
AcDbEntity
8
0
100
AcDbCircle
10
-2.9576018999006646
20
-3.6929984488391732
30
0
40
0.36023621702833475
210
0
220
0
230
1
100
AcDbArc
50
297.65491288731482
51
333.04301527428464
0
ARC
5
449
100
AcDbEntity
8
0
100
AcDbCircle
10
-3.1456102987921604
20
-3.8895031864774814
30
0
40
0.16777575673966522
210
0
220
-0
230
1
100
AcDbArc
50
72.45270202613321
51
99.103468409979229
0
ARC
5
450
100
AcDbEntity
8
0
100
AcDbCircle
10
-5.1869685733651529
20
-2.9417552111179495
30
0
40
1.0022624819152659
210
0
220
-0
230
1
100
AcDbArc
50
4.1403449735308939
51
7.7493999727086988
0
ARC
5
451
100
AcDbEntity
8
0
100
AcDbCircle
10
-3.4603159794064786
20
-2.9090214240175536
30
0
40
0.05344718653346691
210
0
220
-0
230
1
100
AcDbArc
50
14.486479963710359
51
85.446763221254628
0
ARC
5
452
100
AcDbEntity
8
0
100
AcDbCircle
10
-3.3495456349710544
20
-3.1145100588120327
30
0
40
0.12793996141444372
210
0
220
0
230
1
100
AcDbArc
50
226.69925660320334
51
239.24162296229582
0
ARC
5
453
100
AcDbEntity
8
0
100
AcDbCircle
10
-3.4607212785782813
20
-2.8416463422435005
30
0
40
0.014843159627817026
210
0
220
0
230
1
100
AcDbArc
50
223.44117178318348
51
288.24952304211536
0
ARC
5
454
100
AcDbEntity
8
0
100
AcDbCircle
10
-2.8625459188333964
20
-3.7698651733612114
30
0
40
0.21527902141752039
210
0
220
0
230
1
100
AcDbArc
50
138.091466949276
51
162.93708084487935
0
ARC
5
455
100
AcDbEntity
8
0
100
AcDbCircle
10
-3.5376313566391695
20
-3.0412782447039803
30
0
40
0.46363222747818894
210
0
220
0
230
1
100
AcDbArc
50
274.84553239554543
51
289.30137257669588
0
ARC
5
456
100
AcDbEntity
8
0
100
AcDbCircle
10
-2.667942458044799
20
-3.79389784332519
30
0
40
0.049205871063827483
210
0
220
0
230
1
100
AcDbArc
50
-3.1420074630721007
51
53.96124891069087
0
ARC
5
457
100
AcDbEntity
8
0
100
AcDbCircle
10
-3.7404255735969656
20
-3.6012118981512198
30
0
40
0.0325185491186568
210
0
220
-0
230
1
100
AcDbArc
50
23.321634986560998
51
140.11059427715821
0
ARC
5
458
100
AcDbEntity
8
0
100
AcDbCircle
10
-1.7835843168699721
20
-3.9672503618580177
30
0
40
2.1726717311894643
210
0
220
0
230
1
100
AcDbArc
50
179.94010969858658
51
182.45967670681378
0
ARC
5
459
100
AcDbEntity
8
0
100
AcDbCircle
10
-4.2417073025540324
20
-2.8552187648300724
30
0
40
0.056202003889241486
210
0
220
0
230
1
100
AcDbArc
50
259.98620904263106
51
345.39313600070403
0
ARC
5
460
100
AcDbEntity
8
0
100
AcDbCircle
10
-2.0862610035686893
20
-2.9469146872069407
30
0
40
1.3884955968170289
210
0
220
0
230
1
100
AcDbArc
50
174.43115321750949
51
176.07422723164331
0
ARC
5
461
100
AcDbEntity
8
0
100
AcDbCircle
10
-3.3276404363673446
20
-4.5761635615911294
30
0
40
0.41635676082816953
210
0
220
-0
230
1
100
AcDbArc
50
49.591978246510294
51
72.483090884220701
0
ARC
5
462
100
AcDbEntity
8
0
100
AcDbCircle
10
-2.9692879341158354
20
-4.2548178512089043
30
0
40
0.15051118350191103
210
0
220
0
230
1
100
AcDbArc
50
325.68775762785936
51
358.87633149557308
0
ARC
5
463
100
AcDbEntity
8
0
100
AcDbCircle
10
-3.867124316857856
20
-5.2400986175161499
30
0
40
1.2434562513017817
210
0
220
-0
230
1
100
AcDbArc
50
64.432695002774523
51
80.518298618735884
0
ARC
5
464
100
AcDbEntity
8
0
100
AcDbCircle
10
-2.9122313798147945
20
-4.2710200298326644
30
0
40
0.13608706751904875
210
0
220
0
230
1
100
AcDbArc
50
188.19971176453342
51
237.7244680479522
0
ARC
5
465
100
AcDbEntity
8
0
100
AcDbCircle
10
-3.2643342609484658
20
-3.6933237405713846
30
0
40
0.12711486034663896
210
0
220
0
230
1
100
AcDbArc
50
250.40777556429128
51
284.59838256188203
0
LINE
5
466
100
AcDbEntity
8
0
100
AcDbLine
10
-3.5238566666666666
20
-3.5068156944444451
30
0
11
-3.498468472222223
21
-3.5032534722222226
31
0
0
LINE
5
467
100
AcDbEntity
8
0
100
AcDbLine
10
-3.3985829166666668
20
-2.9661869444444457
30
0
11
-3.3983898611111116
21
-2.9163552777777793
31
0
0
ARC
5
468
100
AcDbEntity
8
0
100
AcDbCircle
10
-6.3972182642811823
20
-4.162537488349602
30
0
40
2.4450942544624663
210
0
220
-0
230
1
100
AcDbArc
50
0.15585184076591527
51
2.3918906081156583
0
ARC
5
469
100
AcDbEntity
8
0
100
AcDbCircle
10
-3.6730642495381285
20
-2.5317741988500524
30
0
40
0.190378840540634
210
0
220
0
230
1
100
AcDbArc
50
207.34314967116876
51
232.73376177631113
0
LINE
5
470
100
AcDbEntity
8
0
100
AcDbLine
10
-4.3275784722222213
20
-2.9918970833333343
30
0
11
-4.3391441666666655
21
-2.9938091666666682
31
0
0
ARC
5
471
100
AcDbEntity
8
0
100
AcDbCircle
10
-5.1269711122248189
20
-2.7092853122171263
30
0
40
0.087831199255416117
210
0
220
0
230
1
100
AcDbArc
50
207.5648829566743
51
256.45194078191224
0
ARC
5
472
100
AcDbEntity
8
0
100
AcDbCircle
10
-3.6816289515575975
20
-2.76106029050599
30
0
40
0.2194606267001539
210
0
220
0
230
1
100
AcDbArc
50
-13.467858746670737
51
34.69859380130373
0
ARC
5
473
100
AcDbEntity
8
0
100
AcDbCircle
10
-3.5103407529860964
20
-3.2762548307773907
30
0
40
0.23855904804953318
210
0
220
0
230
1
100
AcDbArc
50
301.8698072871656
51
327.27903351835874
0
LINE
5
474
100
AcDbEntity
8
0
100
AcDbLine
10
-2.8193066666666677
20
-3.7568543055555566
30
0
11
-2.8266233333333344
21
-3.761647777777779
31
0
0
ARC
5
475
100
AcDbEntity
8
0
100
AcDbCircle
10
-2.9449887652320657
20
-4.2722720923003079
30
0
40
0.12060375274065174
210
0
220
0
230
1
100
AcDbArc
50
250.67450110104176
51
326.02948718401456
0
ARC
5
476
100
AcDbEntity
8
0
100
AcDbCircle
10
-5.3392042422853692
20
-2.5389914453599922
30
0
40
0.10366840350656728
210
0
220
0
230
1
100
AcDbArc
50
105.07063484569674
51
164.46890361755609
0
ARC
5
477
100
AcDbEntity
8
0
100
AcDbCircle
10
-4.0541033336416143
20
-2.7381710411327438
30
0
40
0.24303165366563667
210
0
220
-0
230
1
100
AcDbArc
50
29.304559264491949
51
60.174070212953531
0
ARC
5
478
100
AcDbEntity
8
0
100
AcDbCircle
10
-3.7699746768848126
20
-2.6281279989467321
30
0
40
0.058133450405772634
210
0
220
0
230
1
100
AcDbArc
50
251.58138916223325
51
329.80301642820143
0
ARC
5
479
100
AcDbEntity
8
0
100
AcDbCircle
10
-3.5969000443044461
20
-2.7382391499588392
30
0
40
0.13994703348199899
210
0
220
-0
230
1
100
AcDbArc
50
46.854976392119518
51
113.07888972923686
0
LINE
5
480
100
AcDbEntity
8
0
100
AcDbLine
10
-3.0779844444444446
20
-3.7354706944444453
30
0
11
-3.095027083333334
21
-3.7295343055555557
31
0
0
ARC
5
481
100
AcDbEntity
8
0
100
AcDbCircle
10
-3.2357846808013688
20
-3.8120635366234645
30
0
40
0.0055150068385260128
210
0
220
0
230
1
100
AcDbArc
50
-50.758929427811587
51
16.586955134468749
0
ARC
5
482
100
AcDbEntity
8
0
100
AcDbCircle
10
-2.9430880664145271
20
-3.6920054580223653
30
0
40
0.1034158625797597
210
0
220
-0
230
1
100
AcDbArc
50
80.430666356522508
51
140.38940474642393
0
ARC
5
483
100
AcDbEntity
8
0
100
AcDbCircle
10
-4.2259465350745122
20
-2.9454119952400863
30
0
40
0.82762440489594424
210
0
220
0
230
1
100
AcDbArc
50
344.93977826622108
51
358.5616157019341
0
ARC
5
484
100
AcDbEntity
8
0
100
AcDbCircle
10
-3.0079391415132117
20
-4.2460529561748821
30
0
40
0.18949600760302149
210
0
220
0
230
1
100
AcDbArc
50
-3.5448440237575753
51
17.920378406422834
0
ARC
5
485
100
AcDbEntity
8
0
100
AcDbCircle
10
-2.0745643029376137
20
-3.4874626433831595
30
0
40
1.3911629266051879
210
0
220
0
230
1
100
AcDbArc
50
166.4048911467606
51
168.39536015586245
0
ARC
5
486
100
AcDbEntity
8
0
100
AcDbCircle
10
-3.6655272439304314
20
-3.5433302127124517
30
0
40
0.063671071190171652
210
0
220
0
230
1
100
AcDbArc
50
224.98167306367392
51
312.5957123176608
0
LINE
5
487
100
AcDbEntity
8
0
100
AcDbLine
10
-4.3424306944444444
20
-3.0384756944444447
30
0
11
-4.3559072222222222
21
-3.0463247222222241
31
0
0
ARC
5
488
100
AcDbEntity
8
0
100
AcDbCircle
10
-4.8995592388642732
20
-2.0654366509438353
30
0
40
1.1214717667312022
210
0
220
0
230
1
100
AcDbArc
50
296.38574734534791
51
298.99717954823745
0
ARC
5
489
100
AcDbEntity
8
0
100
AcDbCircle
10
-3.1192423111742591
20
-3.8165260253052411
30
0
40
0.11142051676545389
210
0
220
0
230
1
100
AcDbArc
50
152.04526571227049
51
176.89414495449685
0
ARC
5
490
100
AcDbEntity
8
0
100
AcDbCircle
10
-4.9665205861315194
20
-2.8153664784148185
30
0
40
0.090144237953834389
210
0
220
0
230
1
100
AcDbArc
50
-4.9342439143167587
51
32.321348732152842
0
ARC
5
491
100
AcDbEntity
8
0
100
AcDbCircle
10
-4.2689697151338848
20
-3.1643500603463295
30
0
40
0.1287589955220364
210
0
220
0
230
1
100
AcDbArc
50
196.98824200496867
51
205.54087865245475
0
LINE
5
492
100
AcDbEntity
8
0
100
AcDbLine
10
-4.4011633333333311
20
-3.0700761111111121
30
0
11
-4.4329424999999985
21
-3.085978472222223
31
0
0
ARC
5
493
100
AcDbEntity
8
0
100
AcDbCircle
10
-18.693073477101144
20
-8.1860110655882803
30
0
40
15.144576950280257
210
0
220
-0
230
1
100
AcDbArc
50
19.214000066619498
51
19.482424383029119
0
ARC
5
494
100
AcDbEntity
8
0
100
AcDbCircle
10
-2.828564671213996
20
-4.0872903744795055
30
0
40
1.7531517930082381
210
0
220
0
230
1
100
AcDbArc
50
151.20769169417338
51
152.48295931936732
0
ARC
5
495
100
AcDbEntity
8
0
100
AcDbCircle
10
-4.3293417697223822
20
-3.2313226690641801
30
0
40
0.13225122464604067
210
0
220
0
230
1
100
AcDbArc
50
250.05764091604314
51
282.82334458558489
0
LINE
5
496
100
AcDbEntity
8
0
100
AcDbLine
10
-3.3983898611111116
20
-2.9163552777777793
30
0
11
-3.408568055555556
21
-2.8956515277777792
31
0
0
ARC
5
497
100
AcDbEntity
8
0
100
AcDbCircle
10
-5.5658095338004587
20
-2.6975458391886198
30
0
40
0.14478028733617307
210
0
220
0
230
1
100
AcDbArc
50
256.70184381845644
51
268.27735957315593
0
ARC
5
498
100
AcDbEntity
8
0
100
AcDbCircle
10
-5.5839738927971299
20
-2.7138642052595583
30
0
40
0.15993943086379503
210
0
220
-0
230
1
100
AcDbArc
50
22.711154221188409
51
88.795098406810197
0
ARC
5
499
100
AcDbEntity
8
0
100
AcDbCircle
10
-5.491246291763507
20
-2.714698604797058
30
0
40
0.18390989883372755
210
0
220
0
230
1
100
AcDbArc
50
119.07237545642238
51
161.92565616652729
0
ARC
5
500
100
AcDbEntity
8
0
100
AcDbCircle
10
-5.9142345588458634
20
-3.0735441393546439
30
0
40
0.41458182720218489
210
0
220
-0
230
1
100
AcDbArc
50
33.908735064215783
51
45.987934523453042
0
ARC
5
501
100
AcDbEntity
8
0
100
AcDbCircle
10
-5.6492682720981637
20
-2.9586781959141102
30
0
40
0.13192255255472243
210
0
220
0
230
1
100
AcDbArc
50
117.75191107122029
51
175.00588605401094
0
LINE
5
502
100
AcDbEntity
8
0
100
AcDbLine
10
-4.3616129166666662
20
-3.0191213888888901
30
0
11
-4.3424306944444444
21
-3.0384756944444447
31
0
0
ARC
5
503
100
AcDbEntity
8
0
100
AcDbCircle
10
-5.6620762773485716
20
-2.966457932157704
30
0
40
0.12016787659059441
210
0
220
0
230
1
100
AcDbArc
50
170.77514316206108
51
224.48617577895394
0
ARC
5
504
100
AcDbEntity
8
0
100
AcDbCircle
10
-4.3083256001280876
20
-2.9348628159928292
30
0
40
0.038538167631552829
210
0
220
0
230
1
100
AcDbArc
50
-31.894503294449564
51
4.268021861391885
0
ARC
5
505
100
AcDbEntity
8
0
100
AcDbCircle
10
-6.4853361734962887
20
-2.8078412810711111
30
0
40
1.0758618641917599
210
0
220
-0
230
1
100
AcDbArc
50
6.9800603119104032
51
11.041917157575556
0
ARC
5
506
100
AcDbEntity
8
0
100
AcDbCircle
10
-4.5064210791277954
20
-2.8203646952171231
30
0
40
0.4175023621027632
210
0
220
0
230
1
100
AcDbArc
50
286.88653474249276
51
289.61763671712475
0
ARC
5
507
100
AcDbEntity
8
0
100
AcDbCircle
10
-4.6804698472008335
20
-3.0609116677728441
30
0
40
0.36422395187858386
210
0
220
0
230
1
100
AcDbArc
50
330.0207667844997
51
336.14944312159173
0
ARC
5
508
100
AcDbEntity
8
0
100
AcDbCircle
10
-4.5303268938760519
20
-3.8483166955242125
30
0
40
0.92576727849582119
210
0
220
-0
230
1
100
AcDbArc
50
77.434731533266387
51
80.620357386912147
0
ARC
5
509
100
AcDbEntity
8
0
100
AcDbCircle
10
-3.6441066174781684
20
-1.3892653852065606
30
0
40
2.0976281294213326
210
0
220
0
230
1
100
AcDbArc
50
233.69757019962719
51
249.62423992916496
0
ARC
5
510
100
AcDbEntity
8
0
100
AcDbCircle
10
-5.6464583616354389
20
-3.1105130156283147
30
0
40
0.27615800490748216
210
0
220
-0
230
1
100
AcDbArc
50
80.127989473512358
51
103.45115490934438
0
ARC
5
511
100
AcDbEntity
8
0
100
AcDbCircle
10
-4.643934922337559
20
-2.7065490895837354
30
0
40
0.44483222697371028
210
0
220
0
230
1
100
AcDbArc
50
217.61888960484788
51
237.03164897195265
0
ARC
5
512
100
AcDbEntity
8
0
100
AcDbCircle
10
-5.6794511023595513
20
-2.9473328460749237
30
0
40
0.12389422225679553
210
0
220
0
230
1
100
AcDbArc
50
236.51470457605799
51
270.62394017149882
0
ARC
5
513
100
AcDbEntity
8
0
100
AcDbCircle
10
-4.3646180069958449
20
-2.8322945202630403
30
0
40
0.16351115418834644
210
0
220
0
230
1
100
AcDbArc
50
271.41865168833868
51
278.96277176659555
0
ARC
5
514
100
AcDbEntity
8
0
100
AcDbCircle
10
-4.0716834740582515
20
-2.6872806136971206
30
0
40
0.39502989046438886
210
0
220
0
230
1
100
AcDbArc
50
218.82214236127473
51
224.4087542783974
0
ARC
5
515
100
AcDbEntity
8
0
100
AcDbCircle
10
-5.1042558094059753
20
-2.7468376221542781
30
0
40
0.25085661591936725
210
0
220
0
230
1
100
AcDbArc
50
302.48471791220601
51
329.90444909435041
0
ARC
5
516
100
AcDbEntity
8
0
100
AcDbCircle
10
-4.3220815451154246
20
-3.3336171289367398
30
0
40
0.034622788596745113
210
0
220
0
230
1
100
AcDbArc
50
-50.350622300311471
51
39.445260451299752
0
LINE
5
517
100
AcDbEntity
8
0
100
AcDbLine
10
-4.4329424999999985
20
-3.085978472222223
30
0
11
-4.4156168055555529
21
-3.1350268055555572
31
0
0
ARC
5
518
100
AcDbEntity
8
0
100
AcDbCircle
10
-5.3121880166389577
20
-2.5234842284153998
30
0
40
0.10034584451007464
210
0
220
-0
230
1
100
AcDbArc
50
39.467247370804365
51
122.53739772202699
0
ARC
5
519
100
AcDbEntity
8
0
100
AcDbCircle
10
-5.3107470319538974
20
-2.5763005365998803
30
0
40
0.14678318794725767
210
0
220
0
230
1
100
AcDbArc
50
211.09769498645747
51
223.37040626251087
0
LINE
5
520
100
AcDbEntity
8
0
100
AcDbLine
10
-4.2677073611111114
20
-2.9086576388888892
30
0
11
-4.2698943055555567
21
-2.9319947222222225
31
0
0
ARC
5
521
100
AcDbEntity
8
0
100
AcDbCircle
10
-4.3663789400833579
20
-3.0072024348607473
30
0
40
0.012836527736635421
210
0
220
-0
230
1
100
AcDbArc
50
63.093051383540768
51
291.79495193660586
0
LINE
5
522
100
AcDbEntity
8
0
100
AcDbLine
10
-4.353879305555556
20
-2.9637116666666672
30
0
11
-4.3275784722222213
21
-2.9918970833333343
31
0
0
ARC
5
523
100
AcDbEntity
8
0
100
AcDbCircle
10
-2.8768412330835731
20
-6.618014588614388
30
0
40
0.009999999999988466
210
0
220
0
230
1
100
AcDbArc
50
102.80231037791768
51
237.08321904224087
0
LINE
5
524
100
AcDbEntity
8
0
100
AcDbLine
10
-3.1925765042550309
20
-6.8627771004787048
30
0
11
-3.1925765042550309
21
-6.5145335806969866
31
0
0
LINE
5
525
100
AcDbEntity
8
0
100
AcDbLine
10
-3.1925765042550309
20
-6.4145335806969843
30
0
11
-3.1925765042550309
21
-6.3127771004787041
31
0
0
LINE
5
526
100
AcDbEntity
8
0
100
AcDbLine
10
-3.1197934210353857
20
-6.3735547266724284
30
0
11
-3.1197934210353857
21
-6.4145335806969843
31
0
0
LINE
5
527
100
AcDbEntity
8
0
100
AcDbLine
10
-3.1197934210353857
20
-6.5145335806969866
30
0
11
-3.1197934210353857
21
-6.5555124347215425
31
0
0
LINE
5
528
100
AcDbEntity
8
0
100
AcDbLine
10
-3.1925765042550309
20
-6.4945335806969853
30
0
11
-3.1197934210353857
21
-6.4945335806969853
31
0
0
LINE
5
529
100
AcDbEntity
8
0
100
AcDbLine
10
-3.1197934210353857
20
-6.4345335806969857
30
0
11
-3.1925765042550309
21
-6.4345335806969857
31
0
0
LINE
5
530
100
AcDbEntity
8
0
100
AcDbLine
10
-3.1197934210353857
20
-6.4145335806969843
30
0
11
-3.1197934210353857
21
-6.4345335806969857
31
0
0
LINE
5
531
100
AcDbEntity
8
0
100
AcDbLine
10
-3.1197934210353857
20
-6.4945335806969853
30
0
11
-3.1197934210353857
21
-6.5145335806969866
31
0
0
LINE
5
532
100
AcDbEntity
8
0
100
AcDbLine
10
-3.1925765042550309
20
-6.4145335806969843
30
0
11
-3.1925765042550309
21
-6.4345335806969857
31
0
0
LINE
5
533
100
AcDbEntity
8
0
100
AcDbLine
10
-3.1925765042550309
20
-6.4945335806969853
30
0
11
-3.1925765042550309
21
-6.5145335806969866
31
0
0
ENDSEC
0
SECTION
2
OBJECTS
0
DICTIONARY
5
C
100
AcDbDictionary
3
ACAD_GROUP
350
D
3
ACAD_MLINESTYLE
350
17
0
DICTIONARY
5
D
100
AcDbDictionary
0
DICTIONARY
5
1A
330
C
100
AcDbDictionary
0
DICTIONARY
5
17
100
AcDbDictionary
0
ENDSEC
0
EOF
