999
FreeCAD v0.20 29603 (Git)
  0
SECTION
  2
HEADER
  9
$ACADVER
  1
AC1014
  9
$ACADMAINTVER
 70
     9
  9
$DWGCODEPAGE
  3
ANSI_1252
  9
$TEXTSTYLE
  7
STANDARD
  9
$DIMSTYLE
  2
STANDARD
  9
$DIMTXSTY
  7
STANDARD
  9
$CMLSTYLE
  2
STANDARD
  9
$LUNITS
 70
2
  9
$INSUNITS
 70
4
  9
$PEXTMAX
 10
50
 20
50
 30
50
  9
$PEXTMIN
 10
0
 20
0
 30
0
  9
$HANDSEED
  5
FFFF
  0
ENDSEC
  0
SECTION
  2
CLASSES
  0
CLASS
  1
ACDBDICTIONARYWDFLT
  2
AcDbDictionaryWithDefault
  3
ObjectDBX Classes
 90
        0
280
     0
281
     0
  0
CLASS
  1
XRECORD
  2
AcDbXrecord
  3
ObjectDBX Classes
 90
        0
280
     0
281
     0
  0
CLASS
  1
LWPOLYLINE
  2
AcDbPolyline
  3
ObjectDBX Classes
 90
        0
280
     0
281
     1
  0
ENDSEC
  0
SECTION
  2
TABLES
  0
TABLE
  2
VPORT
  5
20
330
0
100
AcDbSymbolTable
 70
     1
  0
VPORT
  5
21
330
20
100
AcDbSymbolTableRecord
100
AcDbViewportTableRecord
  2
*ACTIVE
 70
     0
  0
ENDTAB
  0
TABLE
  2
LTYPE
  5
22
330
0
100
AcDbSymbolTable
 70
     1
  0
LTYPE
  5
23
330
21
100
AcDbSymbolTableRecord
100
AcDbLinetypeTableRecord
  2
BYBLOCK
 70
     0
  3

 72
    65
 73
     0
 40
0.0
  0
LTYPE
  5
24
330
21
100
AcDbSymbolTableRecord
100
AcDbLinetypeTableRecord
  2
BYLAYER
 70
     0
  3

 72
    65
 73
     0
 40
0.0
  0
LTYPE
  5
25
330
21
100
AcDbSymbolTableRecord
100
AcDbLinetypeTableRecord
  2
CONTINUOUS
 70
     0
  3
Solid line
 72
    65
 73
     0
 40
0.0
  0
ENDTAB
  0
TABLE
  2
LAYER
  5
1548
330
0
100
AcDbSymbolTable
 70
3
  0
LAYER
  5
1549
330
1548
100
AcDbSymbolTableRecord
100
AcDbLayerTableRecord
  2
0
 70
   0
 62
   7
  6
CONTINUOUS
  0
LAYER
  5
154A
330
1548
100
AcDbSymbolTableRecord
100
AcDbLayerTableRecord
  2
none
 70
    0
 62
    7
  6
CONTINUOUS
  0
LAYER
  5
154B
330
1548
100
AcDbSymbolTableRecord
100
AcDbLayerTableRecord
  2
Body
 70
    0
 62
    7
  6
CONTINUOUS
  0
ENDTAB
  0
TABLE
  2
STYLE
  5
70
330
0
100
AcDbSymbolTable
 70
     2
  0
STYLE
  5
71
330
70
100
AcDbSymbolTableRecord
100
AcDbTextStyleTableRecord
  2
STANDARD
 70
     0
 40
0.0
 41
1.0
 50
0.0
 71
     0
 42
2.5
  3
arial.ttf
  4

  0
STYLE
  5
72
330
70
100
AcDbSymbolTableRecord
100
AcDbTextStyleTableRecord
  2
ANNOTATIVE
 70
     0
 40
0.0
 41
1.0
 50
0.0
 71
     0
 42
2.5
  3
arial.ttf
  4

  0
ENDTAB
  0
TABLE
  2
VIEW
  5
73
330
0
100
AcDbSymbolTable
 70
     0
  0
ENDTAB
  0
TABLE
  2
UCS
  5
74
330
0
100
AcDbSymbolTable
 70
     0
  0
ENDTAB
  0
TABLE
  2
APPID
  5
75
330
0
100
AcDbSymbolTable
 70
     2
  0
APPID
  5
76
330
75
100
AcDbSymbolTableRecord
100
AcDbRegAppTableRecord
  2
ACAD
 70
     0
  0
APPID
  5
77
330
75
100
AcDbSymbolTableRecord
100
AcDbRegAppTableRecord
  2
ACADANNOTATIVE
 70
     0
  0
ENDTAB
  0
TABLE
  2
DIMSTYLE
  5
78
330
0
100
AcDbSymbolTable
 70
     2
  0
DIMSTYLE
105
79
330
78
100
AcDbSymbolTableRecord
100
AcDbDimStyleTableRecord
  2
STANDARD
 70
     0
  3

  4

  5

  6

  7

 40
0.0
 41
2.5
 42
0.625
 43
3.75
 44
1.25
 45
0.0
 46
0.0
 47
0.0
 48
0.0
140
2.5
141
2.5
142
0.0
143
0.03937007874016
144
1.0
145
0.0
146
1.0
147
0.625
 71
     0
 72
     0
 73
     0
 74
     0
 75
     0
 76
     0
 77
     1
 78
     8
170
     0
171
     3
172
     1
173
     0
174
     0
175
     0
176
     0
177
     0
178
     0
270
     2
271
     2
272
     2
273
     2
274
     3
340
71
275
     0
280
     0
281
     0
282
     0
283
     0
284
     8
285
     0
286
     0
287
     3
288
     0
  0
ENDTAB
  0
TABLE
  2
BLOCK_RECORD
  5
A01
330
0
100
AcDbSymbolTable
  70
5
  0
BLOCK_RECORD
  5
A02
330
A01
100
AcDbSymbolTableRecord
100
AcDbBlockTableRecord
  2
*MODEL_SPACE
  0
BLOCK_RECORD
  5
A03
330
A01
100
AcDbSymbolTableRecord
100
AcDbBlockTableRecord
  2
*PAPER_SPACE
  0
ENDTAB
  0
ENDSEC
  0
SECTION
  2
BLOCKS
  0
BLOCK
  5
A04
330
A02
100
AcDbEntity
  8
0
100
AcDbBlockBegin
  2
*MODEL_SPACE
 70
   0
 10
0
 20
0
 30
0
  3
*MODEL_SPACE
  1
 
  0
ENDBLK
  5
A05
330
A02
100
AcDbEntity
  8
0
100
AcDbBlockEnd
  0
BLOCK
  5
A06
330
A03
100
AcDbEntity
 67
1
  8
0
100
AcDbBlockBegin
  2
*PAPER_SPACE
 70
   0
 10
0
 20
0
 30
0
  3
*PAPER_SPACE
  1
 
  0
ENDBLK
  5
A07
330
A03
100
AcDbEntity
 67
    1
  8
0
100
AcDbBlockEnd
  0
ENDSEC
  0
SECTION
  2
ENTITIES
  0
LINE
  5
A08
330
A02
100
AcDbEntity
  8
Body
100
AcDbLine
 10
-8.20022
 20
156.469
 30
0
 11
-8.20022
 21
156.469
 31
10.0076
  0
LINE
  5
A09
330
A02
100
AcDbEntity
  8
Body
100
AcDbLine
 10
-6.47075
 20
153.573
 30
0
 11
-6.47075
 21
153.573
 31
10.0076
  0
ARC
  5
A0A
330
A02
100
AcDbEntity
  8
Body
100
AcDbCircle
 10
-14.2045
 20
150.92
 30
0
 40
8.17611
100
AcDbArc
 50
18.9333
 51
42.746
  0
ARC
  5
A0B
330
A02
100
AcDbEntity
  8
Body
100
AcDbCircle
 10
-14.2045
 20
150.92
 30
10.0076
 40
8.17611
100
AcDbArc
 50
18.9333
 51
42.746
  0
LINE
  5
A0C
330
A02
100
AcDbEntity
  8
Body
100
AcDbLine
 10
-6.47075
 20
153.573
 30
0
 11
-6.47075
 21
153.573
 31
10.0076
  0
LINE
  5
A0D
330
A02
100
AcDbEntity
  8
Body
100
AcDbLine
 10
-5.97778
 20
152.136
 30
0
 11
-5.97778
 21
152.136
 31
10.0076
  0
LINE
  5
A0E
330
A02
100
AcDbEntity
  8
Body
100
AcDbLine
 10
-6.47075
 20
153.573
 30
0
 11
-5.97778
 21
152.136
 31
0
  0
LINE
  5
A0F
330
A02
100
AcDbEntity
  8
Body
100
AcDbLine
 10
-6.47075
 20
153.573
 30
10.0076
 11
-5.97778
 21
152.136
 31
10.0076
  0
LINE
  5
A10
330
A02
100
AcDbEntity
  8
Body
100
AcDbLine
 10
-5.97778
 20
152.136
 30
0
 11
-5.97778
 21
152.136
 31
10.0076
  0
LINE
  5
A11
330
A02
100
AcDbEntity
  8
Body
100
AcDbLine
 10
-4.16118
 20
148.641
 30
0
 11
-4.16118
 21
148.641
 31
10.0076
  0
ARC
  5
A12
330
A02
100
AcDbEntity
  8
Body
100
AcDbCircle
 10
6.57569
 20
156.442
 30
0
 40
13.2715
100
AcDbArc
 50
-161.067
 51
-144
  0
ARC
  5
A13
330
A02
100
AcDbEntity
  8
Body
100
AcDbCircle
 10
6.57569
 20
156.442
 30
10.0076
 40
13.2715
100
AcDbArc
 50
-161.067
 51
-144
  0
LINE
  5
A14
330
A02
100
AcDbEntity
  8
Body
100
AcDbLine
 10
-4.16118
 20
148.641
 30
0
 11
-4.16118
 21
148.641
 31
10.0076
  0
LINE
  5
A15
330
A02
100
AcDbEntity
  8
Body
100
AcDbLine
 10
-2.22045e-16
 20
146.521
 30
0
 11
-2.22045e-16
 21
146.521
 31
10.0076
  0
ARC
  5
A16
330
A02
100
AcDbEntity
  8
Body
100
AcDbCircle
 10
-3.06422e-14
 20
151.664
 30
0
 40
5.1435
100
AcDbArc
 50
-144
 51
-90
  0
ARC
  5
A17
330
A02
100
AcDbEntity
  8
Body
100
AcDbCircle
 10
-3.06422e-14
 20
151.664
 30
10.0076
 40
5.1435
100
AcDbArc
 50
-144
 51
-90
  0
LINE
  5
A18
330
A02
100
AcDbEntity
  8
Body
100
AcDbLine
 10
-2.22045e-16
 20
146.521
 30
0
 11
-2.22045e-16
 21
146.521
 31
10.0076
  0
LINE
  5
A19
330
A02
100
AcDbEntity
  8
Body
100
AcDbLine
 10
4.16118
 20
148.641
 30
0
 11
4.16118
 21
148.641
 31
10.0076
  0
ARC
  5
A1A
330
A02
100
AcDbEntity
  8
Body
100
AcDbCircle
 10
3.06422e-14
 20
151.664
 30
0
 40
5.1435
100
AcDbArc
 50
-90
 51
-36
  0
ARC
  5
A1B
330
A02
100
AcDbEntity
  8
Body
100
AcDbCircle
 10
3.06422e-14
 20
151.664
 30
10.0076
 40
5.1435
100
AcDbArc
 50
-90
 51
-36
  0
LINE
  5
A1C
330
A02
100
AcDbEntity
  8
Body
100
AcDbLine
 10
4.16118
 20
148.641
 30
0
 11
4.16118
 21
148.641
 31
10.0076
  0
LINE
  5
A1D
330
A02
100
AcDbEntity
  8
Body
100
AcDbLine
 10
5.97778
 20
152.136
 30
0
 11
5.97778
 21
152.136
 31
10.0076
  0
ARC
  5
A1E
330
A02
100
AcDbEntity
  8
Body
100
AcDbCircle
 10
-6.57569
 20
156.442
 30
0
 40
13.2715
100
AcDbArc
 50
-36
 51
-18.9333
  0
ARC
  5
A1F
330
A02
100
AcDbEntity
  8
Body
100
AcDbCircle
 10
-6.57569
 20
156.442
 30
10.0076
 40
13.2715
100
AcDbArc
 50
-36
 51
-18.9333
  0
LINE
  5
A20
330
A02
100
AcDbEntity
  8
Body
100
AcDbLine
 10
5.97778
 20
152.136
 30
0
 11
5.97778
 21
152.136
 31
10.0076
  0
LINE
  5
A21
330
A02
100
AcDbEntity
  8
Body
100
AcDbLine
 10
6.47075
 20
153.573
 30
0
 11
6.47075
 21
153.573
 31
10.0076
  0
LINE
  5
A22
330
A02
100
AcDbEntity
  8
Body
100
AcDbLine
 10
5.97778
 20
152.136
 30
0
 11
6.47075
 21
153.573
 31
0
  0
LINE
  5
A23
330
A02
100
AcDbEntity
  8
Body
100
AcDbLine
 10
5.97778
 20
152.136
 30
10.0076
 11
6.47075
 21
153.573
 31
10.0076
  0
LINE
  5
A24
330
A02
100
AcDbEntity
  8
Body
100
AcDbLine
 10
6.47075
 20
153.573
 30
0
 11
6.47075
 21
153.573
 31
10.0076
  0
LINE
  5
A25
330
A02
100
AcDbEntity
  8
Body
100
AcDbLine
 10
8.20022
 20
156.469
 30
0
 11
8.20022
 21
156.469
 31
10.0076
  0
ARC
  5
A26
330
A02
100
AcDbEntity
  8
Body
100
AcDbCircle
 10
14.2045
 20
150.92
 30
0
 40
8.17611
100
AcDbArc
 50
137.254
 51
161.067
  0
ARC
  5
A27
330
A02
100
AcDbEntity
  8
Body
100
AcDbCircle
 10
14.2045
 20
150.92
 30
10.0076
 40
8.17611
100
AcDbArc
 50
137.254
 51
161.067
  0
LINE
  5
A28
330
A02
100
AcDbEntity
  8
Body
100
AcDbLine
 10
8.20022
 20
156.469
 30
0
 11
8.20022
 21
156.469
 31
10.0076
  0
LINE
  5
A29
330
A02
100
AcDbEntity
  8
Body
100
AcDbLine
 10
9.61743
 20
153.408
 30
0
 11
9.61743
 21
153.408
 31
10.0076
  0
ARC
  5
A2A
330
A02
100
AcDbEntity
  8
Body
100
AcDbCircle
 10
1.64874
 20
151.578
 30
0
 40
8.17611
100
AcDbArc
 50
12.9333
 51
36.746
  0
ARC
  5
A2B
330
A02
100
AcDbEntity
  8
Body
100
AcDbCircle
 10
1.64874
 20
151.578
 30
10.0076
 40
8.17611
100
AcDbArc
 50
12.9333
 51
36.746
  0
LINE
  5
A2C
330
A02
100
AcDbEntity
  8
Body
100
AcDbLine
 10
9.61743
 20
153.408
 30
0
 11
9.61743
 21
153.408
 31
10.0076
  0
LINE
  5
A2D
330
A02
100
AcDbEntity
  8
Body
100
AcDbLine
 10
9.95748
 20
151.927
 30
0
 11
9.95748
 21
151.927
 31
10.0076
  0
LINE
  5
A2E
330
A02
100
AcDbEntity
  8
Body
100
AcDbLine
 10
9.61743
 20
153.408
 30
0
 11
9.95748
 21
151.927
 31
0
  0
LINE
  5
A2F
330
A02
100
AcDbEntity
  8
Body
100
AcDbLine
 10
9.61743
 20
153.408
 30
10.0076
 11
9.95748
 21
151.927
 31
10.0076
  0
LINE
  5
A30
330
A02
100
AcDbEntity
  8
Body
100
AcDbLine
 10
9.95748
 20
151.927
 30
0
 11
9.95748
 21
151.927
 31
10.0076
  0
LINE
  5
A31
330
A02
100
AcDbEntity
  8
Body
100
AcDbLine
 10
11.3988
 20
148.262
 30
0
 11
11.3988
 21
148.262
 31
10.0076
  0
ARC
  5
A32
330
A02
100
AcDbEntity
  8
Body
100
AcDbCircle
 10
22.8923
 20
154.898
 30
0
 40
13.2715
100
AcDbArc
 50
-167.067
 51
-150
  0
ARC
  5
A33
330
A02
100
AcDbEntity
  8
Body
100
AcDbCircle
 10
22.8923
 20
154.898
 30
10.0076
 40
13.2715
100
AcDbArc
 50
-167.067
 51
-150
  0
LINE
  5
A34
330
A02
100
AcDbEntity
  8
Body
100
AcDbLine
 10
11.3988
 20
148.262
 30
0
 11
11.3988
 21
148.262
 31
10.0076
  0
LINE
  5
A35
330
A02
100
AcDbEntity
  8
Body
100
AcDbLine
 10
15.3156
 20
145.718
 30
0
 11
15.3156
 21
145.718
 31
10.0076
  0
ARC
  5
A36
330
A02
100
AcDbEntity
  8
Body
100
AcDbCircle
 10
15.8532
 20
150.834
 30
0
 40
5.1435
100
AcDbArc
 50
-150
 51
-96
  0
ARC
  5
A37
330
A02
100
AcDbEntity
  8
Body
100
AcDbCircle
 10
15.8532
 20
150.834
 30
10.0076
 40
5.1435
100
AcDbArc
 50
-150
 51
-96
  0
LINE
  5
A38
330
A02
100
AcDbEntity
  8
Body
100
AcDbLine
 10
15.3156
 20
145.718
 30
0
 11
15.3156
 21
145.718
 31
10.0076
  0
LINE
  5
A39
330
A02
100
AcDbEntity
  8
Body
100
AcDbLine
 10
19.6756
 20
147.392
 30
0
 11
19.6756
 21
147.392
 31
10.0076
  0
ARC
  5
A3A
330
A02
100
AcDbEntity
  8
Body
100
AcDbCircle
 10
15.8532
 20
150.834
 30
0
 40
5.1435
100
AcDbArc
 50
-96
 51
-42
  0
ARC
  5
A3B
330
A02
100
AcDbEntity
  8
Body
100
AcDbCircle
 10
15.8532
 20
150.834
 30
10.0076
 40
5.1435
100
AcDbArc
 50
-96
 51
-42
  0
LINE
  5
A3C
330
A02
100
AcDbEntity
  8
Body
100
AcDbLine
 10
19.6756
 20
147.392
 30
0
 11
19.6756
 21
147.392
 31
10.0076
  0
LINE
  5
A3D
330
A02
100
AcDbEntity
  8
Body
100
AcDbLine
 10
21.8475
 20
150.677
 30
0
 11
21.8475
 21
150.677
 31
10.0076
  0
LINE
  5
A3E
330
A02
100
AcDbEntity
  8
Body
100
AcDbLine
 10
19.6756
 20
147.392
 30
0
 11
21.8475
 21
150.677
 31
0
  0
LINE
  5
A3F
330
A02
100
AcDbEntity
  8
Body
100
AcDbLine
 10
19.6756
 20
147.392
 30
10.0076
 11
21.8475
 21
150.677
 31
10.0076
  0
LINE
  5
A40
330
A02
100
AcDbEntity
  8
Body
100
AcDbLine
 10
21.8475
 20
150.677
 30
0
 11
21.8475
 21
150.677
 31
10.0076
  0
LINE
  5
A41
330
A02
100
AcDbEntity
  8
Body
100
AcDbLine
 10
22.488
 20
152.055
 30
0
 11
22.488
 21
152.055
 31
10.0076
  0
ARC
  5
A42
330
A02
100
AcDbEntity
  8
Body
100
AcDbCircle
 10
34.1826
 20
145.781
 30
0
 40
13.2715
100
AcDbArc
 50
151.785
 51
158.348
  0
ARC
  5
A43
330
A02
100
AcDbEntity
  8
Body
100
AcDbCircle
 10
34.1826
 20
145.781
 30
10.0076
 40
13.2715
100
AcDbArc
 50
151.785
 51
158.348
  0
LINE
  5
A44
330
A02
100
AcDbEntity
  8
Body
100
AcDbLine
 10
22.488
 20
152.055
 30
0
 11
22.488
 21
152.055
 31
10.0076
  0
LINE
  5
A45
330
A02
100
AcDbEntity
  8
Body
100
AcDbLine
 10
24.5108
 20
154.755
 30
0
 11
24.5108
 21
154.755
 31
10.0076
  0
ARC
  5
A46
330
A02
100
AcDbEntity
  8
Body
100
AcDbCircle
 10
29.9021
 20
148.608
 30
0
 40
8.17611
100
AcDbArc
 50
131.254
 51
155.067
  0
ARC
  5
A47
330
A02
100
AcDbEntity
  8
Body
100
AcDbCircle
 10
29.9021
 20
148.608
 30
10.0076
 40
8.17611
100
AcDbArc
 50
131.254
 51
155.067
  0
LINE
  5
A48
330
A02
100
AcDbEntity
  8
Body
100
AcDbLine
 10
24.5108
 20
154.755
 30
0
 11
24.5108
 21
154.755
 31
10.0076
  0
LINE
  5
A49
330
A02
100
AcDbEntity
  8
Body
100
AcDbLine
 10
25.6002
 20
151.562
 30
0
 11
25.6002
 21
151.562
 31
10.0076
  0
ARC
  5
A4A
330
A02
100
AcDbEntity
  8
Body
100
AcDbCircle
 10
17.4839
 20
150.575
 30
0
 40
8.17611
100
AcDbArc
 50
6.93333
 51
30.746
  0
ARC
  5
A4B
330
A02
100
AcDbEntity
  8
Body
100
AcDbCircle
 10
17.4839
 20
150.575
 30
10.0076
 40
8.17611
100
AcDbArc
 50
6.93333
 51
30.746
  0
LINE
  5
A4C
330
A02
100
AcDbEntity
  8
Body
100
AcDbLine
 10
25.6002
 20
151.562
 30
0
 11
25.6002
 21
151.562
 31
10.0076
  0
LINE
  5
A4D
330
A02
100
AcDbEntity
  8
Body
100
AcDbLine
 10
25.7836
 20
150.054
 30
0
 11
25.7836
 21
150.054
 31
10.0076
  0
LINE
  5
A4E
330
A02
100
AcDbEntity
  8
Body
100
AcDbLine
 10
25.6002
 20
151.562
 30
0
 11
25.7836
 21
150.054
 31
0
  0
LINE
  5
A4F
330
A02
100
AcDbEntity
  8
Body
100
AcDbLine
 10
25.6002
 20
151.562
 30
10.0076
 11
25.7836
 21
150.054
 31
10.0076
  0
LINE
  5
A50
330
A02
100
AcDbEntity
  8
Body
100
AcDbLine
 10
25.7836
 20
150.054
 30
0
 11
25.7836
 21
150.054
 31
10.0076
  0
LINE
  5
A51
330
A02
100
AcDbEntity
  8
Body
100
AcDbLine
 10
26.834
 20
146.258
 30
0
 11
26.834
 21
146.258
 31
10.0076
  0
ARC
  5
A52
330
A02
100
AcDbEntity
  8
Body
100
AcDbCircle
 10
38.9581
 20
151.656
 30
0
 40
13.2715
100
AcDbArc
 50
-173.067
 51
-156
  0
ARC
  5
A53
330
A02
100
AcDbEntity
  8
Body
100
AcDbCircle
 10
38.9581
 20
151.656
 30
10.0076
 40
13.2715
100
AcDbArc
 50
-173.067
 51
-156
  0
LINE
  5
A54
330
A02
100
AcDbEntity
  8
Body
100
AcDbLine
 10
26.834
 20
146.258
 30
0
 11
26.834
 21
146.258
 31
10.0076
  0
LINE
  5
A55
330
A02
100
AcDbEntity
  8
Body
100
AcDbLine
 10
30.4634
 20
143.319
 30
0
 11
30.4634
 21
143.319
 31
10.0076
  0
ARC
  5
A56
330
A02
100
AcDbEntity
  8
Body
100
AcDbCircle
 10
31.5328
 20
148.35
 30
0
 40
5.1435
100
AcDbArc
 50
-156
 51
-102
  0
ARC
  5
A57
330
A02
100
AcDbEntity
  8
Body
100
AcDbCircle
 10
31.5328
 20
148.35
 30
10.0076
 40
5.1435
100
AcDbArc
 50
-156
 51
-102
  0
LINE
  5
A58
330
A02
100
AcDbEntity
  8
Body
100
AcDbLine
 10
30.4634
 20
143.319
 30
0
 11
30.4634
 21
143.319
 31
10.0076
  0
LINE
  5
A59
330
A02
100
AcDbEntity
  8
Body
100
AcDbLine
 10
34.9745
 20
144.528
 30
0
 11
34.9745
 21
144.528
 31
10.0076
  0
ARC
  5
A5A
330
A02
100
AcDbEntity
  8
Body
100
AcDbCircle
 10
31.5328
 20
148.35
 30
0
 40
5.1435
100
AcDbArc
 50
-102
 51
-48
  0
ARC
  5
A5B
330
A02
100
AcDbEntity
  8
Body
100
AcDbCircle
 10
31.5328
 20
148.35
 30
10.0076
 40
5.1435
100
AcDbArc
 50
-102
 51
-48
  0
LINE
  5
A5C
330
A02
100
AcDbEntity
  8
Body
100
AcDbLine
 10
34.9745
 20
144.528
 30
0
 11
34.9745
 21
144.528
 31
10.0076
  0
LINE
  5
A5D
330
A02
100
AcDbEntity
  8
Body
100
AcDbLine
 10
37.4779
 20
147.568
 30
0
 11
37.4779
 21
147.568
 31
10.0076
  0
LINE
  5
A5E
330
A02
100
AcDbEntity
  8
Body
100
AcDbLine
 10
34.9745
 20
144.528
 30
0
 11
37.4779
 21
147.568
 31
0
  0
LINE
  5
A5F
330
A02
100
AcDbEntity
  8
Body
100
AcDbLine
 10
34.9745
 20
144.528
 30
10.0076
 11
37.4779
 21
147.568
 31
10.0076
  0
LINE
  5
A60
330
A02
100
AcDbEntity
  8
Body
100
AcDbLine
 10
37.4779
 20
147.568
 30
0
 11
37.4779
 21
147.568
 31
10.0076
  0
LINE
  5
A61
330
A02
100
AcDbEntity
  8
Body
100
AcDbLine
 10
38.2589
 20
148.872
 30
0
 11
38.2589
 21
148.872
 31
10.0076
  0
ARC
  5
A62
330
A02
100
AcDbEntity
  8
Body
100
AcDbCircle
 10
49.2336
 20
141.409
 30
0
 40
13.2715
100
AcDbArc
 50
145.785
 51
152.348
  0
ARC
  5
A63
330
A02
100
AcDbEntity
  8
Body
100
AcDbCircle
 10
49.2336
 20
141.409
 30
10.0076
 40
13.2715
100
AcDbArc
 50
145.785
 51
152.348
  0
LINE
  5
A64
330
A02
100
AcDbEntity
  8
Body
100
AcDbLine
 10
38.2589
 20
148.872
 30
0
 11
38.2589
 21
148.872
 31
10.0076
  0
LINE
  5
A65
330
A02
100
AcDbEntity
  8
Body
100
AcDbLine
 10
40.5529
 20
151.345
 30
0
 11
40.5529
 21
151.345
 31
10.0076
  0
ARC
  5
A66
330
A02
100
AcDbEntity
  8
Body
100
AcDbCircle
 10
45.2721
 20
144.669
 30
0
 40
8.17611
100
AcDbArc
 50
125.254
 51
149.067
  0
ARC
  5
A67
330
A02
100
AcDbEntity
  8
Body
100
AcDbCircle
 10
45.2721
 20
144.669
 30
10.0076
 40
8.17611
100
AcDbArc
 50
125.254
 51
149.067
  0
LINE
  5
A68
330
A02
100
AcDbEntity
  8
Body
100
AcDbLine
 10
40.5529
 20
151.345
 30
0
 11
40.5529
 21
151.345
 31
10.0076
  0
LINE
  5
A69
330
A02
100
AcDbEntity
  8
Body
100
AcDbLine
 10
41.3026
 20
148.056
 30
0
 11
41.3026
 21
148.056
 31
10.0076
  0
ARC
  5
A6A
330
A02
100
AcDbEntity
  8
Body
100
AcDbCircle
 10
33.1275
 20
147.923
 30
0
 40
8.17611
100
AcDbArc
 50
0.933333
 51
24.746
  0
ARC
  5
A6B
330
A02
100
AcDbEntity
  8
Body
100
AcDbCircle
 10
33.1275
 20
147.923
 30
10.0076
 40
8.17611
100
AcDbArc
 50
0.933333
 51
24.746
  0
LINE
  5
A6C
330
A02
100
AcDbEntity
  8
Body
100
AcDbLine
 10
41.3026
 20
148.056
 30
0
 11
41.3026
 21
148.056
 31
10.0076
  0
LINE
  5
A6D
330
A02
100
AcDbEntity
  8
Body
100
AcDbLine
 10
41.3273
 20
146.537
 30
0
 11
41.3273
 21
146.537
 31
10.0076
  0
LINE
  5
A6E
330
A02
100
AcDbEntity
  8
Body
100
AcDbLine
 10
41.3026
 20
148.056
 30
0
 11
41.3273
 21
146.537
 31
0
  0
LINE
  5
A6F
330
A02
100
AcDbEntity
  8
Body
100
AcDbLine
 10
41.3026
 20
148.056
 30
10.0076
 11
41.3273
 21
146.537
 31
10.0076
  0
LINE
  5
A70
330
A02
100
AcDbEntity
  8
Body
100
AcDbLine
 10
41.3273
 20
146.537
 30
0
 11
41.3273
 21
146.537
 31
10.0076
  0
LINE
  5
A71
330
A02
100
AcDbEntity
  8
Body
100
AcDbLine
 10
41.9751
 20
142.652
 30
0
 11
41.9751
 21
142.652
 31
10.0076
  0
ARC
  5
A72
330
A02
100
AcDbEntity
  8
Body
100
AcDbCircle
 10
54.5971
 20
146.753
 30
0
 40
13.2715
100
AcDbArc
 50
-179.067
 51
-162
  0
ARC
  5
A73
330
A02
100
AcDbEntity
  8
Body
100
AcDbCircle
 10
54.5971
 20
146.753
 30
10.0076
 40
13.2715
100
AcDbArc
 50
-179.067
 51
-162
  0
LINE
  5
A74
330
A02
100
AcDbEntity
  8
Body
100
AcDbLine
 10
41.9751
 20
142.652
 30
0
 11
41.9751
 21
142.652
 31
10.0076
  0
LINE
  5
A75
330
A02
100
AcDbEntity
  8
Body
100
AcDbLine
 10
45.2774
 20
139.35
 30
0
 11
45.2774
 21
139.35
 31
10.0076
  0
ARC
  5
A76
330
A02
100
AcDbEntity
  8
Body
100
AcDbCircle
 10
46.8669
 20
144.241
 30
0
 40
5.1435
100
AcDbArc
 50
-162
 51
-108
  0
ARC
  5
A77
330
A02
100
AcDbEntity
  8
Body
100
AcDbCircle
 10
46.8669
 20
144.241
 30
10.0076
 40
5.1435
100
AcDbArc
 50
-162
 51
-108
  0
LINE
  5
A78
330
A02
100
AcDbEntity
  8
Body
100
AcDbLine
 10
45.2774
 20
139.35
 30
0
 11
45.2774
 21
139.35
 31
10.0076
  0
LINE
  5
A79
330
A02
100
AcDbEntity
  8
Body
100
AcDbLine
 10
49.8901
 20
140.08
 30
0
 11
49.8901
 21
140.08
 31
10.0076
  0
ARC
  5
A7A
330
A02
100
AcDbEntity
  8
Body
100
AcDbCircle
 10
46.8669
 20
144.241
 30
0
 40
5.1435
100
AcDbArc
 50
-108
 51
-54
  0
ARC
  5
A7B
330
A02
100
AcDbEntity
  8
Body
100
AcDbCircle
 10
46.8669
 20
144.241
 30
10.0076
 40
5.1435
100
AcDbArc
 50
-108
 51
-54
  0
LINE
  5
A7C
330
A02
100
AcDbEntity
  8
Body
100
AcDbLine
 10
49.8901
 20
140.08
 30
0
 11
49.8901
 21
140.08
 31
10.0076
  0
LINE
  5
A7D
330
A02
100
AcDbEntity
  8
Body
100
AcDbLine
 10
52.6977
 20
142.842
 30
0
 11
52.6977
 21
142.842
 31
10.0076
  0
LINE
  5
A7E
330
A02
100
AcDbEntity
  8
Body
100
AcDbLine
 10
49.8901
 20
140.08
 30
0
 11
52.6977
 21
142.842
 31
0
  0
LINE
  5
A7F
330
A02
100
AcDbEntity
  8
Body
100
AcDbLine
 10
49.8901
 20
140.08
 30
10.0076
 11
52.6977
 21
142.842
 31
10.0076
  0
LINE
  5
A80
330
A02
100
AcDbEntity
  8
Body
100
AcDbLine
 10
52.6977
 20
142.842
 30
0
 11
52.6977
 21
142.842
 31
10.0076
  0
LINE
  5
A81
330
A02
100
AcDbEntity
  8
Body
100
AcDbLine
 10
53.6107
 20
144.057
 30
0
 11
53.6107
 21
144.057
 31
10.0076
  0
ARC
  5
A82
330
A02
100
AcDbEntity
  8
Body
100
AcDbCircle
 10
63.7452
 20
135.488
 30
0
 40
13.2715
100
AcDbArc
 50
139.785
 51
146.348
  0
ARC
  5
A83
330
A02
100
AcDbEntity
  8
Body
100
AcDbCircle
 10
63.7452
 20
135.488
 30
10.0076
 40
13.2715
100
AcDbArc
 50
139.785
 51
146.348
  0
LINE
  5
A84
330
A02
100
AcDbEntity
  8
Body
100
AcDbLine
 10
53.6107
 20
144.057
 30
0
 11
53.6107
 21
144.057
 31
10.0076
  0
LINE
  5
A85
330
A02
100
AcDbEntity
  8
Body
100
AcDbLine
 10
56.1506
 20
146.277
 30
0
 11
56.1506
 21
146.277
 31
10.0076
  0
ARC
  5
A86
330
A02
100
AcDbEntity
  8
Body
100
AcDbCircle
 10
60.1461
 20
139.144
 30
0
 40
8.17611
100
AcDbArc
 50
119.254
 51
143.067
  0
ARC
  5
A87
330
A02
100
AcDbEntity
  8
Body
100
AcDbCircle
 10
60.1461
 20
139.144
 30
10.0076
 40
8.17611
100
AcDbArc
 50
119.254
 51
143.067
  0
LINE
  5
A88
330
A02
100
AcDbEntity
  8
Body
100
AcDbLine
 10
56.1506
 20
146.277
 30
0
 11
56.1506
 21
146.277
 31
10.0076
  0
LINE
  5
A89
330
A02
100
AcDbEntity
  8
Body
100
AcDbLine
 10
56.5524
 20
142.928
 30
0
 11
56.5524
 21
142.928
 31
10.0076
  0
ARC
  5
A8A
330
A02
100
AcDbEntity
  8
Body
100
AcDbCircle
 10
48.4082
 20
143.65
 30
0
 40
8.17611
100
AcDbArc
 50
-5.06667
 51
18.746
  0
ARC
  5
A8B
330
A02
100
AcDbEntity
  8
Body
100
AcDbCircle
 10
48.4082
 20
143.65
 30
10.0076
 40
8.17611
100
AcDbArc
 50
-5.06667
 51
18.746
  0
LINE
  5
A8C
330
A02
100
AcDbEntity
  8
Body
100
AcDbLine
 10
56.5524
 20
142.928
 30
0
 11
56.5524
 21
142.928
 31
10.0076
  0
LINE
  5
A8D
330
A02
100
AcDbEntity
  8
Body
100
AcDbLine
 10
56.4182
 20
141.414
 30
0
 11
56.4182
 21
141.414
 31
10.0076
  0
LINE
  5
A8E
330
A02
100
AcDbEntity
  8
Body
100
AcDbLine
 10
56.5524
 20
142.928
 30
0
 11
56.4182
 21
141.414
 31
0
  0
LINE
  5
A8F
330
A02
100
AcDbEntity
  8
Body
100
AcDbLine
 10
56.5524
 20
142.928
 30
10.0076
 11
56.4182
 21
141.414
 31
10.0076
  0
LINE
  5
A90
330
A02
100
AcDbEntity
  8
Body
100
AcDbLine
 10
56.4182
 20
141.414
 30
0
 11
56.4182
 21
141.414
 31
10.0076
  0
LINE
  5
A91
330
A02
100
AcDbEntity
  8
Body
100
AcDbLine
 10
56.6564
 20
137.483
 30
0
 11
56.6564
 21
137.483
 31
10.0076
  0
ARC
  5
A92
330
A02
100
AcDbEntity
  8
Body
100
AcDbCircle
 10
69.6378
 20
140.242
 30
0
 40
13.2715
100
AcDbArc
 50
174.933
 51
-168
  0
ARC
  5
A93
330
A02
100
AcDbEntity
  8
Body
100
AcDbCircle
 10
69.6378
 20
140.242
 30
10.0076
 40
13.2715
100
AcDbArc
 50
174.933
 51
-168
  0
LINE
  5
A94
330
A02
100
AcDbEntity
  8
Body
100
AcDbLine
 10
56.6564
 20
137.483
 30
0
 11
56.6564
 21
137.483
 31
10.0076
  0
LINE
  5
A95
330
A02
100
AcDbEntity
  8
Body
100
AcDbLine
 10
59.5954
 20
133.853
 30
0
 11
59.5954
 21
133.853
 31
10.0076
  0
ARC
  5
A96
330
A02
100
AcDbEntity
  8
Body
100
AcDbCircle
 10
61.6875
 20
138.552
 30
0
 40
5.1435
100
AcDbArc
 50
-168
 51
-114
  0
ARC
  5
A97
330
A02
100
AcDbEntity
  8
Body
100
AcDbCircle
 10
61.6875
 20
138.552
 30
10.0076
 40
5.1435
100
AcDbArc
 50
-168
 51
-114
  0
LINE
  5
A98
330
A02
100
AcDbEntity
  8
Body
100
AcDbLine
 10
59.5954
 20
133.853
 30
0
 11
59.5954
 21
133.853
 31
10.0076
  0
LINE
  5
A99
330
A02
100
AcDbEntity
  8
Body
100
AcDbLine
 10
64.2592
 20
134.098
 30
0
 11
64.2592
 21
134.098
 31
10.0076
  0
ARC
  5
A9A
330
A02
100
AcDbEntity
  8
Body
100
AcDbCircle
 10
61.6875
 20
138.552
 30
0
 40
5.1435
100
AcDbArc
 50
-114
 51
-60
  0
ARC
  5
A9B
330
A02
100
AcDbEntity
  8
Body
100
AcDbCircle
 10
61.6875
 20
138.552
 30
10.0076
 40
5.1435
100
AcDbArc
 50
-114
 51
-60
  0
LINE
  5
A9C
330
A02
100
AcDbEntity
  8
Body
100
AcDbLine
 10
64.2592
 20
134.098
 30
0
 11
64.2592
 21
134.098
 31
10.0076
  0
LINE
  5
A9D
330
A02
100
AcDbEntity
  8
Body
100
AcDbLine
 10
67.3401
 20
136.552
 30
0
 11
67.3401
 21
136.552
 31
10.0076
  0
LINE
  5
A9E
330
A02
100
AcDbEntity
  8
Body
100
AcDbLine
 10
64.2592
 20
134.098
 30
0
 11
67.3401
 21
136.552
 31
0
  0
LINE
  5
A9F
330
A02
100
AcDbEntity
  8
Body
100
AcDbLine
 10
64.2592
 20
134.098
 30
10.0076
 11
67.3401
 21
136.552
 31
10.0076
  0
LINE
  5
AA0
330
A02
100
AcDbEntity
  8
Body
100
AcDbLine
 10
67.3401
 20
136.552
 30
0
 11
67.3401
 21
136.552
 31
10.0076
  0
LINE
  5
AA1
330
A02
100
AcDbEntity
  8
Body
100
AcDbLine
 10
68.375
 20
137.664
 30
0
 11
68.375
 21
137.664
 31
10.0076
  0
ARC
  5
AA2
330
A02
100
AcDbEntity
  8
Body
100
AcDbCircle
 10
77.5583
 20
128.083
 30
0
 40
13.2715
100
AcDbArc
 50
133.785
 51
140.348
  0
ARC
  5
AA3
330
A02
100
AcDbEntity
  8
Body
100
AcDbCircle
 10
77.5583
 20
128.083
 30
10.0076
 40
13.2715
100
AcDbArc
 50
133.785
 51
140.348
  0
LINE
  5
AA4
330
A02
100
AcDbEntity
  8
Body
100
AcDbLine
 10
68.375
 20
137.664
 30
0
 11
68.375
 21
137.664
 31
10.0076
  0
LINE
  5
AA5
330
A02
100
AcDbEntity
  8
Body
100
AcDbLine
 10
71.1331
 20
139.607
 30
0
 11
71.1331
 21
139.607
 31
10.0076
  0
ARC
  5
AA6
330
A02
100
AcDbEntity
  8
Body
100
AcDbCircle
 10
74.3611
 20
132.095
 30
0
 40
8.17611
100
AcDbArc
 50
113.254
 51
137.067
  0
ARC
  5
AA7
330
A02
100
AcDbEntity
  8
Body
100
AcDbCircle
 10
74.3611
 20
132.095
 30
10.0076
 40
8.17611
100
AcDbArc
 50
113.254
 51
137.067
  0
LINE
  5
AA8
330
A02
100
AcDbEntity
  8
Body
100
AcDbLine
 10
71.1331
 20
139.607
 30
0
 11
71.1331
 21
139.607
 31
10.0076
  0
LINE
  5
AA9
330
A02
100
AcDbEntity
  8
Body
100
AcDbLine
 10
71.1826
 20
136.233
 30
0
 11
71.1826
 21
136.233
 31
10.0076
  0
ARC
  5
AAA
330
A02
100
AcDbEntity
  8
Body
100
AcDbCircle
 10
63.1585
 20
137.803
 30
0
 40
8.17611
100
AcDbArc
 50
-11.0667
 51
12.746
  0
ARC
  5
AAB
330
A02
100
AcDbEntity
  8
Body
100
AcDbCircle
 10
63.1585
 20
137.803
 30
10.0076
 40
8.17611
100
AcDbArc
 50
-11.0667
 51
12.746
  0
LINE
  5
AAC
330
A02
100
AcDbEntity
  8
Body
100
AcDbLine
 10
71.1826
 20
136.233
 30
0
 11
71.1826
 21
136.233
 31
10.0076
  0
LINE
  5
AAD
330
A02
100
AcDbEntity
  8
Body
100
AcDbLine
 10
70.891
 20
134.742
 30
0
 11
70.891
 21
134.742
 31
10.0076
  0
LINE
  5
AAE
330
A02
100
AcDbEntity
  8
Body
100
AcDbLine
 10
71.1826
 20
136.233
 30
0
 11
70.891
 21
134.742
 31
0
  0
LINE
  5
AAF
330
A02
100
AcDbEntity
  8
Body
100
AcDbLine
 10
71.1826
 20
136.233
 30
10.0076
 11
70.891
 21
134.742
 31
10.0076
  0
LINE
  5
AB0
330
A02
100
AcDbEntity
  8
Body
100
AcDbLine
 10
70.891
 20
134.742
 30
0
 11
70.891
 21
134.742
 31
10.0076
  0
LINE
  5
AB1
330
A02
100
AcDbEntity
  8
Body
100
AcDbLine
 10
70.7169
 20
130.808
 30
0
 11
70.7169
 21
130.808
 31
10.0076
  0
ARC
  5
AB2
330
A02
100
AcDbEntity
  8
Body
100
AcDbCircle
 10
83.9157
 20
132.195
 30
0
 40
13.2715
100
AcDbArc
 50
168.933
 51
-174
  0
ARC
  5
AB3
330
A02
100
AcDbEntity
  8
Body
100
AcDbCircle
 10
83.9157
 20
132.195
 30
10.0076
 40
13.2715
100
AcDbArc
 50
168.933
 51
-174
  0
LINE
  5
AB4
330
A02
100
AcDbEntity
  8
Body
100
AcDbLine
 10
70.7169
 20
130.808
 30
0
 11
70.7169
 21
130.808
 31
10.0076
  0
LINE
  5
AB5
330
A02
100
AcDbEntity
  8
Body
100
AcDbLine
 10
73.2604
 20
126.891
 30
0
 11
73.2604
 21
126.891
 31
10.0076
  0
ARC
  5
AB6
330
A02
100
AcDbEntity
  8
Body
100
AcDbCircle
 10
75.8322
 20
131.345
 30
0
 40
5.1435
100
AcDbArc
 50
-174
 51
-120
  0
ARC
  5
AB7
330
A02
100
AcDbEntity
  8
Body
100
AcDbCircle
 10
75.8322
 20
131.345
 30
10.0076
 40
5.1435
100
AcDbArc
 50
-174
 51
-120
  0
LINE
  5
AB8
330
A02
100
AcDbEntity
  8
Body
100
AcDbLine
 10
73.2604
 20
126.891
 30
0
 11
73.2604
 21
126.891
 31
10.0076
  0
LINE
  5
AB9
330
A02
100
AcDbEntity
  8
Body
100
AcDbLine
 10
77.9242
 20
126.646
 30
0
 11
77.9242
 21
126.646
 31
10.0076
  0
ARC
  5
ABA
330
A02
100
AcDbEntity
  8
Body
100
AcDbCircle
 10
75.8322
 20
131.345
 30
0
 40
5.1435
100
AcDbArc
 50
-120
 51
-66
  0
ARC
  5
ABB
330
A02
100
AcDbEntity
  8
Body
100
AcDbCircle
 10
75.8322
 20
131.345
 30
10.0076
 40
5.1435
100
AcDbArc
 50
-120
 51
-66
  0
LINE
  5
ABC
330
A02
100
AcDbEntity
  8
Body
100
AcDbLine
 10
77.9242
 20
126.646
 30
0
 11
77.9242
 21
126.646
 31
10.0076
  0
LINE
  5
ABD
330
A02
100
AcDbEntity
  8
Body
100
AcDbLine
 10
81.2448
 20
128.765
 30
0
 11
81.2448
 21
128.765
 31
10.0076
  0
LINE
  5
ABE
330
A02
100
AcDbEntity
  8
Body
100
AcDbLine
 10
77.9242
 20
126.646
 30
0
 11
81.2448
 21
128.765
 31
0
  0
LINE
  5
ABF
330
A02
100
AcDbEntity
  8
Body
100
AcDbLine
 10
77.9242
 20
126.646
 30
10.0076
 11
81.2448
 21
128.765
 31
10.0076
  0
LINE
  5
AC0
330
A02
100
AcDbEntity
  8
Body
100
AcDbLine
 10
81.2448
 20
128.765
 30
0
 11
81.2448
 21
128.765
 31
10.0076
  0
LINE
  5
AC1
330
A02
100
AcDbEntity
  8
Body
100
AcDbLine
 10
82.3902
 20
129.763
 30
0
 11
82.3902
 21
129.763
 31
10.0076
  0
ARC
  5
AC2
330
A02
100
AcDbEntity
  8
Body
100
AcDbCircle
 10
90.5217
 20
119.274
 30
0
 40
13.2715
100
AcDbArc
 50
127.785
 51
134.348
  0
ARC
  5
AC3
330
A02
100
AcDbEntity
  8
Body
100
AcDbCircle
 10
90.5217
 20
119.274
 30
10.0076
 40
13.2715
100
AcDbArc
 50
127.785
 51
134.348
  0
LINE
  5
AC4
330
A02
100
AcDbEntity
  8
Body
100
AcDbLine
 10
82.3902
 20
129.763
 30
0
 11
82.3902
 21
129.763
 31
10.0076
  0
LINE
  5
AC5
330
A02
100
AcDbEntity
  8
Body
100
AcDbLine
 10
85.3363
 20
131.406
 30
0
 11
85.3363
 21
131.406
 31
10.0076
  0
ARC
  5
AC6
330
A02
100
AcDbEntity
  8
Body
100
AcDbCircle
 10
87.7614
 20
123.598
 30
0
 40
8.17611
100
AcDbArc
 50
107.254
 51
131.067
  0
ARC
  5
AC7
330
A02
100
AcDbEntity
  8
Body
100
AcDbCircle
 10
87.7614
 20
123.598
 30
10.0076
 40
8.17611
100
AcDbArc
 50
107.254
 51
131.067
  0
LINE
  5
AC8
330
A02
100
AcDbEntity
  8
Body
100
AcDbLine
 10
85.3363
 20
131.406
 30
0
 11
85.3363
 21
131.406
 31
10.0076
  0
LINE
  5
AC9
330
A02
100
AcDbEntity
  8
Body
100
AcDbLine
 10
85.0329
 20
128.046
 30
0
 11
85.0329
 21
128.046
 31
10.0076
  0
ARC
  5
ACA
330
A02
100
AcDbEntity
  8
Body
100
AcDbCircle
 10
77.2168
 20
130.446
 30
0
 40
8.17611
100
AcDbArc
 50
-17.0667
 51
6.74604
  0
ARC
  5
ACB
330
A02
100
AcDbEntity
  8
Body
100
AcDbCircle
 10
77.2168
 20
130.446
 30
10.0076
 40
8.17611
100
AcDbArc
 50
-17.0667
 51
6.74604
  0
LINE
  5
ACC
330
A02
100
AcDbEntity
  8
Body
100
AcDbLine
 10
85.0329
 20
128.046
 30
0
 11
85.0329
 21
128.046
 31
10.0076
  0
LINE
  5
ACD
330
A02
100
AcDbEntity
  8
Body
100
AcDbLine
 10
84.587
 20
126.594
 30
0
 11
84.587
 21
126.594
 31
10.0076
  0
LINE
  5
ACE
330
A02
100
AcDbEntity
  8
Body
100
AcDbLine
 10
85.0329
 20
128.046
 30
0
 11
84.587
 21
126.594
 31
0
  0
LINE
  5
ACF
330
A02
100
AcDbEntity
  8
Body
100
AcDbLine
 10
85.0329
 20
128.046
 30
10.0076
 11
84.587
 21
126.594
 31
10.0076
  0
LINE
  5
AD0
330
A02
100
AcDbEntity
  8
Body
100
AcDbLine
 10
84.587
 20
126.594
 30
0
 11
84.587
 21
126.594
 31
10.0076
  0
LINE
  5
AD1
330
A02
100
AcDbEntity
  8
Body
100
AcDbLine
 10
84.0026
 20
122.699
 30
0
 11
84.0026
 21
122.699
 31
10.0076
  0
ARC
  5
AD2
330
A02
100
AcDbEntity
  8
Body
100
AcDbCircle
 10
97.2741
 20
122.699
 30
0
 40
13.2715
100
AcDbArc
 50
162.933
 51
180
  0
ARC
  5
AD3
330
A02
100
AcDbEntity
  8
Body
100
AcDbCircle
 10
97.2741
 20
122.699
 30
10.0076
 40
13.2715
100
AcDbArc
 50
162.933
 51
180
  0
LINE
  5
AD4
330
A02
100
AcDbEntity
  8
Body
100
AcDbLine
 10
84.0026
 20
122.699
 30
0
 11
84.0026
 21
122.699
 31
10.0076
  0
LINE
  5
AD5
330
A02
100
AcDbEntity
  8
Body
100
AcDbLine
 10
86.1228
 20
118.538
 30
0
 11
86.1228
 21
118.538
 31
10.0076
  0
ARC
  5
AD6
330
A02
100
AcDbEntity
  8
Body
100
AcDbCircle
 10
89.1461
 20
122.699
 30
0
 40
5.1435
100
AcDbArc
 50
-180
 51
-126
  0
ARC
  5
AD7
330
A02
100
AcDbEntity
  8
Body
100
AcDbCircle
 10
89.1461
 20
122.699
 30
10.0076
 40
5.1435
100
AcDbArc
 50
-180
 51
-126
  0
LINE
  5
AD8
330
A02
100
AcDbEntity
  8
Body
100
AcDbLine
 10
86.1228
 20
118.538
 30
0
 11
86.1228
 21
118.538
 31
10.0076
  0
LINE
  5
AD9
330
A02
100
AcDbEntity
  8
Body
100
AcDbLine
 10
90.7355
 20
117.807
 30
0
 11
90.7355
 21
117.807
 31
10.0076
  0
ARC
  5
ADA
330
A02
100
AcDbEntity
  8
Body
100
AcDbCircle
 10
89.1461
 20
122.699
 30
0
 40
5.1435
100
AcDbArc
 50
-126
 51
-72
  0
ARC
  5
ADB
330
A02
100
AcDbEntity
  8
Body
100
AcDbCircle
 10
89.1461
 20
122.699
 30
10.0076
 40
5.1435
100
AcDbArc
 50
-126
 51
-72
  0
LINE
  5
ADC
330
A02
100
AcDbEntity
  8
Body
100
AcDbLine
 10
90.7355
 20
117.807
 30
0
 11
90.7355
 21
117.807
 31
10.0076
  0
LINE
  5
ADD
330
A02
100
AcDbEntity
  8
Body
100
AcDbLine
 10
94.2593
 20
119.567
 30
0
 11
94.2593
 21
119.567
 31
10.0076
  0
LINE
  5
ADE
330
A02
100
AcDbEntity
  8
Body
100
AcDbLine
 10
90.7355
 20
117.807
 30
0
 11
94.2593
 21
119.567
 31
0
  0
LINE
  5
ADF
330
A02
100
AcDbEntity
  8
Body
100
AcDbLine
 10
90.7355
 20
117.807
 30
10.0076
 11
94.2593
 21
119.567
 31
10.0076
  0
LINE
  5
AE0
330
A02
100
AcDbEntity
  8
Body
100
AcDbLine
 10
94.2593
 20
119.567
 30
0
 11
94.2593
 21
119.567
 31
10.0076
  0
LINE
  5
AE1
330
A02
100
AcDbEntity
  8
Body
100
AcDbLine
 10
95.5028
 20
120.44
 30
0
 11
95.5028
 21
120.44
 31
10.0076
  0
ARC
  5
AE2
330
A02
100
AcDbEntity
  8
Body
100
AcDbCircle
 10
102.493
 20
109.158
 30
0
 40
13.2715
100
AcDbArc
 50
121.785
 51
128.348
  0
ARC
  5
AE3
330
A02
100
AcDbEntity
  8
Body
100
AcDbCircle
 10
102.493
 20
109.158
 30
10.0076
 40
13.2715
100
AcDbArc
 50
121.785
 51
128.348
  0
LINE
  5
AE4
330
A02
100
AcDbEntity
  8
Body
100
AcDbLine
 10
95.5028
 20
120.44
 30
0
 11
95.5028
 21
120.44
 31
10.0076
  0
LINE
  5
AE5
330
A02
100
AcDbEntity
  8
Body
100
AcDbLine
 10
98.6046
 20
121.767
 30
0
 11
98.6046
 21
121.767
 31
10.0076
  0
ARC
  5
AE6
330
A02
100
AcDbEntity
  8
Body
100
AcDbCircle
 10
100.2
 20
113.748
 30
0
 40
8.17611
100
AcDbArc
 50
101.254
 51
125.067
  0
ARC
  5
AE7
330
A02
100
AcDbEntity
  8
Body
100
AcDbCircle
 10
100.2
 20
113.748
 30
10.0076
 40
8.17611
100
AcDbArc
 50
101.254
 51
125.067
  0
LINE
  5
AE8
330
A02
100
AcDbEntity
  8
Body
100
AcDbLine
 10
98.6046
 20
121.767
 30
0
 11
98.6046
 21
121.767
 31
10.0076
  0
LINE
  5
AE9
330
A02
100
AcDbEntity
  8
Body
100
AcDbLine
 10
97.9516
 20
118.457
 30
0
 11
97.9516
 21
118.457
 31
10.0076
  0
ARC
  5
AEA
330
A02
100
AcDbEntity
  8
Body
100
AcDbCircle
 10
90.4291
 20
121.66
 30
0
 40
8.17611
100
AcDbArc
 50
-23.0667
 51
0.746036
  0
ARC
  5
AEB
330
A02
100
AcDbEntity
  8
Body
100
AcDbCircle
 10
90.4291
 20
121.66
 30
10.0076
 40
8.17611
100
AcDbArc
 50
-23.0667
 51
0.746036
  0
LINE
  5
AEC
330
A02
100
AcDbEntity
  8
Body
100
AcDbLine
 10
97.9516
 20
118.457
 30
0
 11
97.9516
 21
118.457
 31
10.0076
  0
LINE
  5
AED
330
A02
100
AcDbEntity
  8
Body
100
AcDbLine
 10
97.3563
 20
117.059
 30
0
 11
97.3563
 21
117.059
 31
10.0076
  0
LINE
  5
AEE
330
A02
100
AcDbEntity
  8
Body
100
AcDbLine
 10
97.9516
 20
118.457
 30
0
 11
97.3563
 21
117.059
 31
0
  0
LINE
  5
AEF
330
A02
100
AcDbEntity
  8
Body
100
AcDbLine
 10
97.9516
 20
118.457
 30
10.0076
 11
97.3563
 21
117.059
 31
10.0076
  0
LINE
  5
AF0
330
A02
100
AcDbEntity
  8
Body
100
AcDbLine
 10
97.3563
 20
117.059
 30
0
 11
97.3563
 21
117.059
 31
10.0076
  0
LINE
  5
AF1
330
A02
100
AcDbEntity
  8
Body
100
AcDbLine
 10
96.368
 20
113.246
 30
0
 11
96.368
 21
113.246
 31
10.0076
  0
ARC
  5
AF2
330
A02
100
AcDbEntity
  8
Body
100
AcDbCircle
 10
109.567
 20
111.859
 30
0
 40
13.2715
100
AcDbArc
 50
156.933
 51
174
  0
ARC
  5
AF3
330
A02
100
AcDbEntity
  8
Body
100
AcDbCircle
 10
109.567
 20
111.859
 30
10.0076
 40
13.2715
100
AcDbArc
 50
156.933
 51
174
  0
LINE
  5
AF4
330
A02
100
AcDbEntity
  8
Body
100
AcDbLine
 10
96.368
 20
113.246
 30
0
 11
96.368
 21
113.246
 31
10.0076
  0
LINE
  5
AF5
330
A02
100
AcDbEntity
  8
Body
100
AcDbLine
 10
98.0416
 20
108.886
 30
0
 11
98.0416
 21
108.886
 31
10.0076
  0
ARC
  5
AF6
330
A02
100
AcDbEntity
  8
Body
100
AcDbCircle
 10
101.483
 20
112.709
 30
0
 40
5.1435
100
AcDbArc
 50
174
 51
-132
  0
ARC
  5
AF7
330
A02
100
AcDbEntity
  8
Body
100
AcDbCircle
 10
101.483
 20
112.709
 30
10.0076
 40
5.1435
100
AcDbArc
 50
174
 51
-132
  0
LINE
  5
AF8
330
A02
100
AcDbEntity
  8
Body
100
AcDbLine
 10
98.0416
 20
108.886
 30
0
 11
98.0416
 21
108.886
 31
10.0076
  0
LINE
  5
AF9
330
A02
100
AcDbEntity
  8
Body
100
AcDbLine
 10
102.553
 20
107.677
 30
0
 11
102.553
 21
107.677
 31
10.0076
  0
ARC
  5
AFA
330
A02
100
AcDbEntity
  8
Body
100
AcDbCircle
 10
101.483
 20
112.709
 30
0
 40
5.1435
100
AcDbArc
 50
-132
 51
-78
  0
ARC
  5
AFB
330
A02
100
AcDbEntity
  8
Body
100
AcDbCircle
 10
101.483
 20
112.709
 30
10.0076
 40
5.1435
100
AcDbArc
 50
-132
 51
-78
  0
LINE
  5
AFC
330
A02
100
AcDbEntity
  8
Body
100
AcDbLine
 10
102.553
 20
107.677
 30
0
 11
102.553
 21
107.677
 31
10.0076
  0
LINE
  5
AFD
330
A02
100
AcDbEntity
  8
Body
100
AcDbLine
 10
106.241
 20
109.059
 30
0
 11
106.241
 21
109.059
 31
10.0076
  0
LINE
  5
AFE
330
A02
100
AcDbEntity
  8
Body
100
AcDbLine
 10
102.553
 20
107.677
 30
0
 11
106.241
 21
109.059
 31
0
  0
LINE
  5
AFF
330
A02
100
AcDbEntity
  8
Body
100
AcDbLine
 10
102.553
 20
107.677
 30
10.0076
 11
106.241
 21
109.059
 31
10.0076
  0
LINE
  5
B00
330
A02
100
AcDbEntity
  8
Body
100
AcDbLine
 10
106.241
 20
109.059
 30
0
 11
106.241
 21
109.059
 31
10.0076
  0
LINE
  5
B01
330
A02
100
AcDbEntity
  8
Body
100
AcDbLine
 10
107.569
 20
109.797
 30
0
 11
107.569
 21
109.797
 31
10.0076
  0
ARC
  5
B02
330
A02
100
AcDbEntity
  8
Body
100
AcDbCircle
 10
113.342
 20
97.847
 30
0
 40
13.2715
100
AcDbArc
 50
115.785
 51
122.348
  0
ARC
  5
B03
330
A02
100
AcDbEntity
  8
Body
100
AcDbCircle
 10
113.342
 20
97.847
 30
10.0076
 40
13.2715
100
AcDbArc
 50
115.785
 51
122.348
  0
LINE
  5
B04
330
A02
100
AcDbEntity
  8
Body
100
AcDbLine
 10
107.569
 20
109.797
 30
0
 11
107.569
 21
109.797
 31
10.0076
  0
LINE
  5
B05
330
A02
100
AcDbEntity
  8
Body
100
AcDbLine
 10
110.792
 20
110.792
 30
0
 11
110.792
 21
110.792
 31
10.0076
  0
ARC
  5
B06
330
A02
100
AcDbEntity
  8
Body
100
AcDbCircle
 10
111.541
 20
102.651
 30
0
 40
8.17611
100
AcDbArc
 50
95.254
 51
119.067
  0
ARC
  5
B07
330
A02
100
AcDbEntity
  8
Body
100
AcDbCircle
 10
111.541
 20
102.651
 30
10.0076
 40
8.17611
100
AcDbArc
 50
95.254
 51
119.067
  0
LINE
  5
B08
330
A02
100
AcDbEntity
  8
Body
100
AcDbLine
 10
110.792
 20
110.792
 30
0
 11
110.792
 21
110.792
 31
10.0076
  0
LINE
  5
B09
330
A02
100
AcDbEntity
  8
Body
100
AcDbLine
 10
109.797
 20
107.569
 30
0
 11
109.797
 21
107.569
 31
10.0076
  0
ARC
  5
B0A
330
A02
100
AcDbEntity
  8
Body
100
AcDbCircle
 10
102.651
 20
111.541
 30
0
 40
8.17611
100
AcDbArc
 50
-29.0667
 51
-5.25396
  0
ARC
  5
B0B
330
A02
100
AcDbEntity
  8
Body
100
AcDbCircle
 10
102.651
 20
111.541
 30
10.0076
 40
8.17611
100
AcDbArc
 50
-29.0667
 51
-5.25396
  0
LINE
  5
B0C
330
A02
100
AcDbEntity
  8
Body
100
AcDbLine
 10
109.797
 20
107.569
 30
0
 11
109.797
 21
107.569
 31
10.0076
  0
LINE
  5
B0D
330
A02
100
AcDbEntity
  8
Body
100
AcDbLine
 10
109.059
 20
106.241
 30
0
 11
109.059
 21
106.241
 31
10.0076
  0
LINE
  5
B0E
330
A02
100
AcDbEntity
  8
Body
100
AcDbLine
 10
109.797
 20
107.569
 30
0
 11
109.059
 21
106.241
 31
0
  0
LINE
  5
B0F
330
A02
100
AcDbEntity
  8
Body
100
AcDbLine
 10
109.797
 20
107.569
 30
10.0076
 11
109.059
 21
106.241
 31
10.0076
  0
LINE
  5
B10
330
A02
100
AcDbEntity
  8
Body
100
AcDbLine
 10
109.059
 20
106.241
 30
0
 11
109.059
 21
106.241
 31
10.0076
  0
LINE
  5
B11
330
A02
100
AcDbEntity
  8
Body
100
AcDbLine
 10
107.677
 20
102.553
 30
0
 11
107.677
 21
102.553
 31
10.0076
  0
ARC
  5
B12
330
A02
100
AcDbEntity
  8
Body
100
AcDbCircle
 10
120.659
 20
99.7934
 30
0
 40
13.2715
100
AcDbArc
 50
150.933
 51
168
  0
ARC
  5
B13
330
A02
100
AcDbEntity
  8
Body
100
AcDbCircle
 10
120.659
 20
99.7934
 30
10.0076
 40
13.2715
100
AcDbArc
 50
150.933
 51
168
  0
LINE
  5
B14
330
A02
100
AcDbEntity
  8
Body
100
AcDbLine
 10
107.677
 20
102.553
 30
0
 11
107.677
 21
102.553
 31
10.0076
  0
LINE
  5
B15
330
A02
100
AcDbEntity
  8
Body
100
AcDbLine
 10
108.886
 20
98.0416
 30
0
 11
108.886
 21
98.0416
 31
10.0076
  0
ARC
  5
B16
330
A02
100
AcDbEntity
  8
Body
100
AcDbCircle
 10
112.709
 20
101.483
 30
0
 40
5.1435
100
AcDbArc
 50
168
 51
-138
  0
ARC
  5
B17
330
A02
100
AcDbEntity
  8
Body
100
AcDbCircle
 10
112.709
 20
101.483
 30
10.0076
 40
5.1435
100
AcDbArc
 50
168
 51
-138
  0
LINE
  5
B18
330
A02
100
AcDbEntity
  8
Body
100
AcDbLine
 10
108.886
 20
98.0416
 30
0
 11
108.886
 21
98.0416
 31
10.0076
  0
LINE
  5
B19
330
A02
100
AcDbEntity
  8
Body
100
AcDbLine
 10
113.246
 20
96.368
 30
0
 11
113.246
 21
96.368
 31
10.0076
  0
ARC
  5
B1A
330
A02
100
AcDbEntity
  8
Body
100
AcDbCircle
 10
112.709
 20
101.483
 30
0
 40
5.1435
100
AcDbArc
 50
-138
 51
-84
  0
ARC
  5
B1B
330
A02
100
AcDbEntity
  8
Body
100
AcDbCircle
 10
112.709
 20
101.483
 30
10.0076
 40
5.1435
100
AcDbArc
 50
-138
 51
-84
  0
LINE
  5
B1C
330
A02
100
AcDbEntity
  8
Body
100
AcDbLine
 10
113.246
 20
96.368
 30
0
 11
113.246
 21
96.368
 31
10.0076
  0
LINE
  5
B1D
330
A02
100
AcDbEntity
  8
Body
100
AcDbLine
 10
117.059
 20
97.3563
 30
0
 11
117.059
 21
97.3563
 31
10.0076
  0
LINE
  5
B1E
330
A02
100
AcDbEntity
  8
Body
100
AcDbLine
 10
113.246
 20
96.368
 30
0
 11
117.059
 21
97.3563
 31
0
  0
LINE
  5
B1F
330
A02
100
AcDbEntity
  8
Body
100
AcDbLine
 10
113.246
 20
96.368
 30
10.0076
 11
117.059
 21
97.3563
 31
10.0076
  0
LINE
  5
B20
330
A02
100
AcDbEntity
  8
Body
100
AcDbLine
 10
117.059
 20
97.3563
 30
0
 11
117.059
 21
97.3563
 31
10.0076
  0
LINE
  5
B21
330
A02
100
AcDbEntity
  8
Body
100
AcDbLine
 10
118.457
 20
97.9516
 30
0
 11
118.457
 21
97.9516
 31
10.0076
  0
ARC
  5
B22
330
A02
100
AcDbEntity
  8
Body
100
AcDbCircle
 10
122.949
 20
85.4635
 30
0
 40
13.2715
100
AcDbArc
 50
109.785
 51
116.348
  0
ARC
  5
B23
330
A02
100
AcDbEntity
  8
Body
100
AcDbCircle
 10
122.949
 20
85.4635
 30
10.0076
 40
13.2715
100
AcDbArc
 50
109.785
 51
116.348
  0
LINE
  5
B24
330
A02
100
AcDbEntity
  8
Body
100
AcDbLine
 10
118.457
 20
97.9516
 30
0
 11
118.457
 21
97.9516
 31
10.0076
  0
LINE
  5
B25
330
A02
100
AcDbEntity
  8
Body
100
AcDbLine
 10
121.767
 20
98.6046
 30
0
 11
121.767
 21
98.6046
 31
10.0076
  0
ARC
  5
B26
330
A02
100
AcDbEntity
  8
Body
100
AcDbCircle
 10
121.66
 20
90.4291
 30
0
 40
8.17611
100
AcDbArc
 50
89.254
 51
113.067
  0
ARC
  5
B27
330
A02
100
AcDbEntity
  8
Body
100
AcDbCircle
 10
121.66
 20
90.4291
 30
10.0076
 40
8.17611
100
AcDbArc
 50
89.254
 51
113.067
  0
LINE
  5
B28
330
A02
100
AcDbEntity
  8
Body
100
AcDbLine
 10
121.767
 20
98.6046
 30
0
 11
121.767
 21
98.6046
 31
10.0076
  0
LINE
  5
B29
330
A02
100
AcDbEntity
  8
Body
100
AcDbLine
 10
120.44
 20
95.5028
 30
0
 11
120.44
 21
95.5028
 31
10.0076
  0
ARC
  5
B2A
330
A02
100
AcDbEntity
  8
Body
100
AcDbCircle
 10
113.748
 20
100.2
 30
0
 40
8.17611
100
AcDbArc
 50
-35.0667
 51
-11.254
  0
ARC
  5
B2B
330
A02
100
AcDbEntity
  8
Body
100
AcDbCircle
 10
113.748
 20
100.2
 30
10.0076
 40
8.17611
100
AcDbArc
 50
-35.0667
 51
-11.254
  0
LINE
  5
B2C
330
A02
100
AcDbEntity
  8
Body
100
AcDbLine
 10
120.44
 20
95.5028
 30
0
 11
120.44
 21
95.5028
 31
10.0076
  0
LINE
  5
B2D
330
A02
100
AcDbEntity
  8
Body
100
AcDbLine
 10
119.567
 20
94.2593
 30
0
 11
119.567
 21
94.2593
 31
10.0076
  0
LINE
  5
B2E
330
A02
100
AcDbEntity
  8
Body
100
AcDbLine
 10
120.44
 20
95.5028
 30
0
 11
119.567
 21
94.2593
 31
0
  0
LINE
  5
B2F
330
A02
100
AcDbEntity
  8
Body
100
AcDbLine
 10
120.44
 20
95.5028
 30
10.0076
 11
119.567
 21
94.2593
 31
10.0076
  0
LINE
  5
B30
330
A02
100
AcDbEntity
  8
Body
100
AcDbLine
 10
119.567
 20
94.2593
 30
0
 11
119.567
 21
94.2593
 31
10.0076
  0
LINE
  5
B31
330
A02
100
AcDbEntity
  8
Body
100
AcDbLine
 10
117.807
 20
90.7355
 30
0
 11
117.807
 21
90.7355
 31
10.0076
  0
ARC
  5
B32
330
A02
100
AcDbEntity
  8
Body
100
AcDbCircle
 10
130.429
 20
86.6344
 30
0
 40
13.2715
100
AcDbArc
 50
144.933
 51
162
  0
ARC
  5
B33
330
A02
100
AcDbEntity
  8
Body
100
AcDbCircle
 10
130.429
 20
86.6344
 30
10.0076
 40
13.2715
100
AcDbArc
 50
144.933
 51
162
  0
LINE
  5
B34
330
A02
100
AcDbEntity
  8
Body
100
AcDbLine
 10
117.807
 20
90.7355
 30
0
 11
117.807
 21
90.7355
 31
10.0076
  0
LINE
  5
B35
330
A02
100
AcDbEntity
  8
Body
100
AcDbLine
 10
118.538
 20
86.1228
 30
0
 11
118.538
 21
86.1228
 31
10.0076
  0
ARC
  5
B36
330
A02
100
AcDbEntity
  8
Body
100
AcDbCircle
 10
122.699
 20
89.1461
 30
0
 40
5.1435
100
AcDbArc
 50
162
 51
-144
  0
ARC
  5
B37
330
A02
100
AcDbEntity
  8
Body
100
AcDbCircle
 10
122.699
 20
89.1461
 30
10.0076
 40
5.1435
100
AcDbArc
 50
162
 51
-144
  0
LINE
  5
B38
330
A02
100
AcDbEntity
  8
Body
100
AcDbLine
 10
118.538
 20
86.1228
 30
0
 11
118.538
 21
86.1228
 31
10.0076
  0
LINE
  5
B39
330
A02
100
AcDbEntity
  8
Body
100
AcDbLine
 10
122.699
 20
84.0026
 30
0
 11
122.699
 21
84.0026
 31
10.0076
  0
ARC
  5
B3A
330
A02
100
AcDbEntity
  8
Body
100
AcDbCircle
 10
122.699
 20
89.1461
 30
0
 40
5.1435
100
AcDbArc
 50
-144
 51
-90
  0
ARC
  5
B3B
330
A02
100
AcDbEntity
  8
Body
100
AcDbCircle
 10
122.699
 20
89.1461
 30
10.0076
 40
5.1435
100
AcDbArc
 50
-144
 51
-90
  0
LINE
  5
B3C
330
A02
100
AcDbEntity
  8
Body
100
AcDbLine
 10
122.699
 20
84.0026
 30
0
 11
122.699
 21
84.0026
 31
10.0076
  0
LINE
  5
B3D
330
A02
100
AcDbEntity
  8
Body
100
AcDbLine
 10
126.594
 20
84.587
 30
0
 11
126.594
 21
84.587
 31
10.0076
  0
LINE
  5
B3E
330
A02
100
AcDbEntity
  8
Body
100
AcDbLine
 10
122.699
 20
84.0026
 30
0
 11
126.594
 21
84.587
 31
0
  0
LINE
  5
B3F
330
A02
100
AcDbEntity
  8
Body
100
AcDbLine
 10
122.699
 20
84.0026
 30
10.0076
 11
126.594
 21
84.587
 31
10.0076
  0
LINE
  5
B40
330
A02
100
AcDbEntity
  8
Body
100
AcDbLine
 10
126.594
 20
84.587
 30
0
 11
126.594
 21
84.587
 31
10.0076
  0
LINE
  5
B41
330
A02
100
AcDbEntity
  8
Body
100
AcDbLine
 10
128.046
 20
85.0329
 30
0
 11
128.046
 21
85.0329
 31
10.0076
  0
ARC
  5
B42
330
A02
100
AcDbEntity
  8
Body
100
AcDbCircle
 10
131.209
 20
72.1437
 30
0
 40
13.2715
100
AcDbArc
 50
103.785
 51
110.348
  0
ARC
  5
B43
330
A02
100
AcDbEntity
  8
Body
100
AcDbCircle
 10
131.209
 20
72.1437
 30
10.0076
 40
13.2715
100
AcDbArc
 50
103.785
 51
110.348
  0
LINE
  5
B44
330
A02
100
AcDbEntity
  8
Body
100
AcDbLine
 10
128.046
 20
85.0329
 30
0
 11
128.046
 21
85.0329
 31
10.0076
  0
LINE
  5
B45
330
A02
100
AcDbEntity
  8
Body
100
AcDbLine
 10
131.406
 20
85.3363
 30
0
 11
131.406
 21
85.3363
 31
10.0076
  0
ARC
  5
B46
330
A02
100
AcDbEntity
  8
Body
100
AcDbCircle
 10
130.446
 20
77.2168
 30
0
 40
8.17611
100
AcDbArc
 50
83.254
 51
107.067
  0
ARC
  5
B47
330
A02
100
AcDbEntity
  8
Body
100
AcDbCircle
 10
130.446
 20
77.2168
 30
10.0076
 40
8.17611
100
AcDbArc
 50
83.254
 51
107.067
  0
LINE
  5
B48
330
A02
100
AcDbEntity
  8
Body
100
AcDbLine
 10
131.406
 20
85.3363
 30
0
 11
131.406
 21
85.3363
 31
10.0076
  0
LINE
  5
B49
330
A02
100
AcDbEntity
  8
Body
100
AcDbLine
 10
129.763
 20
82.3902
 30
0
 11
129.763
 21
82.3902
 31
10.0076
  0
ARC
  5
B4A
330
A02
100
AcDbEntity
  8
Body
100
AcDbCircle
 10
123.598
 20
87.7614
 30
0
 40
8.17611
100
AcDbArc
 50
-41.0667
 51
-17.254
  0
ARC
  5
B4B
330
A02
100
AcDbEntity
  8
Body
100
AcDbCircle
 10
123.598
 20
87.7614
 30
10.0076
 40
8.17611
100
AcDbArc
 50
-41.0667
 51
-17.254
  0
LINE
  5
B4C
330
A02
100
AcDbEntity
  8
Body
100
AcDbLine
 10
129.763
 20
82.3902
 30
0
 11
129.763
 21
82.3902
 31
10.0076
  0
LINE
  5
B4D
330
A02
100
AcDbEntity
  8
Body
100
AcDbLine
 10
128.765
 20
81.2448
 30
0
 11
128.765
 21
81.2448
 31
10.0076
  0
LINE
  5
B4E
330
A02
100
AcDbEntity
  8
Body
100
AcDbLine
 10
129.763
 20
82.3902
 30
0
 11
128.765
 21
81.2448
 31
0
  0
LINE
  5
B4F
330
A02
100
AcDbEntity
  8
Body
100
AcDbLine
 10
129.763
 20
82.3902
 30
10.0076
 11
128.765
 21
81.2448
 31
10.0076
  0
LINE
  5
B50
330
A02
100
AcDbEntity
  8
Body
100
AcDbLine
 10
128.765
 20
81.2448
 30
0
 11
128.765
 21
81.2448
 31
10.0076
  0
LINE
  5
B51
330
A02
100
AcDbEntity
  8
Body
100
AcDbLine
 10
126.646
 20
77.9242
 30
0
 11
126.646
 21
77.9242
 31
10.0076
  0
ARC
  5
B52
330
A02
100
AcDbEntity
  8
Body
100
AcDbCircle
 10
138.77
 20
72.5262
 30
0
 40
13.2715
100
AcDbArc
 50
138.933
 51
156
  0
ARC
  5
B53
330
A02
100
AcDbEntity
  8
Body
100
AcDbCircle
 10
138.77
 20
72.5262
 30
10.0076
 40
13.2715
100
AcDbArc
 50
138.933
 51
156
  0
LINE
  5
B54
330
A02
100
AcDbEntity
  8
Body
100
AcDbLine
 10
126.646
 20
77.9242
 30
0
 11
126.646
 21
77.9242
 31
10.0076
  0
LINE
  5
B55
330
A02
100
AcDbEntity
  8
Body
100
AcDbLine
 10
126.891
 20
73.2604
 30
0
 11
126.891
 21
73.2604
 31
10.0076
  0
ARC
  5
B56
330
A02
100
AcDbEntity
  8
Body
100
AcDbCircle
 10
131.345
 20
75.8322
 30
0
 40
5.1435
100
AcDbArc
 50
156
 51
-150
  0
ARC
  5
B57
330
A02
100
AcDbEntity
  8
Body
100
AcDbCircle
 10
131.345
 20
75.8322
 30
10.0076
 40
5.1435
100
AcDbArc
 50
156
 51
-150
  0
LINE
  5
B58
330
A02
100
AcDbEntity
  8
Body
100
AcDbLine
 10
126.891
 20
73.2604
 30
0
 11
126.891
 21
73.2604
 31
10.0076
  0
LINE
  5
B59
330
A02
100
AcDbEntity
  8
Body
100
AcDbLine
 10
130.808
 20
70.7169
 30
0
 11
130.808
 21
70.7169
 31
10.0076
  0
ARC
  5
B5A
330
A02
100
AcDbEntity
  8
Body
100
AcDbCircle
 10
131.345
 20
75.8322
 30
0
 40
5.1435
100
AcDbArc
 50
-150
 51
-96
  0
ARC
  5
B5B
330
A02
100
AcDbEntity
  8
Body
100
AcDbCircle
 10
131.345
 20
75.8322
 30
10.0076
 40
5.1435
100
AcDbArc
 50
-150
 51
-96
  0
LINE
  5
B5C
330
A02
100
AcDbEntity
  8
Body
100
AcDbLine
 10
130.808
 20
70.7169
 30
0
 11
130.808
 21
70.7169
 31
10.0076
  0
LINE
  5
B5D
330
A02
100
AcDbEntity
  8
Body
100
AcDbLine
 10
134.742
 20
70.891
 30
0
 11
134.742
 21
70.891
 31
10.0076
  0
LINE
  5
B5E
330
A02
100
AcDbEntity
  8
Body
100
AcDbLine
 10
130.808
 20
70.7169
 30
0
 11
134.742
 21
70.891
 31
0
  0
LINE
  5
B5F
330
A02
100
AcDbEntity
  8
Body
100
AcDbLine
 10
130.808
 20
70.7169
 30
10.0076
 11
134.742
 21
70.891
 31
10.0076
  0
LINE
  5
B60
330
A02
100
AcDbEntity
  8
Body
100
AcDbLine
 10
134.742
 20
70.891
 30
0
 11
134.742
 21
70.891
 31
10.0076
  0
LINE
  5
B61
330
A02
100
AcDbEntity
  8
Body
100
AcDbLine
 10
136.233
 20
71.1826
 30
0
 11
136.233
 21
71.1826
 31
10.0076
  0
ARC
  5
B62
330
A02
100
AcDbEntity
  8
Body
100
AcDbCircle
 10
138.031
 20
58.0334
 30
0
 40
13.2715
100
AcDbArc
 50
97.7853
 51
104.348
  0
ARC
  5
B63
330
A02
100
AcDbEntity
  8
Body
100
AcDbCircle
 10
138.031
 20
58.0334
 30
10.0076
 40
13.2715
100
AcDbArc
 50
97.7853
 51
104.348
  0
LINE
  5
B64
330
A02
100
AcDbEntity
  8
Body
100
AcDbLine
 10
136.233
 20
71.1826
 30
0
 11
136.233
 21
71.1826
 31
10.0076
  0
LINE
  5
B65
330
A02
100
AcDbEntity
  8
Body
100
AcDbLine
 10
139.607
 20
71.1331
 30
0
 11
139.607
 21
71.1331
 31
10.0076
  0
ARC
  5
B66
330
A02
100
AcDbEntity
  8
Body
100
AcDbCircle
 10
137.803
 20
63.1585
 30
0
 40
8.17611
100
AcDbArc
 50
77.254
 51
101.067
  0
ARC
  5
B67
330
A02
100
AcDbEntity
  8
Body
100
AcDbCircle
 10
137.803
 20
63.1585
 30
10.0076
 40
8.17611
100
AcDbArc
 50
77.254
 51
101.067
  0
LINE
  5
B68
330
A02
100
AcDbEntity
  8
Body
100
AcDbLine
 10
139.607
 20
71.1331
 30
0
 11
139.607
 21
71.1331
 31
10.0076
  0
LINE
  5
B69
330
A02
100
AcDbEntity
  8
Body
100
AcDbLine
 10
137.664
 20
68.375
 30
0
 11
137.664
 21
68.375
 31
10.0076
  0
ARC
  5
B6A
330
A02
100
AcDbEntity
  8
Body
100
AcDbCircle
 10
132.095
 20
74.3611
 30
0
 40
8.17611
100
AcDbArc
 50
-47.0667
 51
-23.254
  0
ARC
  5
B6B
330
A02
100
AcDbEntity
  8
Body
100
AcDbCircle
 10
132.095
 20
74.3611
 30
10.0076
 40
8.17611
100
AcDbArc
 50
-47.0667
 51
-23.254
  0
LINE
  5
B6C
330
A02
100
AcDbEntity
  8
Body
100
AcDbLine
 10
137.664
 20
68.375
 30
0
 11
137.664
 21
68.375
 31
10.0076
  0
LINE
  5
B6D
330
A02
100
AcDbEntity
  8
Body
100
AcDbLine
 10
136.552
 20
67.3401
 30
0
 11
136.552
 21
67.3401
 31
10.0076
  0
LINE
  5
B6E
330
A02
100
AcDbEntity
  8
Body
100
AcDbLine
 10
137.664
 20
68.375
 30
0
 11
136.552
 21
67.3401
 31
0
  0
LINE
  5
B6F
330
A02
100
AcDbEntity
  8
Body
100
AcDbLine
 10
137.664
 20
68.375
 30
10.0076
 11
136.552
 21
67.3401
 31
10.0076
  0
LINE
  5
B70
330
A02
100
AcDbEntity
  8
Body
100
AcDbLine
 10
136.552
 20
67.3401
 30
0
 11
136.552
 21
67.3401
 31
10.0076
  0
LINE
  5
B71
330
A02
100
AcDbEntity
  8
Body
100
AcDbLine
 10
134.098
 20
64.2592
 30
0
 11
134.098
 21
64.2592
 31
10.0076
  0
ARC
  5
B72
330
A02
100
AcDbEntity
  8
Body
100
AcDbCircle
 10
145.591
 20
57.6235
 30
0
 40
13.2715
100
AcDbArc
 50
132.933
 51
150
  0
ARC
  5
B73
330
A02
100
AcDbEntity
  8
Body
100
AcDbCircle
 10
145.591
 20
57.6235
 30
10.0076
 40
13.2715
100
AcDbArc
 50
132.933
 51
150
  0
LINE
  5
B74
330
A02
100
AcDbEntity
  8
Body
100
AcDbLine
 10
134.098
 20
64.2592
 30
0
 11
134.098
 21
64.2592
 31
10.0076
  0
LINE
  5
B75
330
A02
100
AcDbEntity
  8
Body
100
AcDbLine
 10
133.853
 20
59.5954
 30
0
 11
133.853
 21
59.5954
 31
10.0076
  0
ARC
  5
B76
330
A02
100
AcDbEntity
  8
Body
100
AcDbCircle
 10
138.552
 20
61.6875
 30
0
 40
5.1435
100
AcDbArc
 50
150
 51
-156
  0
ARC
  5
B77
330
A02
100
AcDbEntity
  8
Body
100
AcDbCircle
 10
138.552
 20
61.6875
 30
10.0076
 40
5.1435
100
AcDbArc
 50
150
 51
-156
  0
LINE
  5
B78
330
A02
100
AcDbEntity
  8
Body
100
AcDbLine
 10
133.853
 20
59.5954
 30
0
 11
133.853
 21
59.5954
 31
10.0076
  0
LINE
  5
B79
330
A02
100
AcDbEntity
  8
Body
100
AcDbLine
 10
137.483
 20
56.6564
 30
0
 11
137.483
 21
56.6564
 31
10.0076
  0
ARC
  5
B7A
330
A02
100
AcDbEntity
  8
Body
100
AcDbCircle
 10
138.552
 20
61.6875
 30
0
 40
5.1435
100
AcDbArc
 50
-156
 51
-102
  0
ARC
  5
B7B
330
A02
100
AcDbEntity
  8
Body
100
AcDbCircle
 10
138.552
 20
61.6875
 30
10.0076
 40
5.1435
100
AcDbArc
 50
-156
 51
-102
  0
LINE
  5
B7C
330
A02
100
AcDbEntity
  8
Body
100
AcDbLine
 10
137.483
 20
56.6564
 30
0
 11
137.483
 21
56.6564
 31
10.0076
  0
LINE
  5
B7D
330
A02
100
AcDbEntity
  8
Body
100
AcDbLine
 10
141.414
 20
56.4182
 30
0
 11
141.414
 21
56.4182
 31
10.0076
  0
LINE
  5
B7E
330
A02
100
AcDbEntity
  8
Body
100
AcDbLine
 10
137.483
 20
56.6564
 30
0
 11
141.414
 21
56.4182
 31
0
  0
LINE
  5
B7F
330
A02
100
AcDbEntity
  8
Body
100
AcDbLine
 10
137.483
 20
56.6564
 30
10.0076
 11
141.414
 21
56.4182
 31
10.0076
  0
LINE
  5
B80
330
A02
100
AcDbEntity
  8
Body
100
AcDbLine
 10
141.414
 20
56.4182
 30
0
 11
141.414
 21
56.4182
 31
10.0076
  0
LINE
  5
B81
330
A02
100
AcDbEntity
  8
Body
100
AcDbLine
 10
142.928
 20
56.5524
 30
0
 11
142.928
 21
56.5524
 31
10.0076
  0
ARC
  5
B82
330
A02
100
AcDbEntity
  8
Body
100
AcDbCircle
 10
143.341
 20
43.2873
 30
0
 40
13.2715
100
AcDbArc
 50
91.7853
 51
98.3481
  0
ARC
  5
B83
330
A02
100
AcDbEntity
  8
Body
100
AcDbCircle
 10
143.341
 20
43.2873
 30
10.0076
 40
13.2715
100
AcDbArc
 50
91.7853
 51
98.3481
  0
LINE
  5
B84
330
A02
100
AcDbEntity
  8
Body
100
AcDbLine
 10
142.928
 20
56.5524
 30
0
 11
142.928
 21
56.5524
 31
10.0076
  0
LINE
  5
B85
330
A02
100
AcDbEntity
  8
Body
100
AcDbLine
 10
146.277
 20
56.1506
 30
0
 11
146.277
 21
56.1506
 31
10.0076
  0
ARC
  5
B86
330
A02
100
AcDbEntity
  8
Body
100
AcDbCircle
 10
143.65
 20
48.4082
 30
0
 40
8.17611
100
AcDbArc
 50
71.254
 51
95.0667
  0
ARC
  5
B87
330
A02
100
AcDbEntity
  8
Body
100
AcDbCircle
 10
143.65
 20
48.4082
 30
10.0076
 40
8.17611
100
AcDbArc
 50
71.254
 51
95.0667
  0
LINE
  5
B88
330
A02
100
AcDbEntity
  8
Body
100
AcDbLine
 10
146.277
 20
56.1506
 30
0
 11
146.277
 21
56.1506
 31
10.0076
  0
LINE
  5
B89
330
A02
100
AcDbEntity
  8
Body
100
AcDbLine
 10
144.057
 20
53.6107
 30
0
 11
144.057
 21
53.6107
 31
10.0076
  0
ARC
  5
B8A
330
A02
100
AcDbEntity
  8
Body
100
AcDbCircle
 10
139.144
 20
60.1461
 30
0
 40
8.17611
100
AcDbArc
 50
-53.0667
 51
-29.254
  0
ARC
  5
B8B
330
A02
100
AcDbEntity
  8
Body
100
AcDbCircle
 10
139.144
 20
60.1461
 30
10.0076
 40
8.17611
100
AcDbArc
 50
-53.0667
 51
-29.254
  0
LINE
  5
B8C
330
A02
100
AcDbEntity
  8
Body
100
AcDbLine
 10
144.057
 20
53.6107
 30
0
 11
144.057
 21
53.6107
 31
10.0076
  0
LINE
  5
B8D
330
A02
100
AcDbEntity
  8
Body
100
AcDbLine
 10
142.842
 20
52.6977
 30
0
 11
142.842
 21
52.6977
 31
10.0076
  0
LINE
  5
B8E
330
A02
100
AcDbEntity
  8
Body
100
AcDbLine
 10
144.057
 20
53.6107
 30
0
 11
142.842
 21
52.6977
 31
0
  0
LINE
  5
B8F
330
A02
100
AcDbEntity
  8
Body
100
AcDbLine
 10
144.057
 20
53.6107
 30
10.0076
 11
142.842
 21
52.6977
 31
10.0076
  0
LINE
  5
B90
330
A02
100
AcDbEntity
  8
Body
100
AcDbLine
 10
142.842
 20
52.6977
 30
0
 11
142.842
 21
52.6977
 31
10.0076
  0
LINE
  5
B91
330
A02
100
AcDbEntity
  8
Body
100
AcDbLine
 10
140.08
 20
49.8901
 30
0
 11
140.08
 21
49.8901
 31
10.0076
  0
ARC
  5
B92
330
A02
100
AcDbEntity
  8
Body
100
AcDbCircle
 10
150.817
 20
42.0894
 30
0
 40
13.2715
100
AcDbArc
 50
126.933
 51
144
  0
ARC
  5
B93
330
A02
100
AcDbEntity
  8
Body
100
AcDbCircle
 10
150.817
 20
42.0894
 30
10.0076
 40
13.2715
100
AcDbArc
 50
126.933
 51
144
  0
LINE
  5
B94
330
A02
100
AcDbEntity
  8
Body
100
AcDbLine
 10
140.08
 20
49.8901
 30
0
 11
140.08
 21
49.8901
 31
10.0076
  0
LINE
  5
B95
330
A02
100
AcDbEntity
  8
Body
100
AcDbLine
 10
139.35
 20
45.2774
 30
0
 11
139.35
 21
45.2774
 31
10.0076
  0
ARC
  5
B96
330
A02
100
AcDbEntity
  8
Body
100
AcDbCircle
 10
144.241
 20
46.8669
 30
0
 40
5.1435
100
AcDbArc
 50
144
 51
-162
  0
ARC
  5
B97
330
A02
100
AcDbEntity
  8
Body
100
AcDbCircle
 10
144.241
 20
46.8669
 30
10.0076
 40
5.1435
100
AcDbArc
 50
144
 51
-162
  0
LINE
  5
B98
330
A02
100
AcDbEntity
  8
Body
100
AcDbLine
 10
139.35
 20
45.2774
 30
0
 11
139.35
 21
45.2774
 31
10.0076
  0
LINE
  5
B99
330
A02
100
AcDbEntity
  8
Body
100
AcDbLine
 10
142.652
 20
41.9751
 30
0
 11
142.652
 21
41.9751
 31
10.0076
  0
ARC
  5
B9A
330
A02
100
AcDbEntity
  8
Body
100
AcDbCircle
 10
144.241
 20
46.8669
 30
0
 40
5.1435
100
AcDbArc
 50
-162
 51
-108
  0
ARC
  5
B9B
330
A02
100
AcDbEntity
  8
Body
100
AcDbCircle
 10
144.241
 20
46.8669
 30
10.0076
 40
5.1435
100
AcDbArc
 50
-162
 51
-108
  0
LINE
  5
B9C
330
A02
100
AcDbEntity
  8
Body
100
AcDbLine
 10
142.652
 20
41.9751
 30
0
 11
142.652
 21
41.9751
 31
10.0076
  0
LINE
  5
B9D
330
A02
100
AcDbEntity
  8
Body
100
AcDbLine
 10
146.537
 20
41.3273
 30
0
 11
146.537
 21
41.3273
 31
10.0076
  0
LINE
  5
B9E
330
A02
100
AcDbEntity
  8
Body
100
AcDbLine
 10
142.652
 20
41.9751
 30
0
 11
146.537
 21
41.3273
 31
0
  0
LINE
  5
B9F
330
A02
100
AcDbEntity
  8
Body
100
AcDbLine
 10
142.652
 20
41.9751
 30
10.0076
 11
146.537
 21
41.3273
 31
10.0076
  0
LINE
  5
BA0
330
A02
100
AcDbEntity
  8
Body
100
AcDbLine
 10
146.537
 20
41.3273
 30
0
 11
146.537
 21
41.3273
 31
10.0076
  0
LINE
  5
BA1
330
A02
100
AcDbEntity
  8
Body
100
AcDbLine
 10
148.056
 20
41.3026
 30
0
 11
148.056
 21
41.3026
 31
10.0076
  0
ARC
  5
BA2
330
A02
100
AcDbEntity
  8
Body
100
AcDbCircle
 10
147.081
 20
28.067
 30
0
 40
13.2715
100
AcDbArc
 50
85.7853
 51
92.3481
  0
ARC
  5
BA3
330
A02
100
AcDbEntity
  8
Body
100
AcDbCircle
 10
147.081
 20
28.067
 30
10.0076
 40
13.2715
100
AcDbArc
 50
85.7853
 51
92.3481
  0
LINE
  5
BA4
330
A02
100
AcDbEntity
  8
Body
100
AcDbLine
 10
148.056
 20
41.3026
 30
0
 11
148.056
 21
41.3026
 31
10.0076
  0
LINE
  5
BA5
330
A02
100
AcDbEntity
  8
Body
100
AcDbLine
 10
151.345
 20
40.5529
 30
0
 11
151.345
 21
40.5529
 31
10.0076
  0
ARC
  5
BA6
330
A02
100
AcDbEntity
  8
Body
100
AcDbCircle
 10
147.923
 20
33.1275
 30
0
 40
8.17611
100
AcDbArc
 50
65.254
 51
89.0667
  0
ARC
  5
BA7
330
A02
100
AcDbEntity
  8
Body
100
AcDbCircle
 10
147.923
 20
33.1275
 30
10.0076
 40
8.17611
100
AcDbArc
 50
65.254
 51
89.0667
  0
LINE
  5
BA8
330
A02
100
AcDbEntity
  8
Body
100
AcDbLine
 10
151.345
 20
40.5529
 30
0
 11
151.345
 21
40.5529
 31
10.0076
  0
LINE
  5
BA9
330
A02
100
AcDbEntity
  8
Body
100
AcDbLine
 10
148.872
 20
38.2589
 30
0
 11
148.872
 21
38.2589
 31
10.0076
  0
ARC
  5
BAA
330
A02
100
AcDbEntity
  8
Body
100
AcDbCircle
 10
144.669
 20
45.2721
 30
0
 40
8.17611
100
AcDbArc
 50
-59.0667
 51
-35.254
  0
ARC
  5
BAB
330
A02
100
AcDbEntity
  8
Body
100
AcDbCircle
 10
144.669
 20
45.2721
 30
10.0076
 40
8.17611
100
AcDbArc
 50
-59.0667
 51
-35.254
  0
LINE
  5
BAC
330
A02
100
AcDbEntity
  8
Body
100
AcDbLine
 10
148.872
 20
38.2589
 30
0
 11
148.872
 21
38.2589
 31
10.0076
  0
LINE
  5
BAD
330
A02
100
AcDbEntity
  8
Body
100
AcDbLine
 10
147.568
 20
37.4779
 30
0
 11
147.568
 21
37.4779
 31
10.0076
  0
LINE
  5
BAE
330
A02
100
AcDbEntity
  8
Body
100
AcDbLine
 10
148.872
 20
38.2589
 30
0
 11
147.568
 21
37.4779
 31
0
  0
LINE
  5
BAF
330
A02
100
AcDbEntity
  8
Body
100
AcDbLine
 10
148.872
 20
38.2589
 30
10.0076
 11
147.568
 21
37.4779
 31
10.0076
  0
LINE
  5
BB0
330
A02
100
AcDbEntity
  8
Body
100
AcDbLine
 10
147.568
 20
37.4779
 30
0
 11
147.568
 21
37.4779
 31
10.0076
  0
LINE
  5
BB1
330
A02
100
AcDbEntity
  8
Body
100
AcDbLine
 10
144.528
 20
34.9745
 30
0
 11
144.528
 21
34.9745
 31
10.0076
  0
ARC
  5
BB2
330
A02
100
AcDbEntity
  8
Body
100
AcDbCircle
 10
154.39
 20
26.0941
 30
0
 40
13.2715
100
AcDbArc
 50
120.933
 51
138
  0
ARC
  5
BB3
330
A02
100
AcDbEntity
  8
Body
100
AcDbCircle
 10
154.39
 20
26.0941
 30
10.0076
 40
13.2715
100
AcDbArc
 50
120.933
 51
138
  0
LINE
  5
BB4
330
A02
100
AcDbEntity
  8
Body
100
AcDbLine
 10
144.528
 20
34.9745
 30
0
 11
144.528
 21
34.9745
 31
10.0076
  0
LINE
  5
BB5
330
A02
100
AcDbEntity
  8
Body
100
AcDbLine
 10
143.319
 20
30.4634
 30
0
 11
143.319
 21
30.4634
 31
10.0076
  0
ARC
  5
BB6
330
A02
100
AcDbEntity
  8
Body
100
AcDbCircle
 10
148.35
 20
31.5328
 30
0
 40
5.1435
100
AcDbArc
 50
138
 51
-168
  0
ARC
  5
BB7
330
A02
100
AcDbEntity
  8
Body
100
AcDbCircle
 10
148.35
 20
31.5328
 30
10.0076
 40
5.1435
100
AcDbArc
 50
138
 51
-168
  0
LINE
  5
BB8
330
A02
100
AcDbEntity
  8
Body
100
AcDbLine
 10
143.319
 20
30.4634
 30
0
 11
143.319
 21
30.4634
 31
10.0076
  0
LINE
  5
BB9
330
A02
100
AcDbEntity
  8
Body
100
AcDbLine
 10
146.258
 20
26.834
 30
0
 11
146.258
 21
26.834
 31
10.0076
  0
ARC
  5
BBA
330
A02
100
AcDbEntity
  8
Body
100
AcDbCircle
 10
148.35
 20
31.5328
 30
0
 40
5.1435
100
AcDbArc
 50
-168
 51
-114
  0
ARC
  5
BBB
330
A02
100
AcDbEntity
  8
Body
100
AcDbCircle
 10
148.35
 20
31.5328
 30
10.0076
 40
5.1435
100
AcDbArc
 50
-168
 51
-114
  0
LINE
  5
BBC
330
A02
100
AcDbEntity
  8
Body
100
AcDbLine
 10
146.258
 20
26.834
 30
0
 11
146.258
 21
26.834
 31
10.0076
  0
LINE
  5
BBD
330
A02
100
AcDbEntity
  8
Body
100
AcDbLine
 10
150.054
 20
25.7836
 30
0
 11
150.054
 21
25.7836
 31
10.0076
  0
LINE
  5
BBE
330
A02
100
AcDbEntity
  8
Body
100
AcDbLine
 10
146.258
 20
26.834
 30
0
 11
150.054
 21
25.7836
 31
0
  0
LINE
  5
BBF
330
A02
100
AcDbEntity
  8
Body
100
AcDbLine
 10
146.258
 20
26.834
 30
10.0076
 11
150.054
 21
25.7836
 31
10.0076
  0
LINE
  5
BC0
330
A02
100
AcDbEntity
  8
Body
100
AcDbLine
 10
150.054
 20
25.7836
 30
0
 11
150.054
 21
25.7836
 31
10.0076
  0
LINE
  5
BC1
330
A02
100
AcDbEntity
  8
Body
100
AcDbLine
 10
151.562
 20
25.6002
 30
0
 11
151.562
 21
25.6002
 31
10.0076
  0
ARC
  5
BC2
330
A02
100
AcDbEntity
  8
Body
100
AcDbCircle
 10
149.209
 20
12.5391
 30
0
 40
13.2715
100
AcDbArc
 50
79.7853
 51
86.3481
  0
ARC
  5
BC3
330
A02
100
AcDbEntity
  8
Body
100
AcDbCircle
 10
149.209
 20
12.5391
 30
10.0076
 40
13.2715
100
AcDbArc
 50
79.7853
 51
86.3481
  0
LINE
  5
BC4
330
A02
100
AcDbEntity
  8
Body
100
AcDbLine
 10
151.562
 20
25.6002
 30
0
 11
151.562
 21
25.6002
 31
10.0076
  0
LINE
  5
BC5
330
A02
100
AcDbEntity
  8
Body
100
AcDbLine
 10
154.755
 20
24.5108
 30
0
 11
154.755
 21
24.5108
 31
10.0076
  0
ARC
  5
BC6
330
A02
100
AcDbEntity
  8
Body
100
AcDbCircle
 10
150.575
 20
17.4839
 30
0
 40
8.17611
100
AcDbArc
 50
59.254
 51
83.0667
  0
ARC
  5
BC7
330
A02
100
AcDbEntity
  8
Body
100
AcDbCircle
 10
150.575
 20
17.4839
 30
10.0076
 40
8.17611
100
AcDbArc
 50
59.254
 51
83.0667
  0
LINE
  5
BC8
330
A02
100
AcDbEntity
  8
Body
100
AcDbLine
 10
154.755
 20
24.5108
 30
0
 11
154.755
 21
24.5108
 31
10.0076
  0
LINE
  5
BC9
330
A02
100
AcDbEntity
  8
Body
100
AcDbLine
 10
152.055
 20
22.488
 30
0
 11
152.055
 21
22.488
 31
10.0076
  0
ARC
  5
BCA
330
A02
100
AcDbEntity
  8
Body
100
AcDbCircle
 10
148.608
 20
29.9021
 30
0
 40
8.17611
100
AcDbArc
 50
-65.0667
 51
-41.254
  0
ARC
  5
BCB
330
A02
100
AcDbEntity
  8
Body
100
AcDbCircle
 10
148.608
 20
29.9021
 30
10.0076
 40
8.17611
100
AcDbArc
 50
-65.0667
 51
-41.254
  0
LINE
  5
BCC
330
A02
100
AcDbEntity
  8
Body
100
AcDbLine
 10
152.055
 20
22.488
 30
0
 11
152.055
 21
22.488
 31
10.0076
  0
LINE
  5
BCD
330
A02
100
AcDbEntity
  8
Body
100
AcDbLine
 10
150.677
 20
21.8475
 30
0
 11
150.677
 21
21.8475
 31
10.0076
  0
LINE
  5
BCE
330
A02
100
AcDbEntity
  8
Body
100
AcDbLine
 10
152.055
 20
22.488
 30
0
 11
150.677
 21
21.8475
 31
0
  0
LINE
  5
BCF
330
A02
100
AcDbEntity
  8
Body
100
AcDbLine
 10
152.055
 20
22.488
 30
10.0076
 11
150.677
 21
21.8475
 31
10.0076
  0
LINE
  5
BD0
330
A02
100
AcDbEntity
  8
Body
100
AcDbLine
 10
150.677
 20
21.8475
 30
0
 11
150.677
 21
21.8475
 31
10.0076
  0
LINE
  5
BD1
330
A02
100
AcDbEntity
  8
Body
100
AcDbLine
 10
147.392
 20
19.6756
 30
0
 11
147.392
 21
19.6756
 31
10.0076
  0
ARC
  5
BD2
330
A02
100
AcDbEntity
  8
Body
100
AcDbCircle
 10
156.272
 20
9.81296
 30
0
 40
13.2715
100
AcDbArc
 50
114.933
 51
132
  0
ARC
  5
BD3
330
A02
100
AcDbEntity
  8
Body
100
AcDbCircle
 10
156.272
 20
9.81296
 30
10.0076
 40
13.2715
100
AcDbArc
 50
114.933
 51
132
  0
LINE
  5
BD4
330
A02
100
AcDbEntity
  8
Body
100
AcDbLine
 10
147.392
 20
19.6756
 30
0
 11
147.392
 21
19.6756
 31
10.0076
  0
LINE
  5
BD5
330
A02
100
AcDbEntity
  8
Body
100
AcDbLine
 10
145.718
 20
15.3156
 30
0
 11
145.718
 21
15.3156
 31
10.0076
  0
ARC
  5
BD6
330
A02
100
AcDbEntity
  8
Body
100
AcDbCircle
 10
150.834
 20
15.8532
 30
0
 40
5.1435
100
AcDbArc
 50
132
 51
-174
  0
ARC
  5
BD7
330
A02
100
AcDbEntity
  8
Body
100
AcDbCircle
 10
150.834
 20
15.8532
 30
10.0076
 40
5.1435
100
AcDbArc
 50
132
 51
-174
  0
LINE
  5
BD8
330
A02
100
AcDbEntity
  8
Body
100
AcDbLine
 10
145.718
 20
15.3156
 30
0
 11
145.718
 21
15.3156
 31
10.0076
  0
LINE
  5
BD9
330
A02
100
AcDbEntity
  8
Body
100
AcDbLine
 10
148.262
 20
11.3988
 30
0
 11
148.262
 21
11.3988
 31
10.0076
  0
ARC
  5
BDA
330
A02
100
AcDbEntity
  8
Body
100
AcDbCircle
 10
150.834
 20
15.8532
 30
0
 40
5.1435
100
AcDbArc
 50
-174
 51
-120
  0
ARC
  5
BDB
330
A02
100
AcDbEntity
  8
Body
100
AcDbCircle
 10
150.834
 20
15.8532
 30
10.0076
 40
5.1435
100
AcDbArc
 50
-174
 51
-120
  0
LINE
  5
BDC
330
A02
100
AcDbEntity
  8
Body
100
AcDbLine
 10
148.262
 20
11.3988
 30
0
 11
148.262
 21
11.3988
 31
10.0076
  0
LINE
  5
BDD
330
A02
100
AcDbEntity
  8
Body
100
AcDbLine
 10
151.927
 20
9.95748
 30
0
 11
151.927
 21
9.95748
 31
10.0076
  0
LINE
  5
BDE
330
A02
100
AcDbEntity
  8
Body
100
AcDbLine
 10
148.262
 20
11.3988
 30
0
 11
151.927
 21
9.95748
 31
0
  0
LINE
  5
BDF
330
A02
100
AcDbEntity
  8
Body
100
AcDbLine
 10
148.262
 20
11.3988
 30
10.0076
 11
151.927
 21
9.95748
 31
10.0076
  0
LINE
  5
BE0
330
A02
100
AcDbEntity
  8
Body
100
AcDbLine
 10
151.927
 20
9.95748
 30
0
 11
151.927
 21
9.95748
 31
10.0076
  0
LINE
  5
BE1
330
A02
100
AcDbEntity
  8
Body
100
AcDbLine
 10
153.408
 20
9.61743
 30
0
 11
153.408
 21
9.61743
 31
10.0076
  0
ARC
  5
BE2
330
A02
100
AcDbEntity
  8
Body
100
AcDbCircle
 10
149.702
 20
-3.12615
 30
0
 40
13.2715
100
AcDbArc
 50
73.7853
 51
80.3481
  0
ARC
  5
BE3
330
A02
100
AcDbEntity
  8
Body
100
AcDbCircle
 10
149.702
 20
-3.12615
 30
10.0076
 40
13.2715
100
AcDbArc
 50
73.7853
 51
80.3481
  0
LINE
  5
BE4
330
A02
100
AcDbEntity
  8
Body
100
AcDbLine
 10
153.408
 20
9.61743
 30
0
 11
153.408
 21
9.61743
 31
10.0076
  0
LINE
  5
BE5
330
A02
100
AcDbEntity
  8
Body
100
AcDbLine
 10
156.469
 20
8.20022
 30
0
 11
156.469
 21
8.20022
 31
10.0076
  0
ARC
  5
BE6
330
A02
100
AcDbEntity
  8
Body
100
AcDbCircle
 10
151.578
 20
1.64874
 30
0
 40
8.17611
100
AcDbArc
 50
53.254
 51
77.0667
  0
ARC
  5
BE7
330
A02
100
AcDbEntity
  8
Body
100
AcDbCircle
 10
151.578
 20
1.64874
 30
10.0076
 40
8.17611
100
AcDbArc
 50
53.254
 51
77.0667
  0
LINE
  5
BE8
330
A02
100
AcDbEntity
  8
Body
100
AcDbLine
 10
156.469
 20
8.20022
 30
0
 11
156.469
 21
8.20022
 31
10.0076
  0
LINE
  5
BE9
330
A02
100
AcDbEntity
  8
Body
100
AcDbLine
 10
153.573
 20
6.47075
 30
0
 11
153.573
 21
6.47075
 31
10.0076
  0
ARC
  5
BEA
330
A02
100
AcDbEntity
  8
Body
100
AcDbCircle
 10
150.92
 20
14.2045
 30
0
 40
8.17611
100
AcDbArc
 50
-71.0667
 51
-47.254
  0
ARC
  5
BEB
330
A02
100
AcDbEntity
  8
Body
100
AcDbCircle
 10
150.92
 20
14.2045
 30
10.0076
 40
8.17611
100
AcDbArc
 50
-71.0667
 51
-47.254
  0
LINE
  5
BEC
330
A02
100
AcDbEntity
  8
Body
100
AcDbLine
 10
153.573
 20
6.47075
 30
0
 11
153.573
 21
6.47075
 31
10.0076
  0
LINE
  5
BED
330
A02
100
AcDbEntity
  8
Body
100
AcDbLine
 10
152.136
 20
5.97778
 30
0
 11
152.136
 21
5.97778
 31
10.0076
  0
LINE
  5
BEE
330
A02
100
AcDbEntity
  8
Body
100
AcDbLine
 10
153.573
 20
6.47075
 30
0
 11
152.136
 21
5.97778
 31
0
  0
LINE
  5
BEF
330
A02
100
AcDbEntity
  8
Body
100
AcDbLine
 10
153.573
 20
6.47075
 30
10.0076
 11
152.136
 21
5.97778
 31
10.0076
  0
LINE
  5
BF0
330
A02
100
AcDbEntity
  8
Body
100
AcDbLine
 10
152.136
 20
5.97778
 30
0
 11
152.136
 21
5.97778
 31
10.0076
  0
LINE
  5
BF1
330
A02
100
AcDbEntity
  8
Body
100
AcDbLine
 10
148.641
 20
4.16118
 30
0
 11
148.641
 21
4.16118
 31
10.0076
  0
ARC
  5
BF2
330
A02
100
AcDbEntity
  8
Body
100
AcDbCircle
 10
156.442
 20
-6.57569
 30
0
 40
13.2715
100
AcDbArc
 50
108.933
 51
126
  0
ARC
  5
BF3
330
A02
100
AcDbEntity
  8
Body
100
AcDbCircle
 10
156.442
 20
-6.57569
 30
10.0076
 40
13.2715
100
AcDbArc
 50
108.933
 51
126
  0
LINE
  5
BF4
330
A02
100
AcDbEntity
  8
Body
100
AcDbLine
 10
148.641
 20
4.16118
 30
0
 11
148.641
 21
4.16118
 31
10.0076
  0
LINE
  5
BF5
330
A02
100
AcDbEntity
  8
Body
100
AcDbLine
 10
146.521
 20
-2.3494e-14
 30
0
 11
146.521
 21
-2.3494e-14
 31
10.0076
  0
ARC
  5
BF6
330
A02
100
AcDbEntity
  8
Body
100
AcDbCircle
 10
151.664
 20
6.77236e-15
 30
0
 40
5.1435
100
AcDbArc
 50
126
 51
-180
  0
ARC
  5
BF7
330
A02
100
AcDbEntity
  8
Body
100
AcDbCircle
 10
151.664
 20
6.77236e-15
 30
10.0076
 40
5.1435
100
AcDbArc
 50
126
 51
-180
  0
LINE
  5
BF8
330
A02
100
AcDbEntity
  8
Body
100
AcDbLine
 10
146.521
 20
-2.3494e-14
 30
0
 11
146.521
 21
-2.3494e-14
 31
10.0076
  0
LINE
  5
BF9
330
A02
100
AcDbEntity
  8
Body
100
AcDbLine
 10
148.641
 20
-4.16118
 30
0
 11
148.641
 21
-4.16118
 31
10.0076
  0
ARC
  5
BFA
330
A02
100
AcDbEntity
  8
Body
100
AcDbCircle
 10
151.664
 20
-5.67324e-14
 30
0
 40
5.1435
100
AcDbArc
 50
180
 51
-126
  0
ARC
  5
BFB
330
A02
100
AcDbEntity
  8
Body
100
AcDbCircle
 10
151.664
 20
-5.67324e-14
 30
10.0076
 40
5.1435
100
AcDbArc
 50
180
 51
-126
  0
LINE
  5
BFC
330
A02
100
AcDbEntity
  8
Body
100
AcDbLine
 10
148.641
 20
-4.16118
 30
0
 11
148.641
 21
-4.16118
 31
10.0076
  0
LINE
  5
BFD
330
A02
100
AcDbEntity
  8
Body
100
AcDbLine
 10
152.136
 20
-5.97778
 30
0
 11
152.136
 21
-5.97778
 31
10.0076
  0
LINE
  5
BFE
330
A02
100
AcDbEntity
  8
Body
100
AcDbLine
 10
148.641
 20
-4.16118
 30
0
 11
152.136
 21
-5.97778
 31
0
  0
LINE
  5
BFF
330
A02
100
AcDbEntity
  8
Body
100
AcDbLine
 10
148.641
 20
-4.16118
 30
10.0076
 11
152.136
 21
-5.97778
 31
10.0076
  0
LINE
  5
C00
330
A02
100
AcDbEntity
  8
Body
100
AcDbLine
 10
152.136
 20
-5.97778
 30
0
 11
152.136
 21
-5.97778
 31
10.0076
  0
LINE
  5
C01
330
A02
100
AcDbEntity
  8
Body
100
AcDbLine
 10
153.573
 20
-6.47075
 30
0
 11
153.573
 21
-6.47075
 31
10.0076
  0
ARC
  5
C02
330
A02
100
AcDbEntity
  8
Body
100
AcDbCircle
 10
148.555
 20
-18.7571
 30
0
 40
13.2715
100
AcDbArc
 50
67.7853
 51
74.3481
  0
ARC
  5
C03
330
A02
100
AcDbEntity
  8
Body
100
AcDbCircle
 10
148.555
 20
-18.7571
 30
10.0076
 40
13.2715
100
AcDbArc
 50
67.7853
 51
74.3481
  0
LINE
  5
C04
330
A02
100
AcDbEntity
  8
Body
100
AcDbLine
 10
153.573
 20
-6.47075
 30
0
 11
153.573
 21
-6.47075
 31
10.0076
  0
LINE
  5
C05
330
A02
100
AcDbEntity
  8
Body
100
AcDbLine
 10
156.469
 20
-8.20022
 30
0
 11
156.469
 21
-8.20022
 31
10.0076
  0
ARC
  5
C06
330
A02
100
AcDbEntity
  8
Body
100
AcDbCircle
 10
150.92
 20
-14.2045
 30
0
 40
8.17611
100
AcDbArc
 50
47.254
 51
71.0667
  0
ARC
  5
C07
330
A02
100
AcDbEntity
  8
Body
100
AcDbCircle
 10
150.92
 20
-14.2045
 30
10.0076
 40
8.17611
100
AcDbArc
 50
47.254
 51
71.0667
  0
LINE
  5
C08
330
A02
100
AcDbEntity
  8
Body
100
AcDbLine
 10
156.469
 20
-8.20022
 30
0
 11
156.469
 21
-8.20022
 31
10.0076
  0
LINE
  5
C09
330
A02
100
AcDbEntity
  8
Body
100
AcDbLine
 10
153.408
 20
-9.61743
 30
0
 11
153.408
 21
-9.61743
 31
10.0076
  0
ARC
  5
C0A
330
A02
100
AcDbEntity
  8
Body
100
AcDbCircle
 10
151.578
 20
-1.64874
 30
0
 40
8.17611
100
AcDbArc
 50
-77.0667
 51
-53.254
  0
ARC
  5
C0B
330
A02
100
AcDbEntity
  8
Body
100
AcDbCircle
 10
151.578
 20
-1.64874
 30
10.0076
 40
8.17611
100
AcDbArc
 50
-77.0667
 51
-53.254
  0
LINE
  5
C0C
330
A02
100
AcDbEntity
  8
Body
100
AcDbLine
 10
153.408
 20
-9.61743
 30
0
 11
153.408
 21
-9.61743
 31
10.0076
  0
LINE
  5
C0D
330
A02
100
AcDbEntity
  8
Body
100
AcDbLine
 10
151.927
 20
-9.95748
 30
0
 11
151.927
 21
-9.95748
 31
10.0076
  0
LINE
  5
C0E
330
A02
100
AcDbEntity
  8
Body
100
AcDbLine
 10
153.408
 20
-9.61743
 30
0
 11
151.927
 21
-9.95748
 31
0
  0
LINE
  5
C0F
330
A02
100
AcDbEntity
  8
Body
100
AcDbLine
 10
153.408
 20
-9.61743
 30
10.0076
 11
151.927
 21
-9.95748
 31
10.0076
  0
LINE
  5
C10
330
A02
100
AcDbEntity
  8
Body
100
AcDbLine
 10
151.927
 20
-9.95748
 30
0
 11
151.927
 21
-9.95748
 31
10.0076
  0
LINE
  5
C11
330
A02
100
AcDbEntity
  8
Body
100
AcDbLine
 10
148.262
 20
-11.3988
 30
0
 11
148.262
 21
-11.3988
 31
10.0076
  0
ARC
  5
C12
330
A02
100
AcDbEntity
  8
Body
100
AcDbCircle
 10
154.898
 20
-22.8923
 30
0
 40
13.2715
100
AcDbArc
 50
102.933
 51
120
  0
ARC
  5
C13
330
A02
100
AcDbEntity
  8
Body
100
AcDbCircle
 10
154.898
 20
-22.8923
 30
10.0076
 40
13.2715
100
AcDbArc
 50
102.933
 51
120
  0
LINE
  5
C14
330
A02
100
AcDbEntity
  8
Body
100
AcDbLine
 10
148.262
 20
-11.3988
 30
0
 11
148.262
 21
-11.3988
 31
10.0076
  0
LINE
  5
C15
330
A02
100
AcDbEntity
  8
Body
100
AcDbLine
 10
145.718
 20
-15.3156
 30
0
 11
145.718
 21
-15.3156
 31
10.0076
  0
ARC
  5
C16
330
A02
100
AcDbEntity
  8
Body
100
AcDbCircle
 10
150.834
 20
-15.8532
 30
0
 40
5.1435
100
AcDbArc
 50
120
 51
174
  0
ARC
  5
C17
330
A02
100
AcDbEntity
  8
Body
100
AcDbCircle
 10
150.834
 20
-15.8532
 30
10.0076
 40
5.1435
100
AcDbArc
 50
120
 51
174
  0
LINE
  5
C18
330
A02
100
AcDbEntity
  8
Body
100
AcDbLine
 10
145.718
 20
-15.3156
 30
0
 11
145.718
 21
-15.3156
 31
10.0076
  0
LINE
  5
C19
330
A02
100
AcDbEntity
  8
Body
100
AcDbLine
 10
147.392
 20
-19.6756
 30
0
 11
147.392
 21
-19.6756
 31
10.0076
  0
ARC
  5
C1A
330
A02
100
AcDbEntity
  8
Body
100
AcDbCircle
 10
150.834
 20
-15.8532
 30
0
 40
5.1435
100
AcDbArc
 50
174
 51
-132
  0
ARC
  5
C1B
330
A02
100
AcDbEntity
  8
Body
100
AcDbCircle
 10
150.834
 20
-15.8532
 30
10.0076
 40
5.1435
100
AcDbArc
 50
174
 51
-132
  0
LINE
  5
C1C
330
A02
100
AcDbEntity
  8
Body
100
AcDbLine
 10
147.392
 20
-19.6756
 30
0
 11
147.392
 21
-19.6756
 31
10.0076
  0
LINE
  5
C1D
330
A02
100
AcDbEntity
  8
Body
100
AcDbLine
 10
150.677
 20
-21.8475
 30
0
 11
150.677
 21
-21.8475
 31
10.0076
  0
LINE
  5
C1E
330
A02
100
AcDbEntity
  8
Body
100
AcDbLine
 10
147.392
 20
-19.6756
 30
0
 11
150.677
 21
-21.8475
 31
0
  0
LINE
  5
C1F
330
A02
100
AcDbEntity
  8
Body
100
AcDbLine
 10
147.392
 20
-19.6756
 30
10.0076
 11
150.677
 21
-21.8475
 31
10.0076
  0
LINE
  5
C20
330
A02
100
AcDbEntity
  8
Body
100
AcDbLine
 10
150.677
 20
-21.8475
 30
0
 11
150.677
 21
-21.8475
 31
10.0076
  0
LINE
  5
C21
330
A02
100
AcDbEntity
  8
Body
100
AcDbLine
 10
152.055
 20
-22.488
 30
0
 11
152.055
 21
-22.488
 31
10.0076
  0
ARC
  5
C22
330
A02
100
AcDbEntity
  8
Body
100
AcDbCircle
 10
145.781
 20
-34.1826
 30
0
 40
13.2715
100
AcDbArc
 50
61.7853
 51
68.3481
  0
ARC
  5
C23
330
A02
100
AcDbEntity
  8
Body
100
AcDbCircle
 10
145.781
 20
-34.1826
 30
10.0076
 40
13.2715
100
AcDbArc
 50
61.7853
 51
68.3481
  0
LINE
  5
C24
330
A02
100
AcDbEntity
  8
Body
100
AcDbLine
 10
152.055
 20
-22.488
 30
0
 11
152.055
 21
-22.488
 31
10.0076
  0
LINE
  5
C25
330
A02
100
AcDbEntity
  8
Body
100
AcDbLine
 10
154.755
 20
-24.5108
 30
0
 11
154.755
 21
-24.5108
 31
10.0076
  0
ARC
  5
C26
330
A02
100
AcDbEntity
  8
Body
100
AcDbCircle
 10
148.608
 20
-29.9021
 30
0
 40
8.17611
100
AcDbArc
 50
41.254
 51
65.0667
  0
ARC
  5
C27
330
A02
100
AcDbEntity
  8
Body
100
AcDbCircle
 10
148.608
 20
-29.9021
 30
10.0076
 40
8.17611
100
AcDbArc
 50
41.254
 51
65.0667
  0
LINE
  5
C28
330
A02
100
AcDbEntity
  8
Body
100
AcDbLine
 10
154.755
 20
-24.5108
 30
0
 11
154.755
 21
-24.5108
 31
10.0076
  0
LINE
  5
C29
330
A02
100
AcDbEntity
  8
Body
100
AcDbLine
 10
151.562
 20
-25.6002
 30
0
 11
151.562
 21
-25.6002
 31
10.0076
  0
ARC
  5
C2A
330
A02
100
AcDbEntity
  8
Body
100
AcDbCircle
 10
150.575
 20
-17.4839
 30
0
 40
8.17611
100
AcDbArc
 50
-83.0667
 51
-59.254
  0
ARC
  5
C2B
330
A02
100
AcDbEntity
  8
Body
100
AcDbCircle
 10
150.575
 20
-17.4839
 30
10.0076
 40
8.17611
100
AcDbArc
 50
-83.0667
 51
-59.254
  0
LINE
  5
C2C
330
A02
100
AcDbEntity
  8
Body
100
AcDbLine
 10
151.562
 20
-25.6002
 30
0
 11
151.562
 21
-25.6002
 31
10.0076
  0
LINE
  5
C2D
330
A02
100
AcDbEntity
  8
Body
100
AcDbLine
 10
150.054
 20
-25.7836
 30
0
 11
150.054
 21
-25.7836
 31
10.0076
  0
LINE
  5
C2E
330
A02
100
AcDbEntity
  8
Body
100
AcDbLine
 10
151.562
 20
-25.6002
 30
0
 11
150.054
 21
-25.7836
 31
0
  0
LINE
  5
C2F
330
A02
100
AcDbEntity
  8
Body
100
AcDbLine
 10
151.562
 20
-25.6002
 30
10.0076
 11
150.054
 21
-25.7836
 31
10.0076
  0
LINE
  5
C30
330
A02
100
AcDbEntity
  8
Body
100
AcDbLine
 10
150.054
 20
-25.7836
 30
0
 11
150.054
 21
-25.7836
 31
10.0076
  0
LINE
  5
C31
330
A02
100
AcDbEntity
  8
Body
100
AcDbLine
 10
146.258
 20
-26.834
 30
0
 11
146.258
 21
-26.834
 31
10.0076
  0
ARC
  5
C32
330
A02
100
AcDbEntity
  8
Body
100
AcDbCircle
 10
151.656
 20
-38.9581
 30
0
 40
13.2715
100
AcDbArc
 50
96.9333
 51
114
  0
ARC
  5
C33
330
A02
100
AcDbEntity
  8
Body
100
AcDbCircle
 10
151.656
 20
-38.9581
 30
10.0076
 40
13.2715
100
AcDbArc
 50
96.9333
 51
114
  0
LINE
  5
C34
330
A02
100
AcDbEntity
  8
Body
100
AcDbLine
 10
146.258
 20
-26.834
 30
0
 11
146.258
 21
-26.834
 31
10.0076
  0
LINE
  5
C35
330
A02
100
AcDbEntity
  8
Body
100
AcDbLine
 10
143.319
 20
-30.4634
 30
0
 11
143.319
 21
-30.4634
 31
10.0076
  0
ARC
  5
C36
330
A02
100
AcDbEntity
  8
Body
100
AcDbCircle
 10
148.35
 20
-31.5328
 30
0
 40
5.1435
100
AcDbArc
 50
114
 51
168
  0
ARC
  5
C37
330
A02
100
AcDbEntity
  8
Body
100
AcDbCircle
 10
148.35
 20
-31.5328
 30
10.0076
 40
5.1435
100
AcDbArc
 50
114
 51
168
  0
LINE
  5
C38
330
A02
100
AcDbEntity
  8
Body
100
AcDbLine
 10
143.319
 20
-30.4634
 30
0
 11
143.319
 21
-30.4634
 31
10.0076
  0
LINE
  5
C39
330
A02
100
AcDbEntity
  8
Body
100
AcDbLine
 10
144.528
 20
-34.9745
 30
0
 11
144.528
 21
-34.9745
 31
10.0076
  0
ARC
  5
C3A
330
A02
100
AcDbEntity
  8
Body
100
AcDbCircle
 10
148.35
 20
-31.5328
 30
0
 40
5.1435
100
AcDbArc
 50
168
 51
-138
  0
ARC
  5
C3B
330
A02
100
AcDbEntity
  8
Body
100
AcDbCircle
 10
148.35
 20
-31.5328
 30
10.0076
 40
5.1435
100
AcDbArc
 50
168
 51
-138
  0
LINE
  5
C3C
330
A02
100
AcDbEntity
  8
Body
100
AcDbLine
 10
144.528
 20
-34.9745
 30
0
 11
144.528
 21
-34.9745
 31
10.0076
  0
LINE
  5
C3D
330
A02
100
AcDbEntity
  8
Body
100
AcDbLine
 10
147.568
 20
-37.4779
 30
0
 11
147.568
 21
-37.4779
 31
10.0076
  0
LINE
  5
C3E
330
A02
100
AcDbEntity
  8
Body
100
AcDbLine
 10
144.528
 20
-34.9745
 30
0
 11
147.568
 21
-37.4779
 31
0
  0
LINE
  5
C3F
330
A02
100
AcDbEntity
  8
Body
100
AcDbLine
 10
144.528
 20
-34.9745
 30
10.0076
 11
147.568
 21
-37.4779
 31
10.0076
  0
LINE
  5
C40
330
A02
100
AcDbEntity
  8
Body
100
AcDbLine
 10
147.568
 20
-37.4779
 30
0
 11
147.568
 21
-37.4779
 31
10.0076
  0
LINE
  5
C41
330
A02
100
AcDbEntity
  8
Body
100
AcDbLine
 10
148.872
 20
-38.2589
 30
0
 11
148.872
 21
-38.2589
 31
10.0076
  0
ARC
  5
C42
330
A02
100
AcDbEntity
  8
Body
100
AcDbCircle
 10
141.409
 20
-49.2336
 30
0
 40
13.2715
100
AcDbArc
 50
55.7853
 51
62.3481
  0
ARC
  5
C43
330
A02
100
AcDbEntity
  8
Body
100
AcDbCircle
 10
141.409
 20
-49.2336
 30
10.0076
 40
13.2715
100
AcDbArc
 50
55.7853
 51
62.3481
  0
LINE
  5
C44
330
A02
100
AcDbEntity
  8
Body
100
AcDbLine
 10
148.872
 20
-38.2589
 30
0
 11
148.872
 21
-38.2589
 31
10.0076
  0
LINE
  5
C45
330
A02
100
AcDbEntity
  8
Body
100
AcDbLine
 10
151.345
 20
-40.5529
 30
0
 11
151.345
 21
-40.5529
 31
10.0076
  0
ARC
  5
C46
330
A02
100
AcDbEntity
  8
Body
100
AcDbCircle
 10
144.669
 20
-45.2721
 30
0
 40
8.17611
100
AcDbArc
 50
35.254
 51
59.0667
  0
ARC
  5
C47
330
A02
100
AcDbEntity
  8
Body
100
AcDbCircle
 10
144.669
 20
-45.2721
 30
10.0076
 40
8.17611
100
AcDbArc
 50
35.254
 51
59.0667
  0
LINE
  5
C48
330
A02
100
AcDbEntity
  8
Body
100
AcDbLine
 10
151.345
 20
-40.5529
 30
0
 11
151.345
 21
-40.5529
 31
10.0076
  0
LINE
  5
C49
330
A02
100
AcDbEntity
  8
Body
100
AcDbLine
 10
148.056
 20
-41.3026
 30
0
 11
148.056
 21
-41.3026
 31
10.0076
  0
ARC
  5
C4A
330
A02
100
AcDbEntity
  8
Body
100
AcDbCircle
 10
147.923
 20
-33.1275
 30
0
 40
8.17611
100
AcDbArc
 50
-89.0667
 51
-65.254
  0
ARC
  5
C4B
330
A02
100
AcDbEntity
  8
Body
100
AcDbCircle
 10
147.923
 20
-33.1275
 30
10.0076
 40
8.17611
100
AcDbArc
 50
-89.0667
 51
-65.254
  0
LINE
  5
C4C
330
A02
100
AcDbEntity
  8
Body
100
AcDbLine
 10
148.056
 20
-41.3026
 30
0
 11
148.056
 21
-41.3026
 31
10.0076
  0
LINE
  5
C4D
330
A02
100
AcDbEntity
  8
Body
100
AcDbLine
 10
146.537
 20
-41.3273
 30
0
 11
146.537
 21
-41.3273
 31
10.0076
  0
LINE
  5
C4E
330
A02
100
AcDbEntity
  8
Body
100
AcDbLine
 10
148.056
 20
-41.3026
 30
0
 11
146.537
 21
-41.3273
 31
0
  0
LINE
  5
C4F
330
A02
100
AcDbEntity
  8
Body
100
AcDbLine
 10
148.056
 20
-41.3026
 30
10.0076
 11
146.537
 21
-41.3273
 31
10.0076
  0
LINE
  5
C50
330
A02
100
AcDbEntity
  8
Body
100
AcDbLine
 10
146.537
 20
-41.3273
 30
0
 11
146.537
 21
-41.3273
 31
10.0076
  0
LINE
  5
C51
330
A02
100
AcDbEntity
  8
Body
100
AcDbLine
 10
142.652
 20
-41.9751
 30
0
 11
142.652
 21
-41.9751
 31
10.0076
  0
ARC
  5
C52
330
A02
100
AcDbEntity
  8
Body
100
AcDbCircle
 10
146.753
 20
-54.5971
 30
0
 40
13.2715
100
AcDbArc
 50
90.9333
 51
108
  0
ARC
  5
C53
330
A02
100
AcDbEntity
  8
Body
100
AcDbCircle
 10
146.753
 20
-54.5971
 30
10.0076
 40
13.2715
100
AcDbArc
 50
90.9333
 51
108
  0
LINE
  5
C54
330
A02
100
AcDbEntity
  8
Body
100
AcDbLine
 10
142.652
 20
-41.9751
 30
0
 11
142.652
 21
-41.9751
 31
10.0076
  0
LINE
  5
C55
330
A02
100
AcDbEntity
  8
Body
100
AcDbLine
 10
139.35
 20
-45.2774
 30
0
 11
139.35
 21
-45.2774
 31
10.0076
  0
ARC
  5
C56
330
A02
100
AcDbEntity
  8
Body
100
AcDbCircle
 10
144.241
 20
-46.8669
 30
0
 40
5.1435
100
AcDbArc
 50
108
 51
162
  0
ARC
  5
C57
330
A02
100
AcDbEntity
  8
Body
100
AcDbCircle
 10
144.241
 20
-46.8669
 30
10.0076
 40
5.1435
100
AcDbArc
 50
108
 51
162
  0
LINE
  5
C58
330
A02
100
AcDbEntity
  8
Body
100
AcDbLine
 10
139.35
 20
-45.2774
 30
0
 11
139.35
 21
-45.2774
 31
10.0076
  0
LINE
  5
C59
330
A02
100
AcDbEntity
  8
Body
100
AcDbLine
 10
140.08
 20
-49.8901
 30
0
 11
140.08
 21
-49.8901
 31
10.0076
  0
ARC
  5
C5A
330
A02
100
AcDbEntity
  8
Body
100
AcDbCircle
 10
144.241
 20
-46.8669
 30
0
 40
5.1435
100
AcDbArc
 50
162
 51
-144
  0
ARC
  5
C5B
330
A02
100
AcDbEntity
  8
Body
100
AcDbCircle
 10
144.241
 20
-46.8669
 30
10.0076
 40
5.1435
100
AcDbArc
 50
162
 51
-144
  0
LINE
  5
C5C
330
A02
100
AcDbEntity
  8
Body
100
AcDbLine
 10
140.08
 20
-49.8901
 30
0
 11
140.08
 21
-49.8901
 31
10.0076
  0
LINE
  5
C5D
330
A02
100
AcDbEntity
  8
Body
100
AcDbLine
 10
142.842
 20
-52.6977
 30
0
 11
142.842
 21
-52.6977
 31
10.0076
  0
LINE
  5
C5E
330
A02
100
AcDbEntity
  8
Body
100
AcDbLine
 10
140.08
 20
-49.8901
 30
0
 11
142.842
 21
-52.6977
 31
0
  0
LINE
  5
C5F
330
A02
100
AcDbEntity
  8
Body
100
AcDbLine
 10
140.08
 20
-49.8901
 30
10.0076
 11
142.842
 21
-52.6977
 31
10.0076
  0
LINE
  5
C60
330
A02
100
AcDbEntity
  8
Body
100
AcDbLine
 10
142.842
 20
-52.6977
 30
0
 11
142.842
 21
-52.6977
 31
10.0076
  0
LINE
  5
C61
330
A02
100
AcDbEntity
  8
Body
100
AcDbLine
 10
144.057
 20
-53.6107
 30
0
 11
144.057
 21
-53.6107
 31
10.0076
  0
ARC
  5
C62
330
A02
100
AcDbEntity
  8
Body
100
AcDbCircle
 10
135.488
 20
-63.7452
 30
0
 40
13.2715
100
AcDbArc
 50
49.7853
 51
56.3481
  0
ARC
  5
C63
330
A02
100
AcDbEntity
  8
Body
100
AcDbCircle
 10
135.488
 20
-63.7452
 30
10.0076
 40
13.2715
100
AcDbArc
 50
49.7853
 51
56.3481
  0
LINE
  5
C64
330
A02
100
AcDbEntity
  8
Body
100
AcDbLine
 10
144.057
 20
-53.6107
 30
0
 11
144.057
 21
-53.6107
 31
10.0076
  0
LINE
  5
C65
330
A02
100
AcDbEntity
  8
Body
100
AcDbLine
 10
146.277
 20
-56.1506
 30
0
 11
146.277
 21
-56.1506
 31
10.0076
  0
ARC
  5
C66
330
A02
100
AcDbEntity
  8
Body
100
AcDbCircle
 10
139.144
 20
-60.1461
 30
0
 40
8.17611
100
AcDbArc
 50
29.254
 51
53.0667
  0
ARC
  5
C67
330
A02
100
AcDbEntity
  8
Body
100
AcDbCircle
 10
139.144
 20
-60.1461
 30
10.0076
 40
8.17611
100
AcDbArc
 50
29.254
 51
53.0667
  0
LINE
  5
C68
330
A02
100
AcDbEntity
  8
Body
100
AcDbLine
 10
146.277
 20
-56.1506
 30
0
 11
146.277
 21
-56.1506
 31
10.0076
  0
LINE
  5
C69
330
A02
100
AcDbEntity
  8
Body
100
AcDbLine
 10
142.928
 20
-56.5524
 30
0
 11
142.928
 21
-56.5524
 31
10.0076
  0
ARC
  5
C6A
330
A02
100
AcDbEntity
  8
Body
100
AcDbCircle
 10
143.65
 20
-48.4082
 30
0
 40
8.17611
100
AcDbArc
 50
-95.0667
 51
-71.254
  0
ARC
  5
C6B
330
A02
100
AcDbEntity
  8
Body
100
AcDbCircle
 10
143.65
 20
-48.4082
 30
10.0076
 40
8.17611
100
AcDbArc
 50
-95.0667
 51
-71.254
  0
LINE
  5
C6C
330
A02
100
AcDbEntity
  8
Body
100
AcDbLine
 10
142.928
 20
-56.5524
 30
0
 11
142.928
 21
-56.5524
 31
10.0076
  0
LINE
  5
C6D
330
A02
100
AcDbEntity
  8
Body
100
AcDbLine
 10
141.414
 20
-56.4182
 30
0
 11
141.414
 21
-56.4182
 31
10.0076
  0
LINE
  5
C6E
330
A02
100
AcDbEntity
  8
Body
100
AcDbLine
 10
142.928
 20
-56.5524
 30
0
 11
141.414
 21
-56.4182
 31
0
  0
LINE
  5
C6F
330
A02
100
AcDbEntity
  8
Body
100
AcDbLine
 10
142.928
 20
-56.5524
 30
10.0076
 11
141.414
 21
-56.4182
 31
10.0076
  0
LINE
  5
C70
330
A02
100
AcDbEntity
  8
Body
100
AcDbLine
 10
141.414
 20
-56.4182
 30
0
 11
141.414
 21
-56.4182
 31
10.0076
  0
LINE
  5
C71
330
A02
100
AcDbEntity
  8
Body
100
AcDbLine
 10
137.483
 20
-56.6564
 30
0
 11
137.483
 21
-56.6564
 31
10.0076
  0
ARC
  5
C72
330
A02
100
AcDbEntity
  8
Body
100
AcDbCircle
 10
140.242
 20
-69.6378
 30
0
 40
13.2715
100
AcDbArc
 50
84.9333
 51
102
  0
ARC
  5
C73
330
A02
100
AcDbEntity
  8
Body
100
AcDbCircle
 10
140.242
 20
-69.6378
 30
10.0076
 40
13.2715
100
AcDbArc
 50
84.9333
 51
102
  0
LINE
  5
C74
330
A02
100
AcDbEntity
  8
Body
100
AcDbLine
 10
137.483
 20
-56.6564
 30
0
 11
137.483
 21
-56.6564
 31
10.0076
  0
LINE
  5
C75
330
A02
100
AcDbEntity
  8
Body
100
AcDbLine
 10
133.853
 20
-59.5954
 30
0
 11
133.853
 21
-59.5954
 31
10.0076
  0
ARC
  5
C76
330
A02
100
AcDbEntity
  8
Body
100
AcDbCircle
 10
138.552
 20
-61.6875
 30
0
 40
5.1435
100
AcDbArc
 50
102
 51
156
  0
ARC
  5
C77
330
A02
100
AcDbEntity
  8
Body
100
AcDbCircle
 10
138.552
 20
-61.6875
 30
10.0076
 40
5.1435
100
AcDbArc
 50
102
 51
156
  0
LINE
  5
C78
330
A02
100
AcDbEntity
  8
Body
100
AcDbLine
 10
133.853
 20
-59.5954
 30
0
 11
133.853
 21
-59.5954
 31
10.0076
  0
LINE
  5
C79
330
A02
100
AcDbEntity
  8
Body
100
AcDbLine
 10
134.098
 20
-64.2592
 30
0
 11
134.098
 21
-64.2592
 31
10.0076
  0
ARC
  5
C7A
330
A02
100
AcDbEntity
  8
Body
100
AcDbCircle
 10
138.552
 20
-61.6875
 30
0
 40
5.1435
100
AcDbArc
 50
156
 51
-150
  0
ARC
  5
C7B
330
A02
100
AcDbEntity
  8
Body
100
AcDbCircle
 10
138.552
 20
-61.6875
 30
10.0076
 40
5.1435
100
AcDbArc
 50
156
 51
-150
  0
LINE
  5
C7C
330
A02
100
AcDbEntity
  8
Body
100
AcDbLine
 10
134.098
 20
-64.2592
 30
0
 11
134.098
 21
-64.2592
 31
10.0076
  0
LINE
  5
C7D
330
A02
100
AcDbEntity
  8
Body
100
AcDbLine
 10
136.552
 20
-67.3401
 30
0
 11
136.552
 21
-67.3401
 31
10.0076
  0
LINE
  5
C7E
330
A02
100
AcDbEntity
  8
Body
100
AcDbLine
 10
134.098
 20
-64.2592
 30
0
 11
136.552
 21
-67.3401
 31
0
  0
LINE
  5
C7F
330
A02
100
AcDbEntity
  8
Body
100
AcDbLine
 10
134.098
 20
-64.2592
 30
10.0076
 11
136.552
 21
-67.3401
 31
10.0076
  0
LINE
  5
C80
330
A02
100
AcDbEntity
  8
Body
100
AcDbLine
 10
136.552
 20
-67.3401
 30
0
 11
136.552
 21
-67.3401
 31
10.0076
  0
LINE
  5
C81
330
A02
100
AcDbEntity
  8
Body
100
AcDbLine
 10
137.664
 20
-68.375
 30
0
 11
137.664
 21
-68.375
 31
10.0076
  0
ARC
  5
C82
330
A02
100
AcDbEntity
  8
Body
100
AcDbCircle
 10
128.083
 20
-77.5583
 30
0
 40
13.2715
100
AcDbArc
 50
43.7853
 51
50.3481
  0
ARC
  5
C83
330
A02
100
AcDbEntity
  8
Body
100
AcDbCircle
 10
128.083
 20
-77.5583
 30
10.0076
 40
13.2715
100
AcDbArc
 50
43.7853
 51
50.3481
  0
LINE
  5
C84
330
A02
100
AcDbEntity
  8
Body
100
AcDbLine
 10
137.664
 20
-68.375
 30
0
 11
137.664
 21
-68.375
 31
10.0076
  0
LINE
  5
C85
330
A02
100
AcDbEntity
  8
Body
100
AcDbLine
 10
139.607
 20
-71.1331
 30
0
 11
139.607
 21
-71.1331
 31
10.0076
  0
ARC
  5
C86
330
A02
100
AcDbEntity
  8
Body
100
AcDbCircle
 10
132.095
 20
-74.3611
 30
0
 40
8.17611
100
AcDbArc
 50
23.254
 51
47.0667
  0
ARC
  5
C87
330
A02
100
AcDbEntity
  8
Body
100
AcDbCircle
 10
132.095
 20
-74.3611
 30
10.0076
 40
8.17611
100
AcDbArc
 50
23.254
 51
47.0667
  0
LINE
  5
C88
330
A02
100
AcDbEntity
  8
Body
100
AcDbLine
 10
139.607
 20
-71.1331
 30
0
 11
139.607
 21
-71.1331
 31
10.0076
  0
LINE
  5
C89
330
A02
100
AcDbEntity
  8
Body
100
AcDbLine
 10
136.233
 20
-71.1826
 30
0
 11
136.233
 21
-71.1826
 31
10.0076
  0
ARC
  5
C8A
330
A02
100
AcDbEntity
  8
Body
100
AcDbCircle
 10
137.803
 20
-63.1585
 30
0
 40
8.17611
100
AcDbArc
 50
-101.067
 51
-77.254
  0
ARC
  5
C8B
330
A02
100
AcDbEntity
  8
Body
100
AcDbCircle
 10
137.803
 20
-63.1585
 30
10.0076
 40
8.17611
100
AcDbArc
 50
-101.067
 51
-77.254
  0
LINE
  5
C8C
330
A02
100
AcDbEntity
  8
Body
100
AcDbLine
 10
136.233
 20
-71.1826
 30
0
 11
136.233
 21
-71.1826
 31
10.0076
  0
LINE
  5
C8D
330
A02
100
AcDbEntity
  8
Body
100
AcDbLine
 10
134.742
 20
-70.891
 30
0
 11
134.742
 21
-70.891
 31
10.0076
  0
LINE
  5
C8E
330
A02
100
AcDbEntity
  8
Body
100
AcDbLine
 10
136.233
 20
-71.1826
 30
0
 11
134.742
 21
-70.891
 31
0
  0
LINE
  5
C8F
330
A02
100
AcDbEntity
  8
Body
100
AcDbLine
 10
136.233
 20
-71.1826
 30
10.0076
 11
134.742
 21
-70.891
 31
10.0076
  0
LINE
  5
C90
330
A02
100
AcDbEntity
  8
Body
100
AcDbLine
 10
134.742
 20
-70.891
 30
0
 11
134.742
 21
-70.891
 31
10.0076
  0
LINE
  5
C91
330
A02
100
AcDbEntity
  8
Body
100
AcDbLine
 10
130.808
 20
-70.7169
 30
0
 11
130.808
 21
-70.7169
 31
10.0076
  0
ARC
  5
C92
330
A02
100
AcDbEntity
  8
Body
100
AcDbCircle
 10
132.195
 20
-83.9157
 30
0
 40
13.2715
100
AcDbArc
 50
78.9333
 51
96
  0
ARC
  5
C93
330
A02
100
AcDbEntity
  8
Body
100
AcDbCircle
 10
132.195
 20
-83.9157
 30
10.0076
 40
13.2715
100
AcDbArc
 50
78.9333
 51
96
  0
LINE
  5
C94
330
A02
100
AcDbEntity
  8
Body
100
AcDbLine
 10
130.808
 20
-70.7169
 30
0
 11
130.808
 21
-70.7169
 31
10.0076
  0
LINE
  5
C95
330
A02
100
AcDbEntity
  8
Body
100
AcDbLine
 10
126.891
 20
-73.2604
 30
0
 11
126.891
 21
-73.2604
 31
10.0076
  0
ARC
  5
C96
330
A02
100
AcDbEntity
  8
Body
100
AcDbCircle
 10
131.345
 20
-75.8322
 30
0
 40
5.1435
100
AcDbArc
 50
96
 51
150
  0
ARC
  5
C97
330
A02
100
AcDbEntity
  8
Body
100
AcDbCircle
 10
131.345
 20
-75.8322
 30
10.0076
 40
5.1435
100
AcDbArc
 50
96
 51
150
  0
LINE
  5
C98
330
A02
100
AcDbEntity
  8
Body
100
AcDbLine
 10
126.891
 20
-73.2604
 30
0
 11
126.891
 21
-73.2604
 31
10.0076
  0
LINE
  5
C99
330
A02
100
AcDbEntity
  8
Body
100
AcDbLine
 10
126.646
 20
-77.9242
 30
0
 11
126.646
 21
-77.9242
 31
10.0076
  0
ARC
  5
C9A
330
A02
100
AcDbEntity
  8
Body
100
AcDbCircle
 10
131.345
 20
-75.8322
 30
0
 40
5.1435
100
AcDbArc
 50
150
 51
-156
  0
ARC
  5
C9B
330
A02
100
AcDbEntity
  8
Body
100
AcDbCircle
 10
131.345
 20
-75.8322
 30
10.0076
 40
5.1435
100
AcDbArc
 50
150
 51
-156
  0
LINE
  5
C9C
330
A02
100
AcDbEntity
  8
Body
100
AcDbLine
 10
126.646
 20
-77.9242
 30
0
 11
126.646
 21
-77.9242
 31
10.0076
  0
LINE
  5
C9D
330
A02
100
AcDbEntity
  8
Body
100
AcDbLine
 10
128.765
 20
-81.2448
 30
0
 11
128.765
 21
-81.2448
 31
10.0076
  0
LINE
  5
C9E
330
A02
100
AcDbEntity
  8
Body
100
AcDbLine
 10
126.646
 20
-77.9242
 30
0
 11
128.765
 21
-81.2448
 31
0
  0
LINE
  5
C9F
330
A02
100
AcDbEntity
  8
Body
100
AcDbLine
 10
126.646
 20
-77.9242
 30
10.0076
 11
128.765
 21
-81.2448
 31
10.0076
  0
LINE
  5
CA0
330
A02
100
AcDbEntity
  8
Body
100
AcDbLine
 10
128.765
 20
-81.2448
 30
0
 11
128.765
 21
-81.2448
 31
10.0076
  0
LINE
  5
CA1
330
A02
100
AcDbEntity
  8
Body
100
AcDbLine
 10
129.763
 20
-82.3902
 30
0
 11
129.763
 21
-82.3902
 31
10.0076
  0
ARC
  5
CA2
330
A02
100
AcDbEntity
  8
Body
100
AcDbCircle
 10
119.274
 20
-90.5217
 30
0
 40
13.2715
100
AcDbArc
 50
37.7853
 51
44.3481
  0
ARC
  5
CA3
330
A02
100
AcDbEntity
  8
Body
100
AcDbCircle
 10
119.274
 20
-90.5217
 30
10.0076
 40
13.2715
100
AcDbArc
 50
37.7853
 51
44.3481
  0
LINE
  5
CA4
330
A02
100
AcDbEntity
  8
Body
100
AcDbLine
 10
129.763
 20
-82.3902
 30
0
 11
129.763
 21
-82.3902
 31
10.0076
  0
LINE
  5
CA5
330
A02
100
AcDbEntity
  8
Body
100
AcDbLine
 10
131.406
 20
-85.3363
 30
0
 11
131.406
 21
-85.3363
 31
10.0076
  0
ARC
  5
CA6
330
A02
100
AcDbEntity
  8
Body
100
AcDbCircle
 10
123.598
 20
-87.7614
 30
0
 40
8.17611
100
AcDbArc
 50
17.254
 51
41.0667
  0
ARC
  5
CA7
330
A02
100
AcDbEntity
  8
Body
100
AcDbCircle
 10
123.598
 20
-87.7614
 30
10.0076
 40
8.17611
100
AcDbArc
 50
17.254
 51
41.0667
  0
LINE
  5
CA8
330
A02
100
AcDbEntity
  8
Body
100
AcDbLine
 10
131.406
 20
-85.3363
 30
0
 11
131.406
 21
-85.3363
 31
10.0076
  0
LINE
  5
CA9
330
A02
100
AcDbEntity
  8
Body
100
AcDbLine
 10
128.046
 20
-85.0329
 30
0
 11
128.046
 21
-85.0329
 31
10.0076
  0
ARC
  5
CAA
330
A02
100
AcDbEntity
  8
Body
100
AcDbCircle
 10
130.446
 20
-77.2168
 30
0
 40
8.17611
100
AcDbArc
 50
-107.067
 51
-83.254
  0
ARC
  5
CAB
330
A02
100
AcDbEntity
  8
Body
100
AcDbCircle
 10
130.446
 20
-77.2168
 30
10.0076
 40
8.17611
100
AcDbArc
 50
-107.067
 51
-83.254
  0
LINE
  5
CAC
330
A02
100
AcDbEntity
  8
Body
100
AcDbLine
 10
128.046
 20
-85.0329
 30
0
 11
128.046
 21
-85.0329
 31
10.0076
  0
LINE
  5
CAD
330
A02
100
AcDbEntity
  8
Body
100
AcDbLine
 10
126.594
 20
-84.587
 30
0
 11
126.594
 21
-84.587
 31
10.0076
  0
LINE
  5
CAE
330
A02
100
AcDbEntity
  8
Body
100
AcDbLine
 10
128.046
 20
-85.0329
 30
0
 11
126.594
 21
-84.587
 31
0
  0
LINE
  5
CAF
330
A02
100
AcDbEntity
  8
Body
100
AcDbLine
 10
128.046
 20
-85.0329
 30
10.0076
 11
126.594
 21
-84.587
 31
10.0076
  0
LINE
  5
CB0
330
A02
100
AcDbEntity
  8
Body
100
AcDbLine
 10
126.594
 20
-84.587
 30
0
 11
126.594
 21
-84.587
 31
10.0076
  0
LINE
  5
CB1
330
A02
100
AcDbEntity
  8
Body
100
AcDbLine
 10
122.699
 20
-84.0026
 30
0
 11
122.699
 21
-84.0026
 31
10.0076
  0
ARC
  5
CB2
330
A02
100
AcDbEntity
  8
Body
100
AcDbCircle
 10
122.699
 20
-97.2741
 30
0
 40
13.2715
100
AcDbArc
 50
72.9333
 51
90
  0
ARC
  5
CB3
330
A02
100
AcDbEntity
  8
Body
100
AcDbCircle
 10
122.699
 20
-97.2741
 30
10.0076
 40
13.2715
100
AcDbArc
 50
72.9333
 51
90
  0
LINE
  5
CB4
330
A02
100
AcDbEntity
  8
Body
100
AcDbLine
 10
122.699
 20
-84.0026
 30
0
 11
122.699
 21
-84.0026
 31
10.0076
  0
LINE
  5
CB5
330
A02
100
AcDbEntity
  8
Body
100
AcDbLine
 10
118.538
 20
-86.1228
 30
0
 11
118.538
 21
-86.1228
 31
10.0076
  0
ARC
  5
CB6
330
A02
100
AcDbEntity
  8
Body
100
AcDbCircle
 10
122.699
 20
-89.1461
 30
0
 40
5.1435
100
AcDbArc
 50
90
 51
144
  0
ARC
  5
CB7
330
A02
100
AcDbEntity
  8
Body
100
AcDbCircle
 10
122.699
 20
-89.1461
 30
10.0076
 40
5.1435
100
AcDbArc
 50
90
 51
144
  0
LINE
  5
CB8
330
A02
100
AcDbEntity
  8
Body
100
AcDbLine
 10
118.538
 20
-86.1228
 30
0
 11
118.538
 21
-86.1228
 31
10.0076
  0
LINE
  5
CB9
330
A02
100
AcDbEntity
  8
Body
100
AcDbLine
 10
117.807
 20
-90.7355
 30
0
 11
117.807
 21
-90.7355
 31
10.0076
  0
ARC
  5
CBA
330
A02
100
AcDbEntity
  8
Body
100
AcDbCircle
 10
122.699
 20
-89.1461
 30
0
 40
5.1435
100
AcDbArc
 50
144
 51
-162
  0
ARC
  5
CBB
330
A02
100
AcDbEntity
  8
Body
100
AcDbCircle
 10
122.699
 20
-89.1461
 30
10.0076
 40
5.1435
100
AcDbArc
 50
144
 51
-162
  0
LINE
  5
CBC
330
A02
100
AcDbEntity
  8
Body
100
AcDbLine
 10
117.807
 20
-90.7355
 30
0
 11
117.807
 21
-90.7355
 31
10.0076
  0
LINE
  5
CBD
330
A02
100
AcDbEntity
  8
Body
100
AcDbLine
 10
119.567
 20
-94.2593
 30
0
 11
119.567
 21
-94.2593
 31
10.0076
  0
LINE
  5
CBE
330
A02
100
AcDbEntity
  8
Body
100
AcDbLine
 10
117.807
 20
-90.7355
 30
0
 11
119.567
 21
-94.2593
 31
0
  0
LINE
  5
CBF
330
A02
100
AcDbEntity
  8
Body
100
AcDbLine
 10
117.807
 20
-90.7355
 30
10.0076
 11
119.567
 21
-94.2593
 31
10.0076
  0
LINE
  5
CC0
330
A02
100
AcDbEntity
  8
Body
100
AcDbLine
 10
119.567
 20
-94.2593
 30
0
 11
119.567
 21
-94.2593
 31
10.0076
  0
LINE
  5
CC1
330
A02
100
AcDbEntity
  8
Body
100
AcDbLine
 10
120.44
 20
-95.5028
 30
0
 11
120.44
 21
-95.5028
 31
10.0076
  0
ARC
  5
CC2
330
A02
100
AcDbEntity
  8
Body
100
AcDbCircle
 10
109.158
 20
-102.493
 30
0
 40
13.2715
100
AcDbArc
 50
31.7853
 51
38.3481
  0
ARC
  5
CC3
330
A02
100
AcDbEntity
  8
Body
100
AcDbCircle
 10
109.158
 20
-102.493
 30
10.0076
 40
13.2715
100
AcDbArc
 50
31.7853
 51
38.3481
  0
LINE
  5
CC4
330
A02
100
AcDbEntity
  8
Body
100
AcDbLine
 10
120.44
 20
-95.5028
 30
0
 11
120.44
 21
-95.5028
 31
10.0076
  0
LINE
  5
CC5
330
A02
100
AcDbEntity
  8
Body
100
AcDbLine
 10
121.767
 20
-98.6046
 30
0
 11
121.767
 21
-98.6046
 31
10.0076
  0
ARC
  5
CC6
330
A02
100
AcDbEntity
  8
Body
100
AcDbCircle
 10
113.748
 20
-100.2
 30
0
 40
8.17611
100
AcDbArc
 50
11.254
 51
35.0667
  0
ARC
  5
CC7
330
A02
100
AcDbEntity
  8
Body
100
AcDbCircle
 10
113.748
 20
-100.2
 30
10.0076
 40
8.17611
100
AcDbArc
 50
11.254
 51
35.0667
  0
LINE
  5
CC8
330
A02
100
AcDbEntity
  8
Body
100
AcDbLine
 10
121.767
 20
-98.6046
 30
0
 11
121.767
 21
-98.6046
 31
10.0076
  0
LINE
  5
CC9
330
A02
100
AcDbEntity
  8
Body
100
AcDbLine
 10
118.457
 20
-97.9516
 30
0
 11
118.457
 21
-97.9516
 31
10.0076
  0
ARC
  5
CCA
330
A02
100
AcDbEntity
  8
Body
100
AcDbCircle
 10
121.66
 20
-90.4291
 30
0
 40
8.17611
100
AcDbArc
 50
-113.067
 51
-89.254
  0
ARC
  5
CCB
330
A02
100
AcDbEntity
  8
Body
100
AcDbCircle
 10
121.66
 20
-90.4291
 30
10.0076
 40
8.17611
100
AcDbArc
 50
-113.067
 51
-89.254
  0
LINE
  5
CCC
330
A02
100
AcDbEntity
  8
Body
100
AcDbLine
 10
118.457
 20
-97.9516
 30
0
 11
118.457
 21
-97.9516
 31
10.0076
  0
LINE
  5
CCD
330
A02
100
AcDbEntity
  8
Body
100
AcDbLine
 10
117.059
 20
-97.3563
 30
0
 11
117.059
 21
-97.3563
 31
10.0076
  0
LINE
  5
CCE
330
A02
100
AcDbEntity
  8
Body
100
AcDbLine
 10
118.457
 20
-97.9516
 30
0
 11
117.059
 21
-97.3563
 31
0
  0
LINE
  5
CCF
330
A02
100
AcDbEntity
  8
Body
100
AcDbLine
 10
118.457
 20
-97.9516
 30
10.0076
 11
117.059
 21
-97.3563
 31
10.0076
  0
LINE
  5
CD0
330
A02
100
AcDbEntity
  8
Body
100
AcDbLine
 10
117.059
 20
-97.3563
 30
0
 11
117.059
 21
-97.3563
 31
10.0076
  0
LINE
  5
CD1
330
A02
100
AcDbEntity
  8
Body
100
AcDbLine
 10
113.246
 20
-96.368
 30
0
 11
113.246
 21
-96.368
 31
10.0076
  0
ARC
  5
CD2
330
A02
100
AcDbEntity
  8
Body
100
AcDbCircle
 10
111.859
 20
-109.567
 30
0
 40
13.2715
100
AcDbArc
 50
66.9333
 51
84
  0
ARC
  5
CD3
330
A02
100
AcDbEntity
  8
Body
100
AcDbCircle
 10
111.859
 20
-109.567
 30
10.0076
 40
13.2715
100
AcDbArc
 50
66.9333
 51
84
  0
LINE
  5
CD4
330
A02
100
AcDbEntity
  8
Body
100
AcDbLine
 10
113.246
 20
-96.368
 30
0
 11
113.246
 21
-96.368
 31
10.0076
  0
LINE
  5
CD5
330
A02
100
AcDbEntity
  8
Body
100
AcDbLine
 10
108.886
 20
-98.0416
 30
0
 11
108.886
 21
-98.0416
 31
10.0076
  0
ARC
  5
CD6
330
A02
100
AcDbEntity
  8
Body
100
AcDbCircle
 10
112.709
 20
-101.483
 30
0
 40
5.1435
100
AcDbArc
 50
84
 51
138
  0
ARC
  5
CD7
330
A02
100
AcDbEntity
  8
Body
100
AcDbCircle
 10
112.709
 20
-101.483
 30
10.0076
 40
5.1435
100
AcDbArc
 50
84
 51
138
  0
LINE
  5
CD8
330
A02
100
AcDbEntity
  8
Body
100
AcDbLine
 10
108.886
 20
-98.0416
 30
0
 11
108.886
 21
-98.0416
 31
10.0076
  0
LINE
  5
CD9
330
A02
100
AcDbEntity
  8
Body
100
AcDbLine
 10
107.677
 20
-102.553
 30
0
 11
107.677
 21
-102.553
 31
10.0076
  0
ARC
  5
CDA
330
A02
100
AcDbEntity
  8
Body
100
AcDbCircle
 10
112.709
 20
-101.483
 30
0
 40
5.1435
100
AcDbArc
 50
138
 51
-168
  0
ARC
  5
CDB
330
A02
100
AcDbEntity
  8
Body
100
AcDbCircle
 10
112.709
 20
-101.483
 30
10.0076
 40
5.1435
100
AcDbArc
 50
138
 51
-168
  0
LINE
  5
CDC
330
A02
100
AcDbEntity
  8
Body
100
AcDbLine
 10
107.677
 20
-102.553
 30
0
 11
107.677
 21
-102.553
 31
10.0076
  0
LINE
  5
CDD
330
A02
100
AcDbEntity
  8
Body
100
AcDbLine
 10
109.059
 20
-106.241
 30
0
 11
109.059
 21
-106.241
 31
10.0076
  0
LINE
  5
CDE
330
A02
100
AcDbEntity
  8
Body
100
AcDbLine
 10
107.677
 20
-102.553
 30
0
 11
109.059
 21
-106.241
 31
0
  0
LINE
  5
CDF
330
A02
100
AcDbEntity
  8
Body
100
AcDbLine
 10
107.677
 20
-102.553
 30
10.0076
 11
109.059
 21
-106.241
 31
10.0076
  0
LINE
  5
CE0
330
A02
100
AcDbEntity
  8
Body
100
AcDbLine
 10
109.059
 20
-106.241
 30
0
 11
109.059
 21
-106.241
 31
10.0076
  0
LINE
  5
CE1
330
A02
100
AcDbEntity
  8
Body
100
AcDbLine
 10
109.797
 20
-107.569
 30
0
 11
109.797
 21
-107.569
 31
10.0076
  0
ARC
  5
CE2
330
A02
100
AcDbEntity
  8
Body
100
AcDbCircle
 10
97.847
 20
-113.342
 30
0
 40
13.2715
100
AcDbArc
 50
25.7853
 51
32.3481
  0
ARC
  5
CE3
330
A02
100
AcDbEntity
  8
Body
100
AcDbCircle
 10
97.847
 20
-113.342
 30
10.0076
 40
13.2715
100
AcDbArc
 50
25.7853
 51
32.3481
  0
LINE
  5
CE4
330
A02
100
AcDbEntity
  8
Body
100
AcDbLine
 10
109.797
 20
-107.569
 30
0
 11
109.797
 21
-107.569
 31
10.0076
  0
LINE
  5
CE5
330
A02
100
AcDbEntity
  8
Body
100
AcDbLine
 10
110.792
 20
-110.792
 30
0
 11
110.792
 21
-110.792
 31
10.0076
  0
ARC
  5
CE6
330
A02
100
AcDbEntity
  8
Body
100
AcDbCircle
 10
102.651
 20
-111.541
 30
0
 40
8.17611
100
AcDbArc
 50
5.25396
 51
29.0667
  0
ARC
  5
CE7
330
A02
100
AcDbEntity
  8
Body
100
AcDbCircle
 10
102.651
 20
-111.541
 30
10.0076
 40
8.17611
100
AcDbArc
 50
5.25396
 51
29.0667
  0
LINE
  5
CE8
330
A02
100
AcDbEntity
  8
Body
100
AcDbLine
 10
110.792
 20
-110.792
 30
0
 11
110.792
 21
-110.792
 31
10.0076
  0
LINE
  5
CE9
330
A02
100
AcDbEntity
  8
Body
100
AcDbLine
 10
107.569
 20
-109.797
 30
0
 11
107.569
 21
-109.797
 31
10.0076
  0
ARC
  5
CEA
330
A02
100
AcDbEntity
  8
Body
100
AcDbCircle
 10
111.541
 20
-102.651
 30
0
 40
8.17611
100
AcDbArc
 50
-119.067
 51
-95.254
  0
ARC
  5
CEB
330
A02
100
AcDbEntity
  8
Body
100
AcDbCircle
 10
111.541
 20
-102.651
 30
10.0076
 40
8.17611
100
AcDbArc
 50
-119.067
 51
-95.254
  0
LINE
  5
CEC
330
A02
100
AcDbEntity
  8
Body
100
AcDbLine
 10
107.569
 20
-109.797
 30
0
 11
107.569
 21
-109.797
 31
10.0076
  0
LINE
  5
CED
330
A02
100
AcDbEntity
  8
Body
100
AcDbLine
 10
106.241
 20
-109.059
 30
0
 11
106.241
 21
-109.059
 31
10.0076
  0
LINE
  5
CEE
330
A02
100
AcDbEntity
  8
Body
100
AcDbLine
 10
107.569
 20
-109.797
 30
0
 11
106.241
 21
-109.059
 31
0
  0
LINE
  5
CEF
330
A02
100
AcDbEntity
  8
Body
100
AcDbLine
 10
107.569
 20
-109.797
 30
10.0076
 11
106.241
 21
-109.059
 31
10.0076
  0
LINE
  5
CF0
330
A02
100
AcDbEntity
  8
Body
100
AcDbLine
 10
106.241
 20
-109.059
 30
0
 11
106.241
 21
-109.059
 31
10.0076
  0
LINE
  5
CF1
330
A02
100
AcDbEntity
  8
Body
100
AcDbLine
 10
102.553
 20
-107.677
 30
0
 11
102.553
 21
-107.677
 31
10.0076
  0
ARC
  5
CF2
330
A02
100
AcDbEntity
  8
Body
100
AcDbCircle
 10
99.7934
 20
-120.659
 30
0
 40
13.2715
100
AcDbArc
 50
60.9333
 51
78
  0
ARC
  5
CF3
330
A02
100
AcDbEntity
  8
Body
100
AcDbCircle
 10
99.7934
 20
-120.659
 30
10.0076
 40
13.2715
100
AcDbArc
 50
60.9333
 51
78
  0
LINE
  5
CF4
330
A02
100
AcDbEntity
  8
Body
100
AcDbLine
 10
102.553
 20
-107.677
 30
0
 11
102.553
 21
-107.677
 31
10.0076
  0
LINE
  5
CF5
330
A02
100
AcDbEntity
  8
Body
100
AcDbLine
 10
98.0416
 20
-108.886
 30
0
 11
98.0416
 21
-108.886
 31
10.0076
  0
ARC
  5
CF6
330
A02
100
AcDbEntity
  8
Body
100
AcDbCircle
 10
101.483
 20
-112.709
 30
0
 40
5.1435
100
AcDbArc
 50
78
 51
132
  0
ARC
  5
CF7
330
A02
100
AcDbEntity
  8
Body
100
AcDbCircle
 10
101.483
 20
-112.709
 30
10.0076
 40
5.1435
100
AcDbArc
 50
78
 51
132
  0
LINE
  5
CF8
330
A02
100
AcDbEntity
  8
Body
100
AcDbLine
 10
98.0416
 20
-108.886
 30
0
 11
98.0416
 21
-108.886
 31
10.0076
  0
LINE
  5
CF9
330
A02
100
AcDbEntity
  8
Body
100
AcDbLine
 10
96.368
 20
-113.246
 30
0
 11
96.368
 21
-113.246
 31
10.0076
  0
ARC
  5
CFA
330
A02
100
AcDbEntity
  8
Body
100
AcDbCircle
 10
101.483
 20
-112.709
 30
0
 40
5.1435
100
AcDbArc
 50
132
 51
-174
  0
ARC
  5
CFB
330
A02
100
AcDbEntity
  8
Body
100
AcDbCircle
 10
101.483
 20
-112.709
 30
10.0076
 40
5.1435
100
AcDbArc
 50
132
 51
-174
  0
LINE
  5
CFC
330
A02
100
AcDbEntity
  8
Body
100
AcDbLine
 10
96.368
 20
-113.246
 30
0
 11
96.368
 21
-113.246
 31
10.0076
  0
LINE
  5
CFD
330
A02
100
AcDbEntity
  8
Body
100
AcDbLine
 10
97.3563
 20
-117.059
 30
0
 11
97.3563
 21
-117.059
 31
10.0076
  0
LINE
  5
CFE
330
A02
100
AcDbEntity
  8
Body
100
AcDbLine
 10
96.368
 20
-113.246
 30
0
 11
97.3563
 21
-117.059
 31
0
  0
LINE
  5
CFF
330
A02
100
AcDbEntity
  8
Body
100
AcDbLine
 10
96.368
 20
-113.246
 30
10.0076
 11
97.3563
 21
-117.059
 31
10.0076
  0
LINE
  5
D00
330
A02
100
AcDbEntity
  8
Body
100
AcDbLine
 10
97.3563
 20
-117.059
 30
0
 11
97.3563
 21
-117.059
 31
10.0076
  0
LINE
  5
D01
330
A02
100
AcDbEntity
  8
Body
100
AcDbLine
 10
97.9516
 20
-118.457
 30
0
 11
97.9516
 21
-118.457
 31
10.0076
  0
ARC
  5
D02
330
A02
100
AcDbEntity
  8
Body
100
AcDbCircle
 10
85.4635
 20
-122.949
 30
0
 40
13.2715
100
AcDbArc
 50
19.7853
 51
26.3481
  0
ARC
  5
D03
330
A02
100
AcDbEntity
  8
Body
100
AcDbCircle
 10
85.4635
 20
-122.949
 30
10.0076
 40
13.2715
100
AcDbArc
 50
19.7853
 51
26.3481
  0
LINE
  5
D04
330
A02
100
AcDbEntity
  8
Body
100
AcDbLine
 10
97.9516
 20
-118.457
 30
0
 11
97.9516
 21
-118.457
 31
10.0076
  0
LINE
  5
D05
330
A02
100
AcDbEntity
  8
Body
100
AcDbLine
 10
98.6046
 20
-121.767
 30
0
 11
98.6046
 21
-121.767
 31
10.0076
  0
ARC
  5
D06
330
A02
100
AcDbEntity
  8
Body
100
AcDbCircle
 10
90.4291
 20
-121.66
 30
0
 40
8.17611
100
AcDbArc
 50
-0.746036
 51
23.0667
  0
ARC
  5
D07
330
A02
100
AcDbEntity
  8
Body
100
AcDbCircle
 10
90.4291
 20
-121.66
 30
10.0076
 40
8.17611
100
AcDbArc
 50
-0.746036
 51
23.0667
  0
LINE
  5
D08
330
A02
100
AcDbEntity
  8
Body
100
AcDbLine
 10
98.6046
 20
-121.767
 30
0
 11
98.6046
 21
-121.767
 31
10.0076
  0
LINE
  5
D09
330
A02
100
AcDbEntity
  8
Body
100
AcDbLine
 10
95.5028
 20
-120.44
 30
0
 11
95.5028
 21
-120.44
 31
10.0076
  0
ARC
  5
D0A
330
A02
100
AcDbEntity
  8
Body
100
AcDbCircle
 10
100.2
 20
-113.748
 30
0
 40
8.17611
100
AcDbArc
 50
-125.067
 51
-101.254
  0
ARC
  5
D0B
330
A02
100
AcDbEntity
  8
Body
100
AcDbCircle
 10
100.2
 20
-113.748
 30
10.0076
 40
8.17611
100
AcDbArc
 50
-125.067
 51
-101.254
  0
LINE
  5
D0C
330
A02
100
AcDbEntity
  8
Body
100
AcDbLine
 10
95.5028
 20
-120.44
 30
0
 11
95.5028
 21
-120.44
 31
10.0076
  0
LINE
  5
D0D
330
A02
100
AcDbEntity
  8
Body
100
AcDbLine
 10
94.2593
 20
-119.567
 30
0
 11
94.2593
 21
-119.567
 31
10.0076
  0
LINE
  5
D0E
330
A02
100
AcDbEntity
  8
Body
100
AcDbLine
 10
95.5028
 20
-120.44
 30
0
 11
94.2593
 21
-119.567
 31
0
  0
LINE
  5
D0F
330
A02
100
AcDbEntity
  8
Body
100
AcDbLine
 10
95.5028
 20
-120.44
 30
10.0076
 11
94.2593
 21
-119.567
 31
10.0076
  0
LINE
  5
D10
330
A02
100
AcDbEntity
  8
Body
100
AcDbLine
 10
94.2593
 20
-119.567
 30
0
 11
94.2593
 21
-119.567
 31
10.0076
  0
LINE
  5
D11
330
A02
100
AcDbEntity
  8
Body
100
AcDbLine
 10
90.7355
 20
-117.807
 30
0
 11
90.7355
 21
-117.807
 31
10.0076
  0
ARC
  5
D12
330
A02
100
AcDbEntity
  8
Body
100
AcDbCircle
 10
86.6344
 20
-130.429
 30
0
 40
13.2715
100
AcDbArc
 50
54.9333
 51
72
  0
ARC
  5
D13
330
A02
100
AcDbEntity
  8
Body
100
AcDbCircle
 10
86.6344
 20
-130.429
 30
10.0076
 40
13.2715
100
AcDbArc
 50
54.9333
 51
72
  0
LINE
  5
D14
330
A02
100
AcDbEntity
  8
Body
100
AcDbLine
 10
90.7355
 20
-117.807
 30
0
 11
90.7355
 21
-117.807
 31
10.0076
  0
LINE
  5
D15
330
A02
100
AcDbEntity
  8
Body
100
AcDbLine
 10
86.1228
 20
-118.538
 30
0
 11
86.1228
 21
-118.538
 31
10.0076
  0
ARC
  5
D16
330
A02
100
AcDbEntity
  8
Body
100
AcDbCircle
 10
89.1461
 20
-122.699
 30
0
 40
5.1435
100
AcDbArc
 50
72
 51
126
  0
ARC
  5
D17
330
A02
100
AcDbEntity
  8
Body
100
AcDbCircle
 10
89.1461
 20
-122.699
 30
10.0076
 40
5.1435
100
AcDbArc
 50
72
 51
126
  0
LINE
  5
D18
330
A02
100
AcDbEntity
  8
Body
100
AcDbLine
 10
86.1228
 20
-118.538
 30
0
 11
86.1228
 21
-118.538
 31
10.0076
  0
LINE
  5
D19
330
A02
100
AcDbEntity
  8
Body
100
AcDbLine
 10
84.0026
 20
-122.699
 30
0
 11
84.0026
 21
-122.699
 31
10.0076
  0
ARC
  5
D1A
330
A02
100
AcDbEntity
  8
Body
100
AcDbCircle
 10
89.1461
 20
-122.699
 30
0
 40
5.1435
100
AcDbArc
 50
126
 51
180
  0
ARC
  5
D1B
330
A02
100
AcDbEntity
  8
Body
100
AcDbCircle
 10
89.1461
 20
-122.699
 30
10.0076
 40
5.1435
100
AcDbArc
 50
126
 51
180
  0
LINE
  5
D1C
330
A02
100
AcDbEntity
  8
Body
100
AcDbLine
 10
84.0026
 20
-122.699
 30
0
 11
84.0026
 21
-122.699
 31
10.0076
  0
LINE
  5
D1D
330
A02
100
AcDbEntity
  8
Body
100
AcDbLine
 10
84.587
 20
-126.594
 30
0
 11
84.587
 21
-126.594
 31
10.0076
  0
LINE
  5
D1E
330
A02
100
AcDbEntity
  8
Body
100
AcDbLine
 10
84.0026
 20
-122.699
 30
0
 11
84.587
 21
-126.594
 31
0
  0
LINE
  5
D1F
330
A02
100
AcDbEntity
  8
Body
100
AcDbLine
 10
84.0026
 20
-122.699
 30
10.0076
 11
84.587
 21
-126.594
 31
10.0076
  0
LINE
  5
D20
330
A02
100
AcDbEntity
  8
Body
100
AcDbLine
 10
84.587
 20
-126.594
 30
0
 11
84.587
 21
-126.594
 31
10.0076
  0
LINE
  5
D21
330
A02
100
AcDbEntity
  8
Body
100
AcDbLine
 10
85.0329
 20
-128.046
 30
0
 11
85.0329
 21
-128.046
 31
10.0076
  0
ARC
  5
D22
330
A02
100
AcDbEntity
  8
Body
100
AcDbCircle
 10
72.1437
 20
-131.209
 30
0
 40
13.2715
100
AcDbArc
 50
13.7853
 51
20.3481
  0
ARC
  5
D23
330
A02
100
AcDbEntity
  8
Body
100
AcDbCircle
 10
72.1437
 20
-131.209
 30
10.0076
 40
13.2715
100
AcDbArc
 50
13.7853
 51
20.3481
  0
LINE
  5
D24
330
A02
100
AcDbEntity
  8
Body
100
AcDbLine
 10
85.0329
 20
-128.046
 30
0
 11
85.0329
 21
-128.046
 31
10.0076
  0
LINE
  5
D25
330
A02
100
AcDbEntity
  8
Body
100
AcDbLine
 10
85.3363
 20
-131.406
 30
0
 11
85.3363
 21
-131.406
 31
10.0076
  0
ARC
  5
D26
330
A02
100
AcDbEntity
  8
Body
100
AcDbCircle
 10
77.2168
 20
-130.446
 30
0
 40
8.17611
100
AcDbArc
 50
-6.74604
 51
17.0667
  0
ARC
  5
D27
330
A02
100
AcDbEntity
  8
Body
100
AcDbCircle
 10
77.2168
 20
-130.446
 30
10.0076
 40
8.17611
100
AcDbArc
 50
-6.74604
 51
17.0667
  0
LINE
  5
D28
330
A02
100
AcDbEntity
  8
Body
100
AcDbLine
 10
85.3363
 20
-131.406
 30
0
 11
85.3363
 21
-131.406
 31
10.0076
  0
LINE
  5
D29
330
A02
100
AcDbEntity
  8
Body
100
AcDbLine
 10
82.3902
 20
-129.763
 30
0
 11
82.3902
 21
-129.763
 31
10.0076
  0
ARC
  5
D2A
330
A02
100
AcDbEntity
  8
Body
100
AcDbCircle
 10
87.7614
 20
-123.598
 30
0
 40
8.17611
100
AcDbArc
 50
-131.067
 51
-107.254
  0
ARC
  5
D2B
330
A02
100
AcDbEntity
  8
Body
100
AcDbCircle
 10
87.7614
 20
-123.598
 30
10.0076
 40
8.17611
100
AcDbArc
 50
-131.067
 51
-107.254
  0
LINE
  5
D2C
330
A02
100
AcDbEntity
  8
Body
100
AcDbLine
 10
82.3902
 20
-129.763
 30
0
 11
82.3902
 21
-129.763
 31
10.0076
  0
LINE
  5
D2D
330
A02
100
AcDbEntity
  8
Body
100
AcDbLine
 10
81.2448
 20
-128.765
 30
0
 11
81.2448
 21
-128.765
 31
10.0076
  0
LINE
  5
D2E
330
A02
100
AcDbEntity
  8
Body
100
AcDbLine
 10
82.3902
 20
-129.763
 30
0
 11
81.2448
 21
-128.765
 31
0
  0
LINE
  5
D2F
330
A02
100
AcDbEntity
  8
Body
100
AcDbLine
 10
82.3902
 20
-129.763
 30
10.0076
 11
81.2448
 21
-128.765
 31
10.0076
  0
LINE
  5
D30
330
A02
100
AcDbEntity
  8
Body
100
AcDbLine
 10
81.2448
 20
-128.765
 30
0
 11
81.2448
 21
-128.765
 31
10.0076
  0
LINE
  5
D31
330
A02
100
AcDbEntity
  8
Body
100
AcDbLine
 10
77.9242
 20
-126.646
 30
0
 11
77.9242
 21
-126.646
 31
10.0076
  0
ARC
  5
D32
330
A02
100
AcDbEntity
  8
Body
100
AcDbCircle
 10
72.5262
 20
-138.77
 30
0
 40
13.2715
100
AcDbArc
 50
48.9333
 51
66
  0
ARC
  5
D33
330
A02
100
AcDbEntity
  8
Body
100
AcDbCircle
 10
72.5262
 20
-138.77
 30
10.0076
 40
13.2715
100
AcDbArc
 50
48.9333
 51
66
  0
LINE
  5
D34
330
A02
100
AcDbEntity
  8
Body
100
AcDbLine
 10
77.9242
 20
-126.646
 30
0
 11
77.9242
 21
-126.646
 31
10.0076
  0
LINE
  5
D35
330
A02
100
AcDbEntity
  8
Body
100
AcDbLine
 10
73.2604
 20
-126.891
 30
0
 11
73.2604
 21
-126.891
 31
10.0076
  0
ARC
  5
D36
330
A02
100
AcDbEntity
  8
Body
100
AcDbCircle
 10
75.8322
 20
-131.345
 30
0
 40
5.1435
100
AcDbArc
 50
66
 51
120
  0
ARC
  5
D37
330
A02
100
AcDbEntity
  8
Body
100
AcDbCircle
 10
75.8322
 20
-131.345
 30
10.0076
 40
5.1435
100
AcDbArc
 50
66
 51
120
  0
LINE
  5
D38
330
A02
100
AcDbEntity
  8
Body
100
AcDbLine
 10
73.2604
 20
-126.891
 30
0
 11
73.2604
 21
-126.891
 31
10.0076
  0
LINE
  5
D39
330
A02
100
AcDbEntity
  8
Body
100
AcDbLine
 10
70.7169
 20
-130.808
 30
0
 11
70.7169
 21
-130.808
 31
10.0076
  0
ARC
  5
D3A
330
A02
100
AcDbEntity
  8
Body
100
AcDbCircle
 10
75.8322
 20
-131.345
 30
0
 40
5.1435
100
AcDbArc
 50
120
 51
174
  0
ARC
  5
D3B
330
A02
100
AcDbEntity
  8
Body
100
AcDbCircle
 10
75.8322
 20
-131.345
 30
10.0076
 40
5.1435
100
AcDbArc
 50
120
 51
174
  0
LINE
  5
D3C
330
A02
100
AcDbEntity
  8
Body
100
AcDbLine
 10
70.7169
 20
-130.808
 30
0
 11
70.7169
 21
-130.808
 31
10.0076
  0
LINE
  5
D3D
330
A02
100
AcDbEntity
  8
Body
100
AcDbLine
 10
70.891
 20
-134.742
 30
0
 11
70.891
 21
-134.742
 31
10.0076
  0
LINE
  5
D3E
330
A02
100
AcDbEntity
  8
Body
100
AcDbLine
 10
70.7169
 20
-130.808
 30
0
 11
70.891
 21
-134.742
 31
0
  0
LINE
  5
D3F
330
A02
100
AcDbEntity
  8
Body
100
AcDbLine
 10
70.7169
 20
-130.808
 30
10.0076
 11
70.891
 21
-134.742
 31
10.0076
  0
LINE
  5
D40
330
A02
100
AcDbEntity
  8
Body
100
AcDbLine
 10
70.891
 20
-134.742
 30
0
 11
70.891
 21
-134.742
 31
10.0076
  0
LINE
  5
D41
330
A02
100
AcDbEntity
  8
Body
100
AcDbLine
 10
71.1826
 20
-136.233
 30
0
 11
71.1826
 21
-136.233
 31
10.0076
  0
ARC
  5
D42
330
A02
100
AcDbEntity
  8
Body
100
AcDbCircle
 10
58.0334
 20
-138.031
 30
0
 40
13.2715
100
AcDbArc
 50
7.78528
 51
14.3481
  0
ARC
  5
D43
330
A02
100
AcDbEntity
  8
Body
100
AcDbCircle
 10
58.0334
 20
-138.031
 30
10.0076
 40
13.2715
100
AcDbArc
 50
7.78528
 51
14.3481
  0
LINE
  5
D44
330
A02
100
AcDbEntity
  8
Body
100
AcDbLine
 10
71.1826
 20
-136.233
 30
0
 11
71.1826
 21
-136.233
 31
10.0076
  0
LINE
  5
D45
330
A02
100
AcDbEntity
  8
Body
100
AcDbLine
 10
71.1331
 20
-139.607
 30
0
 11
71.1331
 21
-139.607
 31
10.0076
  0
ARC
  5
D46
330
A02
100
AcDbEntity
  8
Body
100
AcDbCircle
 10
63.1585
 20
-137.803
 30
0
 40
8.17611
100
AcDbArc
 50
-12.746
 51
11.0667
  0
ARC
  5
D47
330
A02
100
AcDbEntity
  8
Body
100
AcDbCircle
 10
63.1585
 20
-137.803
 30
10.0076
 40
8.17611
100
AcDbArc
 50
-12.746
 51
11.0667
  0
LINE
  5
D48
330
A02
100
AcDbEntity
  8
Body
100
AcDbLine
 10
71.1331
 20
-139.607
 30
0
 11
71.1331
 21
-139.607
 31
10.0076
  0
LINE
  5
D49
330
A02
100
AcDbEntity
  8
Body
100
AcDbLine
 10
68.375
 20
-137.664
 30
0
 11
68.375
 21
-137.664
 31
10.0076
  0
ARC
  5
D4A
330
A02
100
AcDbEntity
  8
Body
100
AcDbCircle
 10
74.3611
 20
-132.095
 30
0
 40
8.17611
100
AcDbArc
 50
-137.067
 51
-113.254
  0
ARC
  5
D4B
330
A02
100
AcDbEntity
  8
Body
100
AcDbCircle
 10
74.3611
 20
-132.095
 30
10.0076
 40
8.17611
100
AcDbArc
 50
-137.067
 51
-113.254
  0
LINE
  5
D4C
330
A02
100
AcDbEntity
  8
Body
100
AcDbLine
 10
68.375
 20
-137.664
 30
0
 11
68.375
 21
-137.664
 31
10.0076
  0
LINE
  5
D4D
330
A02
100
AcDbEntity
  8
Body
100
AcDbLine
 10
67.3401
 20
-136.552
 30
0
 11
67.3401
 21
-136.552
 31
10.0076
  0
LINE
  5
D4E
330
A02
100
AcDbEntity
  8
Body
100
AcDbLine
 10
68.375
 20
-137.664
 30
0
 11
67.3401
 21
-136.552
 31
0
  0
LINE
  5
D4F
330
A02
100
AcDbEntity
  8
Body
100
AcDbLine
 10
68.375
 20
-137.664
 30
10.0076
 11
67.3401
 21
-136.552
 31
10.0076
  0
LINE
  5
D50
330
A02
100
AcDbEntity
  8
Body
100
AcDbLine
 10
67.3401
 20
-136.552
 30
0
 11
67.3401
 21
-136.552
 31
10.0076
  0
LINE
  5
D51
330
A02
100
AcDbEntity
  8
Body
100
AcDbLine
 10
64.2592
 20
-134.098
 30
0
 11
64.2592
 21
-134.098
 31
10.0076
  0
ARC
  5
D52
330
A02
100
AcDbEntity
  8
Body
100
AcDbCircle
 10
57.6235
 20
-145.591
 30
0
 40
13.2715
100
AcDbArc
 50
42.9333
 51
60
  0
ARC
  5
D53
330
A02
100
AcDbEntity
  8
Body
100
AcDbCircle
 10
57.6235
 20
-145.591
 30
10.0076
 40
13.2715
100
AcDbArc
 50
42.9333
 51
60
  0
LINE
  5
D54
330
A02
100
AcDbEntity
  8
Body
100
AcDbLine
 10
64.2592
 20
-134.098
 30
0
 11
64.2592
 21
-134.098
 31
10.0076
  0
LINE
  5
D55
330
A02
100
AcDbEntity
  8
Body
100
AcDbLine
 10
59.5954
 20
-133.853
 30
0
 11
59.5954
 21
-133.853
 31
10.0076
  0
ARC
  5
D56
330
A02
100
AcDbEntity
  8
Body
100
AcDbCircle
 10
61.6875
 20
-138.552
 30
0
 40
5.1435
100
AcDbArc
 50
60
 51
114
  0
ARC
  5
D57
330
A02
100
AcDbEntity
  8
Body
100
AcDbCircle
 10
61.6875
 20
-138.552
 30
10.0076
 40
5.1435
100
AcDbArc
 50
60
 51
114
  0
LINE
  5
D58
330
A02
100
AcDbEntity
  8
Body
100
AcDbLine
 10
59.5954
 20
-133.853
 30
0
 11
59.5954
 21
-133.853
 31
10.0076
  0
LINE
  5
D59
330
A02
100
AcDbEntity
  8
Body
100
AcDbLine
 10
56.6564
 20
-137.483
 30
0
 11
56.6564
 21
-137.483
 31
10.0076
  0
ARC
  5
D5A
330
A02
100
AcDbEntity
  8
Body
100
AcDbCircle
 10
61.6875
 20
-138.552
 30
0
 40
5.1435
100
AcDbArc
 50
114
 51
168
  0
ARC
  5
D5B
330
A02
100
AcDbEntity
  8
Body
100
AcDbCircle
 10
61.6875
 20
-138.552
 30
10.0076
 40
5.1435
100
AcDbArc
 50
114
 51
168
  0
LINE
  5
D5C
330
A02
100
AcDbEntity
  8
Body
100
AcDbLine
 10
56.6564
 20
-137.483
 30
0
 11
56.6564
 21
-137.483
 31
10.0076
  0
LINE
  5
D5D
330
A02
100
AcDbEntity
  8
Body
100
AcDbLine
 10
56.4182
 20
-141.414
 30
0
 11
56.4182
 21
-141.414
 31
10.0076
  0
LINE
  5
D5E
330
A02
100
AcDbEntity
  8
Body
100
AcDbLine
 10
56.6564
 20
-137.483
 30
0
 11
56.4182
 21
-141.414
 31
0
  0
LINE
  5
D5F
330
A02
100
AcDbEntity
  8
Body
100
AcDbLine
 10
56.6564
 20
-137.483
 30
10.0076
 11
56.4182
 21
-141.414
 31
10.0076
  0
LINE
  5
D60
330
A02
100
AcDbEntity
  8
Body
100
AcDbLine
 10
56.4182
 20
-141.414
 30
0
 11
56.4182
 21
-141.414
 31
10.0076
  0
LINE
  5
D61
330
A02
100
AcDbEntity
  8
Body
100
AcDbLine
 10
56.5524
 20
-142.928
 30
0
 11
56.5524
 21
-142.928
 31
10.0076
  0
ARC
  5
D62
330
A02
100
AcDbEntity
  8
Body
100
AcDbCircle
 10
43.2873
 20
-143.341
 30
0
 40
13.2715
100
AcDbArc
 50
1.78528
 51
8.34806
  0
ARC
  5
D63
330
A02
100
AcDbEntity
  8
Body
100
AcDbCircle
 10
43.2873
 20
-143.341
 30
10.0076
 40
13.2715
100
AcDbArc
 50
1.78528
 51
8.34806
  0
LINE
  5
D64
330
A02
100
AcDbEntity
  8
Body
100
AcDbLine
 10
56.5524
 20
-142.928
 30
0
 11
56.5524
 21
-142.928
 31
10.0076
  0
LINE
  5
D65
330
A02
100
AcDbEntity
  8
Body
100
AcDbLine
 10
56.1506
 20
-146.277
 30
0
 11
56.1506
 21
-146.277
 31
10.0076
  0
ARC
  5
D66
330
A02
100
AcDbEntity
  8
Body
100
AcDbCircle
 10
48.4082
 20
-143.65
 30
0
 40
8.17611
100
AcDbArc
 50
-18.746
 51
5.06667
  0
ARC
  5
D67
330
A02
100
AcDbEntity
  8
Body
100
AcDbCircle
 10
48.4082
 20
-143.65
 30
10.0076
 40
8.17611
100
AcDbArc
 50
-18.746
 51
5.06667
  0
LINE
  5
D68
330
A02
100
AcDbEntity
  8
Body
100
AcDbLine
 10
56.1506
 20
-146.277
 30
0
 11
56.1506
 21
-146.277
 31
10.0076
  0
LINE
  5
D69
330
A02
100
AcDbEntity
  8
Body
100
AcDbLine
 10
53.6107
 20
-144.057
 30
0
 11
53.6107
 21
-144.057
 31
10.0076
  0
ARC
  5
D6A
330
A02
100
AcDbEntity
  8
Body
100
AcDbCircle
 10
60.1461
 20
-139.144
 30
0
 40
8.17611
100
AcDbArc
 50
-143.067
 51
-119.254
  0
ARC
  5
D6B
330
A02
100
AcDbEntity
  8
Body
100
AcDbCircle
 10
60.1461
 20
-139.144
 30
10.0076
 40
8.17611
100
AcDbArc
 50
-143.067
 51
-119.254
  0
LINE
  5
D6C
330
A02
100
AcDbEntity
  8
Body
100
AcDbLine
 10
53.6107
 20
-144.057
 30
0
 11
53.6107
 21
-144.057
 31
10.0076
  0
LINE
  5
D6D
330
A02
100
AcDbEntity
  8
Body
100
AcDbLine
 10
52.6977
 20
-142.842
 30
0
 11
52.6977
 21
-142.842
 31
10.0076
  0
LINE
  5
D6E
330
A02
100
AcDbEntity
  8
Body
100
AcDbLine
 10
53.6107
 20
-144.057
 30
0
 11
52.6977
 21
-142.842
 31
0
  0
LINE
  5
D6F
330
A02
100
AcDbEntity
  8
Body
100
AcDbLine
 10
53.6107
 20
-144.057
 30
10.0076
 11
52.6977
 21
-142.842
 31
10.0076
  0
LINE
  5
D70
330
A02
100
AcDbEntity
  8
Body
100
AcDbLine
 10
52.6977
 20
-142.842
 30
0
 11
52.6977
 21
-142.842
 31
10.0076
  0
LINE
  5
D71
330
A02
100
AcDbEntity
  8
Body
100
AcDbLine
 10
49.8901
 20
-140.08
 30
0
 11
49.8901
 21
-140.08
 31
10.0076
  0
ARC
  5
D72
330
A02
100
AcDbEntity
  8
Body
100
AcDbCircle
 10
42.0894
 20
-150.817
 30
0
 40
13.2715
100
AcDbArc
 50
36.9333
 51
54
  0
ARC
  5
D73
330
A02
100
AcDbEntity
  8
Body
100
AcDbCircle
 10
42.0894
 20
-150.817
 30
10.0076
 40
13.2715
100
AcDbArc
 50
36.9333
 51
54
  0
LINE
  5
D74
330
A02
100
AcDbEntity
  8
Body
100
AcDbLine
 10
49.8901
 20
-140.08
 30
0
 11
49.8901
 21
-140.08
 31
10.0076
  0
LINE
  5
D75
330
A02
100
AcDbEntity
  8
Body
100
AcDbLine
 10
45.2774
 20
-139.35
 30
0
 11
45.2774
 21
-139.35
 31
10.0076
  0
ARC
  5
D76
330
A02
100
AcDbEntity
  8
Body
100
AcDbCircle
 10
46.8669
 20
-144.241
 30
0
 40
5.1435
100
AcDbArc
 50
54
 51
108
  0
ARC
  5
D77
330
A02
100
AcDbEntity
  8
Body
100
AcDbCircle
 10
46.8669
 20
-144.241
 30
10.0076
 40
5.1435
100
AcDbArc
 50
54
 51
108
  0
LINE
  5
D78
330
A02
100
AcDbEntity
  8
Body
100
AcDbLine
 10
45.2774
 20
-139.35
 30
0
 11
45.2774
 21
-139.35
 31
10.0076
  0
LINE
  5
D79
330
A02
100
AcDbEntity
  8
Body
100
AcDbLine
 10
41.9751
 20
-142.652
 30
0
 11
41.9751
 21
-142.652
 31
10.0076
  0
ARC
  5
D7A
330
A02
100
AcDbEntity
  8
Body
100
AcDbCircle
 10
46.8669
 20
-144.241
 30
0
 40
5.1435
100
AcDbArc
 50
108
 51
162
  0
ARC
  5
D7B
330
A02
100
AcDbEntity
  8
Body
100
AcDbCircle
 10
46.8669
 20
-144.241
 30
10.0076
 40
5.1435
100
AcDbArc
 50
108
 51
162
  0
LINE
  5
D7C
330
A02
100
AcDbEntity
  8
Body
100
AcDbLine
 10
41.9751
 20
-142.652
 30
0
 11
41.9751
 21
-142.652
 31
10.0076
  0
LINE
  5
D7D
330
A02
100
AcDbEntity
  8
Body
100
AcDbLine
 10
41.3273
 20
-146.537
 30
0
 11
41.3273
 21
-146.537
 31
10.0076
  0
LINE
  5
D7E
330
A02
100
AcDbEntity
  8
Body
100
AcDbLine
 10
41.9751
 20
-142.652
 30
0
 11
41.3273
 21
-146.537
 31
0
  0
LINE
  5
D7F
330
A02
100
AcDbEntity
  8
Body
100
AcDbLine
 10
41.9751
 20
-142.652
 30
10.0076
 11
41.3273
 21
-146.537
 31
10.0076
  0
LINE
  5
D80
330
A02
100
AcDbEntity
  8
Body
100
AcDbLine
 10
41.3273
 20
-146.537
 30
0
 11
41.3273
 21
-146.537
 31
10.0076
  0
LINE
  5
D81
330
A02
100
AcDbEntity
  8
Body
100
AcDbLine
 10
41.3026
 20
-148.056
 30
0
 11
41.3026
 21
-148.056
 31
10.0076
  0
ARC
  5
D82
330
A02
100
AcDbEntity
  8
Body
100
AcDbCircle
 10
28.067
 20
-147.081
 30
0
 40
13.2715
100
AcDbArc
 50
-4.21472
 51
2.34806
  0
ARC
  5
D83
330
A02
100
AcDbEntity
  8
Body
100
AcDbCircle
 10
28.067
 20
-147.081
 30
10.0076
 40
13.2715
100
AcDbArc
 50
-4.21472
 51
2.34806
  0
LINE
  5
D84
330
A02
100
AcDbEntity
  8
Body
100
AcDbLine
 10
41.3026
 20
-148.056
 30
0
 11
41.3026
 21
-148.056
 31
10.0076
  0
LINE
  5
D85
330
A02
100
AcDbEntity
  8
Body
100
AcDbLine
 10
40.5529
 20
-151.345
 30
0
 11
40.5529
 21
-151.345
 31
10.0076
  0
ARC
  5
D86
330
A02
100
AcDbEntity
  8
Body
100
AcDbCircle
 10
33.1275
 20
-147.923
 30
0
 40
8.17611
100
AcDbArc
 50
-24.746
 51
-0.933333
  0
ARC
  5
D87
330
A02
100
AcDbEntity
  8
Body
100
AcDbCircle
 10
33.1275
 20
-147.923
 30
10.0076
 40
8.17611
100
AcDbArc
 50
-24.746
 51
-0.933333
  0
LINE
  5
D88
330
A02
100
AcDbEntity
  8
Body
100
AcDbLine
 10
40.5529
 20
-151.345
 30
0
 11
40.5529
 21
-151.345
 31
10.0076
  0
LINE
  5
D89
330
A02
100
AcDbEntity
  8
Body
100
AcDbLine
 10
38.2589
 20
-148.872
 30
0
 11
38.2589
 21
-148.872
 31
10.0076
  0
ARC
  5
D8A
330
A02
100
AcDbEntity
  8
Body
100
AcDbCircle
 10
45.2721
 20
-144.669
 30
0
 40
8.17611
100
AcDbArc
 50
-149.067
 51
-125.254
  0
ARC
  5
D8B
330
A02
100
AcDbEntity
  8
Body
100
AcDbCircle
 10
45.2721
 20
-144.669
 30
10.0076
 40
8.17611
100
AcDbArc
 50
-149.067
 51
-125.254
  0
LINE
  5
D8C
330
A02
100
AcDbEntity
  8
Body
100
AcDbLine
 10
38.2589
 20
-148.872
 30
0
 11
38.2589
 21
-148.872
 31
10.0076
  0
LINE
  5
D8D
330
A02
100
AcDbEntity
  8
Body
100
AcDbLine
 10
37.4779
 20
-147.568
 30
0
 11
37.4779
 21
-147.568
 31
10.0076
  0
LINE
  5
D8E
330
A02
100
AcDbEntity
  8
Body
100
AcDbLine
 10
38.2589
 20
-148.872
 30
0
 11
37.4779
 21
-147.568
 31
0
  0
LINE
  5
D8F
330
A02
100
AcDbEntity
  8
Body
100
AcDbLine
 10
38.2589
 20
-148.872
 30
10.0076
 11
37.4779
 21
-147.568
 31
10.0076
  0
LINE
  5
D90
330
A02
100
AcDbEntity
  8
Body
100
AcDbLine
 10
37.4779
 20
-147.568
 30
0
 11
37.4779
 21
-147.568
 31
10.0076
  0
LINE
  5
D91
330
A02
100
AcDbEntity
  8
Body
100
AcDbLine
 10
34.9745
 20
-144.528
 30
0
 11
34.9745
 21
-144.528
 31
10.0076
  0
ARC
  5
D92
330
A02
100
AcDbEntity
  8
Body
100
AcDbCircle
 10
26.0941
 20
-154.39
 30
0
 40
13.2715
100
AcDbArc
 50
30.9333
 51
48
  0
ARC
  5
D93
330
A02
100
AcDbEntity
  8
Body
100
AcDbCircle
 10
26.0941
 20
-154.39
 30
10.0076
 40
13.2715
100
AcDbArc
 50
30.9333
 51
48
  0
LINE
  5
D94
330
A02
100
AcDbEntity
  8
Body
100
AcDbLine
 10
34.9745
 20
-144.528
 30
0
 11
34.9745
 21
-144.528
 31
10.0076
  0
LINE
  5
D95
330
A02
100
AcDbEntity
  8
Body
100
AcDbLine
 10
30.4634
 20
-143.319
 30
0
 11
30.4634
 21
-143.319
 31
10.0076
  0
ARC
  5
D96
330
A02
100
AcDbEntity
  8
Body
100
AcDbCircle
 10
31.5328
 20
-148.35
 30
0
 40
5.1435
100
AcDbArc
 50
48
 51
102
  0
ARC
  5
D97
330
A02
100
AcDbEntity
  8
Body
100
AcDbCircle
 10
31.5328
 20
-148.35
 30
10.0076
 40
5.1435
100
AcDbArc
 50
48
 51
102
  0
LINE
  5
D98
330
A02
100
AcDbEntity
  8
Body
100
AcDbLine
 10
30.4634
 20
-143.319
 30
0
 11
30.4634
 21
-143.319
 31
10.0076
  0
LINE
  5
D99
330
A02
100
AcDbEntity
  8
Body
100
AcDbLine
 10
26.834
 20
-146.258
 30
0
 11
26.834
 21
-146.258
 31
10.0076
  0
ARC
  5
D9A
330
A02
100
AcDbEntity
  8
Body
100
AcDbCircle
 10
31.5328
 20
-148.35
 30
0
 40
5.1435
100
AcDbArc
 50
102
 51
156
  0
ARC
  5
D9B
330
A02
100
AcDbEntity
  8
Body
100
AcDbCircle
 10
31.5328
 20
-148.35
 30
10.0076
 40
5.1435
100
AcDbArc
 50
102
 51
156
  0
LINE
  5
D9C
330
A02
100
AcDbEntity
  8
Body
100
AcDbLine
 10
26.834
 20
-146.258
 30
0
 11
26.834
 21
-146.258
 31
10.0076
  0
LINE
  5
D9D
330
A02
100
AcDbEntity
  8
Body
100
AcDbLine
 10
25.7836
 20
-150.054
 30
0
 11
25.7836
 21
-150.054
 31
10.0076
  0
LINE
  5
D9E
330
A02
100
AcDbEntity
  8
Body
100
AcDbLine
 10
26.834
 20
-146.258
 30
0
 11
25.7836
 21
-150.054
 31
0
  0
LINE
  5
D9F
330
A02
100
AcDbEntity
  8
Body
100
AcDbLine
 10
26.834
 20
-146.258
 30
10.0076
 11
25.7836
 21
-150.054
 31
10.0076
  0
LINE
  5
DA0
330
A02
100
AcDbEntity
  8
Body
100
AcDbLine
 10
25.7836
 20
-150.054
 30
0
 11
25.7836
 21
-150.054
 31
10.0076
  0
LINE
  5
DA1
330
A02
100
AcDbEntity
  8
Body
100
AcDbLine
 10
25.6002
 20
-151.562
 30
0
 11
25.6002
 21
-151.562
 31
10.0076
  0
ARC
  5
DA2
330
A02
100
AcDbEntity
  8
Body
100
AcDbCircle
 10
12.5391
 20
-149.209
 30
0
 40
13.2715
100
AcDbArc
 50
-10.2147
 51
-3.65194
  0
ARC
  5
DA3
330
A02
100
AcDbEntity
  8
Body
100
AcDbCircle
 10
12.5391
 20
-149.209
 30
10.0076
 40
13.2715
100
AcDbArc
 50
-10.2147
 51
-3.65194
  0
LINE
  5
DA4
330
A02
100
AcDbEntity
  8
Body
100
AcDbLine
 10
25.6002
 20
-151.562
 30
0
 11
25.6002
 21
-151.562
 31
10.0076
  0
LINE
  5
DA5
330
A02
100
AcDbEntity
  8
Body
100
AcDbLine
 10
24.5108
 20
-154.755
 30
0
 11
24.5108
 21
-154.755
 31
10.0076
  0
ARC
  5
DA6
330
A02
100
AcDbEntity
  8
Body
100
AcDbCircle
 10
17.4839
 20
-150.575
 30
0
 40
8.17611
100
AcDbArc
 50
-30.746
 51
-6.93333
  0
ARC
  5
DA7
330
A02
100
AcDbEntity
  8
Body
100
AcDbCircle
 10
17.4839
 20
-150.575
 30
10.0076
 40
8.17611
100
AcDbArc
 50
-30.746
 51
-6.93333
  0
LINE
  5
DA8
330
A02
100
AcDbEntity
  8
Body
100
AcDbLine
 10
24.5108
 20
-154.755
 30
0
 11
24.5108
 21
-154.755
 31
10.0076
  0
LINE
  5
DA9
330
A02
100
AcDbEntity
  8
Body
100
AcDbLine
 10
22.488
 20
-152.055
 30
0
 11
22.488
 21
-152.055
 31
10.0076
  0
ARC
  5
DAA
330
A02
100
AcDbEntity
  8
Body
100
AcDbCircle
 10
29.9021
 20
-148.608
 30
0
 40
8.17611
100
AcDbArc
 50
-155.067
 51
-131.254
  0
ARC
  5
DAB
330
A02
100
AcDbEntity
  8
Body
100
AcDbCircle
 10
29.9021
 20
-148.608
 30
10.0076
 40
8.17611
100
AcDbArc
 50
-155.067
 51
-131.254
  0
LINE
  5
DAC
330
A02
100
AcDbEntity
  8
Body
100
AcDbLine
 10
22.488
 20
-152.055
 30
0
 11
22.488
 21
-152.055
 31
10.0076
  0
LINE
  5
DAD
330
A02
100
AcDbEntity
  8
Body
100
AcDbLine
 10
21.8475
 20
-150.677
 30
0
 11
21.8475
 21
-150.677
 31
10.0076
  0
LINE
  5
DAE
330
A02
100
AcDbEntity
  8
Body
100
AcDbLine
 10
22.488
 20
-152.055
 30
0
 11
21.8475
 21
-150.677
 31
0
  0
LINE
  5
DAF
330
A02
100
AcDbEntity
  8
Body
100
AcDbLine
 10
22.488
 20
-152.055
 30
10.0076
 11
21.8475
 21
-150.677
 31
10.0076
  0
LINE
  5
DB0
330
A02
100
AcDbEntity
  8
Body
100
AcDbLine
 10
21.8475
 20
-150.677
 30
0
 11
21.8475
 21
-150.677
 31
10.0076
  0
LINE
  5
DB1
330
A02
100
AcDbEntity
  8
Body
100
AcDbLine
 10
19.6756
 20
-147.392
 30
0
 11
19.6756
 21
-147.392
 31
10.0076
  0
ARC
  5
DB2
330
A02
100
AcDbEntity
  8
Body
100
AcDbCircle
 10
9.81296
 20
-156.272
 30
0
 40
13.2715
100
AcDbArc
 50
24.9333
 51
42
  0
ARC
  5
DB3
330
A02
100
AcDbEntity
  8
Body
100
AcDbCircle
 10
9.81296
 20
-156.272
 30
10.0076
 40
13.2715
100
AcDbArc
 50
24.9333
 51
42
  0
LINE
  5
DB4
330
A02
100
AcDbEntity
  8
Body
100
AcDbLine
 10
19.6756
 20
-147.392
 30
0
 11
19.6756
 21
-147.392
 31
10.0076
  0
LINE
  5
DB5
330
A02
100
AcDbEntity
  8
Body
100
AcDbLine
 10
15.3156
 20
-145.718
 30
0
 11
15.3156
 21
-145.718
 31
10.0076
  0
ARC
  5
DB6
330
A02
100
AcDbEntity
  8
Body
100
AcDbCircle
 10
15.8532
 20
-150.834
 30
0
 40
5.1435
100
AcDbArc
 50
42
 51
96
  0
ARC
  5
DB7
330
A02
100
AcDbEntity
  8
Body
100
AcDbCircle
 10
15.8532
 20
-150.834
 30
10.0076
 40
5.1435
100
AcDbArc
 50
42
 51
96
  0
LINE
  5
DB8
330
A02
100
AcDbEntity
  8
Body
100
AcDbLine
 10
15.3156
 20
-145.718
 30
0
 11
15.3156
 21
-145.718
 31
10.0076
  0
LINE
  5
DB9
330
A02
100
AcDbEntity
  8
Body
100
AcDbLine
 10
11.3988
 20
-148.262
 30
0
 11
11.3988
 21
-148.262
 31
10.0076
  0
ARC
  5
DBA
330
A02
100
AcDbEntity
  8
Body
100
AcDbCircle
 10
15.8532
 20
-150.834
 30
0
 40
5.1435
100
AcDbArc
 50
96
 51
150
  0
ARC
  5
DBB
330
A02
100
AcDbEntity
  8
Body
100
AcDbCircle
 10
15.8532
 20
-150.834
 30
10.0076
 40
5.1435
100
AcDbArc
 50
96
 51
150
  0
LINE
  5
DBC
330
A02
100
AcDbEntity
  8
Body
100
AcDbLine
 10
11.3988
 20
-148.262
 30
0
 11
11.3988
 21
-148.262
 31
10.0076
  0
LINE
  5
DBD
330
A02
100
AcDbEntity
  8
Body
100
AcDbLine
 10
9.95748
 20
-151.927
 30
0
 11
9.95748
 21
-151.927
 31
10.0076
  0
LINE
  5
DBE
330
A02
100
AcDbEntity
  8
Body
100
AcDbLine
 10
11.3988
 20
-148.262
 30
0
 11
9.95748
 21
-151.927
 31
0
  0
LINE
  5
DBF
330
A02
100
AcDbEntity
  8
Body
100
AcDbLine
 10
11.3988
 20
-148.262
 30
10.0076
 11
9.95748
 21
-151.927
 31
10.0076
  0
LINE
  5
DC0
330
A02
100
AcDbEntity
  8
Body
100
AcDbLine
 10
9.95748
 20
-151.927
 30
0
 11
9.95748
 21
-151.927
 31
10.0076
  0
LINE
  5
DC1
330
A02
100
AcDbEntity
  8
Body
100
AcDbLine
 10
9.61743
 20
-153.408
 30
0
 11
9.61743
 21
-153.408
 31
10.0076
  0
ARC
  5
DC2
330
A02
100
AcDbEntity
  8
Body
100
AcDbCircle
 10
-3.12615
 20
-149.702
 30
0
 40
13.2715
100
AcDbArc
 50
-16.2147
 51
-9.65194
  0
ARC
  5
DC3
330
A02
100
AcDbEntity
  8
Body
100
AcDbCircle
 10
-3.12615
 20
-149.702
 30
10.0076
 40
13.2715
100
AcDbArc
 50
-16.2147
 51
-9.65194
  0
LINE
  5
DC4
330
A02
100
AcDbEntity
  8
Body
100
AcDbLine
 10
9.61743
 20
-153.408
 30
0
 11
9.61743
 21
-153.408
 31
10.0076
  0
LINE
  5
DC5
330
A02
100
AcDbEntity
  8
Body
100
AcDbLine
 10
8.20022
 20
-156.469
 30
0
 11
8.20022
 21
-156.469
 31
10.0076
  0
ARC
  5
DC6
330
A02
100
AcDbEntity
  8
Body
100
AcDbCircle
 10
1.64874
 20
-151.578
 30
0
 40
8.17611
100
AcDbArc
 50
-36.746
 51
-12.9333
  0
ARC
  5
DC7
330
A02
100
AcDbEntity
  8
Body
100
AcDbCircle
 10
1.64874
 20
-151.578
 30
10.0076
 40
8.17611
100
AcDbArc
 50
-36.746
 51
-12.9333
  0
LINE
  5
DC8
330
A02
100
AcDbEntity
  8
Body
100
AcDbLine
 10
8.20022
 20
-156.469
 30
0
 11
8.20022
 21
-156.469
 31
10.0076
  0
LINE
  5
DC9
330
A02
100
AcDbEntity
  8
Body
100
AcDbLine
 10
6.47075
 20
-153.573
 30
0
 11
6.47075
 21
-153.573
 31
10.0076
  0
ARC
  5
DCA
330
A02
100
AcDbEntity
  8
Body
100
AcDbCircle
 10
14.2045
 20
-150.92
 30
0
 40
8.17611
100
AcDbArc
 50
-161.067
 51
-137.254
  0
ARC
  5
DCB
330
A02
100
AcDbEntity
  8
Body
100
AcDbCircle
 10
14.2045
 20
-150.92
 30
10.0076
 40
8.17611
100
AcDbArc
 50
-161.067
 51
-137.254
  0
LINE
  5
DCC
330
A02
100
AcDbEntity
  8
Body
100
AcDbLine
 10
6.47075
 20
-153.573
 30
0
 11
6.47075
 21
-153.573
 31
10.0076
  0
LINE
  5
DCD
330
A02
100
AcDbEntity
  8
Body
100
AcDbLine
 10
5.97778
 20
-152.136
 30
0
 11
5.97778
 21
-152.136
 31
10.0076
  0
LINE
  5
DCE
330
A02
100
AcDbEntity
  8
Body
100
AcDbLine
 10
6.47075
 20
-153.573
 30
0
 11
5.97778
 21
-152.136
 31
0
  0
LINE
  5
DCF
330
A02
100
AcDbEntity
  8
Body
100
AcDbLine
 10
6.47075
 20
-153.573
 30
10.0076
 11
5.97778
 21
-152.136
 31
10.0076
  0
LINE
  5
DD0
330
A02
100
AcDbEntity
  8
Body
100
AcDbLine
 10
5.97778
 20
-152.136
 30
0
 11
5.97778
 21
-152.136
 31
10.0076
  0
LINE
  5
DD1
330
A02
100
AcDbEntity
  8
Body
100
AcDbLine
 10
4.16118
 20
-148.641
 30
0
 11
4.16118
 21
-148.641
 31
10.0076
  0
ARC
  5
DD2
330
A02
100
AcDbEntity
  8
Body
100
AcDbCircle
 10
-6.57569
 20
-156.442
 30
0
 40
13.2715
100
AcDbArc
 50
18.9333
 51
36
  0
ARC
  5
DD3
330
A02
100
AcDbEntity
  8
Body
100
AcDbCircle
 10
-6.57569
 20
-156.442
 30
10.0076
 40
13.2715
100
AcDbArc
 50
18.9333
 51
36
  0
LINE
  5
DD4
330
A02
100
AcDbEntity
  8
Body
100
AcDbLine
 10
4.16118
 20
-148.641
 30
0
 11
4.16118
 21
-148.641
 31
10.0076
  0
LINE
  5
DD5
330
A02
100
AcDbEntity
  8
Body
100
AcDbLine
 10
-4.70991e-14
 20
-146.521
 30
0
 11
-4.70991e-14
 21
-146.521
 31
10.0076
  0
ARC
  5
DD6
330
A02
100
AcDbEntity
  8
Body
100
AcDbCircle
 10
-1.37668e-14
 20
-151.664
 30
0
 40
5.1435
100
AcDbArc
 50
36
 51
90
  0
ARC
  5
DD7
330
A02
100
AcDbEntity
  8
Body
100
AcDbCircle
 10
-1.37668e-14
 20
-151.664
 30
10.0076
 40
5.1435
100
AcDbArc
 50
36
 51
90
  0
LINE
  5
DD8
330
A02
100
AcDbEntity
  8
Body
100
AcDbLine
 10
-4.70991e-14
 20
-146.521
 30
0
 11
-4.70991e-14
 21
-146.521
 31
10.0076
  0
LINE
  5
DD9
330
A02
100
AcDbEntity
  8
Body
100
AcDbLine
 10
-4.16118
 20
-148.641
 30
0
 11
-4.16118
 21
-148.641
 31
10.0076
  0
ARC
  5
DDA
330
A02
100
AcDbEntity
  8
Body
100
AcDbCircle
 10
-7.62723e-14
 20
-151.664
 30
0
 40
5.1435
100
AcDbArc
 50
90
 51
144
  0
ARC
  5
DDB
330
A02
100
AcDbEntity
  8
Body
100
AcDbCircle
 10
-7.62723e-14
 20
-151.664
 30
10.0076
 40
5.1435
100
AcDbArc
 50
90
 51
144
  0
LINE
  5
DDC
330
A02
100
AcDbEntity
  8
Body
100
AcDbLine
 10
-4.16118
 20
-148.641
 30
0
 11
-4.16118
 21
-148.641
 31
10.0076
  0
LINE
  5
DDD
330
A02
100
AcDbEntity
  8
Body
100
AcDbLine
 10
-5.97778
 20
-152.136
 30
0
 11
-5.97778
 21
-152.136
 31
10.0076
  0
LINE
  5
DDE
330
A02
100
AcDbEntity
  8
Body
100
AcDbLine
 10
-4.16118
 20
-148.641
 30
0
 11
-5.97778
 21
-152.136
 31
0
  0
LINE
  5
DDF
330
A02
100
AcDbEntity
  8
Body
100
AcDbLine
 10
-4.16118
 20
-148.641
 30
10.0076
 11
-5.97778
 21
-152.136
 31
10.0076
  0
LINE
  5
DE0
330
A02
100
AcDbEntity
  8
Body
100
AcDbLine
 10
-5.97778
 20
-152.136
 30
0
 11
-5.97778
 21
-152.136
 31
10.0076
  0
LINE
  5
DE1
330
A02
100
AcDbEntity
  8
Body
100
AcDbLine
 10
-6.47075
 20
-153.573
 30
0
 11
-6.47075
 21
-153.573
 31
10.0076
  0
ARC
  5
DE2
330
A02
100
AcDbEntity
  8
Body
100
AcDbCircle
 10
-18.7571
 20
-148.555
 30
0
 40
13.2715
100
AcDbArc
 50
-22.2147
 51
-15.6519
  0
ARC
  5
DE3
330
A02
100
AcDbEntity
  8
Body
100
AcDbCircle
 10
-18.7571
 20
-148.555
 30
10.0076
 40
13.2715
100
AcDbArc
 50
-22.2147
 51
-15.6519
  0
LINE
  5
DE4
330
A02
100
AcDbEntity
  8
Body
100
AcDbLine
 10
-6.47075
 20
-153.573
 30
0
 11
-6.47075
 21
-153.573
 31
10.0076
  0
LINE
  5
DE5
330
A02
100
AcDbEntity
  8
Body
100
AcDbLine
 10
-8.20022
 20
-156.469
 30
0
 11
-8.20022
 21
-156.469
 31
10.0076
  0
ARC
  5
DE6
330
A02
100
AcDbEntity
  8
Body
100
AcDbCircle
 10
-14.2045
 20
-150.92
 30
0
 40
8.17611
100
AcDbArc
 50
-42.746
 51
-18.9333
  0
ARC
  5
DE7
330
A02
100
AcDbEntity
  8
Body
100
AcDbCircle
 10
-14.2045
 20
-150.92
 30
10.0076
 40
8.17611
100
AcDbArc
 50
-42.746
 51
-18.9333
  0
LINE
  5
DE8
330
A02
100
AcDbEntity
  8
Body
100
AcDbLine
 10
-8.20022
 20
-156.469
 30
0
 11
-8.20022
 21
-156.469
 31
10.0076
  0
LINE
  5
DE9
330
A02
100
AcDbEntity
  8
Body
100
AcDbLine
 10
-9.61743
 20
-153.408
 30
0
 11
-9.61743
 21
-153.408
 31
10.0076
  0
ARC
  5
DEA
330
A02
100
AcDbEntity
  8
Body
100
AcDbCircle
 10
-1.64874
 20
-151.578
 30
0
 40
8.17611
100
AcDbArc
 50
-167.067
 51
-143.254
  0
ARC
  5
DEB
330
A02
100
AcDbEntity
  8
Body
100
AcDbCircle
 10
-1.64874
 20
-151.578
 30
10.0076
 40
8.17611
100
AcDbArc
 50
-167.067
 51
-143.254
  0
LINE
  5
DEC
330
A02
100
AcDbEntity
  8
Body
100
AcDbLine
 10
-9.61743
 20
-153.408
 30
0
 11
-9.61743
 21
-153.408
 31
10.0076
  0
LINE
  5
DED
330
A02
100
AcDbEntity
  8
Body
100
AcDbLine
 10
-9.95748
 20
-151.927
 30
0
 11
-9.95748
 21
-151.927
 31
10.0076
  0
LINE
  5
DEE
330
A02
100
AcDbEntity
  8
Body
100
AcDbLine
 10
-9.61743
 20
-153.408
 30
0
 11
-9.95748
 21
-151.927
 31
0
  0
LINE
  5
DEF
330
A02
100
AcDbEntity
  8
Body
100
AcDbLine
 10
-9.61743
 20
-153.408
 30
10.0076
 11
-9.95748
 21
-151.927
 31
10.0076
  0
LINE
  5
DF0
330
A02
100
AcDbEntity
  8
Body
100
AcDbLine
 10
-9.95748
 20
-151.927
 30
0
 11
-9.95748
 21
-151.927
 31
10.0076
  0
LINE
  5
DF1
330
A02
100
AcDbEntity
  8
Body
100
AcDbLine
 10
-11.3988
 20
-148.262
 30
0
 11
-11.3988
 21
-148.262
 31
10.0076
  0
ARC
  5
DF2
330
A02
100
AcDbEntity
  8
Body
100
AcDbCircle
 10
-22.8923
 20
-154.898
 30
0
 40
13.2715
100
AcDbArc
 50
12.9333
 51
30
  0
ARC
  5
DF3
330
A02
100
AcDbEntity
  8
Body
100
AcDbCircle
 10
-22.8923
 20
-154.898
 30
10.0076
 40
13.2715
100
AcDbArc
 50
12.9333
 51
30
  0
LINE
  5
DF4
330
A02
100
AcDbEntity
  8
Body
100
AcDbLine
 10
-11.3988
 20
-148.262
 30
0
 11
-11.3988
 21
-148.262
 31
10.0076
  0
LINE
  5
DF5
330
A02
100
AcDbEntity
  8
Body
100
AcDbLine
 10
-15.3156
 20
-145.718
 30
0
 11
-15.3156
 21
-145.718
 31
10.0076
  0
ARC
  5
DF6
330
A02
100
AcDbEntity
  8
Body
100
AcDbCircle
 10
-15.8532
 20
-150.834
 30
0
 40
5.1435
100
AcDbArc
 50
30
 51
84
  0
ARC
  5
DF7
330
A02
100
AcDbEntity
  8
Body
100
AcDbCircle
 10
-15.8532
 20
-150.834
 30
10.0076
 40
5.1435
100
AcDbArc
 50
30
 51
84
  0
LINE
  5
DF8
330
A02
100
AcDbEntity
  8
Body
100
AcDbLine
 10
-15.3156
 20
-145.718
 30
0
 11
-15.3156
 21
-145.718
 31
10.0076
  0
LINE
  5
DF9
330
A02
100
AcDbEntity
  8
Body
100
AcDbLine
 10
-19.6756
 20
-147.392
 30
0
 11
-19.6756
 21
-147.392
 31
10.0076
  0
ARC
  5
DFA
330
A02
100
AcDbEntity
  8
Body
100
AcDbCircle
 10
-15.8532
 20
-150.834
 30
0
 40
5.1435
100
AcDbArc
 50
84
 51
138
  0
ARC
  5
DFB
330
A02
100
AcDbEntity
  8
Body
100
AcDbCircle
 10
-15.8532
 20
-150.834
 30
10.0076
 40
5.1435
100
AcDbArc
 50
84
 51
138
  0
LINE
  5
DFC
330
A02
100
AcDbEntity
  8
Body
100
AcDbLine
 10
-19.6756
 20
-147.392
 30
0
 11
-19.6756
 21
-147.392
 31
10.0076
  0
LINE
  5
DFD
330
A02
100
AcDbEntity
  8
Body
100
AcDbLine
 10
-21.8475
 20
-150.677
 30
0
 11
-21.8475
 21
-150.677
 31
10.0076
  0
LINE
  5
DFE
330
A02
100
AcDbEntity
  8
Body
100
AcDbLine
 10
-19.6756
 20
-147.392
 30
0
 11
-21.8475
 21
-150.677
 31
0
  0
LINE
  5
DFF
330
A02
100
AcDbEntity
  8
Body
100
AcDbLine
 10
-19.6756
 20
-147.392
 30
10.0076
 11
-21.8475
 21
-150.677
 31
10.0076
  0
LINE
  5
E00
330
A02
100
AcDbEntity
  8
Body
100
AcDbLine
 10
-21.8475
 20
-150.677
 30
0
 11
-21.8475
 21
-150.677
 31
10.0076
  0
LINE
  5
E01
330
A02
100
AcDbEntity
  8
Body
100
AcDbLine
 10
-22.488
 20
-152.055
 30
0
 11
-22.488
 21
-152.055
 31
10.0076
  0
ARC
  5
E02
330
A02
100
AcDbEntity
  8
Body
100
AcDbCircle
 10
-34.1826
 20
-145.781
 30
0
 40
13.2715
100
AcDbArc
 50
-28.2147
 51
-21.6519
  0
ARC
  5
E03
330
A02
100
AcDbEntity
  8
Body
100
AcDbCircle
 10
-34.1826
 20
-145.781
 30
10.0076
 40
13.2715
100
AcDbArc
 50
-28.2147
 51
-21.6519
  0
LINE
  5
E04
330
A02
100
AcDbEntity
  8
Body
100
AcDbLine
 10
-22.488
 20
-152.055
 30
0
 11
-22.488
 21
-152.055
 31
10.0076
  0
LINE
  5
E05
330
A02
100
AcDbEntity
  8
Body
100
AcDbLine
 10
-24.5108
 20
-154.755
 30
0
 11
-24.5108
 21
-154.755
 31
10.0076
  0
ARC
  5
E06
330
A02
100
AcDbEntity
  8
Body
100
AcDbCircle
 10
-29.9021
 20
-148.608
 30
0
 40
8.17611
100
AcDbArc
 50
-48.746
 51
-24.9333
  0
ARC
  5
E07
330
A02
100
AcDbEntity
  8
Body
100
AcDbCircle
 10
-29.9021
 20
-148.608
 30
10.0076
 40
8.17611
100
AcDbArc
 50
-48.746
 51
-24.9333
  0
LINE
  5
E08
330
A02
100
AcDbEntity
  8
Body
100
AcDbLine
 10
-24.5108
 20
-154.755
 30
0
 11
-24.5108
 21
-154.755
 31
10.0076
  0
LINE
  5
E09
330
A02
100
AcDbEntity
  8
Body
100
AcDbLine
 10
-25.6002
 20
-151.562
 30
0
 11
-25.6002
 21
-151.562
 31
10.0076
  0
ARC
  5
E0A
330
A02
100
AcDbEntity
  8
Body
100
AcDbCircle
 10
-17.4839
 20
-150.575
 30
0
 40
8.17611
100
AcDbArc
 50
-173.067
 51
-149.254
  0
ARC
  5
E0B
330
A02
100
AcDbEntity
  8
Body
100
AcDbCircle
 10
-17.4839
 20
-150.575
 30
10.0076
 40
8.17611
100
AcDbArc
 50
-173.067
 51
-149.254
  0
LINE
  5
E0C
330
A02
100
AcDbEntity
  8
Body
100
AcDbLine
 10
-25.6002
 20
-151.562
 30
0
 11
-25.6002
 21
-151.562
 31
10.0076
  0
LINE
  5
E0D
330
A02
100
AcDbEntity
  8
Body
100
AcDbLine
 10
-25.7836
 20
-150.054
 30
0
 11
-25.7836
 21
-150.054
 31
10.0076
  0
LINE
  5
E0E
330
A02
100
AcDbEntity
  8
Body
100
AcDbLine
 10
-25.6002
 20
-151.562
 30
0
 11
-25.7836
 21
-150.054
 31
0
  0
LINE
  5
E0F
330
A02
100
AcDbEntity
  8
Body
100
AcDbLine
 10
-25.6002
 20
-151.562
 30
10.0076
 11
-25.7836
 21
-150.054
 31
10.0076
  0
LINE
  5
E10
330
A02
100
AcDbEntity
  8
Body
100
AcDbLine
 10
-25.7836
 20
-150.054
 30
0
 11
-25.7836
 21
-150.054
 31
10.0076
  0
LINE
  5
E11
330
A02
100
AcDbEntity
  8
Body
100
AcDbLine
 10
-26.834
 20
-146.258
 30
0
 11
-26.834
 21
-146.258
 31
10.0076
  0
ARC
  5
E12
330
A02
100
AcDbEntity
  8
Body
100
AcDbCircle
 10
-38.9581
 20
-151.656
 30
0
 40
13.2715
100
AcDbArc
 50
6.93333
 51
24
  0
ARC
  5
E13
330
A02
100
AcDbEntity
  8
Body
100
AcDbCircle
 10
-38.9581
 20
-151.656
 30
10.0076
 40
13.2715
100
AcDbArc
 50
6.93333
 51
24
  0
LINE
  5
E14
330
A02
100
AcDbEntity
  8
Body
100
AcDbLine
 10
-26.834
 20
-146.258
 30
0
 11
-26.834
 21
-146.258
 31
10.0076
  0
LINE
  5
E15
330
A02
100
AcDbEntity
  8
Body
100
AcDbLine
 10
-30.4634
 20
-143.319
 30
0
 11
-30.4634
 21
-143.319
 31
10.0076
  0
ARC
  5
E16
330
A02
100
AcDbEntity
  8
Body
100
AcDbCircle
 10
-31.5328
 20
-148.35
 30
0
 40
5.1435
100
AcDbArc
 50
24
 51
78
  0
ARC
  5
E17
330
A02
100
AcDbEntity
  8
Body
100
AcDbCircle
 10
-31.5328
 20
-148.35
 30
10.0076
 40
5.1435
100
AcDbArc
 50
24
 51
78
  0
LINE
  5
E18
330
A02
100
AcDbEntity
  8
Body
100
AcDbLine
 10
-30.4634
 20
-143.319
 30
0
 11
-30.4634
 21
-143.319
 31
10.0076
  0
LINE
  5
E19
330
A02
100
AcDbEntity
  8
Body
100
AcDbLine
 10
-34.9745
 20
-144.528
 30
0
 11
-34.9745
 21
-144.528
 31
10.0076
  0
ARC
  5
E1A
330
A02
100
AcDbEntity
  8
Body
100
AcDbCircle
 10
-31.5328
 20
-148.35
 30
0
 40
5.1435
100
AcDbArc
 50
78
 51
132
  0
ARC
  5
E1B
330
A02
100
AcDbEntity
  8
Body
100
AcDbCircle
 10
-31.5328
 20
-148.35
 30
10.0076
 40
5.1435
100
AcDbArc
 50
78
 51
132
  0
LINE
  5
E1C
330
A02
100
AcDbEntity
  8
Body
100
AcDbLine
 10
-34.9745
 20
-144.528
 30
0
 11
-34.9745
 21
-144.528
 31
10.0076
  0
LINE
  5
E1D
330
A02
100
AcDbEntity
  8
Body
100
AcDbLine
 10
-37.4779
 20
-147.568
 30
0
 11
-37.4779
 21
-147.568
 31
10.0076
  0
LINE
  5
E1E
330
A02
100
AcDbEntity
  8
Body
100
AcDbLine
 10
-34.9745
 20
-144.528
 30
0
 11
-37.4779
 21
-147.568
 31
0
  0
LINE
  5
E1F
330
A02
100
AcDbEntity
  8
Body
100
AcDbLine
 10
-34.9745
 20
-144.528
 30
10.0076
 11
-37.4779
 21
-147.568
 31
10.0076
  0
LINE
  5
E20
330
A02
100
AcDbEntity
  8
Body
100
AcDbLine
 10
-37.4779
 20
-147.568
 30
0
 11
-37.4779
 21
-147.568
 31
10.0076
  0
LINE
  5
E21
330
A02
100
AcDbEntity
  8
Body
100
AcDbLine
 10
-38.2589
 20
-148.872
 30
0
 11
-38.2589
 21
-148.872
 31
10.0076
  0
ARC
  5
E22
330
A02
100
AcDbEntity
  8
Body
100
AcDbCircle
 10
-49.2336
 20
-141.409
 30
0
 40
13.2715
100
AcDbArc
 50
-34.2147
 51
-27.6519
  0
ARC
  5
E23
330
A02
100
AcDbEntity
  8
Body
100
AcDbCircle
 10
-49.2336
 20
-141.409
 30
10.0076
 40
13.2715
100
AcDbArc
 50
-34.2147
 51
-27.6519
  0
LINE
  5
E24
330
A02
100
AcDbEntity
  8
Body
100
AcDbLine
 10
-38.2589
 20
-148.872
 30
0
 11
-38.2589
 21
-148.872
 31
10.0076
  0
LINE
  5
E25
330
A02
100
AcDbEntity
  8
Body
100
AcDbLine
 10
-40.5529
 20
-151.345
 30
0
 11
-40.5529
 21
-151.345
 31
10.0076
  0
ARC
  5
E26
330
A02
100
AcDbEntity
  8
Body
100
AcDbCircle
 10
-45.2721
 20
-144.669
 30
0
 40
8.17611
100
AcDbArc
 50
-54.746
 51
-30.9333
  0
ARC
  5
E27
330
A02
100
AcDbEntity
  8
Body
100
AcDbCircle
 10
-45.2721
 20
-144.669
 30
10.0076
 40
8.17611
100
AcDbArc
 50
-54.746
 51
-30.9333
  0
LINE
  5
E28
330
A02
100
AcDbEntity
  8
Body
100
AcDbLine
 10
-40.5529
 20
-151.345
 30
0
 11
-40.5529
 21
-151.345
 31
10.0076
  0
LINE
  5
E29
330
A02
100
AcDbEntity
  8
Body
100
AcDbLine
 10
-41.3026
 20
-148.056
 30
0
 11
-41.3026
 21
-148.056
 31
10.0076
  0
ARC
  5
E2A
330
A02
100
AcDbEntity
  8
Body
100
AcDbCircle
 10
-33.1275
 20
-147.923
 30
0
 40
8.17611
100
AcDbArc
 50
-179.067
 51
-155.254
  0
ARC
  5
E2B
330
A02
100
AcDbEntity
  8
Body
100
AcDbCircle
 10
-33.1275
 20
-147.923
 30
10.0076
 40
8.17611
100
AcDbArc
 50
-179.067
 51
-155.254
  0
LINE
  5
E2C
330
A02
100
AcDbEntity
  8
Body
100
AcDbLine
 10
-41.3026
 20
-148.056
 30
0
 11
-41.3026
 21
-148.056
 31
10.0076
  0
LINE
  5
E2D
330
A02
100
AcDbEntity
  8
Body
100
AcDbLine
 10
-41.3273
 20
-146.537
 30
0
 11
-41.3273
 21
-146.537
 31
10.0076
  0
LINE
  5
E2E
330
A02
100
AcDbEntity
  8
Body
100
AcDbLine
 10
-41.3026
 20
-148.056
 30
0
 11
-41.3273
 21
-146.537
 31
0
  0
LINE
  5
E2F
330
A02
100
AcDbEntity
  8
Body
100
AcDbLine
 10
-41.3026
 20
-148.056
 30
10.0076
 11
-41.3273
 21
-146.537
 31
10.0076
  0
LINE
  5
E30
330
A02
100
AcDbEntity
  8
Body
100
AcDbLine
 10
-41.3273
 20
-146.537
 30
0
 11
-41.3273
 21
-146.537
 31
10.0076
  0
LINE
  5
E31
330
A02
100
AcDbEntity
  8
Body
100
AcDbLine
 10
-41.9751
 20
-142.652
 30
0
 11
-41.9751
 21
-142.652
 31
10.0076
  0
ARC
  5
E32
330
A02
100
AcDbEntity
  8
Body
100
AcDbCircle
 10
-54.5971
 20
-146.753
 30
0
 40
13.2715
100
AcDbArc
 50
0.933333
 51
18
  0
ARC
  5
E33
330
A02
100
AcDbEntity
  8
Body
100
AcDbCircle
 10
-54.5971
 20
-146.753
 30
10.0076
 40
13.2715
100
AcDbArc
 50
0.933333
 51
18
  0
LINE
  5
E34
330
A02
100
AcDbEntity
  8
Body
100
AcDbLine
 10
-41.9751
 20
-142.652
 30
0
 11
-41.9751
 21
-142.652
 31
10.0076
  0
LINE
  5
E35
330
A02
100
AcDbEntity
  8
Body
100
AcDbLine
 10
-45.2774
 20
-139.35
 30
0
 11
-45.2774
 21
-139.35
 31
10.0076
  0
ARC
  5
E36
330
A02
100
AcDbEntity
  8
Body
100
AcDbCircle
 10
-46.8669
 20
-144.241
 30
0
 40
5.1435
100
AcDbArc
 50
18
 51
72
  0
ARC
  5
E37
330
A02
100
AcDbEntity
  8
Body
100
AcDbCircle
 10
-46.8669
 20
-144.241
 30
10.0076
 40
5.1435
100
AcDbArc
 50
18
 51
72
  0
LINE
  5
E38
330
A02
100
AcDbEntity
  8
Body
100
AcDbLine
 10
-45.2774
 20
-139.35
 30
0
 11
-45.2774
 21
-139.35
 31
10.0076
  0
LINE
  5
E39
330
A02
100
AcDbEntity
  8
Body
100
AcDbLine
 10
-49.8901
 20
-140.08
 30
0
 11
-49.8901
 21
-140.08
 31
10.0076
  0
ARC
  5
E3A
330
A02
100
AcDbEntity
  8
Body
100
AcDbCircle
 10
-46.8669
 20
-144.241
 30
0
 40
5.1435
100
AcDbArc
 50
72
 51
126
  0
ARC
  5
E3B
330
A02
100
AcDbEntity
  8
Body
100
AcDbCircle
 10
-46.8669
 20
-144.241
 30
10.0076
 40
5.1435
100
AcDbArc
 50
72
 51
126
  0
LINE
  5
E3C
330
A02
100
AcDbEntity
  8
Body
100
AcDbLine
 10
-49.8901
 20
-140.08
 30
0
 11
-49.8901
 21
-140.08
 31
10.0076
  0
LINE
  5
E3D
330
A02
100
AcDbEntity
  8
Body
100
AcDbLine
 10
-52.6977
 20
-142.842
 30
0
 11
-52.6977
 21
-142.842
 31
10.0076
  0
LINE
  5
E3E
330
A02
100
AcDbEntity
  8
Body
100
AcDbLine
 10
-49.8901
 20
-140.08
 30
0
 11
-52.6977
 21
-142.842
 31
0
  0
LINE
  5
E3F
330
A02
100
AcDbEntity
  8
Body
100
AcDbLine
 10
-49.8901
 20
-140.08
 30
10.0076
 11
-52.6977
 21
-142.842
 31
10.0076
  0
LINE
  5
E40
330
A02
100
AcDbEntity
  8
Body
100
AcDbLine
 10
-52.6977
 20
-142.842
 30
0
 11
-52.6977
 21
-142.842
 31
10.0076
  0
LINE
  5
E41
330
A02
100
AcDbEntity
  8
Body
100
AcDbLine
 10
-53.6107
 20
-144.057
 30
0
 11
-53.6107
 21
-144.057
 31
10.0076
  0
ARC
  5
E42
330
A02
100
AcDbEntity
  8
Body
100
AcDbCircle
 10
-63.7452
 20
-135.488
 30
0
 40
13.2715
100
AcDbArc
 50
-40.2147
 51
-33.6519
  0
ARC
  5
E43
330
A02
100
AcDbEntity
  8
Body
100
AcDbCircle
 10
-63.7452
 20
-135.488
 30
10.0076
 40
13.2715
100
AcDbArc
 50
-40.2147
 51
-33.6519
  0
LINE
  5
E44
330
A02
100
AcDbEntity
  8
Body
100
AcDbLine
 10
-53.6107
 20
-144.057
 30
0
 11
-53.6107
 21
-144.057
 31
10.0076
  0
LINE
  5
E45
330
A02
100
AcDbEntity
  8
Body
100
AcDbLine
 10
-56.1506
 20
-146.277
 30
0
 11
-56.1506
 21
-146.277
 31
10.0076
  0
ARC
  5
E46
330
A02
100
AcDbEntity
  8
Body
100
AcDbCircle
 10
-60.1461
 20
-139.144
 30
0
 40
8.17611
100
AcDbArc
 50
-60.746
 51
-36.9333
  0
ARC
  5
E47
330
A02
100
AcDbEntity
  8
Body
100
AcDbCircle
 10
-60.1461
 20
-139.144
 30
10.0076
 40
8.17611
100
AcDbArc
 50
-60.746
 51
-36.9333
  0
LINE
  5
E48
330
A02
100
AcDbEntity
  8
Body
100
AcDbLine
 10
-56.1506
 20
-146.277
 30
0
 11
-56.1506
 21
-146.277
 31
10.0076
  0
LINE
  5
E49
330
A02
100
AcDbEntity
  8
Body
100
AcDbLine
 10
-56.5524
 20
-142.928
 30
0
 11
-56.5524
 21
-142.928
 31
10.0076
  0
ARC
  5
E4A
330
A02
100
AcDbEntity
  8
Body
100
AcDbCircle
 10
-48.4082
 20
-143.65
 30
0
 40
8.17611
100
AcDbArc
 50
174.933
 51
-161.254
  0
ARC
  5
E4B
330
A02
100
AcDbEntity
  8
Body
100
AcDbCircle
 10
-48.4082
 20
-143.65
 30
10.0076
 40
8.17611
100
AcDbArc
 50
174.933
 51
-161.254
  0
LINE
  5
E4C
330
A02
100
AcDbEntity
  8
Body
100
AcDbLine
 10
-56.5524
 20
-142.928
 30
0
 11
-56.5524
 21
-142.928
 31
10.0076
  0
LINE
  5
E4D
330
A02
100
AcDbEntity
  8
Body
100
AcDbLine
 10
-56.4182
 20
-141.414
 30
0
 11
-56.4182
 21
-141.414
 31
10.0076
  0
LINE
  5
E4E
330
A02
100
AcDbEntity
  8
Body
100
AcDbLine
 10
-56.5524
 20
-142.928
 30
0
 11
-56.4182
 21
-141.414
 31
0
  0
LINE
  5
E4F
330
A02
100
AcDbEntity
  8
Body
100
AcDbLine
 10
-56.5524
 20
-142.928
 30
10.0076
 11
-56.4182
 21
-141.414
 31
10.0076
  0
LINE
  5
E50
330
A02
100
AcDbEntity
  8
Body
100
AcDbLine
 10
-56.4182
 20
-141.414
 30
0
 11
-56.4182
 21
-141.414
 31
10.0076
  0
LINE
  5
E51
330
A02
100
AcDbEntity
  8
Body
100
AcDbLine
 10
-56.6564
 20
-137.483
 30
0
 11
-56.6564
 21
-137.483
 31
10.0076
  0
ARC
  5
E52
330
A02
100
AcDbEntity
  8
Body
100
AcDbCircle
 10
-69.6378
 20
-140.242
 30
0
 40
13.2715
100
AcDbArc
 50
-5.06667
 51
12
  0
ARC
  5
E53
330
A02
100
AcDbEntity
  8
Body
100
AcDbCircle
 10
-69.6378
 20
-140.242
 30
10.0076
 40
13.2715
100
AcDbArc
 50
-5.06667
 51
12
  0
LINE
  5
E54
330
A02
100
AcDbEntity
  8
Body
100
AcDbLine
 10
-56.6564
 20
-137.483
 30
0
 11
-56.6564
 21
-137.483
 31
10.0076
  0
LINE
  5
E55
330
A02
100
AcDbEntity
  8
Body
100
AcDbLine
 10
-59.5954
 20
-133.853
 30
0
 11
-59.5954
 21
-133.853
 31
10.0076
  0
ARC
  5
E56
330
A02
100
AcDbEntity
  8
Body
100
AcDbCircle
 10
-61.6875
 20
-138.552
 30
0
 40
5.1435
100
AcDbArc
 50
12
 51
66
  0
ARC
  5
E57
330
A02
100
AcDbEntity
  8
Body
100
AcDbCircle
 10
-61.6875
 20
-138.552
 30
10.0076
 40
5.1435
100
AcDbArc
 50
12
 51
66
  0
LINE
  5
E58
330
A02
100
AcDbEntity
  8
Body
100
AcDbLine
 10
-59.5954
 20
-133.853
 30
0
 11
-59.5954
 21
-133.853
 31
10.0076
  0
LINE
  5
E59
330
A02
100
AcDbEntity
  8
Body
100
AcDbLine
 10
-64.2592
 20
-134.098
 30
0
 11
-64.2592
 21
-134.098
 31
10.0076
  0
ARC
  5
E5A
330
A02
100
AcDbEntity
  8
Body
100
AcDbCircle
 10
-61.6875
 20
-138.552
 30
0
 40
5.1435
100
AcDbArc
 50
66
 51
120
  0
ARC
  5
E5B
330
A02
100
AcDbEntity
  8
Body
100
AcDbCircle
 10
-61.6875
 20
-138.552
 30
10.0076
 40
5.1435
100
AcDbArc
 50
66
 51
120
  0
LINE
  5
E5C
330
A02
100
AcDbEntity
  8
Body
100
AcDbLine
 10
-64.2592
 20
-134.098
 30
0
 11
-64.2592
 21
-134.098
 31
10.0076
  0
LINE
  5
E5D
330
A02
100
AcDbEntity
  8
Body
100
AcDbLine
 10
-67.3401
 20
-136.552
 30
0
 11
-67.3401
 21
-136.552
 31
10.0076
  0
LINE
  5
E5E
330
A02
100
AcDbEntity
  8
Body
100
AcDbLine
 10
-64.2592
 20
-134.098
 30
0
 11
-67.3401
 21
-136.552
 31
0
  0
LINE
  5
E5F
330
A02
100
AcDbEntity
  8
Body
100
AcDbLine
 10
-64.2592
 20
-134.098
 30
10.0076
 11
-67.3401
 21
-136.552
 31
10.0076
  0
LINE
  5
E60
330
A02
100
AcDbEntity
  8
Body
100
AcDbLine
 10
-67.3401
 20
-136.552
 30
0
 11
-67.3401
 21
-136.552
 31
10.0076
  0
LINE
  5
E61
330
A02
100
AcDbEntity
  8
Body
100
AcDbLine
 10
-68.375
 20
-137.664
 30
0
 11
-68.375
 21
-137.664
 31
10.0076
  0
ARC
  5
E62
330
A02
100
AcDbEntity
  8
Body
100
AcDbCircle
 10
-77.5583
 20
-128.083
 30
0
 40
13.2715
100
AcDbArc
 50
-46.2147
 51
-39.6519
  0
ARC
  5
E63
330
A02
100
AcDbEntity
  8
Body
100
AcDbCircle
 10
-77.5583
 20
-128.083
 30
10.0076
 40
13.2715
100
AcDbArc
 50
-46.2147
 51
-39.6519
  0
LINE
  5
E64
330
A02
100
AcDbEntity
  8
Body
100
AcDbLine
 10
-68.375
 20
-137.664
 30
0
 11
-68.375
 21
-137.664
 31
10.0076
  0
LINE
  5
E65
330
A02
100
AcDbEntity
  8
Body
100
AcDbLine
 10
-71.1331
 20
-139.607
 30
0
 11
-71.1331
 21
-139.607
 31
10.0076
  0
ARC
  5
E66
330
A02
100
AcDbEntity
  8
Body
100
AcDbCircle
 10
-74.3611
 20
-132.095
 30
0
 40
8.17611
100
AcDbArc
 50
-66.746
 51
-42.9333
  0
ARC
  5
E67
330
A02
100
AcDbEntity
  8
Body
100
AcDbCircle
 10
-74.3611
 20
-132.095
 30
10.0076
 40
8.17611
100
AcDbArc
 50
-66.746
 51
-42.9333
  0
LINE
  5
E68
330
A02
100
AcDbEntity
  8
Body
100
AcDbLine
 10
-71.1331
 20
-139.607
 30
0
 11
-71.1331
 21
-139.607
 31
10.0076
  0
LINE
  5
E69
330
A02
100
AcDbEntity
  8
Body
100
AcDbLine
 10
-71.1826
 20
-136.233
 30
0
 11
-71.1826
 21
-136.233
 31
10.0076
  0
ARC
  5
E6A
330
A02
100
AcDbEntity
  8
Body
100
AcDbCircle
 10
-63.1585
 20
-137.803
 30
0
 40
8.17611
100
AcDbArc
 50
168.933
 51
-167.254
  0
ARC
  5
E6B
330
A02
100
AcDbEntity
  8
Body
100
AcDbCircle
 10
-63.1585
 20
-137.803
 30
10.0076
 40
8.17611
100
AcDbArc
 50
168.933
 51
-167.254
  0
LINE
  5
E6C
330
A02
100
AcDbEntity
  8
Body
100
AcDbLine
 10
-71.1826
 20
-136.233
 30
0
 11
-71.1826
 21
-136.233
 31
10.0076
  0
LINE
  5
E6D
330
A02
100
AcDbEntity
  8
Body
100
AcDbLine
 10
-70.891
 20
-134.742
 30
0
 11
-70.891
 21
-134.742
 31
10.0076
  0
LINE
  5
E6E
330
A02
100
AcDbEntity
  8
Body
100
AcDbLine
 10
-71.1826
 20
-136.233
 30
0
 11
-70.891
 21
-134.742
 31
0
  0
LINE
  5
E6F
330
A02
100
AcDbEntity
  8
Body
100
AcDbLine
 10
-71.1826
 20
-136.233
 30
10.0076
 11
-70.891
 21
-134.742
 31
10.0076
  0
LINE
  5
E70
330
A02
100
AcDbEntity
  8
Body
100
AcDbLine
 10
-70.891
 20
-134.742
 30
0
 11
-70.891
 21
-134.742
 31
10.0076
  0
LINE
  5
E71
330
A02
100
AcDbEntity
  8
Body
100
AcDbLine
 10
-70.7169
 20
-130.808
 30
0
 11
-70.7169
 21
-130.808
 31
10.0076
  0
ARC
  5
E72
330
A02
100
AcDbEntity
  8
Body
100
AcDbCircle
 10
-83.9157
 20
-132.195
 30
0
 40
13.2715
100
AcDbArc
 50
-11.0667
 51
6
  0
ARC
  5
E73
330
A02
100
AcDbEntity
  8
Body
100
AcDbCircle
 10
-83.9157
 20
-132.195
 30
10.0076
 40
13.2715
100
AcDbArc
 50
-11.0667
 51
6
  0
LINE
  5
E74
330
A02
100
AcDbEntity
  8
Body
100
AcDbLine
 10
-70.7169
 20
-130.808
 30
0
 11
-70.7169
 21
-130.808
 31
10.0076
  0
LINE
  5
E75
330
A02
100
AcDbEntity
  8
Body
100
AcDbLine
 10
-73.2604
 20
-126.891
 30
0
 11
-73.2604
 21
-126.891
 31
10.0076
  0
ARC
  5
E76
330
A02
100
AcDbEntity
  8
Body
100
AcDbCircle
 10
-75.8322
 20
-131.345
 30
0
 40
5.1435
100
AcDbArc
 50
6
 51
60
  0
ARC
  5
E77
330
A02
100
AcDbEntity
  8
Body
100
AcDbCircle
 10
-75.8322
 20
-131.345
 30
10.0076
 40
5.1435
100
AcDbArc
 50
6
 51
60
  0
LINE
  5
E78
330
A02
100
AcDbEntity
  8
Body
100
AcDbLine
 10
-73.2604
 20
-126.891
 30
0
 11
-73.2604
 21
-126.891
 31
10.0076
  0
LINE
  5
E79
330
A02
100
AcDbEntity
  8
Body
100
AcDbLine
 10
-77.9242
 20
-126.646
 30
0
 11
-77.9242
 21
-126.646
 31
10.0076
  0
ARC
  5
E7A
330
A02
100
AcDbEntity
  8
Body
100
AcDbCircle
 10
-75.8322
 20
-131.345
 30
0
 40
5.1435
100
AcDbArc
 50
60
 51
114
  0
ARC
  5
E7B
330
A02
100
AcDbEntity
  8
Body
100
AcDbCircle
 10
-75.8322
 20
-131.345
 30
10.0076
 40
5.1435
100
AcDbArc
 50
60
 51
114
  0
LINE
  5
E7C
330
A02
100
AcDbEntity
  8
Body
100
AcDbLine
 10
-77.9242
 20
-126.646
 30
0
 11
-77.9242
 21
-126.646
 31
10.0076
  0
LINE
  5
E7D
330
A02
100
AcDbEntity
  8
Body
100
AcDbLine
 10
-81.2448
 20
-128.765
 30
0
 11
-81.2448
 21
-128.765
 31
10.0076
  0
LINE
  5
E7E
330
A02
100
AcDbEntity
  8
Body
100
AcDbLine
 10
-77.9242
 20
-126.646
 30
0
 11
-81.2448
 21
-128.765
 31
0
  0
LINE
  5
E7F
330
A02
100
AcDbEntity
  8
Body
100
AcDbLine
 10
-77.9242
 20
-126.646
 30
10.0076
 11
-81.2448
 21
-128.765
 31
10.0076
  0
LINE
  5
E80
330
A02
100
AcDbEntity
  8
Body
100
AcDbLine
 10
-81.2448
 20
-128.765
 30
0
 11
-81.2448
 21
-128.765
 31
10.0076
  0
LINE
  5
E81
330
A02
100
AcDbEntity
  8
Body
100
AcDbLine
 10
-82.3902
 20
-129.763
 30
0
 11
-82.3902
 21
-129.763
 31
10.0076
  0
ARC
  5
E82
330
A02
100
AcDbEntity
  8
Body
100
AcDbCircle
 10
-90.5217
 20
-119.274
 30
0
 40
13.2715
100
AcDbArc
 50
-52.2147
 51
-45.6519
  0
ARC
  5
E83
330
A02
100
AcDbEntity
  8
Body
100
AcDbCircle
 10
-90.5217
 20
-119.274
 30
10.0076
 40
13.2715
100
AcDbArc
 50
-52.2147
 51
-45.6519
  0
LINE
  5
E84
330
A02
100
AcDbEntity
  8
Body
100
AcDbLine
 10
-82.3902
 20
-129.763
 30
0
 11
-82.3902
 21
-129.763
 31
10.0076
  0
LINE
  5
E85
330
A02
100
AcDbEntity
  8
Body
100
AcDbLine
 10
-85.3363
 20
-131.406
 30
0
 11
-85.3363
 21
-131.406
 31
10.0076
  0
ARC
  5
E86
330
A02
100
AcDbEntity
  8
Body
100
AcDbCircle
 10
-87.7614
 20
-123.598
 30
0
 40
8.17611
100
AcDbArc
 50
-72.746
 51
-48.9333
  0
ARC
  5
E87
330
A02
100
AcDbEntity
  8
Body
100
AcDbCircle
 10
-87.7614
 20
-123.598
 30
10.0076
 40
8.17611
100
AcDbArc
 50
-72.746
 51
-48.9333
  0
LINE
  5
E88
330
A02
100
AcDbEntity
  8
Body
100
AcDbLine
 10
-85.3363
 20
-131.406
 30
0
 11
-85.3363
 21
-131.406
 31
10.0076
  0
LINE
  5
E89
330
A02
100
AcDbEntity
  8
Body
100
AcDbLine
 10
-85.0329
 20
-128.046
 30
0
 11
-85.0329
 21
-128.046
 31
10.0076
  0
ARC
  5
E8A
330
A02
100
AcDbEntity
  8
Body
100
AcDbCircle
 10
-77.2168
 20
-130.446
 30
0
 40
8.17611
100
AcDbArc
 50
162.933
 51
-173.254
  0
ARC
  5
E8B
330
A02
100
AcDbEntity
  8
Body
100
AcDbCircle
 10
-77.2168
 20
-130.446
 30
10.0076
 40
8.17611
100
AcDbArc
 50
162.933
 51
-173.254
  0
LINE
  5
E8C
330
A02
100
AcDbEntity
  8
Body
100
AcDbLine
 10
-85.0329
 20
-128.046
 30
0
 11
-85.0329
 21
-128.046
 31
10.0076
  0
LINE
  5
E8D
330
A02
100
AcDbEntity
  8
Body
100
AcDbLine
 10
-84.587
 20
-126.594
 30
0
 11
-84.587
 21
-126.594
 31
10.0076
  0
LINE
  5
E8E
330
A02
100
AcDbEntity
  8
Body
100
AcDbLine
 10
-85.0329
 20
-128.046
 30
0
 11
-84.587
 21
-126.594
 31
0
  0
LINE
  5
E8F
330
A02
100
AcDbEntity
  8
Body
100
AcDbLine
 10
-85.0329
 20
-128.046
 30
10.0076
 11
-84.587
 21
-126.594
 31
10.0076
  0
LINE
  5
E90
330
A02
100
AcDbEntity
  8
Body
100
AcDbLine
 10
-84.587
 20
-126.594
 30
0
 11
-84.587
 21
-126.594
 31
10.0076
  0
LINE
  5
E91
330
A02
100
AcDbEntity
  8
Body
100
AcDbLine
 10
-84.0026
 20
-122.699
 30
0
 11
-84.0026
 21
-122.699
 31
10.0076
  0
ARC
  5
E92
330
A02
100
AcDbEntity
  8
Body
100
AcDbCircle
 10
-97.2741
 20
-122.699
 30
0
 40
13.2715
100
AcDbArc
 50
-17.0667
 51
-1.84053e-13
  0
ARC
  5
E93
330
A02
100
AcDbEntity
  8
Body
100
AcDbCircle
 10
-97.2741
 20
-122.699
 30
10.0076
 40
13.2715
100
AcDbArc
 50
-17.0667
 51
-1.84053e-13
  0
LINE
  5
E94
330
A02
100
AcDbEntity
  8
Body
100
AcDbLine
 10
-84.0026
 20
-122.699
 30
0
 11
-84.0026
 21
-122.699
 31
10.0076
  0
LINE
  5
E95
330
A02
100
AcDbEntity
  8
Body
100
AcDbLine
 10
-86.1228
 20
-118.538
 30
0
 11
-86.1228
 21
-118.538
 31
10.0076
  0
ARC
  5
E96
330
A02
100
AcDbEntity
  8
Body
100
AcDbCircle
 10
-89.1461
 20
-122.699
 30
0
 40
5.1435
100
AcDbArc
 50
3.16602e-13
 51
54
  0
ARC
  5
E97
330
A02
100
AcDbEntity
  8
Body
100
AcDbCircle
 10
-89.1461
 20
-122.699
 30
10.0076
 40
5.1435
100
AcDbArc
 50
3.16602e-13
 51
54
  0
LINE
  5
E98
330
A02
100
AcDbEntity
  8
Body
100
AcDbLine
 10
-86.1228
 20
-118.538
 30
0
 11
-86.1228
 21
-118.538
 31
10.0076
  0
LINE
  5
E99
330
A02
100
AcDbEntity
  8
Body
100
AcDbLine
 10
-90.7355
 20
-117.807
 30
0
 11
-90.7355
 21
-117.807
 31
10.0076
  0
ARC
  5
E9A
330
A02
100
AcDbEntity
  8
Body
100
AcDbCircle
 10
-89.1461
 20
-122.699
 30
0
 40
5.1435
100
AcDbArc
 50
54
 51
108
  0
ARC
  5
E9B
330
A02
100
AcDbEntity
  8
Body
100
AcDbCircle
 10
-89.1461
 20
-122.699
 30
10.0076
 40
5.1435
100
AcDbArc
 50
54
 51
108
  0
LINE
  5
E9C
330
A02
100
AcDbEntity
  8
Body
100
AcDbLine
 10
-90.7355
 20
-117.807
 30
0
 11
-90.7355
 21
-117.807
 31
10.0076
  0
LINE
  5
E9D
330
A02
100
AcDbEntity
  8
Body
100
AcDbLine
 10
-94.2593
 20
-119.567
 30
0
 11
-94.2593
 21
-119.567
 31
10.0076
  0
LINE
  5
E9E
330
A02
100
AcDbEntity
  8
Body
100
AcDbLine
 10
-90.7355
 20
-117.807
 30
0
 11
-94.2593
 21
-119.567
 31
0
  0
LINE
  5
E9F
330
A02
100
AcDbEntity
  8
Body
100
AcDbLine
 10
-90.7355
 20
-117.807
 30
10.0076
 11
-94.2593
 21
-119.567
 31
10.0076
  0
LINE
  5
EA0
330
A02
100
AcDbEntity
  8
Body
100
AcDbLine
 10
-94.2593
 20
-119.567
 30
0
 11
-94.2593
 21
-119.567
 31
10.0076
  0
LINE
  5
EA1
330
A02
100
AcDbEntity
  8
Body
100
AcDbLine
 10
-95.5028
 20
-120.44
 30
0
 11
-95.5028
 21
-120.44
 31
10.0076
  0
ARC
  5
EA2
330
A02
100
AcDbEntity
  8
Body
100
AcDbCircle
 10
-102.493
 20
-109.158
 30
0
 40
13.2715
100
AcDbArc
 50
-58.2147
 51
-51.6519
  0
ARC
  5
EA3
330
A02
100
AcDbEntity
  8
Body
100
AcDbCircle
 10
-102.493
 20
-109.158
 30
10.0076
 40
13.2715
100
AcDbArc
 50
-58.2147
 51
-51.6519
  0
LINE
  5
EA4
330
A02
100
AcDbEntity
  8
Body
100
AcDbLine
 10
-95.5028
 20
-120.44
 30
0
 11
-95.5028
 21
-120.44
 31
10.0076
  0
LINE
  5
EA5
330
A02
100
AcDbEntity
  8
Body
100
AcDbLine
 10
-98.6046
 20
-121.767
 30
0
 11
-98.6046
 21
-121.767
 31
10.0076
  0
ARC
  5
EA6
330
A02
100
AcDbEntity
  8
Body
100
AcDbCircle
 10
-100.2
 20
-113.748
 30
0
 40
8.17611
100
AcDbArc
 50
-78.746
 51
-54.9333
  0
ARC
  5
EA7
330
A02
100
AcDbEntity
  8
Body
100
AcDbCircle
 10
-100.2
 20
-113.748
 30
10.0076
 40
8.17611
100
AcDbArc
 50
-78.746
 51
-54.9333
  0
LINE
  5
EA8
330
A02
100
AcDbEntity
  8
Body
100
AcDbLine
 10
-98.6046
 20
-121.767
 30
0
 11
-98.6046
 21
-121.767
 31
10.0076
  0
LINE
  5
EA9
330
A02
100
AcDbEntity
  8
Body
100
AcDbLine
 10
-97.9516
 20
-118.457
 30
0
 11
-97.9516
 21
-118.457
 31
10.0076
  0
ARC
  5
EAA
330
A02
100
AcDbEntity
  8
Body
100
AcDbCircle
 10
-90.4291
 20
-121.66
 30
0
 40
8.17611
100
AcDbArc
 50
156.933
 51
-179.254
  0
ARC
  5
EAB
330
A02
100
AcDbEntity
  8
Body
100
AcDbCircle
 10
-90.4291
 20
-121.66
 30
10.0076
 40
8.17611
100
AcDbArc
 50
156.933
 51
-179.254
  0
LINE
  5
EAC
330
A02
100
AcDbEntity
  8
Body
100
AcDbLine
 10
-97.9516
 20
-118.457
 30
0
 11
-97.9516
 21
-118.457
 31
10.0076
  0
LINE
  5
EAD
330
A02
100
AcDbEntity
  8
Body
100
AcDbLine
 10
-97.3563
 20
-117.059
 30
0
 11
-97.3563
 21
-117.059
 31
10.0076
  0
LINE
  5
EAE
330
A02
100
AcDbEntity
  8
Body
100
AcDbLine
 10
-97.9516
 20
-118.457
 30
0
 11
-97.3563
 21
-117.059
 31
0
  0
LINE
  5
EAF
330
A02
100
AcDbEntity
  8
Body
100
AcDbLine
 10
-97.9516
 20
-118.457
 30
10.0076
 11
-97.3563
 21
-117.059
 31
10.0076
  0
LINE
  5
EB0
330
A02
100
AcDbEntity
  8
Body
100
AcDbLine
 10
-97.3563
 20
-117.059
 30
0
 11
-97.3563
 21
-117.059
 31
10.0076
  0
LINE
  5
EB1
330
A02
100
AcDbEntity
  8
Body
100
AcDbLine
 10
-96.368
 20
-113.246
 30
0
 11
-96.368
 21
-113.246
 31
10.0076
  0
ARC
  5
EB2
330
A02
100
AcDbEntity
  8
Body
100
AcDbCircle
 10
-109.567
 20
-111.859
 30
0
 40
13.2715
100
AcDbArc
 50
-23.0667
 51
-6
  0
ARC
  5
EB3
330
A02
100
AcDbEntity
  8
Body
100
AcDbCircle
 10
-109.567
 20
-111.859
 30
10.0076
 40
13.2715
100
AcDbArc
 50
-23.0667
 51
-6
  0
LINE
  5
EB4
330
A02
100
AcDbEntity
  8
Body
100
AcDbLine
 10
-96.368
 20
-113.246
 30
0
 11
-96.368
 21
-113.246
 31
10.0076
  0
LINE
  5
EB5
330
A02
100
AcDbEntity
  8
Body
100
AcDbLine
 10
-98.0416
 20
-108.886
 30
0
 11
-98.0416
 21
-108.886
 31
10.0076
  0
ARC
  5
EB6
330
A02
100
AcDbEntity
  8
Body
100
AcDbCircle
 10
-101.483
 20
-112.709
 30
0
 40
5.1435
100
AcDbArc
 50
-6
 51
48
  0
ARC
  5
EB7
330
A02
100
AcDbEntity
  8
Body
100
AcDbCircle
 10
-101.483
 20
-112.709
 30
10.0076
 40
5.1435
100
AcDbArc
 50
-6
 51
48
  0
LINE
  5
EB8
330
A02
100
AcDbEntity
  8
Body
100
AcDbLine
 10
-98.0416
 20
-108.886
 30
0
 11
-98.0416
 21
-108.886
 31
10.0076
  0
LINE
  5
EB9
330
A02
100
AcDbEntity
  8
Body
100
AcDbLine
 10
-102.553
 20
-107.677
 30
0
 11
-102.553
 21
-107.677
 31
10.0076
  0
ARC
  5
EBA
330
A02
100
AcDbEntity
  8
Body
100
AcDbCircle
 10
-101.483
 20
-112.709
 30
0
 40
5.1435
100
AcDbArc
 50
48
 51
102
  0
ARC
  5
EBB
330
A02
100
AcDbEntity
  8
Body
100
AcDbCircle
 10
-101.483
 20
-112.709
 30
10.0076
 40
5.1435
100
AcDbArc
 50
48
 51
102
  0
LINE
  5
EBC
330
A02
100
AcDbEntity
  8
Body
100
AcDbLine
 10
-102.553
 20
-107.677
 30
0
 11
-102.553
 21
-107.677
 31
10.0076
  0
LINE
  5
EBD
330
A02
100
AcDbEntity
  8
Body
100
AcDbLine
 10
-106.241
 20
-109.059
 30
0
 11
-106.241
 21
-109.059
 31
10.0076
  0
LINE
  5
EBE
330
A02
100
AcDbEntity
  8
Body
100
AcDbLine
 10
-102.553
 20
-107.677
 30
0
 11
-106.241
 21
-109.059
 31
0
  0
LINE
  5
EBF
330
A02
100
AcDbEntity
  8
Body
100
AcDbLine
 10
-102.553
 20
-107.677
 30
10.0076
 11
-106.241
 21
-109.059
 31
10.0076
  0
LINE
  5
EC0
330
A02
100
AcDbEntity
  8
Body
100
AcDbLine
 10
-106.241
 20
-109.059
 30
0
 11
-106.241
 21
-109.059
 31
10.0076
  0
LINE
  5
EC1
330
A02
100
AcDbEntity
  8
Body
100
AcDbLine
 10
-107.569
 20
-109.797
 30
0
 11
-107.569
 21
-109.797
 31
10.0076
  0
ARC
  5
EC2
330
A02
100
AcDbEntity
  8
Body
100
AcDbCircle
 10
-113.342
 20
-97.847
 30
0
 40
13.2715
100
AcDbArc
 50
-64.2147
 51
-57.6519
  0
ARC
  5
EC3
330
A02
100
AcDbEntity
  8
Body
100
AcDbCircle
 10
-113.342
 20
-97.847
 30
10.0076
 40
13.2715
100
AcDbArc
 50
-64.2147
 51
-57.6519
  0
LINE
  5
EC4
330
A02
100
AcDbEntity
  8
Body
100
AcDbLine
 10
-107.569
 20
-109.797
 30
0
 11
-107.569
 21
-109.797
 31
10.0076
  0
LINE
  5
EC5
330
A02
100
AcDbEntity
  8
Body
100
AcDbLine
 10
-110.792
 20
-110.792
 30
0
 11
-110.792
 21
-110.792
 31
10.0076
  0
ARC
  5
EC6
330
A02
100
AcDbEntity
  8
Body
100
AcDbCircle
 10
-111.541
 20
-102.651
 30
0
 40
8.17611
100
AcDbArc
 50
-84.746
 51
-60.9333
  0
ARC
  5
EC7
330
A02
100
AcDbEntity
  8
Body
100
AcDbCircle
 10
-111.541
 20
-102.651
 30
10.0076
 40
8.17611
100
AcDbArc
 50
-84.746
 51
-60.9333
  0
LINE
  5
EC8
330
A02
100
AcDbEntity
  8
Body
100
AcDbLine
 10
-110.792
 20
-110.792
 30
0
 11
-110.792
 21
-110.792
 31
10.0076
  0
LINE
  5
EC9
330
A02
100
AcDbEntity
  8
Body
100
AcDbLine
 10
-109.797
 20
-107.569
 30
0
 11
-109.797
 21
-107.569
 31
10.0076
  0
ARC
  5
ECA
330
A02
100
AcDbEntity
  8
Body
100
AcDbCircle
 10
-102.651
 20
-111.541
 30
0
 40
8.17611
100
AcDbArc
 50
150.933
 51
174.746
  0
ARC
  5
ECB
330
A02
100
AcDbEntity
  8
Body
100
AcDbCircle
 10
-102.651
 20
-111.541
 30
10.0076
 40
8.17611
100
AcDbArc
 50
150.933
 51
174.746
  0
LINE
  5
ECC
330
A02
100
AcDbEntity
  8
Body
100
AcDbLine
 10
-109.797
 20
-107.569
 30
0
 11
-109.797
 21
-107.569
 31
10.0076
  0
LINE
  5
ECD
330
A02
100
AcDbEntity
  8
Body
100
AcDbLine
 10
-109.059
 20
-106.241
 30
0
 11
-109.059
 21
-106.241
 31
10.0076
  0
LINE
  5
ECE
330
A02
100
AcDbEntity
  8
Body
100
AcDbLine
 10
-109.797
 20
-107.569
 30
0
 11
-109.059
 21
-106.241
 31
0
  0
LINE
  5
ECF
330
A02
100
AcDbEntity
  8
Body
100
AcDbLine
 10
-109.797
 20
-107.569
 30
10.0076
 11
-109.059
 21
-106.241
 31
10.0076
  0
LINE
  5
ED0
330
A02
100
AcDbEntity
  8
Body
100
AcDbLine
 10
-109.059
 20
-106.241
 30
0
 11
-109.059
 21
-106.241
 31
10.0076
  0
LINE
  5
ED1
330
A02
100
AcDbEntity
  8
Body
100
AcDbLine
 10
-107.677
 20
-102.553
 30
0
 11
-107.677
 21
-102.553
 31
10.0076
  0
ARC
  5
ED2
330
A02
100
AcDbEntity
  8
Body
100
AcDbCircle
 10
-120.659
 20
-99.7934
 30
0
 40
13.2715
100
AcDbArc
 50
-29.0667
 51
-12
  0
ARC
  5
ED3
330
A02
100
AcDbEntity
  8
Body
100
AcDbCircle
 10
-120.659
 20
-99.7934
 30
10.0076
 40
13.2715
100
AcDbArc
 50
-29.0667
 51
-12
  0
LINE
  5
ED4
330
A02
100
AcDbEntity
  8
Body
100
AcDbLine
 10
-107.677
 20
-102.553
 30
0
 11
-107.677
 21
-102.553
 31
10.0076
  0
LINE
  5
ED5
330
A02
100
AcDbEntity
  8
Body
100
AcDbLine
 10
-108.886
 20
-98.0416
 30
0
 11
-108.886
 21
-98.0416
 31
10.0076
  0
ARC
  5
ED6
330
A02
100
AcDbEntity
  8
Body
100
AcDbCircle
 10
-112.709
 20
-101.483
 30
0
 40
5.1435
100
AcDbArc
 50
-12
 51
42
  0
ARC
  5
ED7
330
A02
100
AcDbEntity
  8
Body
100
AcDbCircle
 10
-112.709
 20
-101.483
 30
10.0076
 40
5.1435
100
AcDbArc
 50
-12
 51
42
  0
LINE
  5
ED8
330
A02
100
AcDbEntity
  8
Body
100
AcDbLine
 10
-108.886
 20
-98.0416
 30
0
 11
-108.886
 21
-98.0416
 31
10.0076
  0
LINE
  5
ED9
330
A02
100
AcDbEntity
  8
Body
100
AcDbLine
 10
-113.246
 20
-96.368
 30
0
 11
-113.246
 21
-96.368
 31
10.0076
  0
ARC
  5
EDA
330
A02
100
AcDbEntity
  8
Body
100
AcDbCircle
 10
-112.709
 20
-101.483
 30
0
 40
5.1435
100
AcDbArc
 50
42
 51
96
  0
ARC
  5
EDB
330
A02
100
AcDbEntity
  8
Body
100
AcDbCircle
 10
-112.709
 20
-101.483
 30
10.0076
 40
5.1435
100
AcDbArc
 50
42
 51
96
  0
LINE
  5
EDC
330
A02
100
AcDbEntity
  8
Body
100
AcDbLine
 10
-113.246
 20
-96.368
 30
0
 11
-113.246
 21
-96.368
 31
10.0076
  0
LINE
  5
EDD
330
A02
100
AcDbEntity
  8
Body
100
AcDbLine
 10
-117.059
 20
-97.3563
 30
0
 11
-117.059
 21
-97.3563
 31
10.0076
  0
LINE
  5
EDE
330
A02
100
AcDbEntity
  8
Body
100
AcDbLine
 10
-113.246
 20
-96.368
 30
0
 11
-117.059
 21
-97.3563
 31
0
  0
LINE
  5
EDF
330
A02
100
AcDbEntity
  8
Body
100
AcDbLine
 10
-113.246
 20
-96.368
 30
10.0076
 11
-117.059
 21
-97.3563
 31
10.0076
  0
LINE
  5
EE0
330
A02
100
AcDbEntity
  8
Body
100
AcDbLine
 10
-117.059
 20
-97.3563
 30
0
 11
-117.059
 21
-97.3563
 31
10.0076
  0
LINE
  5
EE1
330
A02
100
AcDbEntity
  8
Body
100
AcDbLine
 10
-118.457
 20
-97.9516
 30
0
 11
-118.457
 21
-97.9516
 31
10.0076
  0
ARC
  5
EE2
330
A02
100
AcDbEntity
  8
Body
100
AcDbCircle
 10
-122.949
 20
-85.4635
 30
0
 40
13.2715
100
AcDbArc
 50
-70.2147
 51
-63.6519
  0
ARC
  5
EE3
330
A02
100
AcDbEntity
  8
Body
100
AcDbCircle
 10
-122.949
 20
-85.4635
 30
10.0076
 40
13.2715
100
AcDbArc
 50
-70.2147
 51
-63.6519
  0
LINE
  5
EE4
330
A02
100
AcDbEntity
  8
Body
100
AcDbLine
 10
-118.457
 20
-97.9516
 30
0
 11
-118.457
 21
-97.9516
 31
10.0076
  0
LINE
  5
EE5
330
A02
100
AcDbEntity
  8
Body
100
AcDbLine
 10
-121.767
 20
-98.6046
 30
0
 11
-121.767
 21
-98.6046
 31
10.0076
  0
ARC
  5
EE6
330
A02
100
AcDbEntity
  8
Body
100
AcDbCircle
 10
-121.66
 20
-90.4291
 30
0
 40
8.17611
100
AcDbArc
 50
-90.746
 51
-66.9333
  0
ARC
  5
EE7
330
A02
100
AcDbEntity
  8
Body
100
AcDbCircle
 10
-121.66
 20
-90.4291
 30
10.0076
 40
8.17611
100
AcDbArc
 50
-90.746
 51
-66.9333
  0
LINE
  5
EE8
330
A02
100
AcDbEntity
  8
Body
100
AcDbLine
 10
-121.767
 20
-98.6046
 30
0
 11
-121.767
 21
-98.6046
 31
10.0076
  0
LINE
  5
EE9
330
A02
100
AcDbEntity
  8
Body
100
AcDbLine
 10
-120.44
 20
-95.5028
 30
0
 11
-120.44
 21
-95.5028
 31
10.0076
  0
ARC
  5
EEA
330
A02
100
AcDbEntity
  8
Body
100
AcDbCircle
 10
-113.748
 20
-100.2
 30
0
 40
8.17611
100
AcDbArc
 50
144.933
 51
168.746
  0
ARC
  5
EEB
330
A02
100
AcDbEntity
  8
Body
100
AcDbCircle
 10
-113.748
 20
-100.2
 30
10.0076
 40
8.17611
100
AcDbArc
 50
144.933
 51
168.746
  0
LINE
  5
EEC
330
A02
100
AcDbEntity
  8
Body
100
AcDbLine
 10
-120.44
 20
-95.5028
 30
0
 11
-120.44
 21
-95.5028
 31
10.0076
  0
LINE
  5
EED
330
A02
100
AcDbEntity
  8
Body
100
AcDbLine
 10
-119.567
 20
-94.2593
 30
0
 11
-119.567
 21
-94.2593
 31
10.0076
  0
LINE
  5
EEE
330
A02
100
AcDbEntity
  8
Body
100
AcDbLine
 10
-120.44
 20
-95.5028
 30
0
 11
-119.567
 21
-94.2593
 31
0
  0
LINE
  5
EEF
330
A02
100
AcDbEntity
  8
Body
100
AcDbLine
 10
-120.44
 20
-95.5028
 30
10.0076
 11
-119.567
 21
-94.2593
 31
10.0076
  0
LINE
  5
EF0
330
A02
100
AcDbEntity
  8
Body
100
AcDbLine
 10
-119.567
 20
-94.2593
 30
0
 11
-119.567
 21
-94.2593
 31
10.0076
  0
LINE
  5
EF1
330
A02
100
AcDbEntity
  8
Body
100
AcDbLine
 10
-117.807
 20
-90.7355
 30
0
 11
-117.807
 21
-90.7355
 31
10.0076
  0
ARC
  5
EF2
330
A02
100
AcDbEntity
  8
Body
100
AcDbCircle
 10
-130.429
 20
-86.6344
 30
0
 40
13.2715
100
AcDbArc
 50
-35.0667
 51
-18
  0
ARC
  5
EF3
330
A02
100
AcDbEntity
  8
Body
100
AcDbCircle
 10
-130.429
 20
-86.6344
 30
10.0076
 40
13.2715
100
AcDbArc
 50
-35.0667
 51
-18
  0
LINE
  5
EF4
330
A02
100
AcDbEntity
  8
Body
100
AcDbLine
 10
-117.807
 20
-90.7355
 30
0
 11
-117.807
 21
-90.7355
 31
10.0076
  0
LINE
  5
EF5
330
A02
100
AcDbEntity
  8
Body
100
AcDbLine
 10
-118.538
 20
-86.1228
 30
0
 11
-118.538
 21
-86.1228
 31
10.0076
  0
ARC
  5
EF6
330
A02
100
AcDbEntity
  8
Body
100
AcDbCircle
 10
-122.699
 20
-89.1461
 30
0
 40
5.1435
100
AcDbArc
 50
-18
 51
36
  0
ARC
  5
EF7
330
A02
100
AcDbEntity
  8
Body
100
AcDbCircle
 10
-122.699
 20
-89.1461
 30
10.0076
 40
5.1435
100
AcDbArc
 50
-18
 51
36
  0
LINE
  5
EF8
330
A02
100
AcDbEntity
  8
Body
100
AcDbLine
 10
-118.538
 20
-86.1228
 30
0
 11
-118.538
 21
-86.1228
 31
10.0076
  0
LINE
  5
EF9
330
A02
100
AcDbEntity
  8
Body
100
AcDbLine
 10
-122.699
 20
-84.0026
 30
0
 11
-122.699
 21
-84.0026
 31
10.0076
  0
ARC
  5
EFA
330
A02
100
AcDbEntity
  8
Body
100
AcDbCircle
 10
-122.699
 20
-89.1461
 30
0
 40
5.1435
100
AcDbArc
 50
36
 51
90
  0
ARC
  5
EFB
330
A02
100
AcDbEntity
  8
Body
100
AcDbCircle
 10
-122.699
 20
-89.1461
 30
10.0076
 40
5.1435
100
AcDbArc
 50
36
 51
90
  0
LINE
  5
EFC
330
A02
100
AcDbEntity
  8
Body
100
AcDbLine
 10
-122.699
 20
-84.0026
 30
0
 11
-122.699
 21
-84.0026
 31
10.0076
  0
LINE
  5
EFD
330
A02
100
AcDbEntity
  8
Body
100
AcDbLine
 10
-126.594
 20
-84.587
 30
0
 11
-126.594
 21
-84.587
 31
10.0076
  0
LINE
  5
EFE
330
A02
100
AcDbEntity
  8
Body
100
AcDbLine
 10
-122.699
 20
-84.0026
 30
0
 11
-126.594
 21
-84.587
 31
0
  0
LINE
  5
EFF
330
A02
100
AcDbEntity
  8
Body
100
AcDbLine
 10
-122.699
 20
-84.0026
 30
10.0076
 11
-126.594
 21
-84.587
 31
10.0076
  0
LINE
  5
F00
330
A02
100
AcDbEntity
  8
Body
100
AcDbLine
 10
-126.594
 20
-84.587
 30
0
 11
-126.594
 21
-84.587
 31
10.0076
  0
LINE
  5
F01
330
A02
100
AcDbEntity
  8
Body
100
AcDbLine
 10
-128.046
 20
-85.0329
 30
0
 11
-128.046
 21
-85.0329
 31
10.0076
  0
ARC
  5
F02
330
A02
100
AcDbEntity
  8
Body
100
AcDbCircle
 10
-131.209
 20
-72.1437
 30
0
 40
13.2715
100
AcDbArc
 50
-76.2147
 51
-69.6519
  0
ARC
  5
F03
330
A02
100
AcDbEntity
  8
Body
100
AcDbCircle
 10
-131.209
 20
-72.1437
 30
10.0076
 40
13.2715
100
AcDbArc
 50
-76.2147
 51
-69.6519
  0
LINE
  5
F04
330
A02
100
AcDbEntity
  8
Body
100
AcDbLine
 10
-128.046
 20
-85.0329
 30
0
 11
-128.046
 21
-85.0329
 31
10.0076
  0
LINE
  5
F05
330
A02
100
AcDbEntity
  8
Body
100
AcDbLine
 10
-131.406
 20
-85.3363
 30
0
 11
-131.406
 21
-85.3363
 31
10.0076
  0
ARC
  5
F06
330
A02
100
AcDbEntity
  8
Body
100
AcDbCircle
 10
-130.446
 20
-77.2168
 30
0
 40
8.17611
100
AcDbArc
 50
-96.746
 51
-72.9333
  0
ARC
  5
F07
330
A02
100
AcDbEntity
  8
Body
100
AcDbCircle
 10
-130.446
 20
-77.2168
 30
10.0076
 40
8.17611
100
AcDbArc
 50
-96.746
 51
-72.9333
  0
LINE
  5
F08
330
A02
100
AcDbEntity
  8
Body
100
AcDbLine
 10
-131.406
 20
-85.3363
 30
0
 11
-131.406
 21
-85.3363
 31
10.0076
  0
LINE
  5
F09
330
A02
100
AcDbEntity
  8
Body
100
AcDbLine
 10
-129.763
 20
-82.3902
 30
0
 11
-129.763
 21
-82.3902
 31
10.0076
  0
ARC
  5
F0A
330
A02
100
AcDbEntity
  8
Body
100
AcDbCircle
 10
-123.598
 20
-87.7614
 30
0
 40
8.17611
100
AcDbArc
 50
138.933
 51
162.746
  0
ARC
  5
F0B
330
A02
100
AcDbEntity
  8
Body
100
AcDbCircle
 10
-123.598
 20
-87.7614
 30
10.0076
 40
8.17611
100
AcDbArc
 50
138.933
 51
162.746
  0
LINE
  5
F0C
330
A02
100
AcDbEntity
  8
Body
100
AcDbLine
 10
-129.763
 20
-82.3902
 30
0
 11
-129.763
 21
-82.3902
 31
10.0076
  0
LINE
  5
F0D
330
A02
100
AcDbEntity
  8
Body
100
AcDbLine
 10
-128.765
 20
-81.2448
 30
0
 11
-128.765
 21
-81.2448
 31
10.0076
  0
LINE
  5
F0E
330
A02
100
AcDbEntity
  8
Body
100
AcDbLine
 10
-129.763
 20
-82.3902
 30
0
 11
-128.765
 21
-81.2448
 31
0
  0
LINE
  5
F0F
330
A02
100
AcDbEntity
  8
Body
100
AcDbLine
 10
-129.763
 20
-82.3902
 30
10.0076
 11
-128.765
 21
-81.2448
 31
10.0076
  0
LINE
  5
F10
330
A02
100
AcDbEntity
  8
Body
100
AcDbLine
 10
-128.765
 20
-81.2448
 30
0
 11
-128.765
 21
-81.2448
 31
10.0076
  0
LINE
  5
F11
330
A02
100
AcDbEntity
  8
Body
100
AcDbLine
 10
-126.646
 20
-77.9242
 30
0
 11
-126.646
 21
-77.9242
 31
10.0076
  0
ARC
  5
F12
330
A02
100
AcDbEntity
  8
Body
100
AcDbCircle
 10
-138.77
 20
-72.5262
 30
0
 40
13.2715
100
AcDbArc
 50
-41.0667
 51
-24
  0
ARC
  5
F13
330
A02
100
AcDbEntity
  8
Body
100
AcDbCircle
 10
-138.77
 20
-72.5262
 30
10.0076
 40
13.2715
100
AcDbArc
 50
-41.0667
 51
-24
  0
LINE
  5
F14
330
A02
100
AcDbEntity
  8
Body
100
AcDbLine
 10
-126.646
 20
-77.9242
 30
0
 11
-126.646
 21
-77.9242
 31
10.0076
  0
LINE
  5
F15
330
A02
100
AcDbEntity
  8
Body
100
AcDbLine
 10
-126.891
 20
-73.2604
 30
0
 11
-126.891
 21
-73.2604
 31
10.0076
  0
ARC
  5
F16
330
A02
100
AcDbEntity
  8
Body
100
AcDbCircle
 10
-131.345
 20
-75.8322
 30
0
 40
5.1435
100
AcDbArc
 50
-24
 51
30
  0
ARC
  5
F17
330
A02
100
AcDbEntity
  8
Body
100
AcDbCircle
 10
-131.345
 20
-75.8322
 30
10.0076
 40
5.1435
100
AcDbArc
 50
-24
 51
30
  0
LINE
  5
F18
330
A02
100
AcDbEntity
  8
Body
100
AcDbLine
 10
-126.891
 20
-73.2604
 30
0
 11
-126.891
 21
-73.2604
 31
10.0076
  0
LINE
  5
F19
330
A02
100
AcDbEntity
  8
Body
100
AcDbLine
 10
-130.808
 20
-70.7169
 30
0
 11
-130.808
 21
-70.7169
 31
10.0076
  0
ARC
  5
F1A
330
A02
100
AcDbEntity
  8
Body
100
AcDbCircle
 10
-131.345
 20
-75.8322
 30
0
 40
5.1435
100
AcDbArc
 50
30
 51
84
  0
ARC
  5
F1B
330
A02
100
AcDbEntity
  8
Body
100
AcDbCircle
 10
-131.345
 20
-75.8322
 30
10.0076
 40
5.1435
100
AcDbArc
 50
30
 51
84
  0
LINE
  5
F1C
330
A02
100
AcDbEntity
  8
Body
100
AcDbLine
 10
-130.808
 20
-70.7169
 30
0
 11
-130.808
 21
-70.7169
 31
10.0076
  0
LINE
  5
F1D
330
A02
100
AcDbEntity
  8
Body
100
AcDbLine
 10
-134.742
 20
-70.891
 30
0
 11
-134.742
 21
-70.891
 31
10.0076
  0
LINE
  5
F1E
330
A02
100
AcDbEntity
  8
Body
100
AcDbLine
 10
-130.808
 20
-70.7169
 30
0
 11
-134.742
 21
-70.891
 31
0
  0
LINE
  5
F1F
330
A02
100
AcDbEntity
  8
Body
100
AcDbLine
 10
-130.808
 20
-70.7169
 30
10.0076
 11
-134.742
 21
-70.891
 31
10.0076
  0
LINE
  5
F20
330
A02
100
AcDbEntity
  8
Body
100
AcDbLine
 10
-134.742
 20
-70.891
 30
0
 11
-134.742
 21
-70.891
 31
10.0076
  0
LINE
  5
F21
330
A02
100
AcDbEntity
  8
Body
100
AcDbLine
 10
-136.233
 20
-71.1826
 30
0
 11
-136.233
 21
-71.1826
 31
10.0076
  0
ARC
  5
F22
330
A02
100
AcDbEntity
  8
Body
100
AcDbCircle
 10
-138.031
 20
-58.0334
 30
0
 40
13.2715
100
AcDbArc
 50
-82.2147
 51
-75.6519
  0
ARC
  5
F23
330
A02
100
AcDbEntity
  8
Body
100
AcDbCircle
 10
-138.031
 20
-58.0334
 30
10.0076
 40
13.2715
100
AcDbArc
 50
-82.2147
 51
-75.6519
  0
LINE
  5
F24
330
A02
100
AcDbEntity
  8
Body
100
AcDbLine
 10
-136.233
 20
-71.1826
 30
0
 11
-136.233
 21
-71.1826
 31
10.0076
  0
LINE
  5
F25
330
A02
100
AcDbEntity
  8
Body
100
AcDbLine
 10
-139.607
 20
-71.1331
 30
0
 11
-139.607
 21
-71.1331
 31
10.0076
  0
ARC
  5
F26
330
A02
100
AcDbEntity
  8
Body
100
AcDbCircle
 10
-137.803
 20
-63.1585
 30
0
 40
8.17611
100
AcDbArc
 50
-102.746
 51
-78.9333
  0
ARC
  5
F27
330
A02
100
AcDbEntity
  8
Body
100
AcDbCircle
 10
-137.803
 20
-63.1585
 30
10.0076
 40
8.17611
100
AcDbArc
 50
-102.746
 51
-78.9333
  0
LINE
  5
F28
330
A02
100
AcDbEntity
  8
Body
100
AcDbLine
 10
-139.607
 20
-71.1331
 30
0
 11
-139.607
 21
-71.1331
 31
10.0076
  0
LINE
  5
F29
330
A02
100
AcDbEntity
  8
Body
100
AcDbLine
 10
-137.664
 20
-68.375
 30
0
 11
-137.664
 21
-68.375
 31
10.0076
  0
ARC
  5
F2A
330
A02
100
AcDbEntity
  8
Body
100
AcDbCircle
 10
-132.095
 20
-74.3611
 30
0
 40
8.17611
100
AcDbArc
 50
132.933
 51
156.746
  0
ARC
  5
F2B
330
A02
100
AcDbEntity
  8
Body
100
AcDbCircle
 10
-132.095
 20
-74.3611
 30
10.0076
 40
8.17611
100
AcDbArc
 50
132.933
 51
156.746
  0
LINE
  5
F2C
330
A02
100
AcDbEntity
  8
Body
100
AcDbLine
 10
-137.664
 20
-68.375
 30
0
 11
-137.664
 21
-68.375
 31
10.0076
  0
LINE
  5
F2D
330
A02
100
AcDbEntity
  8
Body
100
AcDbLine
 10
-136.552
 20
-67.3401
 30
0
 11
-136.552
 21
-67.3401
 31
10.0076
  0
LINE
  5
F2E
330
A02
100
AcDbEntity
  8
Body
100
AcDbLine
 10
-137.664
 20
-68.375
 30
0
 11
-136.552
 21
-67.3401
 31
0
  0
LINE
  5
F2F
330
A02
100
AcDbEntity
  8
Body
100
AcDbLine
 10
-137.664
 20
-68.375
 30
10.0076
 11
-136.552
 21
-67.3401
 31
10.0076
  0
LINE
  5
F30
330
A02
100
AcDbEntity
  8
Body
100
AcDbLine
 10
-136.552
 20
-67.3401
 30
0
 11
-136.552
 21
-67.3401
 31
10.0076
  0
LINE
  5
F31
330
A02
100
AcDbEntity
  8
Body
100
AcDbLine
 10
-134.098
 20
-64.2592
 30
0
 11
-134.098
 21
-64.2592
 31
10.0076
  0
ARC
  5
F32
330
A02
100
AcDbEntity
  8
Body
100
AcDbCircle
 10
-145.591
 20
-57.6235
 30
0
 40
13.2715
100
AcDbArc
 50
-47.0667
 51
-30
  0
ARC
  5
F33
330
A02
100
AcDbEntity
  8
Body
100
AcDbCircle
 10
-145.591
 20
-57.6235
 30
10.0076
 40
13.2715
100
AcDbArc
 50
-47.0667
 51
-30
  0
LINE
  5
F34
330
A02
100
AcDbEntity
  8
Body
100
AcDbLine
 10
-134.098
 20
-64.2592
 30
0
 11
-134.098
 21
-64.2592
 31
10.0076
  0
LINE
  5
F35
330
A02
100
AcDbEntity
  8
Body
100
AcDbLine
 10
-133.853
 20
-59.5954
 30
0
 11
-133.853
 21
-59.5954
 31
10.0076
  0
ARC
  5
F36
330
A02
100
AcDbEntity
  8
Body
100
AcDbCircle
 10
-138.552
 20
-61.6875
 30
0
 40
5.1435
100
AcDbArc
 50
-30
 51
24
  0
ARC
  5
F37
330
A02
100
AcDbEntity
  8
Body
100
AcDbCircle
 10
-138.552
 20
-61.6875
 30
10.0076
 40
5.1435
100
AcDbArc
 50
-30
 51
24
  0
LINE
  5
F38
330
A02
100
AcDbEntity
  8
Body
100
AcDbLine
 10
-133.853
 20
-59.5954
 30
0
 11
-133.853
 21
-59.5954
 31
10.0076
  0
LINE
  5
F39
330
A02
100
AcDbEntity
  8
Body
100
AcDbLine
 10
-137.483
 20
-56.6564
 30
0
 11
-137.483
 21
-56.6564
 31
10.0076
  0
ARC
  5
F3A
330
A02
100
AcDbEntity
  8
Body
100
AcDbCircle
 10
-138.552
 20
-61.6875
 30
0
 40
5.1435
100
AcDbArc
 50
24
 51
78
  0
ARC
  5
F3B
330
A02
100
AcDbEntity
  8
Body
100
AcDbCircle
 10
-138.552
 20
-61.6875
 30
10.0076
 40
5.1435
100
AcDbArc
 50
24
 51
78
  0
LINE
  5
F3C
330
A02
100
AcDbEntity
  8
Body
100
AcDbLine
 10
-137.483
 20
-56.6564
 30
0
 11
-137.483
 21
-56.6564
 31
10.0076
  0
LINE
  5
F3D
330
A02
100
AcDbEntity
  8
Body
100
AcDbLine
 10
-141.414
 20
-56.4182
 30
0
 11
-141.414
 21
-56.4182
 31
10.0076
  0
LINE
  5
F3E
330
A02
100
AcDbEntity
  8
Body
100
AcDbLine
 10
-137.483
 20
-56.6564
 30
0
 11
-141.414
 21
-56.4182
 31
0
  0
LINE
  5
F3F
330
A02
100
AcDbEntity
  8
Body
100
AcDbLine
 10
-137.483
 20
-56.6564
 30
10.0076
 11
-141.414
 21
-56.4182
 31
10.0076
  0
LINE
  5
F40
330
A02
100
AcDbEntity
  8
Body
100
AcDbLine
 10
-141.414
 20
-56.4182
 30
0
 11
-141.414
 21
-56.4182
 31
10.0076
  0
LINE
  5
F41
330
A02
100
AcDbEntity
  8
Body
100
AcDbLine
 10
-142.928
 20
-56.5524
 30
0
 11
-142.928
 21
-56.5524
 31
10.0076
  0
ARC
  5
F42
330
A02
100
AcDbEntity
  8
Body
100
AcDbCircle
 10
-143.341
 20
-43.2873
 30
0
 40
13.2715
100
AcDbArc
 50
-88.2147
 51
-81.6519
  0
ARC
  5
F43
330
A02
100
AcDbEntity
  8
Body
100
AcDbCircle
 10
-143.341
 20
-43.2873
 30
10.0076
 40
13.2715
100
AcDbArc
 50
-88.2147
 51
-81.6519
  0
LINE
  5
F44
330
A02
100
AcDbEntity
  8
Body
100
AcDbLine
 10
-142.928
 20
-56.5524
 30
0
 11
-142.928
 21
-56.5524
 31
10.0076
  0
LINE
  5
F45
330
A02
100
AcDbEntity
  8
Body
100
AcDbLine
 10
-146.277
 20
-56.1506
 30
0
 11
-146.277
 21
-56.1506
 31
10.0076
  0
ARC
  5
F46
330
A02
100
AcDbEntity
  8
Body
100
AcDbCircle
 10
-143.65
 20
-48.4082
 30
0
 40
8.17611
100
AcDbArc
 50
-108.746
 51
-84.9333
  0
ARC
  5
F47
330
A02
100
AcDbEntity
  8
Body
100
AcDbCircle
 10
-143.65
 20
-48.4082
 30
10.0076
 40
8.17611
100
AcDbArc
 50
-108.746
 51
-84.9333
  0
LINE
  5
F48
330
A02
100
AcDbEntity
  8
Body
100
AcDbLine
 10
-146.277
 20
-56.1506
 30
0
 11
-146.277
 21
-56.1506
 31
10.0076
  0
LINE
  5
F49
330
A02
100
AcDbEntity
  8
Body
100
AcDbLine
 10
-144.057
 20
-53.6107
 30
0
 11
-144.057
 21
-53.6107
 31
10.0076
  0
ARC
  5
F4A
330
A02
100
AcDbEntity
  8
Body
100
AcDbCircle
 10
-139.144
 20
-60.1461
 30
0
 40
8.17611
100
AcDbArc
 50
126.933
 51
150.746
  0
ARC
  5
F4B
330
A02
100
AcDbEntity
  8
Body
100
AcDbCircle
 10
-139.144
 20
-60.1461
 30
10.0076
 40
8.17611
100
AcDbArc
 50
126.933
 51
150.746
  0
LINE
  5
F4C
330
A02
100
AcDbEntity
  8
Body
100
AcDbLine
 10
-144.057
 20
-53.6107
 30
0
 11
-144.057
 21
-53.6107
 31
10.0076
  0
LINE
  5
F4D
330
A02
100
AcDbEntity
  8
Body
100
AcDbLine
 10
-142.842
 20
-52.6977
 30
0
 11
-142.842
 21
-52.6977
 31
10.0076
  0
LINE
  5
F4E
330
A02
100
AcDbEntity
  8
Body
100
AcDbLine
 10
-144.057
 20
-53.6107
 30
0
 11
-142.842
 21
-52.6977
 31
0
  0
LINE
  5
F4F
330
A02
100
AcDbEntity
  8
Body
100
AcDbLine
 10
-144.057
 20
-53.6107
 30
10.0076
 11
-142.842
 21
-52.6977
 31
10.0076
  0
LINE
  5
F50
330
A02
100
AcDbEntity
  8
Body
100
AcDbLine
 10
-142.842
 20
-52.6977
 30
0
 11
-142.842
 21
-52.6977
 31
10.0076
  0
LINE
  5
F51
330
A02
100
AcDbEntity
  8
Body
100
AcDbLine
 10
-140.08
 20
-49.8901
 30
0
 11
-140.08
 21
-49.8901
 31
10.0076
  0
ARC
  5
F52
330
A02
100
AcDbEntity
  8
Body
100
AcDbCircle
 10
-150.817
 20
-42.0894
 30
0
 40
13.2715
100
AcDbArc
 50
-53.0667
 51
-36
  0
ARC
  5
F53
330
A02
100
AcDbEntity
  8
Body
100
AcDbCircle
 10
-150.817
 20
-42.0894
 30
10.0076
 40
13.2715
100
AcDbArc
 50
-53.0667
 51
-36
  0
LINE
  5
F54
330
A02
100
AcDbEntity
  8
Body
100
AcDbLine
 10
-140.08
 20
-49.8901
 30
0
 11
-140.08
 21
-49.8901
 31
10.0076
  0
LINE
  5
F55
330
A02
100
AcDbEntity
  8
Body
100
AcDbLine
 10
-139.35
 20
-45.2774
 30
0
 11
-139.35
 21
-45.2774
 31
10.0076
  0
ARC
  5
F56
330
A02
100
AcDbEntity
  8
Body
100
AcDbCircle
 10
-144.241
 20
-46.8669
 30
0
 40
5.1435
100
AcDbArc
 50
-36
 51
18
  0
ARC
  5
F57
330
A02
100
AcDbEntity
  8
Body
100
AcDbCircle
 10
-144.241
 20
-46.8669
 30
10.0076
 40
5.1435
100
AcDbArc
 50
-36
 51
18
  0
LINE
  5
F58
330
A02
100
AcDbEntity
  8
Body
100
AcDbLine
 10
-139.35
 20
-45.2774
 30
0
 11
-139.35
 21
-45.2774
 31
10.0076
  0
LINE
  5
F59
330
A02
100
AcDbEntity
  8
Body
100
AcDbLine
 10
-142.652
 20
-41.9751
 30
0
 11
-142.652
 21
-41.9751
 31
10.0076
  0
ARC
  5
F5A
330
A02
100
AcDbEntity
  8
Body
100
AcDbCircle
 10
-144.241
 20
-46.8669
 30
0
 40
5.1435
100
AcDbArc
 50
18
 51
72
  0
ARC
  5
F5B
330
A02
100
AcDbEntity
  8
Body
100
AcDbCircle
 10
-144.241
 20
-46.8669
 30
10.0076
 40
5.1435
100
AcDbArc
 50
18
 51
72
  0
LINE
  5
F5C
330
A02
100
AcDbEntity
  8
Body
100
AcDbLine
 10
-142.652
 20
-41.9751
 30
0
 11
-142.652
 21
-41.9751
 31
10.0076
  0
LINE
  5
F5D
330
A02
100
AcDbEntity
  8
Body
100
AcDbLine
 10
-146.537
 20
-41.3273
 30
0
 11
-146.537
 21
-41.3273
 31
10.0076
  0
LINE
  5
F5E
330
A02
100
AcDbEntity
  8
Body
100
AcDbLine
 10
-142.652
 20
-41.9751
 30
0
 11
-146.537
 21
-41.3273
 31
0
  0
LINE
  5
F5F
330
A02
100
AcDbEntity
  8
Body
100
AcDbLine
 10
-142.652
 20
-41.9751
 30
10.0076
 11
-146.537
 21
-41.3273
 31
10.0076
  0
LINE
  5
F60
330
A02
100
AcDbEntity
  8
Body
100
AcDbLine
 10
-146.537
 20
-41.3273
 30
0
 11
-146.537
 21
-41.3273
 31
10.0076
  0
LINE
  5
F61
330
A02
100
AcDbEntity
  8
Body
100
AcDbLine
 10
-148.056
 20
-41.3026
 30
0
 11
-148.056
 21
-41.3026
 31
10.0076
  0
ARC
  5
F62
330
A02
100
AcDbEntity
  8
Body
100
AcDbCircle
 10
-147.081
 20
-28.067
 30
0
 40
13.2715
100
AcDbArc
 50
-94.2147
 51
-87.6519
  0
ARC
  5
F63
330
A02
100
AcDbEntity
  8
Body
100
AcDbCircle
 10
-147.081
 20
-28.067
 30
10.0076
 40
13.2715
100
AcDbArc
 50
-94.2147
 51
-87.6519
  0
LINE
  5
F64
330
A02
100
AcDbEntity
  8
Body
100
AcDbLine
 10
-148.056
 20
-41.3026
 30
0
 11
-148.056
 21
-41.3026
 31
10.0076
  0
LINE
  5
F65
330
A02
100
AcDbEntity
  8
Body
100
AcDbLine
 10
-151.345
 20
-40.5529
 30
0
 11
-151.345
 21
-40.5529
 31
10.0076
  0
ARC
  5
F66
330
A02
100
AcDbEntity
  8
Body
100
AcDbCircle
 10
-147.923
 20
-33.1275
 30
0
 40
8.17611
100
AcDbArc
 50
-114.746
 51
-90.9333
  0
ARC
  5
F67
330
A02
100
AcDbEntity
  8
Body
100
AcDbCircle
 10
-147.923
 20
-33.1275
 30
10.0076
 40
8.17611
100
AcDbArc
 50
-114.746
 51
-90.9333
  0
LINE
  5
F68
330
A02
100
AcDbEntity
  8
Body
100
AcDbLine
 10
-151.345
 20
-40.5529
 30
0
 11
-151.345
 21
-40.5529
 31
10.0076
  0
LINE
  5
F69
330
A02
100
AcDbEntity
  8
Body
100
AcDbLine
 10
-148.872
 20
-38.2589
 30
0
 11
-148.872
 21
-38.2589
 31
10.0076
  0
ARC
  5
F6A
330
A02
100
AcDbEntity
  8
Body
100
AcDbCircle
 10
-144.669
 20
-45.2721
 30
0
 40
8.17611
100
AcDbArc
 50
120.933
 51
144.746
  0
ARC
  5
F6B
330
A02
100
AcDbEntity
  8
Body
100
AcDbCircle
 10
-144.669
 20
-45.2721
 30
10.0076
 40
8.17611
100
AcDbArc
 50
120.933
 51
144.746
  0
LINE
  5
F6C
330
A02
100
AcDbEntity
  8
Body
100
AcDbLine
 10
-148.872
 20
-38.2589
 30
0
 11
-148.872
 21
-38.2589
 31
10.0076
  0
LINE
  5
F6D
330
A02
100
AcDbEntity
  8
Body
100
AcDbLine
 10
-147.568
 20
-37.4779
 30
0
 11
-147.568
 21
-37.4779
 31
10.0076
  0
LINE
  5
F6E
330
A02
100
AcDbEntity
  8
Body
100
AcDbLine
 10
-148.872
 20
-38.2589
 30
0
 11
-147.568
 21
-37.4779
 31
0
  0
LINE
  5
F6F
330
A02
100
AcDbEntity
  8
Body
100
AcDbLine
 10
-148.872
 20
-38.2589
 30
10.0076
 11
-147.568
 21
-37.4779
 31
10.0076
  0
LINE
  5
F70
330
A02
100
AcDbEntity
  8
Body
100
AcDbLine
 10
-147.568
 20
-37.4779
 30
0
 11
-147.568
 21
-37.4779
 31
10.0076
  0
LINE
  5
F71
330
A02
100
AcDbEntity
  8
Body
100
AcDbLine
 10
-144.528
 20
-34.9745
 30
0
 11
-144.528
 21
-34.9745
 31
10.0076
  0
ARC
  5
F72
330
A02
100
AcDbEntity
  8
Body
100
AcDbCircle
 10
-154.39
 20
-26.0941
 30
0
 40
13.2715
100
AcDbArc
 50
-59.0667
 51
-42
  0
ARC
  5
F73
330
A02
100
AcDbEntity
  8
Body
100
AcDbCircle
 10
-154.39
 20
-26.0941
 30
10.0076
 40
13.2715
100
AcDbArc
 50
-59.0667
 51
-42
  0
LINE
  5
F74
330
A02
100
AcDbEntity
  8
Body
100
AcDbLine
 10
-144.528
 20
-34.9745
 30
0
 11
-144.528
 21
-34.9745
 31
10.0076
  0
LINE
  5
F75
330
A02
100
AcDbEntity
  8
Body
100
AcDbLine
 10
-143.319
 20
-30.4634
 30
0
 11
-143.319
 21
-30.4634
 31
10.0076
  0
ARC
  5
F76
330
A02
100
AcDbEntity
  8
Body
100
AcDbCircle
 10
-148.35
 20
-31.5328
 30
0
 40
5.1435
100
AcDbArc
 50
-42
 51
12
  0
ARC
  5
F77
330
A02
100
AcDbEntity
  8
Body
100
AcDbCircle
 10
-148.35
 20
-31.5328
 30
10.0076
 40
5.1435
100
AcDbArc
 50
-42
 51
12
  0
LINE
  5
F78
330
A02
100
AcDbEntity
  8
Body
100
AcDbLine
 10
-143.319
 20
-30.4634
 30
0
 11
-143.319
 21
-30.4634
 31
10.0076
  0
LINE
  5
F79
330
A02
100
AcDbEntity
  8
Body
100
AcDbLine
 10
-146.258
 20
-26.834
 30
0
 11
-146.258
 21
-26.834
 31
10.0076
  0
ARC
  5
F7A
330
A02
100
AcDbEntity
  8
Body
100
AcDbCircle
 10
-148.35
 20
-31.5328
 30
0
 40
5.1435
100
AcDbArc
 50
12
 51
66
  0
ARC
  5
F7B
330
A02
100
AcDbEntity
  8
Body
100
AcDbCircle
 10
-148.35
 20
-31.5328
 30
10.0076
 40
5.1435
100
AcDbArc
 50
12
 51
66
  0
LINE
  5
F7C
330
A02
100
AcDbEntity
  8
Body
100
AcDbLine
 10
-146.258
 20
-26.834
 30
0
 11
-146.258
 21
-26.834
 31
10.0076
  0
LINE
  5
F7D
330
A02
100
AcDbEntity
  8
Body
100
AcDbLine
 10
-150.054
 20
-25.7836
 30
0
 11
-150.054
 21
-25.7836
 31
10.0076
  0
LINE
  5
F7E
330
A02
100
AcDbEntity
  8
Body
100
AcDbLine
 10
-146.258
 20
-26.834
 30
0
 11
-150.054
 21
-25.7836
 31
0
  0
LINE
  5
F7F
330
A02
100
AcDbEntity
  8
Body
100
AcDbLine
 10
-146.258
 20
-26.834
 30
10.0076
 11
-150.054
 21
-25.7836
 31
10.0076
  0
LINE
  5
F80
330
A02
100
AcDbEntity
  8
Body
100
AcDbLine
 10
-150.054
 20
-25.7836
 30
0
 11
-150.054
 21
-25.7836
 31
10.0076
  0
LINE
  5
F81
330
A02
100
AcDbEntity
  8
Body
100
AcDbLine
 10
-151.562
 20
-25.6002
 30
0
 11
-151.562
 21
-25.6002
 31
10.0076
  0
ARC
  5
F82
330
A02
100
AcDbEntity
  8
Body
100
AcDbCircle
 10
-149.209
 20
-12.5391
 30
0
 40
13.2715
100
AcDbArc
 50
-100.215
 51
-93.6519
  0
ARC
  5
F83
330
A02
100
AcDbEntity
  8
Body
100
AcDbCircle
 10
-149.209
 20
-12.5391
 30
10.0076
 40
13.2715
100
AcDbArc
 50
-100.215
 51
-93.6519
  0
LINE
  5
F84
330
A02
100
AcDbEntity
  8
Body
100
AcDbLine
 10
-151.562
 20
-25.6002
 30
0
 11
-151.562
 21
-25.6002
 31
10.0076
  0
LINE
  5
F85
330
A02
100
AcDbEntity
  8
Body
100
AcDbLine
 10
-154.755
 20
-24.5108
 30
0
 11
-154.755
 21
-24.5108
 31
10.0076
  0
ARC
  5
F86
330
A02
100
AcDbEntity
  8
Body
100
AcDbCircle
 10
-150.575
 20
-17.4839
 30
0
 40
8.17611
100
AcDbArc
 50
-120.746
 51
-96.9333
  0
ARC
  5
F87
330
A02
100
AcDbEntity
  8
Body
100
AcDbCircle
 10
-150.575
 20
-17.4839
 30
10.0076
 40
8.17611
100
AcDbArc
 50
-120.746
 51
-96.9333
  0
LINE
  5
F88
330
A02
100
AcDbEntity
  8
Body
100
AcDbLine
 10
-154.755
 20
-24.5108
 30
0
 11
-154.755
 21
-24.5108
 31
10.0076
  0
LINE
  5
F89
330
A02
100
AcDbEntity
  8
Body
100
AcDbLine
 10
-152.055
 20
-22.488
 30
0
 11
-152.055
 21
-22.488
 31
10.0076
  0
ARC
  5
F8A
330
A02
100
AcDbEntity
  8
Body
100
AcDbCircle
 10
-148.608
 20
-29.9021
 30
0
 40
8.17611
100
AcDbArc
 50
114.933
 51
138.746
  0
ARC
  5
F8B
330
A02
100
AcDbEntity
  8
Body
100
AcDbCircle
 10
-148.608
 20
-29.9021
 30
10.0076
 40
8.17611
100
AcDbArc
 50
114.933
 51
138.746
  0
LINE
  5
F8C
330
A02
100
AcDbEntity
  8
Body
100
AcDbLine
 10
-152.055
 20
-22.488
 30
0
 11
-152.055
 21
-22.488
 31
10.0076
  0
LINE
  5
F8D
330
A02
100
AcDbEntity
  8
Body
100
AcDbLine
 10
-150.677
 20
-21.8475
 30
0
 11
-150.677
 21
-21.8475
 31
10.0076
  0
LINE
  5
F8E
330
A02
100
AcDbEntity
  8
Body
100
AcDbLine
 10
-152.055
 20
-22.488
 30
0
 11
-150.677
 21
-21.8475
 31
0
  0
LINE
  5
F8F
330
A02
100
AcDbEntity
  8
Body
100
AcDbLine
 10
-152.055
 20
-22.488
 30
10.0076
 11
-150.677
 21
-21.8475
 31
10.0076
  0
LINE
  5
F90
330
A02
100
AcDbEntity
  8
Body
100
AcDbLine
 10
-150.677
 20
-21.8475
 30
0
 11
-150.677
 21
-21.8475
 31
10.0076
  0
LINE
  5
F91
330
A02
100
AcDbEntity
  8
Body
100
AcDbLine
 10
-147.392
 20
-19.6756
 30
0
 11
-147.392
 21
-19.6756
 31
10.0076
  0
ARC
  5
F92
330
A02
100
AcDbEntity
  8
Body
100
AcDbCircle
 10
-156.272
 20
-9.81296
 30
0
 40
13.2715
100
AcDbArc
 50
-65.0667
 51
-48
  0
ARC
  5
F93
330
A02
100
AcDbEntity
  8
Body
100
AcDbCircle
 10
-156.272
 20
-9.81296
 30
10.0076
 40
13.2715
100
AcDbArc
 50
-65.0667
 51
-48
  0
LINE
  5
F94
330
A02
100
AcDbEntity
  8
Body
100
AcDbLine
 10
-147.392
 20
-19.6756
 30
0
 11
-147.392
 21
-19.6756
 31
10.0076
  0
LINE
  5
F95
330
A02
100
AcDbEntity
  8
Body
100
AcDbLine
 10
-145.718
 20
-15.3156
 30
0
 11
-145.718
 21
-15.3156
 31
10.0076
  0
ARC
  5
F96
330
A02
100
AcDbEntity
  8
Body
100
AcDbCircle
 10
-150.834
 20
-15.8532
 30
0
 40
5.1435
100
AcDbArc
 50
-48
 51
6
  0
ARC
  5
F97
330
A02
100
AcDbEntity
  8
Body
100
AcDbCircle
 10
-150.834
 20
-15.8532
 30
10.0076
 40
5.1435
100
AcDbArc
 50
-48
 51
6
  0
LINE
  5
F98
330
A02
100
AcDbEntity
  8
Body
100
AcDbLine
 10
-145.718
 20
-15.3156
 30
0
 11
-145.718
 21
-15.3156
 31
10.0076
  0
LINE
  5
F99
330
A02
100
AcDbEntity
  8
Body
100
AcDbLine
 10
-148.262
 20
-11.3988
 30
0
 11
-148.262
 21
-11.3988
 31
10.0076
  0
ARC
  5
F9A
330
A02
100
AcDbEntity
  8
Body
100
AcDbCircle
 10
-150.834
 20
-15.8532
 30
0
 40
5.1435
100
AcDbArc
 50
6
 51
60
  0
ARC
  5
F9B
330
A02
100
AcDbEntity
  8
Body
100
AcDbCircle
 10
-150.834
 20
-15.8532
 30
10.0076
 40
5.1435
100
AcDbArc
 50
6
 51
60
  0
LINE
  5
F9C
330
A02
100
AcDbEntity
  8
Body
100
AcDbLine
 10
-148.262
 20
-11.3988
 30
0
 11
-148.262
 21
-11.3988
 31
10.0076
  0
LINE
  5
F9D
330
A02
100
AcDbEntity
  8
Body
100
AcDbLine
 10
-151.927
 20
-9.95748
 30
0
 11
-151.927
 21
-9.95748
 31
10.0076
  0
LINE
  5
F9E
330
A02
100
AcDbEntity
  8
Body
100
AcDbLine
 10
-148.262
 20
-11.3988
 30
0
 11
-151.927
 21
-9.95748
 31
0
  0
LINE
  5
F9F
330
A02
100
AcDbEntity
  8
Body
100
AcDbLine
 10
-148.262
 20
-11.3988
 30
10.0076
 11
-151.927
 21
-9.95748
 31
10.0076
  0
LINE
  5
FA0
330
A02
100
AcDbEntity
  8
Body
100
AcDbLine
 10
-151.927
 20
-9.95748
 30
0
 11
-151.927
 21
-9.95748
 31
10.0076
  0
LINE
  5
FA1
330
A02
100
AcDbEntity
  8
Body
100
AcDbLine
 10
-153.408
 20
-9.61743
 30
0
 11
-153.408
 21
-9.61743
 31
10.0076
  0
ARC
  5
FA2
330
A02
100
AcDbEntity
  8
Body
100
AcDbCircle
 10
-149.702
 20
3.12615
 30
0
 40
13.2715
100
AcDbArc
 50
-106.215
 51
-99.6519
  0
ARC
  5
FA3
330
A02
100
AcDbEntity
  8
Body
100
AcDbCircle
 10
-149.702
 20
3.12615
 30
10.0076
 40
13.2715
100
AcDbArc
 50
-106.215
 51
-99.6519
  0
LINE
  5
FA4
330
A02
100
AcDbEntity
  8
Body
100
AcDbLine
 10
-153.408
 20
-9.61743
 30
0
 11
-153.408
 21
-9.61743
 31
10.0076
  0
LINE
  5
FA5
330
A02
100
AcDbEntity
  8
Body
100
AcDbLine
 10
-156.469
 20
-8.20022
 30
0
 11
-156.469
 21
-8.20022
 31
10.0076
  0
ARC
  5
FA6
330
A02
100
AcDbEntity
  8
Body
100
AcDbCircle
 10
-151.578
 20
-1.64874
 30
0
 40
8.17611
100
AcDbArc
 50
-126.746
 51
-102.933
  0
ARC
  5
FA7
330
A02
100
AcDbEntity
  8
Body
100
AcDbCircle
 10
-151.578
 20
-1.64874
 30
10.0076
 40
8.17611
100
AcDbArc
 50
-126.746
 51
-102.933
  0
LINE
  5
FA8
330
A02
100
AcDbEntity
  8
Body
100
AcDbLine
 10
-156.469
 20
-8.20022
 30
0
 11
-156.469
 21
-8.20022
 31
10.0076
  0
LINE
  5
FA9
330
A02
100
AcDbEntity
  8
Body
100
AcDbLine
 10
-153.573
 20
-6.47075
 30
0
 11
-153.573
 21
-6.47075
 31
10.0076
  0
ARC
  5
FAA
330
A02
100
AcDbEntity
  8
Body
100
AcDbCircle
 10
-150.92
 20
-14.2045
 30
0
 40
8.17611
100
AcDbArc
 50
108.933
 51
132.746
  0
ARC
  5
FAB
330
A02
100
AcDbEntity
  8
Body
100
AcDbCircle
 10
-150.92
 20
-14.2045
 30
10.0076
 40
8.17611
100
AcDbArc
 50
108.933
 51
132.746
  0
LINE
  5
FAC
330
A02
100
AcDbEntity
  8
Body
100
AcDbLine
 10
-153.573
 20
-6.47075
 30
0
 11
-153.573
 21
-6.47075
 31
10.0076
  0
LINE
  5
FAD
330
A02
100
AcDbEntity
  8
Body
100
AcDbLine
 10
-152.136
 20
-5.97778
 30
0
 11
-152.136
 21
-5.97778
 31
10.0076
  0
LINE
  5
FAE
330
A02
100
AcDbEntity
  8
Body
100
AcDbLine
 10
-153.573
 20
-6.47075
 30
0
 11
-152.136
 21
-5.97778
 31
0
  0
LINE
  5
FAF
330
A02
100
AcDbEntity
  8
Body
100
AcDbLine
 10
-153.573
 20
-6.47075
 30
10.0076
 11
-152.136
 21
-5.97778
 31
10.0076
  0
LINE
  5
FB0
330
A02
100
AcDbEntity
  8
Body
100
AcDbLine
 10
-152.136
 20
-5.97778
 30
0
 11
-152.136
 21
-5.97778
 31
10.0076
  0
LINE
  5
FB1
330
A02
100
AcDbEntity
  8
Body
100
AcDbLine
 10
-148.641
 20
-4.16118
 30
0
 11
-148.641
 21
-4.16118
 31
10.0076
  0
ARC
  5
FB2
330
A02
100
AcDbEntity
  8
Body
100
AcDbCircle
 10
-156.442
 20
6.57569
 30
0
 40
13.2715
100
AcDbArc
 50
-71.0667
 51
-54
  0
ARC
  5
FB3
330
A02
100
AcDbEntity
  8
Body
100
AcDbCircle
 10
-156.442
 20
6.57569
 30
10.0076
 40
13.2715
100
AcDbArc
 50
-71.0667
 51
-54
  0
LINE
  5
FB4
330
A02
100
AcDbEntity
  8
Body
100
AcDbLine
 10
-148.641
 20
-4.16118
 30
0
 11
-148.641
 21
-4.16118
 31
10.0076
  0
LINE
  5
FB5
330
A02
100
AcDbEntity
  8
Body
100
AcDbLine
 10
-146.521
 20
-2.728e-14
 30
0
 11
-146.521
 21
-2.728e-14
 31
10.0076
  0
ARC
  5
FB6
330
A02
100
AcDbEntity
  8
Body
100
AcDbCircle
 10
-151.664
 20
-6.09512e-14
 30
0
 40
5.1435
100
AcDbArc
 50
-54
 51
3.71018e-13
  0
ARC
  5
FB7
330
A02
100
AcDbEntity
  8
Body
100
AcDbCircle
 10
-151.664
 20
-6.09512e-14
 30
10.0076
 40
5.1435
100
AcDbArc
 50
-54
 51
3.71018e-13
  0
LINE
  5
FB8
330
A02
100
AcDbEntity
  8
Body
100
AcDbLine
 10
-146.521
 20
-2.728e-14
 30
0
 11
-146.521
 21
-2.728e-14
 31
10.0076
  0
LINE
  5
FB9
330
A02
100
AcDbEntity
  8
Body
100
AcDbLine
 10
-148.641
 20
4.16118
 30
0
 11
-148.641
 21
4.16118
 31
10.0076
  0
ARC
  5
FBA
330
A02
100
AcDbEntity
  8
Body
100
AcDbCircle
 10
-151.664
 20
3.21965e-15
 30
0
 40
5.1435
100
AcDbArc
 50
-3.35688e-13
 51
54
  0
ARC
  5
FBB
330
A02
100
AcDbEntity
  8
Body
100
AcDbCircle
 10
-151.664
 20
3.21965e-15
 30
10.0076
 40
5.1435
100
AcDbArc
 50
-3.35688e-13
 51
54
  0
LINE
  5
FBC
330
A02
100
AcDbEntity
  8
Body
100
AcDbLine
 10
-148.641
 20
4.16118
 30
0
 11
-148.641
 21
4.16118
 31
10.0076
  0
LINE
  5
FBD
330
A02
100
AcDbEntity
  8
Body
100
AcDbLine
 10
-152.136
 20
5.97778
 30
0
 11
-152.136
 21
5.97778
 31
10.0076
  0
LINE
  5
FBE
330
A02
100
AcDbEntity
  8
Body
100
AcDbLine
 10
-148.641
 20
4.16118
 30
0
 11
-152.136
 21
5.97778
 31
0
  0
LINE
  5
FBF
330
A02
100
AcDbEntity
  8
Body
100
AcDbLine
 10
-148.641
 20
4.16118
 30
10.0076
 11
-152.136
 21
5.97778
 31
10.0076
  0
LINE
  5
FC0
330
A02
100
AcDbEntity
  8
Body
100
AcDbLine
 10
-152.136
 20
5.97778
 30
0
 11
-152.136
 21
5.97778
 31
10.0076
  0
LINE
  5
FC1
330
A02
100
AcDbEntity
  8
Body
100
AcDbLine
 10
-153.573
 20
6.47075
 30
0
 11
-153.573
 21
6.47075
 31
10.0076
  0
ARC
  5
FC2
330
A02
100
AcDbEntity
  8
Body
100
AcDbCircle
 10
-148.555
 20
18.7571
 30
0
 40
13.2715
100
AcDbArc
 50
-112.215
 51
-105.652
  0
ARC
  5
FC3
330
A02
100
AcDbEntity
  8
Body
100
AcDbCircle
 10
-148.555
 20
18.7571
 30
10.0076
 40
13.2715
100
AcDbArc
 50
-112.215
 51
-105.652
  0
LINE
  5
FC4
330
A02
100
AcDbEntity
  8
Body
100
AcDbLine
 10
-153.573
 20
6.47075
 30
0
 11
-153.573
 21
6.47075
 31
10.0076
  0
LINE
  5
FC5
330
A02
100
AcDbEntity
  8
Body
100
AcDbLine
 10
-156.469
 20
8.20022
 30
0
 11
-156.469
 21
8.20022
 31
10.0076
  0
ARC
  5
FC6
330
A02
100
AcDbEntity
  8
Body
100
AcDbCircle
 10
-150.92
 20
14.2045
 30
0
 40
8.17611
100
AcDbArc
 50
-132.746
 51
-108.933
  0
ARC
  5
FC7
330
A02
100
AcDbEntity
  8
Body
100
AcDbCircle
 10
-150.92
 20
14.2045
 30
10.0076
 40
8.17611
100
AcDbArc
 50
-132.746
 51
-108.933
  0
LINE
  5
FC8
330
A02
100
AcDbEntity
  8
Body
100
AcDbLine
 10
-156.469
 20
8.20022
 30
0
 11
-156.469
 21
8.20022
 31
10.0076
  0
LINE
  5
FC9
330
A02
100
AcDbEntity
  8
Body
100
AcDbLine
 10
-153.408
 20
9.61743
 30
0
 11
-153.408
 21
9.61743
 31
10.0076
  0
ARC
  5
FCA
330
A02
100
AcDbEntity
  8
Body
100
AcDbCircle
 10
-151.578
 20
1.64874
 30
0
 40
8.17611
100
AcDbArc
 50
102.933
 51
126.746
  0
ARC
  5
FCB
330
A02
100
AcDbEntity
  8
Body
100
AcDbCircle
 10
-151.578
 20
1.64874
 30
10.0076
 40
8.17611
100
AcDbArc
 50
102.933
 51
126.746
  0
LINE
  5
FCC
330
A02
100
AcDbEntity
  8
Body
100
AcDbLine
 10
-153.408
 20
9.61743
 30
0
 11
-153.408
 21
9.61743
 31
10.0076
  0
LINE
  5
FCD
330
A02
100
AcDbEntity
  8
Body
100
AcDbLine
 10
-151.927
 20
9.95748
 30
0
 11
-151.927
 21
9.95748
 31
10.0076
  0
LINE
  5
FCE
330
A02
100
AcDbEntity
  8
Body
100
AcDbLine
 10
-153.408
 20
9.61743
 30
0
 11
-151.927
 21
9.95748
 31
0
  0
LINE
  5
FCF
330
A02
100
AcDbEntity
  8
Body
100
AcDbLine
 10
-153.408
 20
9.61743
 30
10.0076
 11
-151.927
 21
9.95748
 31
10.0076
  0
LINE
  5
FD0
330
A02
100
AcDbEntity
  8
Body
100
AcDbLine
 10
-151.927
 20
9.95748
 30
0
 11
-151.927
 21
9.95748
 31
10.0076
  0
LINE
  5
FD1
330
A02
100
AcDbEntity
  8
Body
100
AcDbLine
 10
-148.262
 20
11.3988
 30
0
 11
-148.262
 21
11.3988
 31
10.0076
  0
ARC
  5
FD2
330
A02
100
AcDbEntity
  8
Body
100
AcDbCircle
 10
-154.898
 20
22.8923
 30
0
 40
13.2715
100
AcDbArc
 50
-77.0667
 51
-60
  0
ARC
  5
FD3
330
A02
100
AcDbEntity
  8
Body
100
AcDbCircle
 10
-154.898
 20
22.8923
 30
10.0076
 40
13.2715
100
AcDbArc
 50
-77.0667
 51
-60
  0
LINE
  5
FD4
330
A02
100
AcDbEntity
  8
Body
100
AcDbLine
 10
-148.262
 20
11.3988
 30
0
 11
-148.262
 21
11.3988
 31
10.0076
  0
LINE
  5
FD5
330
A02
100
AcDbEntity
  8
Body
100
AcDbLine
 10
-145.718
 20
15.3156
 30
0
 11
-145.718
 21
15.3156
 31
10.0076
  0
ARC
  5
FD6
330
A02
100
AcDbEntity
  8
Body
100
AcDbCircle
 10
-150.834
 20
15.8532
 30
0
 40
5.1435
100
AcDbArc
 50
-60
 51
-6
  0
ARC
  5
FD7
330
A02
100
AcDbEntity
  8
Body
100
AcDbCircle
 10
-150.834
 20
15.8532
 30
10.0076
 40
5.1435
100
AcDbArc
 50
-60
 51
-6
  0
LINE
  5
FD8
330
A02
100
AcDbEntity
  8
Body
100
AcDbLine
 10
-145.718
 20
15.3156
 30
0
 11
-145.718
 21
15.3156
 31
10.0076
  0
LINE
  5
FD9
330
A02
100
AcDbEntity
  8
Body
100
AcDbLine
 10
-147.392
 20
19.6756
 30
0
 11
-147.392
 21
19.6756
 31
10.0076
  0
ARC
  5
FDA
330
A02
100
AcDbEntity
  8
Body
100
AcDbCircle
 10
-150.834
 20
15.8532
 30
0
 40
5.1435
100
AcDbArc
 50
-6
 51
48
  0
ARC
  5
FDB
330
A02
100
AcDbEntity
  8
Body
100
AcDbCircle
 10
-150.834
 20
15.8532
 30
10.0076
 40
5.1435
100
AcDbArc
 50
-6
 51
48
  0
LINE
  5
FDC
330
A02
100
AcDbEntity
  8
Body
100
AcDbLine
 10
-147.392
 20
19.6756
 30
0
 11
-147.392
 21
19.6756
 31
10.0076
  0
LINE
  5
FDD
330
A02
100
AcDbEntity
  8
Body
100
AcDbLine
 10
-150.677
 20
21.8475
 30
0
 11
-150.677
 21
21.8475
 31
10.0076
  0
LINE
  5
FDE
330
A02
100
AcDbEntity
  8
Body
100
AcDbLine
 10
-147.392
 20
19.6756
 30
0
 11
-150.677
 21
21.8475
 31
0
  0
LINE
  5
FDF
330
A02
100
AcDbEntity
  8
Body
100
AcDbLine
 10
-147.392
 20
19.6756
 30
10.0076
 11
-150.677
 21
21.8475
 31
10.0076
  0
LINE
  5
FE0
330
A02
100
AcDbEntity
  8
Body
100
AcDbLine
 10
-150.677
 20
21.8475
 30
0
 11
-150.677
 21
21.8475
 31
10.0076
  0
LINE
  5
FE1
330
A02
100
AcDbEntity
  8
Body
100
AcDbLine
 10
-152.055
 20
22.488
 30
0
 11
-152.055
 21
22.488
 31
10.0076
  0
ARC
  5
FE2
330
A02
100
AcDbEntity
  8
Body
100
AcDbCircle
 10
-145.781
 20
34.1826
 30
0
 40
13.2715
100
AcDbArc
 50
-118.215
 51
-111.652
  0
ARC
  5
FE3
330
A02
100
AcDbEntity
  8
Body
100
AcDbCircle
 10
-145.781
 20
34.1826
 30
10.0076
 40
13.2715
100
AcDbArc
 50
-118.215
 51
-111.652
  0
LINE
  5
FE4
330
A02
100
AcDbEntity
  8
Body
100
AcDbLine
 10
-152.055
 20
22.488
 30
0
 11
-152.055
 21
22.488
 31
10.0076
  0
LINE
  5
FE5
330
A02
100
AcDbEntity
  8
Body
100
AcDbLine
 10
-154.755
 20
24.5108
 30
0
 11
-154.755
 21
24.5108
 31
10.0076
  0
ARC
  5
FE6
330
A02
100
AcDbEntity
  8
Body
100
AcDbCircle
 10
-148.608
 20
29.9021
 30
0
 40
8.17611
100
AcDbArc
 50
-138.746
 51
-114.933
  0
ARC
  5
FE7
330
A02
100
AcDbEntity
  8
Body
100
AcDbCircle
 10
-148.608
 20
29.9021
 30
10.0076
 40
8.17611
100
AcDbArc
 50
-138.746
 51
-114.933
  0
LINE
  5
FE8
330
A02
100
AcDbEntity
  8
Body
100
AcDbLine
 10
-154.755
 20
24.5108
 30
0
 11
-154.755
 21
24.5108
 31
10.0076
  0
LINE
  5
FE9
330
A02
100
AcDbEntity
  8
Body
100
AcDbLine
 10
-151.562
 20
25.6002
 30
0
 11
-151.562
 21
25.6002
 31
10.0076
  0
ARC
  5
FEA
330
A02
100
AcDbEntity
  8
Body
100
AcDbCircle
 10
-150.575
 20
17.4839
 30
0
 40
8.17611
100
AcDbArc
 50
96.9333
 51
120.746
  0
ARC
  5
FEB
330
A02
100
AcDbEntity
  8
Body
100
AcDbCircle
 10
-150.575
 20
17.4839
 30
10.0076
 40
8.17611
100
AcDbArc
 50
96.9333
 51
120.746
  0
LINE
  5
FEC
330
A02
100
AcDbEntity
  8
Body
100
AcDbLine
 10
-151.562
 20
25.6002
 30
0
 11
-151.562
 21
25.6002
 31
10.0076
  0
LINE
  5
FED
330
A02
100
AcDbEntity
  8
Body
100
AcDbLine
 10
-150.054
 20
25.7836
 30
0
 11
-150.054
 21
25.7836
 31
10.0076
  0
LINE
  5
FEE
330
A02
100
AcDbEntity
  8
Body
100
AcDbLine
 10
-151.562
 20
25.6002
 30
0
 11
-150.054
 21
25.7836
 31
0
  0
LINE
  5
FEF
330
A02
100
AcDbEntity
  8
Body
100
AcDbLine
 10
-151.562
 20
25.6002
 30
10.0076
 11
-150.054
 21
25.7836
 31
10.0076
  0
LINE
  5
FF0
330
A02
100
AcDbEntity
  8
Body
100
AcDbLine
 10
-150.054
 20
25.7836
 30
0
 11
-150.054
 21
25.7836
 31
10.0076
  0
LINE
  5
FF1
330
A02
100
AcDbEntity
  8
Body
100
AcDbLine
 10
-146.258
 20
26.834
 30
0
 11
-146.258
 21
26.834
 31
10.0076
  0
ARC
  5
FF2
330
A02
100
AcDbEntity
  8
Body
100
AcDbCircle
 10
-151.656
 20
38.9581
 30
0
 40
13.2715
100
AcDbArc
 50
-83.0667
 51
-66
  0
ARC
  5
FF3
330
A02
100
AcDbEntity
  8
Body
100
AcDbCircle
 10
-151.656
 20
38.9581
 30
10.0076
 40
13.2715
100
AcDbArc
 50
-83.0667
 51
-66
  0
LINE
  5
FF4
330
A02
100
AcDbEntity
  8
Body
100
AcDbLine
 10
-146.258
 20
26.834
 30
0
 11
-146.258
 21
26.834
 31
10.0076
  0
LINE
  5
FF5
330
A02
100
AcDbEntity
  8
Body
100
AcDbLine
 10
-143.319
 20
30.4634
 30
0
 11
-143.319
 21
30.4634
 31
10.0076
  0
ARC
  5
FF6
330
A02
100
AcDbEntity
  8
Body
100
AcDbCircle
 10
-148.35
 20
31.5328
 30
0
 40
5.1435
100
AcDbArc
 50
-66
 51
-12
  0
ARC
  5
FF7
330
A02
100
AcDbEntity
  8
Body
100
AcDbCircle
 10
-148.35
 20
31.5328
 30
10.0076
 40
5.1435
100
AcDbArc
 50
-66
 51
-12
  0
LINE
  5
FF8
330
A02
100
AcDbEntity
  8
Body
100
AcDbLine
 10
-143.319
 20
30.4634
 30
0
 11
-143.319
 21
30.4634
 31
10.0076
  0
LINE
  5
FF9
330
A02
100
AcDbEntity
  8
Body
100
AcDbLine
 10
-144.528
 20
34.9745
 30
0
 11
-144.528
 21
34.9745
 31
10.0076
  0
ARC
  5
FFA
330
A02
100
AcDbEntity
  8
Body
100
AcDbCircle
 10
-148.35
 20
31.5328
 30
0
 40
5.1435
100
AcDbArc
 50
-12
 51
42
  0
ARC
  5
FFB
330
A02
100
AcDbEntity
  8
Body
100
AcDbCircle
 10
-148.35
 20
31.5328
 30
10.0076
 40
5.1435
100
AcDbArc
 50
-12
 51
42
  0
LINE
  5
FFC
330
A02
100
AcDbEntity
  8
Body
100
AcDbLine
 10
-144.528
 20
34.9745
 30
0
 11
-144.528
 21
34.9745
 31
10.0076
  0
LINE
  5
FFD
330
A02
100
AcDbEntity
  8
Body
100
AcDbLine
 10
-147.568
 20
37.4779
 30
0
 11
-147.568
 21
37.4779
 31
10.0076
  0
LINE
  5
FFE
330
A02
100
AcDbEntity
  8
Body
100
AcDbLine
 10
-144.528
 20
34.9745
 30
0
 11
-147.568
 21
37.4779
 31
0
  0
LINE
  5
FFF
330
A02
100
AcDbEntity
  8
Body
100
AcDbLine
 10
-144.528
 20
34.9745
 30
10.0076
 11
-147.568
 21
37.4779
 31
10.0076
  0
LINE
  5
1000
330
A02
100
AcDbEntity
  8
Body
100
AcDbLine
 10
-147.568
 20
37.4779
 30
0
 11
-147.568
 21
37.4779
 31
10.0076
  0
LINE
  5
1001
330
A02
100
AcDbEntity
  8
Body
100
AcDbLine
 10
-148.872
 20
38.2589
 30
0
 11
-148.872
 21
38.2589
 31
10.0076
  0
ARC
  5
1002
330
A02
100
AcDbEntity
  8
Body
100
AcDbCircle
 10
-141.409
 20
49.2336
 30
0
 40
13.2715
100
AcDbArc
 50
-124.215
 51
-117.652
  0
ARC
  5
1003
330
A02
100
AcDbEntity
  8
Body
100
AcDbCircle
 10
-141.409
 20
49.2336
 30
10.0076
 40
13.2715
100
AcDbArc
 50
-124.215
 51
-117.652
  0
LINE
  5
1004
330
A02
100
AcDbEntity
  8
Body
100
AcDbLine
 10
-148.872
 20
38.2589
 30
0
 11
-148.872
 21
38.2589
 31
10.0076
  0
LINE
  5
1005
330
A02
100
AcDbEntity
  8
Body
100
AcDbLine
 10
-151.345
 20
40.5529
 30
0
 11
-151.345
 21
40.5529
 31
10.0076
  0
ARC
  5
1006
330
A02
100
AcDbEntity
  8
Body
100
AcDbCircle
 10
-144.669
 20
45.2721
 30
0
 40
8.17611
100
AcDbArc
 50
-144.746
 51
-120.933
  0
ARC
  5
1007
330
A02
100
AcDbEntity
  8
Body
100
AcDbCircle
 10
-144.669
 20
45.2721
 30
10.0076
 40
8.17611
100
AcDbArc
 50
-144.746
 51
-120.933
  0
LINE
  5
1008
330
A02
100
AcDbEntity
  8
Body
100
AcDbLine
 10
-151.345
 20
40.5529
 30
0
 11
-151.345
 21
40.5529
 31
10.0076
  0
LINE
  5
1009
330
A02
100
AcDbEntity
  8
Body
100
AcDbLine
 10
-148.056
 20
41.3026
 30
0
 11
-148.056
 21
41.3026
 31
10.0076
  0
ARC
  5
100A
330
A02
100
AcDbEntity
  8
Body
100
AcDbCircle
 10
-147.923
 20
33.1275
 30
0
 40
8.17611
100
AcDbArc
 50
90.9333
 51
114.746
  0
ARC
  5
100B
330
A02
100
AcDbEntity
  8
Body
100
AcDbCircle
 10
-147.923
 20
33.1275
 30
10.0076
 40
8.17611
100
AcDbArc
 50
90.9333
 51
114.746
  0
LINE
  5
100C
330
A02
100
AcDbEntity
  8
Body
100
AcDbLine
 10
-148.056
 20
41.3026
 30
0
 11
-148.056
 21
41.3026
 31
10.0076
  0
LINE
  5
100D
330
A02
100
AcDbEntity
  8
Body
100
AcDbLine
 10
-146.537
 20
41.3273
 30
0
 11
-146.537
 21
41.3273
 31
10.0076
  0
LINE
  5
100E
330
A02
100
AcDbEntity
  8
Body
100
AcDbLine
 10
-148.056
 20
41.3026
 30
0
 11
-146.537
 21
41.3273
 31
0
  0
LINE
  5
100F
330
A02
100
AcDbEntity
  8
Body
100
AcDbLine
 10
-148.056
 20
41.3026
 30
10.0076
 11
-146.537
 21
41.3273
 31
10.0076
  0
LINE
  5
1010
330
A02
100
AcDbEntity
  8
Body
100
AcDbLine
 10
-146.537
 20
41.3273
 30
0
 11
-146.537
 21
41.3273
 31
10.0076
  0
LINE
  5
1011
330
A02
100
AcDbEntity
  8
Body
100
AcDbLine
 10
-142.652
 20
41.9751
 30
0
 11
-142.652
 21
41.9751
 31
10.0076
  0
ARC
  5
1012
330
A02
100
AcDbEntity
  8
Body
100
AcDbCircle
 10
-146.753
 20
54.5971
 30
0
 40
13.2715
100
AcDbArc
 50
-89.0667
 51
-72
  0
ARC
  5
1013
330
A02
100
AcDbEntity
  8
Body
100
AcDbCircle
 10
-146.753
 20
54.5971
 30
10.0076
 40
13.2715
100
AcDbArc
 50
-89.0667
 51
-72
  0
LINE
  5
1014
330
A02
100
AcDbEntity
  8
Body
100
AcDbLine
 10
-142.652
 20
41.9751
 30
0
 11
-142.652
 21
41.9751
 31
10.0076
  0
LINE
  5
1015
330
A02
100
AcDbEntity
  8
Body
100
AcDbLine
 10
-139.35
 20
45.2774
 30
0
 11
-139.35
 21
45.2774
 31
10.0076
  0
ARC
  5
1016
330
A02
100
AcDbEntity
  8
Body
100
AcDbCircle
 10
-144.241
 20
46.8669
 30
0
 40
5.1435
100
AcDbArc
 50
-72
 51
-18
  0
ARC
  5
1017
330
A02
100
AcDbEntity
  8
Body
100
AcDbCircle
 10
-144.241
 20
46.8669
 30
10.0076
 40
5.1435
100
AcDbArc
 50
-72
 51
-18
  0
LINE
  5
1018
330
A02
100
AcDbEntity
  8
Body
100
AcDbLine
 10
-139.35
 20
45.2774
 30
0
 11
-139.35
 21
45.2774
 31
10.0076
  0
LINE
  5
1019
330
A02
100
AcDbEntity
  8
Body
100
AcDbLine
 10
-140.08
 20
49.8901
 30
0
 11
-140.08
 21
49.8901
 31
10.0076
  0
ARC
  5
101A
330
A02
100
AcDbEntity
  8
Body
100
AcDbCircle
 10
-144.241
 20
46.8669
 30
0
 40
5.1435
100
AcDbArc
 50
-18
 51
36
  0
ARC
  5
101B
330
A02
100
AcDbEntity
  8
Body
100
AcDbCircle
 10
-144.241
 20
46.8669
 30
10.0076
 40
5.1435
100
AcDbArc
 50
-18
 51
36
  0
LINE
  5
101C
330
A02
100
AcDbEntity
  8
Body
100
AcDbLine
 10
-140.08
 20
49.8901
 30
0
 11
-140.08
 21
49.8901
 31
10.0076
  0
LINE
  5
101D
330
A02
100
AcDbEntity
  8
Body
100
AcDbLine
 10
-142.842
 20
52.6977
 30
0
 11
-142.842
 21
52.6977
 31
10.0076
  0
LINE
  5
101E
330
A02
100
AcDbEntity
  8
Body
100
AcDbLine
 10
-140.08
 20
49.8901
 30
0
 11
-142.842
 21
52.6977
 31
0
  0
LINE
  5
101F
330
A02
100
AcDbEntity
  8
Body
100
AcDbLine
 10
-140.08
 20
49.8901
 30
10.0076
 11
-142.842
 21
52.6977
 31
10.0076
  0
LINE
  5
1020
330
A02
100
AcDbEntity
  8
Body
100
AcDbLine
 10
-142.842
 20
52.6977
 30
0
 11
-142.842
 21
52.6977
 31
10.0076
  0
LINE
  5
1021
330
A02
100
AcDbEntity
  8
Body
100
AcDbLine
 10
-144.057
 20
53.6107
 30
0
 11
-144.057
 21
53.6107
 31
10.0076
  0
ARC
  5
1022
330
A02
100
AcDbEntity
  8
Body
100
AcDbCircle
 10
-135.488
 20
63.7452
 30
0
 40
13.2715
100
AcDbArc
 50
-130.215
 51
-123.652
  0
ARC
  5
1023
330
A02
100
AcDbEntity
  8
Body
100
AcDbCircle
 10
-135.488
 20
63.7452
 30
10.0076
 40
13.2715
100
AcDbArc
 50
-130.215
 51
-123.652
  0
LINE
  5
1024
330
A02
100
AcDbEntity
  8
Body
100
AcDbLine
 10
-144.057
 20
53.6107
 30
0
 11
-144.057
 21
53.6107
 31
10.0076
  0
LINE
  5
1025
330
A02
100
AcDbEntity
  8
Body
100
AcDbLine
 10
-146.277
 20
56.1506
 30
0
 11
-146.277
 21
56.1506
 31
10.0076
  0
ARC
  5
1026
330
A02
100
AcDbEntity
  8
Body
100
AcDbCircle
 10
-139.144
 20
60.1461
 30
0
 40
8.17611
100
AcDbArc
 50
-150.746
 51
-126.933
  0
ARC
  5
1027
330
A02
100
AcDbEntity
  8
Body
100
AcDbCircle
 10
-139.144
 20
60.1461
 30
10.0076
 40
8.17611
100
AcDbArc
 50
-150.746
 51
-126.933
  0
LINE
  5
1028
330
A02
100
AcDbEntity
  8
Body
100
AcDbLine
 10
-146.277
 20
56.1506
 30
0
 11
-146.277
 21
56.1506
 31
10.0076
  0
LINE
  5
1029
330
A02
100
AcDbEntity
  8
Body
100
AcDbLine
 10
-142.928
 20
56.5524
 30
0
 11
-142.928
 21
56.5524
 31
10.0076
  0
ARC
  5
102A
330
A02
100
AcDbEntity
  8
Body
100
AcDbCircle
 10
-143.65
 20
48.4082
 30
0
 40
8.17611
100
AcDbArc
 50
84.9333
 51
108.746
  0
ARC
  5
102B
330
A02
100
AcDbEntity
  8
Body
100
AcDbCircle
 10
-143.65
 20
48.4082
 30
10.0076
 40
8.17611
100
AcDbArc
 50
84.9333
 51
108.746
  0
LINE
  5
102C
330
A02
100
AcDbEntity
  8
Body
100
AcDbLine
 10
-142.928
 20
56.5524
 30
0
 11
-142.928
 21
56.5524
 31
10.0076
  0
LINE
  5
102D
330
A02
100
AcDbEntity
  8
Body
100
AcDbLine
 10
-141.414
 20
56.4182
 30
0
 11
-141.414
 21
56.4182
 31
10.0076
  0
LINE
  5
102E
330
A02
100
AcDbEntity
  8
Body
100
AcDbLine
 10
-142.928
 20
56.5524
 30
0
 11
-141.414
 21
56.4182
 31
0
  0
LINE
  5
102F
330
A02
100
AcDbEntity
  8
Body
100
AcDbLine
 10
-142.928
 20
56.5524
 30
10.0076
 11
-141.414
 21
56.4182
 31
10.0076
  0
LINE
  5
1030
330
A02
100
AcDbEntity
  8
Body
100
AcDbLine
 10
-141.414
 20
56.4182
 30
0
 11
-141.414
 21
56.4182
 31
10.0076
  0
LINE
  5
1031
330
A02
100
AcDbEntity
  8
Body
100
AcDbLine
 10
-137.483
 20
56.6564
 30
0
 11
-137.483
 21
56.6564
 31
10.0076
  0
ARC
  5
1032
330
A02
100
AcDbEntity
  8
Body
100
AcDbCircle
 10
-140.242
 20
69.6378
 30
0
 40
13.2715
100
AcDbArc
 50
-95.0667
 51
-78
  0
ARC
  5
1033
330
A02
100
AcDbEntity
  8
Body
100
AcDbCircle
 10
-140.242
 20
69.6378
 30
10.0076
 40
13.2715
100
AcDbArc
 50
-95.0667
 51
-78
  0
LINE
  5
1034
330
A02
100
AcDbEntity
  8
Body
100
AcDbLine
 10
-137.483
 20
56.6564
 30
0
 11
-137.483
 21
56.6564
 31
10.0076
  0
LINE
  5
1035
330
A02
100
AcDbEntity
  8
Body
100
AcDbLine
 10
-133.853
 20
59.5954
 30
0
 11
-133.853
 21
59.5954
 31
10.0076
  0
ARC
  5
1036
330
A02
100
AcDbEntity
  8
Body
100
AcDbCircle
 10
-138.552
 20
61.6875
 30
0
 40
5.1435
100
AcDbArc
 50
-78
 51
-24
  0
ARC
  5
1037
330
A02
100
AcDbEntity
  8
Body
100
AcDbCircle
 10
-138.552
 20
61.6875
 30
10.0076
 40
5.1435
100
AcDbArc
 50
-78
 51
-24
  0
LINE
  5
1038
330
A02
100
AcDbEntity
  8
Body
100
AcDbLine
 10
-133.853
 20
59.5954
 30
0
 11
-133.853
 21
59.5954
 31
10.0076
  0
LINE
  5
1039
330
A02
100
AcDbEntity
  8
Body
100
AcDbLine
 10
-134.098
 20
64.2592
 30
0
 11
-134.098
 21
64.2592
 31
10.0076
  0
ARC
  5
103A
330
A02
100
AcDbEntity
  8
Body
100
AcDbCircle
 10
-138.552
 20
61.6875
 30
0
 40
5.1435
100
AcDbArc
 50
-24
 51
30
  0
ARC
  5
103B
330
A02
100
AcDbEntity
  8
Body
100
AcDbCircle
 10
-138.552
 20
61.6875
 30
10.0076
 40
5.1435
100
AcDbArc
 50
-24
 51
30
  0
LINE
  5
103C
330
A02
100
AcDbEntity
  8
Body
100
AcDbLine
 10
-134.098
 20
64.2592
 30
0
 11
-134.098
 21
64.2592
 31
10.0076
  0
LINE
  5
103D
330
A02
100
AcDbEntity
  8
Body
100
AcDbLine
 10
-136.552
 20
67.3401
 30
0
 11
-136.552
 21
67.3401
 31
10.0076
  0
LINE
  5
103E
330
A02
100
AcDbEntity
  8
Body
100
AcDbLine
 10
-134.098
 20
64.2592
 30
0
 11
-136.552
 21
67.3401
 31
0
  0
LINE
  5
103F
330
A02
100
AcDbEntity
  8
Body
100
AcDbLine
 10
-134.098
 20
64.2592
 30
10.0076
 11
-136.552
 21
67.3401
 31
10.0076
  0
LINE
  5
1040
330
A02
100
AcDbEntity
  8
Body
100
AcDbLine
 10
-136.552
 20
67.3401
 30
0
 11
-136.552
 21
67.3401
 31
10.0076
  0
LINE
  5
1041
330
A02
100
AcDbEntity
  8
Body
100
AcDbLine
 10
-137.664
 20
68.375
 30
0
 11
-137.664
 21
68.375
 31
10.0076
  0
ARC
  5
1042
330
A02
100
AcDbEntity
  8
Body
100
AcDbCircle
 10
-128.083
 20
77.5583
 30
0
 40
13.2715
100
AcDbArc
 50
-136.215
 51
-129.652
  0
ARC
  5
1043
330
A02
100
AcDbEntity
  8
Body
100
AcDbCircle
 10
-128.083
 20
77.5583
 30
10.0076
 40
13.2715
100
AcDbArc
 50
-136.215
 51
-129.652
  0
LINE
  5
1044
330
A02
100
AcDbEntity
  8
Body
100
AcDbLine
 10
-137.664
 20
68.375
 30
0
 11
-137.664
 21
68.375
 31
10.0076
  0
LINE
  5
1045
330
A02
100
AcDbEntity
  8
Body
100
AcDbLine
 10
-139.607
 20
71.1331
 30
0
 11
-139.607
 21
71.1331
 31
10.0076
  0
ARC
  5
1046
330
A02
100
AcDbEntity
  8
Body
100
AcDbCircle
 10
-132.095
 20
74.3611
 30
0
 40
8.17611
100
AcDbArc
 50
-156.746
 51
-132.933
  0
ARC
  5
1047
330
A02
100
AcDbEntity
  8
Body
100
AcDbCircle
 10
-132.095
 20
74.3611
 30
10.0076
 40
8.17611
100
AcDbArc
 50
-156.746
 51
-132.933
  0
LINE
  5
1048
330
A02
100
AcDbEntity
  8
Body
100
AcDbLine
 10
-139.607
 20
71.1331
 30
0
 11
-139.607
 21
71.1331
 31
10.0076
  0
LINE
  5
1049
330
A02
100
AcDbEntity
  8
Body
100
AcDbLine
 10
-136.233
 20
71.1826
 30
0
 11
-136.233
 21
71.1826
 31
10.0076
  0
ARC
  5
104A
330
A02
100
AcDbEntity
  8
Body
100
AcDbCircle
 10
-137.803
 20
63.1585
 30
0
 40
8.17611
100
AcDbArc
 50
78.9333
 51
102.746
  0
ARC
  5
104B
330
A02
100
AcDbEntity
  8
Body
100
AcDbCircle
 10
-137.803
 20
63.1585
 30
10.0076
 40
8.17611
100
AcDbArc
 50
78.9333
 51
102.746
  0
LINE
  5
104C
330
A02
100
AcDbEntity
  8
Body
100
AcDbLine
 10
-136.233
 20
71.1826
 30
0
 11
-136.233
 21
71.1826
 31
10.0076
  0
LINE
  5
104D
330
A02
100
AcDbEntity
  8
Body
100
AcDbLine
 10
-134.742
 20
70.891
 30
0
 11
-134.742
 21
70.891
 31
10.0076
  0
LINE
  5
104E
330
A02
100
AcDbEntity
  8
Body
100
AcDbLine
 10
-136.233
 20
71.1826
 30
0
 11
-134.742
 21
70.891
 31
0
  0
LINE
  5
104F
330
A02
100
AcDbEntity
  8
Body
100
AcDbLine
 10
-136.233
 20
71.1826
 30
10.0076
 11
-134.742
 21
70.891
 31
10.0076
  0
LINE
  5
1050
330
A02
100
AcDbEntity
  8
Body
100
AcDbLine
 10
-134.742
 20
70.891
 30
0
 11
-134.742
 21
70.891
 31
10.0076
  0
LINE
  5
1051
330
A02
100
AcDbEntity
  8
Body
100
AcDbLine
 10
-130.808
 20
70.7169
 30
0
 11
-130.808
 21
70.7169
 31
10.0076
  0
ARC
  5
1052
330
A02
100
AcDbEntity
  8
Body
100
AcDbCircle
 10
-132.195
 20
83.9157
 30
0
 40
13.2715
100
AcDbArc
 50
-101.067
 51
-84
  0
ARC
  5
1053
330
A02
100
AcDbEntity
  8
Body
100
AcDbCircle
 10
-132.195
 20
83.9157
 30
10.0076
 40
13.2715
100
AcDbArc
 50
-101.067
 51
-84
  0
LINE
  5
1054
330
A02
100
AcDbEntity
  8
Body
100
AcDbLine
 10
-130.808
 20
70.7169
 30
0
 11
-130.808
 21
70.7169
 31
10.0076
  0
LINE
  5
1055
330
A02
100
AcDbEntity
  8
Body
100
AcDbLine
 10
-126.891
 20
73.2604
 30
0
 11
-126.891
 21
73.2604
 31
10.0076
  0
ARC
  5
1056
330
A02
100
AcDbEntity
  8
Body
100
AcDbCircle
 10
-131.345
 20
75.8322
 30
0
 40
5.1435
100
AcDbArc
 50
-84
 51
-30
  0
ARC
  5
1057
330
A02
100
AcDbEntity
  8
Body
100
AcDbCircle
 10
-131.345
 20
75.8322
 30
10.0076
 40
5.1435
100
AcDbArc
 50
-84
 51
-30
  0
LINE
  5
1058
330
A02
100
AcDbEntity
  8
Body
100
AcDbLine
 10
-126.891
 20
73.2604
 30
0
 11
-126.891
 21
73.2604
 31
10.0076
  0
LINE
  5
1059
330
A02
100
AcDbEntity
  8
Body
100
AcDbLine
 10
-126.646
 20
77.9242
 30
0
 11
-126.646
 21
77.9242
 31
10.0076
  0
ARC
  5
105A
330
A02
100
AcDbEntity
  8
Body
100
AcDbCircle
 10
-131.345
 20
75.8322
 30
0
 40
5.1435
100
AcDbArc
 50
-30
 51
24
  0
ARC
  5
105B
330
A02
100
AcDbEntity
  8
Body
100
AcDbCircle
 10
-131.345
 20
75.8322
 30
10.0076
 40
5.1435
100
AcDbArc
 50
-30
 51
24
  0
LINE
  5
105C
330
A02
100
AcDbEntity
  8
Body
100
AcDbLine
 10
-126.646
 20
77.9242
 30
0
 11
-126.646
 21
77.9242
 31
10.0076
  0
LINE
  5
105D
330
A02
100
AcDbEntity
  8
Body
100
AcDbLine
 10
-128.765
 20
81.2448
 30
0
 11
-128.765
 21
81.2448
 31
10.0076
  0
LINE
  5
105E
330
A02
100
AcDbEntity
  8
Body
100
AcDbLine
 10
-126.646
 20
77.9242
 30
0
 11
-128.765
 21
81.2448
 31
0
  0
LINE
  5
105F
330
A02
100
AcDbEntity
  8
Body
100
AcDbLine
 10
-126.646
 20
77.9242
 30
10.0076
 11
-128.765
 21
81.2448
 31
10.0076
  0
LINE
  5
1060
330
A02
100
AcDbEntity
  8
Body
100
AcDbLine
 10
-128.765
 20
81.2448
 30
0
 11
-128.765
 21
81.2448
 31
10.0076
  0
LINE
  5
1061
330
A02
100
AcDbEntity
  8
Body
100
AcDbLine
 10
-129.763
 20
82.3902
 30
0
 11
-129.763
 21
82.3902
 31
10.0076
  0
ARC
  5
1062
330
A02
100
AcDbEntity
  8
Body
100
AcDbCircle
 10
-119.274
 20
90.5217
 30
0
 40
13.2715
100
AcDbArc
 50
-142.215
 51
-135.652
  0
ARC
  5
1063
330
A02
100
AcDbEntity
  8
Body
100
AcDbCircle
 10
-119.274
 20
90.5217
 30
10.0076
 40
13.2715
100
AcDbArc
 50
-142.215
 51
-135.652
  0
LINE
  5
1064
330
A02
100
AcDbEntity
  8
Body
100
AcDbLine
 10
-129.763
 20
82.3902
 30
0
 11
-129.763
 21
82.3902
 31
10.0076
  0
LINE
  5
1065
330
A02
100
AcDbEntity
  8
Body
100
AcDbLine
 10
-131.406
 20
85.3363
 30
0
 11
-131.406
 21
85.3363
 31
10.0076
  0
ARC
  5
1066
330
A02
100
AcDbEntity
  8
Body
100
AcDbCircle
 10
-123.598
 20
87.7614
 30
0
 40
8.17611
100
AcDbArc
 50
-162.746
 51
-138.933
  0
ARC
  5
1067
330
A02
100
AcDbEntity
  8
Body
100
AcDbCircle
 10
-123.598
 20
87.7614
 30
10.0076
 40
8.17611
100
AcDbArc
 50
-162.746
 51
-138.933
  0
LINE
  5
1068
330
A02
100
AcDbEntity
  8
Body
100
AcDbLine
 10
-131.406
 20
85.3363
 30
0
 11
-131.406
 21
85.3363
 31
10.0076
  0
LINE
  5
1069
330
A02
100
AcDbEntity
  8
Body
100
AcDbLine
 10
-128.046
 20
85.0329
 30
0
 11
-128.046
 21
85.0329
 31
10.0076
  0
ARC
  5
106A
330
A02
100
AcDbEntity
  8
Body
100
AcDbCircle
 10
-130.446
 20
77.2168
 30
0
 40
8.17611
100
AcDbArc
 50
72.9333
 51
96.746
  0
ARC
  5
106B
330
A02
100
AcDbEntity
  8
Body
100
AcDbCircle
 10
-130.446
 20
77.2168
 30
10.0076
 40
8.17611
100
AcDbArc
 50
72.9333
 51
96.746
  0
LINE
  5
106C
330
A02
100
AcDbEntity
  8
Body
100
AcDbLine
 10
-128.046
 20
85.0329
 30
0
 11
-128.046
 21
85.0329
 31
10.0076
  0
LINE
  5
106D
330
A02
100
AcDbEntity
  8
Body
100
AcDbLine
 10
-126.594
 20
84.587
 30
0
 11
-126.594
 21
84.587
 31
10.0076
  0
LINE
  5
106E
330
A02
100
AcDbEntity
  8
Body
100
AcDbLine
 10
-128.046
 20
85.0329
 30
0
 11
-126.594
 21
84.587
 31
0
  0
LINE
  5
106F
330
A02
100
AcDbEntity
  8
Body
100
AcDbLine
 10
-128.046
 20
85.0329
 30
10.0076
 11
-126.594
 21
84.587
 31
10.0076
  0
LINE
  5
1070
330
A02
100
AcDbEntity
  8
Body
100
AcDbLine
 10
-126.594
 20
84.587
 30
0
 11
-126.594
 21
84.587
 31
10.0076
  0
LINE
  5
1071
330
A02
100
AcDbEntity
  8
Body
100
AcDbLine
 10
-122.699
 20
84.0026
 30
0
 11
-122.699
 21
84.0026
 31
10.0076
  0
ARC
  5
1072
330
A02
100
AcDbEntity
  8
Body
100
AcDbCircle
 10
-122.699
 20
97.2741
 30
0
 40
13.2715
100
AcDbArc
 50
-107.067
 51
-90
  0
ARC
  5
1073
330
A02
100
AcDbEntity
  8
Body
100
AcDbCircle
 10
-122.699
 20
97.2741
 30
10.0076
 40
13.2715
100
AcDbArc
 50
-107.067
 51
-90
  0
LINE
  5
1074
330
A02
100
AcDbEntity
  8
Body
100
AcDbLine
 10
-122.699
 20
84.0026
 30
0
 11
-122.699
 21
84.0026
 31
10.0076
  0
LINE
  5
1075
330
A02
100
AcDbEntity
  8
Body
100
AcDbLine
 10
-118.538
 20
86.1228
 30
0
 11
-118.538
 21
86.1228
 31
10.0076
  0
ARC
  5
1076
330
A02
100
AcDbEntity
  8
Body
100
AcDbCircle
 10
-122.699
 20
89.1461
 30
0
 40
5.1435
100
AcDbArc
 50
-90
 51
-36
  0
ARC
  5
1077
330
A02
100
AcDbEntity
  8
Body
100
AcDbCircle
 10
-122.699
 20
89.1461
 30
10.0076
 40
5.1435
100
AcDbArc
 50
-90
 51
-36
  0
LINE
  5
1078
330
A02
100
AcDbEntity
  8
Body
100
AcDbLine
 10
-118.538
 20
86.1228
 30
0
 11
-118.538
 21
86.1228
 31
10.0076
  0
LINE
  5
1079
330
A02
100
AcDbEntity
  8
Body
100
AcDbLine
 10
-117.807
 20
90.7355
 30
0
 11
-117.807
 21
90.7355
 31
10.0076
  0
ARC
  5
107A
330
A02
100
AcDbEntity
  8
Body
100
AcDbCircle
 10
-122.699
 20
89.1461
 30
0
 40
5.1435
100
AcDbArc
 50
-36
 51
18
  0
ARC
  5
107B
330
A02
100
AcDbEntity
  8
Body
100
AcDbCircle
 10
-122.699
 20
89.1461
 30
10.0076
 40
5.1435
100
AcDbArc
 50
-36
 51
18
  0
LINE
  5
107C
330
A02
100
AcDbEntity
  8
Body
100
AcDbLine
 10
-117.807
 20
90.7355
 30
0
 11
-117.807
 21
90.7355
 31
10.0076
  0
LINE
  5
107D
330
A02
100
AcDbEntity
  8
Body
100
AcDbLine
 10
-119.567
 20
94.2593
 30
0
 11
-119.567
 21
94.2593
 31
10.0076
  0
LINE
  5
107E
330
A02
100
AcDbEntity
  8
Body
100
AcDbLine
 10
-117.807
 20
90.7355
 30
0
 11
-119.567
 21
94.2593
 31
0
  0
LINE
  5
107F
330
A02
100
AcDbEntity
  8
Body
100
AcDbLine
 10
-117.807
 20
90.7355
 30
10.0076
 11
-119.567
 21
94.2593
 31
10.0076
  0
LINE
  5
1080
330
A02
100
AcDbEntity
  8
Body
100
AcDbLine
 10
-119.567
 20
94.2593
 30
0
 11
-119.567
 21
94.2593
 31
10.0076
  0
LINE
  5
1081
330
A02
100
AcDbEntity
  8
Body
100
AcDbLine
 10
-120.44
 20
95.5028
 30
0
 11
-120.44
 21
95.5028
 31
10.0076
  0
ARC
  5
1082
330
A02
100
AcDbEntity
  8
Body
100
AcDbCircle
 10
-109.158
 20
102.493
 30
0
 40
13.2715
100
AcDbArc
 50
-148.215
 51
-141.652
  0
ARC
  5
1083
330
A02
100
AcDbEntity
  8
Body
100
AcDbCircle
 10
-109.158
 20
102.493
 30
10.0076
 40
13.2715
100
AcDbArc
 50
-148.215
 51
-141.652
  0
LINE
  5
1084
330
A02
100
AcDbEntity
  8
Body
100
AcDbLine
 10
-120.44
 20
95.5028
 30
0
 11
-120.44
 21
95.5028
 31
10.0076
  0
LINE
  5
1085
330
A02
100
AcDbEntity
  8
Body
100
AcDbLine
 10
-121.767
 20
98.6046
 30
0
 11
-121.767
 21
98.6046
 31
10.0076
  0
ARC
  5
1086
330
A02
100
AcDbEntity
  8
Body
100
AcDbCircle
 10
-113.748
 20
100.2
 30
0
 40
8.17611
100
AcDbArc
 50
-168.746
 51
-144.933
  0
ARC
  5
1087
330
A02
100
AcDbEntity
  8
Body
100
AcDbCircle
 10
-113.748
 20
100.2
 30
10.0076
 40
8.17611
100
AcDbArc
 50
-168.746
 51
-144.933
  0
LINE
  5
1088
330
A02
100
AcDbEntity
  8
Body
100
AcDbLine
 10
-121.767
 20
98.6046
 30
0
 11
-121.767
 21
98.6046
 31
10.0076
  0
LINE
  5
1089
330
A02
100
AcDbEntity
  8
Body
100
AcDbLine
 10
-118.457
 20
97.9516
 30
0
 11
-118.457
 21
97.9516
 31
10.0076
  0
ARC
  5
108A
330
A02
100
AcDbEntity
  8
Body
100
AcDbCircle
 10
-121.66
 20
90.4291
 30
0
 40
8.17611
100
AcDbArc
 50
66.9333
 51
90.746
  0
ARC
  5
108B
330
A02
100
AcDbEntity
  8
Body
100
AcDbCircle
 10
-121.66
 20
90.4291
 30
10.0076
 40
8.17611
100
AcDbArc
 50
66.9333
 51
90.746
  0
LINE
  5
108C
330
A02
100
AcDbEntity
  8
Body
100
AcDbLine
 10
-118.457
 20
97.9516
 30
0
 11
-118.457
 21
97.9516
 31
10.0076
  0
LINE
  5
108D
330
A02
100
AcDbEntity
  8
Body
100
AcDbLine
 10
-117.059
 20
97.3563
 30
0
 11
-117.059
 21
97.3563
 31
10.0076
  0
LINE
  5
108E
330
A02
100
AcDbEntity
  8
Body
100
AcDbLine
 10
-118.457
 20
97.9516
 30
0
 11
-117.059
 21
97.3563
 31
0
  0
LINE
  5
108F
330
A02
100
AcDbEntity
  8
Body
100
AcDbLine
 10
-118.457
 20
97.9516
 30
10.0076
 11
-117.059
 21
97.3563
 31
10.0076
  0
LINE
  5
1090
330
A02
100
AcDbEntity
  8
Body
100
AcDbLine
 10
-117.059
 20
97.3563
 30
0
 11
-117.059
 21
97.3563
 31
10.0076
  0
LINE
  5
1091
330
A02
100
AcDbEntity
  8
Body
100
AcDbLine
 10
-113.246
 20
96.368
 30
0
 11
-113.246
 21
96.368
 31
10.0076
  0
ARC
  5
1092
330
A02
100
AcDbEntity
  8
Body
100
AcDbCircle
 10
-111.859
 20
109.567
 30
0
 40
13.2715
100
AcDbArc
 50
-113.067
 51
-96
  0
ARC
  5
1093
330
A02
100
AcDbEntity
  8
Body
100
AcDbCircle
 10
-111.859
 20
109.567
 30
10.0076
 40
13.2715
100
AcDbArc
 50
-113.067
 51
-96
  0
LINE
  5
1094
330
A02
100
AcDbEntity
  8
Body
100
AcDbLine
 10
-113.246
 20
96.368
 30
0
 11
-113.246
 21
96.368
 31
10.0076
  0
LINE
  5
1095
330
A02
100
AcDbEntity
  8
Body
100
AcDbLine
 10
-108.886
 20
98.0416
 30
0
 11
-108.886
 21
98.0416
 31
10.0076
  0
ARC
  5
1096
330
A02
100
AcDbEntity
  8
Body
100
AcDbCircle
 10
-112.709
 20
101.483
 30
0
 40
5.1435
100
AcDbArc
 50
-96
 51
-42
  0
ARC
  5
1097
330
A02
100
AcDbEntity
  8
Body
100
AcDbCircle
 10
-112.709
 20
101.483
 30
10.0076
 40
5.1435
100
AcDbArc
 50
-96
 51
-42
  0
LINE
  5
1098
330
A02
100
AcDbEntity
  8
Body
100
AcDbLine
 10
-108.886
 20
98.0416
 30
0
 11
-108.886
 21
98.0416
 31
10.0076
  0
LINE
  5
1099
330
A02
100
AcDbEntity
  8
Body
100
AcDbLine
 10
-107.677
 20
102.553
 30
0
 11
-107.677
 21
102.553
 31
10.0076
  0
ARC
  5
109A
330
A02
100
AcDbEntity
  8
Body
100
AcDbCircle
 10
-112.709
 20
101.483
 30
0
 40
5.1435
100
AcDbArc
 50
-42
 51
12
  0
ARC
  5
109B
330
A02
100
AcDbEntity
  8
Body
100
AcDbCircle
 10
-112.709
 20
101.483
 30
10.0076
 40
5.1435
100
AcDbArc
 50
-42
 51
12
  0
LINE
  5
109C
330
A02
100
AcDbEntity
  8
Body
100
AcDbLine
 10
-107.677
 20
102.553
 30
0
 11
-107.677
 21
102.553
 31
10.0076
  0
LINE
  5
109D
330
A02
100
AcDbEntity
  8
Body
100
AcDbLine
 10
-109.059
 20
106.241
 30
0
 11
-109.059
 21
106.241
 31
10.0076
  0
LINE
  5
109E
330
A02
100
AcDbEntity
  8
Body
100
AcDbLine
 10
-107.677
 20
102.553
 30
0
 11
-109.059
 21
106.241
 31
0
  0
LINE
  5
109F
330
A02
100
AcDbEntity
  8
Body
100
AcDbLine
 10
-107.677
 20
102.553
 30
10.0076
 11
-109.059
 21
106.241
 31
10.0076
  0
LINE
  5
10A0
330
A02
100
AcDbEntity
  8
Body
100
AcDbLine
 10
-109.059
 20
106.241
 30
0
 11
-109.059
 21
106.241
 31
10.0076
  0
LINE
  5
10A1
330
A02
100
AcDbEntity
  8
Body
100
AcDbLine
 10
-109.797
 20
107.569
 30
0
 11
-109.797
 21
107.569
 31
10.0076
  0
ARC
  5
10A2
330
A02
100
AcDbEntity
  8
Body
100
AcDbCircle
 10
-97.847
 20
113.342
 30
0
 40
13.2715
100
AcDbArc
 50
-154.215
 51
-147.652
  0
ARC
  5
10A3
330
A02
100
AcDbEntity
  8
Body
100
AcDbCircle
 10
-97.847
 20
113.342
 30
10.0076
 40
13.2715
100
AcDbArc
 50
-154.215
 51
-147.652
  0
LINE
  5
10A4
330
A02
100
AcDbEntity
  8
Body
100
AcDbLine
 10
-109.797
 20
107.569
 30
0
 11
-109.797
 21
107.569
 31
10.0076
  0
LINE
  5
10A5
330
A02
100
AcDbEntity
  8
Body
100
AcDbLine
 10
-110.792
 20
110.792
 30
0
 11
-110.792
 21
110.792
 31
10.0076
  0
ARC
  5
10A6
330
A02
100
AcDbEntity
  8
Body
100
AcDbCircle
 10
-102.651
 20
111.541
 30
0
 40
8.17611
100
AcDbArc
 50
-174.746
 51
-150.933
  0
ARC
  5
10A7
330
A02
100
AcDbEntity
  8
Body
100
AcDbCircle
 10
-102.651
 20
111.541
 30
10.0076
 40
8.17611
100
AcDbArc
 50
-174.746
 51
-150.933
  0
LINE
  5
10A8
330
A02
100
AcDbEntity
  8
Body
100
AcDbLine
 10
-110.792
 20
110.792
 30
0
 11
-110.792
 21
110.792
 31
10.0076
  0
LINE
  5
10A9
330
A02
100
AcDbEntity
  8
Body
100
AcDbLine
 10
-107.569
 20
109.797
 30
0
 11
-107.569
 21
109.797
 31
10.0076
  0
ARC
  5
10AA
330
A02
100
AcDbEntity
  8
Body
100
AcDbCircle
 10
-111.541
 20
102.651
 30
0
 40
8.17611
100
AcDbArc
 50
60.9333
 51
84.746
  0
ARC
  5
10AB
330
A02
100
AcDbEntity
  8
Body
100
AcDbCircle
 10
-111.541
 20
102.651
 30
10.0076
 40
8.17611
100
AcDbArc
 50
60.9333
 51
84.746
  0
LINE
  5
10AC
330
A02
100
AcDbEntity
  8
Body
100
AcDbLine
 10
-107.569
 20
109.797
 30
0
 11
-107.569
 21
109.797
 31
10.0076
  0
LINE
  5
10AD
330
A02
100
AcDbEntity
  8
Body
100
AcDbLine
 10
-106.241
 20
109.059
 30
0
 11
-106.241
 21
109.059
 31
10.0076
  0
LINE
  5
10AE
330
A02
100
AcDbEntity
  8
Body
100
AcDbLine
 10
-107.569
 20
109.797
 30
0
 11
-106.241
 21
109.059
 31
0
  0
LINE
  5
10AF
330
A02
100
AcDbEntity
  8
Body
100
AcDbLine
 10
-107.569
 20
109.797
 30
10.0076
 11
-106.241
 21
109.059
 31
10.0076
  0
LINE
  5
10B0
330
A02
100
AcDbEntity
  8
Body
100
AcDbLine
 10
-106.241
 20
109.059
 30
0
 11
-106.241
 21
109.059
 31
10.0076
  0
LINE
  5
10B1
330
A02
100
AcDbEntity
  8
Body
100
AcDbLine
 10
-102.553
 20
107.677
 30
0
 11
-102.553
 21
107.677
 31
10.0076
  0
ARC
  5
10B2
330
A02
100
AcDbEntity
  8
Body
100
AcDbCircle
 10
-99.7934
 20
120.659
 30
0
 40
13.2715
100
AcDbArc
 50
-119.067
 51
-102
  0
ARC
  5
10B3
330
A02
100
AcDbEntity
  8
Body
100
AcDbCircle
 10
-99.7934
 20
120.659
 30
10.0076
 40
13.2715
100
AcDbArc
 50
-119.067
 51
-102
  0
LINE
  5
10B4
330
A02
100
AcDbEntity
  8
Body
100
AcDbLine
 10
-102.553
 20
107.677
 30
0
 11
-102.553
 21
107.677
 31
10.0076
  0
LINE
  5
10B5
330
A02
100
AcDbEntity
  8
Body
100
AcDbLine
 10
-98.0416
 20
108.886
 30
0
 11
-98.0416
 21
108.886
 31
10.0076
  0
ARC
  5
10B6
330
A02
100
AcDbEntity
  8
Body
100
AcDbCircle
 10
-101.483
 20
112.709
 30
0
 40
5.1435
100
AcDbArc
 50
-102
 51
-48
  0
ARC
  5
10B7
330
A02
100
AcDbEntity
  8
Body
100
AcDbCircle
 10
-101.483
 20
112.709
 30
10.0076
 40
5.1435
100
AcDbArc
 50
-102
 51
-48
  0
LINE
  5
10B8
330
A02
100
AcDbEntity
  8
Body
100
AcDbLine
 10
-98.0416
 20
108.886
 30
0
 11
-98.0416
 21
108.886
 31
10.0076
  0
LINE
  5
10B9
330
A02
100
AcDbEntity
  8
Body
100
AcDbLine
 10
-96.368
 20
113.246
 30
0
 11
-96.368
 21
113.246
 31
10.0076
  0
ARC
  5
10BA
330
A02
100
AcDbEntity
  8
Body
100
AcDbCircle
 10
-101.483
 20
112.709
 30
0
 40
5.1435
100
AcDbArc
 50
-48
 51
6
  0
ARC
  5
10BB
330
A02
100
AcDbEntity
  8
Body
100
AcDbCircle
 10
-101.483
 20
112.709
 30
10.0076
 40
5.1435
100
AcDbArc
 50
-48
 51
6
  0
LINE
  5
10BC
330
A02
100
AcDbEntity
  8
Body
100
AcDbLine
 10
-96.368
 20
113.246
 30
0
 11
-96.368
 21
113.246
 31
10.0076
  0
LINE
  5
10BD
330
A02
100
AcDbEntity
  8
Body
100
AcDbLine
 10
-97.3563
 20
117.059
 30
0
 11
-97.3563
 21
117.059
 31
10.0076
  0
LINE
  5
10BE
330
A02
100
AcDbEntity
  8
Body
100
AcDbLine
 10
-96.368
 20
113.246
 30
0
 11
-97.3563
 21
117.059
 31
0
  0
LINE
  5
10BF
330
A02
100
AcDbEntity
  8
Body
100
AcDbLine
 10
-96.368
 20
113.246
 30
10.0076
 11
-97.3563
 21
117.059
 31
10.0076
  0
LINE
  5
10C0
330
A02
100
AcDbEntity
  8
Body
100
AcDbLine
 10
-97.3563
 20
117.059
 30
0
 11
-97.3563
 21
117.059
 31
10.0076
  0
LINE
  5
10C1
330
A02
100
AcDbEntity
  8
Body
100
AcDbLine
 10
-97.9516
 20
118.457
 30
0
 11
-97.9516
 21
118.457
 31
10.0076
  0
ARC
  5
10C2
330
A02
100
AcDbEntity
  8
Body
100
AcDbCircle
 10
-85.4635
 20
122.949
 30
0
 40
13.2715
100
AcDbArc
 50
-160.215
 51
-153.652
  0
ARC
  5
10C3
330
A02
100
AcDbEntity
  8
Body
100
AcDbCircle
 10
-85.4635
 20
122.949
 30
10.0076
 40
13.2715
100
AcDbArc
 50
-160.215
 51
-153.652
  0
LINE
  5
10C4
330
A02
100
AcDbEntity
  8
Body
100
AcDbLine
 10
-97.9516
 20
118.457
 30
0
 11
-97.9516
 21
118.457
 31
10.0076
  0
LINE
  5
10C5
330
A02
100
AcDbEntity
  8
Body
100
AcDbLine
 10
-98.6046
 20
121.767
 30
0
 11
-98.6046
 21
121.767
 31
10.0076
  0
ARC
  5
10C6
330
A02
100
AcDbEntity
  8
Body
100
AcDbCircle
 10
-90.4291
 20
121.66
 30
0
 40
8.17611
100
AcDbArc
 50
179.254
 51
-156.933
  0
ARC
  5
10C7
330
A02
100
AcDbEntity
  8
Body
100
AcDbCircle
 10
-90.4291
 20
121.66
 30
10.0076
 40
8.17611
100
AcDbArc
 50
179.254
 51
-156.933
  0
LINE
  5
10C8
330
A02
100
AcDbEntity
  8
Body
100
AcDbLine
 10
-98.6046
 20
121.767
 30
0
 11
-98.6046
 21
121.767
 31
10.0076
  0
LINE
  5
10C9
330
A02
100
AcDbEntity
  8
Body
100
AcDbLine
 10
-95.5028
 20
120.44
 30
0
 11
-95.5028
 21
120.44
 31
10.0076
  0
ARC
  5
10CA
330
A02
100
AcDbEntity
  8
Body
100
AcDbCircle
 10
-100.2
 20
113.748
 30
0
 40
8.17611
100
AcDbArc
 50
54.9333
 51
78.746
  0
ARC
  5
10CB
330
A02
100
AcDbEntity
  8
Body
100
AcDbCircle
 10
-100.2
 20
113.748
 30
10.0076
 40
8.17611
100
AcDbArc
 50
54.9333
 51
78.746
  0
LINE
  5
10CC
330
A02
100
AcDbEntity
  8
Body
100
AcDbLine
 10
-95.5028
 20
120.44
 30
0
 11
-95.5028
 21
120.44
 31
10.0076
  0
LINE
  5
10CD
330
A02
100
AcDbEntity
  8
Body
100
AcDbLine
 10
-94.2593
 20
119.567
 30
0
 11
-94.2593
 21
119.567
 31
10.0076
  0
LINE
  5
10CE
330
A02
100
AcDbEntity
  8
Body
100
AcDbLine
 10
-95.5028
 20
120.44
 30
0
 11
-94.2593
 21
119.567
 31
0
  0
LINE
  5
10CF
330
A02
100
AcDbEntity
  8
Body
100
AcDbLine
 10
-95.5028
 20
120.44
 30
10.0076
 11
-94.2593
 21
119.567
 31
10.0076
  0
LINE
  5
10D0
330
A02
100
AcDbEntity
  8
Body
100
AcDbLine
 10
-94.2593
 20
119.567
 30
0
 11
-94.2593
 21
119.567
 31
10.0076
  0
LINE
  5
10D1
330
A02
100
AcDbEntity
  8
Body
100
AcDbLine
 10
-90.7355
 20
117.807
 30
0
 11
-90.7355
 21
117.807
 31
10.0076
  0
ARC
  5
10D2
330
A02
100
AcDbEntity
  8
Body
100
AcDbCircle
 10
-86.6344
 20
130.429
 30
0
 40
13.2715
100
AcDbArc
 50
-125.067
 51
-108
  0
ARC
  5
10D3
330
A02
100
AcDbEntity
  8
Body
100
AcDbCircle
 10
-86.6344
 20
130.429
 30
10.0076
 40
13.2715
100
AcDbArc
 50
-125.067
 51
-108
  0
LINE
  5
10D4
330
A02
100
AcDbEntity
  8
Body
100
AcDbLine
 10
-90.7355
 20
117.807
 30
0
 11
-90.7355
 21
117.807
 31
10.0076
  0
LINE
  5
10D5
330
A02
100
AcDbEntity
  8
Body
100
AcDbLine
 10
-86.1228
 20
118.538
 30
0
 11
-86.1228
 21
118.538
 31
10.0076
  0
ARC
  5
10D6
330
A02
100
AcDbEntity
  8
Body
100
AcDbCircle
 10
-89.1461
 20
122.699
 30
0
 40
5.1435
100
AcDbArc
 50
-108
 51
-54
  0
ARC
  5
10D7
330
A02
100
AcDbEntity
  8
Body
100
AcDbCircle
 10
-89.1461
 20
122.699
 30
10.0076
 40
5.1435
100
AcDbArc
 50
-108
 51
-54
  0
LINE
  5
10D8
330
A02
100
AcDbEntity
  8
Body
100
AcDbLine
 10
-86.1228
 20
118.538
 30
0
 11
-86.1228
 21
118.538
 31
10.0076
  0
LINE
  5
10D9
330
A02
100
AcDbEntity
  8
Body
100
AcDbLine
 10
-84.0026
 20
122.699
 30
0
 11
-84.0026
 21
122.699
 31
10.0076
  0
ARC
  5
10DA
330
A02
100
AcDbEntity
  8
Body
100
AcDbCircle
 10
-89.1461
 20
122.699
 30
0
 40
5.1435
100
AcDbArc
 50
-54
 51
-3.16602e-13
  0
ARC
  5
10DB
330
A02
100
AcDbEntity
  8
Body
100
AcDbCircle
 10
-89.1461
 20
122.699
 30
10.0076
 40
5.1435
100
AcDbArc
 50
-54
 51
-3.16602e-13
  0
LINE
  5
10DC
330
A02
100
AcDbEntity
  8
Body
100
AcDbLine
 10
-84.0026
 20
122.699
 30
0
 11
-84.0026
 21
122.699
 31
10.0076
  0
LINE
  5
10DD
330
A02
100
AcDbEntity
  8
Body
100
AcDbLine
 10
-84.587
 20
126.594
 30
0
 11
-84.587
 21
126.594
 31
10.0076
  0
LINE
  5
10DE
330
A02
100
AcDbEntity
  8
Body
100
AcDbLine
 10
-84.0026
 20
122.699
 30
0
 11
-84.587
 21
126.594
 31
0
  0
LINE
  5
10DF
330
A02
100
AcDbEntity
  8
Body
100
AcDbLine
 10
-84.0026
 20
122.699
 30
10.0076
 11
-84.587
 21
126.594
 31
10.0076
  0
LINE
  5
10E0
330
A02
100
AcDbEntity
  8
Body
100
AcDbLine
 10
-84.587
 20
126.594
 30
0
 11
-84.587
 21
126.594
 31
10.0076
  0
LINE
  5
10E1
330
A02
100
AcDbEntity
  8
Body
100
AcDbLine
 10
-85.0329
 20
128.046
 30
0
 11
-85.0329
 21
128.046
 31
10.0076
  0
ARC
  5
10E2
330
A02
100
AcDbEntity
  8
Body
100
AcDbCircle
 10
-72.1437
 20
131.209
 30
0
 40
13.2715
100
AcDbArc
 50
-166.215
 51
-159.652
  0
ARC
  5
10E3
330
A02
100
AcDbEntity
  8
Body
100
AcDbCircle
 10
-72.1437
 20
131.209
 30
10.0076
 40
13.2715
100
AcDbArc
 50
-166.215
 51
-159.652
  0
LINE
  5
10E4
330
A02
100
AcDbEntity
  8
Body
100
AcDbLine
 10
-85.0329
 20
128.046
 30
0
 11
-85.0329
 21
128.046
 31
10.0076
  0
LINE
  5
10E5
330
A02
100
AcDbEntity
  8
Body
100
AcDbLine
 10
-85.3363
 20
131.406
 30
0
 11
-85.3363
 21
131.406
 31
10.0076
  0
ARC
  5
10E6
330
A02
100
AcDbEntity
  8
Body
100
AcDbCircle
 10
-77.2168
 20
130.446
 30
0
 40
8.17611
100
AcDbArc
 50
173.254
 51
-162.933
  0
ARC
  5
10E7
330
A02
100
AcDbEntity
  8
Body
100
AcDbCircle
 10
-77.2168
 20
130.446
 30
10.0076
 40
8.17611
100
AcDbArc
 50
173.254
 51
-162.933
  0
LINE
  5
10E8
330
A02
100
AcDbEntity
  8
Body
100
AcDbLine
 10
-85.3363
 20
131.406
 30
0
 11
-85.3363
 21
131.406
 31
10.0076
  0
LINE
  5
10E9
330
A02
100
AcDbEntity
  8
Body
100
AcDbLine
 10
-82.3902
 20
129.763
 30
0
 11
-82.3902
 21
129.763
 31
10.0076
  0
ARC
  5
10EA
330
A02
100
AcDbEntity
  8
Body
100
AcDbCircle
 10
-87.7614
 20
123.598
 30
0
 40
8.17611
100
AcDbArc
 50
48.9333
 51
72.746
  0
ARC
  5
10EB
330
A02
100
AcDbEntity
  8
Body
100
AcDbCircle
 10
-87.7614
 20
123.598
 30
10.0076
 40
8.17611
100
AcDbArc
 50
48.9333
 51
72.746
  0
LINE
  5
10EC
330
A02
100
AcDbEntity
  8
Body
100
AcDbLine
 10
-82.3902
 20
129.763
 30
0
 11
-82.3902
 21
129.763
 31
10.0076
  0
LINE
  5
10ED
330
A02
100
AcDbEntity
  8
Body
100
AcDbLine
 10
-81.2448
 20
128.765
 30
0
 11
-81.2448
 21
128.765
 31
10.0076
  0
LINE
  5
10EE
330
A02
100
AcDbEntity
  8
Body
100
AcDbLine
 10
-82.3902
 20
129.763
 30
0
 11
-81.2448
 21
128.765
 31
0
  0
LINE
  5
10EF
330
A02
100
AcDbEntity
  8
Body
100
AcDbLine
 10
-82.3902
 20
129.763
 30
10.0076
 11
-81.2448
 21
128.765
 31
10.0076
  0
LINE
  5
10F0
330
A02
100
AcDbEntity
  8
Body
100
AcDbLine
 10
-81.2448
 20
128.765
 30
0
 11
-81.2448
 21
128.765
 31
10.0076
  0
LINE
  5
10F1
330
A02
100
AcDbEntity
  8
Body
100
AcDbLine
 10
-77.9242
 20
126.646
 30
0
 11
-77.9242
 21
126.646
 31
10.0076
  0
ARC
  5
10F2
330
A02
100
AcDbEntity
  8
Body
100
AcDbCircle
 10
-72.5262
 20
138.77
 30
0
 40
13.2715
100
AcDbArc
 50
-131.067
 51
-114
  0
ARC
  5
10F3
330
A02
100
AcDbEntity
  8
Body
100
AcDbCircle
 10
-72.5262
 20
138.77
 30
10.0076
 40
13.2715
100
AcDbArc
 50
-131.067
 51
-114
  0
LINE
  5
10F4
330
A02
100
AcDbEntity
  8
Body
100
AcDbLine
 10
-77.9242
 20
126.646
 30
0
 11
-77.9242
 21
126.646
 31
10.0076
  0
LINE
  5
10F5
330
A02
100
AcDbEntity
  8
Body
100
AcDbLine
 10
-73.2604
 20
126.891
 30
0
 11
-73.2604
 21
126.891
 31
10.0076
  0
ARC
  5
10F6
330
A02
100
AcDbEntity
  8
Body
100
AcDbCircle
 10
-75.8322
 20
131.345
 30
0
 40
5.1435
100
AcDbArc
 50
-114
 51
-60
  0
ARC
  5
10F7
330
A02
100
AcDbEntity
  8
Body
100
AcDbCircle
 10
-75.8322
 20
131.345
 30
10.0076
 40
5.1435
100
AcDbArc
 50
-114
 51
-60
  0
LINE
  5
10F8
330
A02
100
AcDbEntity
  8
Body
100
AcDbLine
 10
-73.2604
 20
126.891
 30
0
 11
-73.2604
 21
126.891
 31
10.0076
  0
LINE
  5
10F9
330
A02
100
AcDbEntity
  8
Body
100
AcDbLine
 10
-70.7169
 20
130.808
 30
0
 11
-70.7169
 21
130.808
 31
10.0076
  0
ARC
  5
10FA
330
A02
100
AcDbEntity
  8
Body
100
AcDbCircle
 10
-75.8322
 20
131.345
 30
0
 40
5.1435
100
AcDbArc
 50
-60
 51
-6
  0
ARC
  5
10FB
330
A02
100
AcDbEntity
  8
Body
100
AcDbCircle
 10
-75.8322
 20
131.345
 30
10.0076
 40
5.1435
100
AcDbArc
 50
-60
 51
-6
  0
LINE
  5
10FC
330
A02
100
AcDbEntity
  8
Body
100
AcDbLine
 10
-70.7169
 20
130.808
 30
0
 11
-70.7169
 21
130.808
 31
10.0076
  0
LINE
  5
10FD
330
A02
100
AcDbEntity
  8
Body
100
AcDbLine
 10
-70.891
 20
134.742
 30
0
 11
-70.891
 21
134.742
 31
10.0076
  0
LINE
  5
10FE
330
A02
100
AcDbEntity
  8
Body
100
AcDbLine
 10
-70.7169
 20
130.808
 30
0
 11
-70.891
 21
134.742
 31
0
  0
LINE
  5
10FF
330
A02
100
AcDbEntity
  8
Body
100
AcDbLine
 10
-70.7169
 20
130.808
 30
10.0076
 11
-70.891
 21
134.742
 31
10.0076
  0
LINE
  5
1100
330
A02
100
AcDbEntity
  8
Body
100
AcDbLine
 10
-70.891
 20
134.742
 30
0
 11
-70.891
 21
134.742
 31
10.0076
  0
LINE
  5
1101
330
A02
100
AcDbEntity
  8
Body
100
AcDbLine
 10
-71.1826
 20
136.233
 30
0
 11
-71.1826
 21
136.233
 31
10.0076
  0
ARC
  5
1102
330
A02
100
AcDbEntity
  8
Body
100
AcDbCircle
 10
-58.0334
 20
138.031
 30
0
 40
13.2715
100
AcDbArc
 50
-172.215
 51
-165.652
  0
ARC
  5
1103
330
A02
100
AcDbEntity
  8
Body
100
AcDbCircle
 10
-58.0334
 20
138.031
 30
10.0076
 40
13.2715
100
AcDbArc
 50
-172.215
 51
-165.652
  0
LINE
  5
1104
330
A02
100
AcDbEntity
  8
Body
100
AcDbLine
 10
-71.1826
 20
136.233
 30
0
 11
-71.1826
 21
136.233
 31
10.0076
  0
LINE
  5
1105
330
A02
100
AcDbEntity
  8
Body
100
AcDbLine
 10
-71.1331
 20
139.607
 30
0
 11
-71.1331
 21
139.607
 31
10.0076
  0
ARC
  5
1106
330
A02
100
AcDbEntity
  8
Body
100
AcDbCircle
 10
-63.1585
 20
137.803
 30
0
 40
8.17611
100
AcDbArc
 50
167.254
 51
-168.933
  0
ARC
  5
1107
330
A02
100
AcDbEntity
  8
Body
100
AcDbCircle
 10
-63.1585
 20
137.803
 30
10.0076
 40
8.17611
100
AcDbArc
 50
167.254
 51
-168.933
  0
LINE
  5
1108
330
A02
100
AcDbEntity
  8
Body
100
AcDbLine
 10
-71.1331
 20
139.607
 30
0
 11
-71.1331
 21
139.607
 31
10.0076
  0
LINE
  5
1109
330
A02
100
AcDbEntity
  8
Body
100
AcDbLine
 10
-68.375
 20
137.664
 30
0
 11
-68.375
 21
137.664
 31
10.0076
  0
ARC
  5
110A
330
A02
100
AcDbEntity
  8
Body
100
AcDbCircle
 10
-74.3611
 20
132.095
 30
0
 40
8.17611
100
AcDbArc
 50
42.9333
 51
66.746
  0
ARC
  5
110B
330
A02
100
AcDbEntity
  8
Body
100
AcDbCircle
 10
-74.3611
 20
132.095
 30
10.0076
 40
8.17611
100
AcDbArc
 50
42.9333
 51
66.746
  0
LINE
  5
110C
330
A02
100
AcDbEntity
  8
Body
100
AcDbLine
 10
-68.375
 20
137.664
 30
0
 11
-68.375
 21
137.664
 31
10.0076
  0
LINE
  5
110D
330
A02
100
AcDbEntity
  8
Body
100
AcDbLine
 10
-67.3401
 20
136.552
 30
0
 11
-67.3401
 21
136.552
 31
10.0076
  0
LINE
  5
110E
330
A02
100
AcDbEntity
  8
Body
100
AcDbLine
 10
-68.375
 20
137.664
 30
0
 11
-67.3401
 21
136.552
 31
0
  0
LINE
  5
110F
330
A02
100
AcDbEntity
  8
Body
100
AcDbLine
 10
-68.375
 20
137.664
 30
10.0076
 11
-67.3401
 21
136.552
 31
10.0076
  0
LINE
  5
1110
330
A02
100
AcDbEntity
  8
Body
100
AcDbLine
 10
-67.3401
 20
136.552
 30
0
 11
-67.3401
 21
136.552
 31
10.0076
  0
LINE
  5
1111
330
A02
100
AcDbEntity
  8
Body
100
AcDbLine
 10
-64.2592
 20
134.098
 30
0
 11
-64.2592
 21
134.098
 31
10.0076
  0
ARC
  5
1112
330
A02
100
AcDbEntity
  8
Body
100
AcDbCircle
 10
-57.6235
 20
145.591
 30
0
 40
13.2715
100
AcDbArc
 50
-137.067
 51
-120
  0
ARC
  5
1113
330
A02
100
AcDbEntity
  8
Body
100
AcDbCircle
 10
-57.6235
 20
145.591
 30
10.0076
 40
13.2715
100
AcDbArc
 50
-137.067
 51
-120
  0
LINE
  5
1114
330
A02
100
AcDbEntity
  8
Body
100
AcDbLine
 10
-64.2592
 20
134.098
 30
0
 11
-64.2592
 21
134.098
 31
10.0076
  0
LINE
  5
1115
330
A02
100
AcDbEntity
  8
Body
100
AcDbLine
 10
-59.5954
 20
133.853
 30
0
 11
-59.5954
 21
133.853
 31
10.0076
  0
ARC
  5
1116
330
A02
100
AcDbEntity
  8
Body
100
AcDbCircle
 10
-61.6875
 20
138.552
 30
0
 40
5.1435
100
AcDbArc
 50
-120
 51
-66
  0
ARC
  5
1117
330
A02
100
AcDbEntity
  8
Body
100
AcDbCircle
 10
-61.6875
 20
138.552
 30
10.0076
 40
5.1435
100
AcDbArc
 50
-120
 51
-66
  0
LINE
  5
1118
330
A02
100
AcDbEntity
  8
Body
100
AcDbLine
 10
-59.5954
 20
133.853
 30
0
 11
-59.5954
 21
133.853
 31
10.0076
  0
LINE
  5
1119
330
A02
100
AcDbEntity
  8
Body
100
AcDbLine
 10
-56.6564
 20
137.483
 30
0
 11
-56.6564
 21
137.483
 31
10.0076
  0
ARC
  5
111A
330
A02
100
AcDbEntity
  8
Body
100
AcDbCircle
 10
-61.6875
 20
138.552
 30
0
 40
5.1435
100
AcDbArc
 50
-66
 51
-12
  0
ARC
  5
111B
330
A02
100
AcDbEntity
  8
Body
100
AcDbCircle
 10
-61.6875
 20
138.552
 30
10.0076
 40
5.1435
100
AcDbArc
 50
-66
 51
-12
  0
LINE
  5
111C
330
A02
100
AcDbEntity
  8
Body
100
AcDbLine
 10
-56.6564
 20
137.483
 30
0
 11
-56.6564
 21
137.483
 31
10.0076
  0
LINE
  5
111D
330
A02
100
AcDbEntity
  8
Body
100
AcDbLine
 10
-56.4182
 20
141.414
 30
0
 11
-56.4182
 21
141.414
 31
10.0076
  0
LINE
  5
111E
330
A02
100
AcDbEntity
  8
Body
100
AcDbLine
 10
-56.6564
 20
137.483
 30
0
 11
-56.4182
 21
141.414
 31
0
  0
LINE
  5
111F
330
A02
100
AcDbEntity
  8
Body
100
AcDbLine
 10
-56.6564
 20
137.483
 30
10.0076
 11
-56.4182
 21
141.414
 31
10.0076
  0
LINE
  5
1120
330
A02
100
AcDbEntity
  8
Body
100
AcDbLine
 10
-56.4182
 20
141.414
 30
0
 11
-56.4182
 21
141.414
 31
10.0076
  0
LINE
  5
1121
330
A02
100
AcDbEntity
  8
Body
100
AcDbLine
 10
-56.5524
 20
142.928
 30
0
 11
-56.5524
 21
142.928
 31
10.0076
  0
ARC
  5
1122
330
A02
100
AcDbEntity
  8
Body
100
AcDbCircle
 10
-43.2873
 20
143.341
 30
0
 40
13.2715
100
AcDbArc
 50
-178.215
 51
-171.652
  0
ARC
  5
1123
330
A02
100
AcDbEntity
  8
Body
100
AcDbCircle
 10
-43.2873
 20
143.341
 30
10.0076
 40
13.2715
100
AcDbArc
 50
-178.215
 51
-171.652
  0
LINE
  5
1124
330
A02
100
AcDbEntity
  8
Body
100
AcDbLine
 10
-56.5524
 20
142.928
 30
0
 11
-56.5524
 21
142.928
 31
10.0076
  0
LINE
  5
1125
330
A02
100
AcDbEntity
  8
Body
100
AcDbLine
 10
-56.1506
 20
146.277
 30
0
 11
-56.1506
 21
146.277
 31
10.0076
  0
ARC
  5
1126
330
A02
100
AcDbEntity
  8
Body
100
AcDbCircle
 10
-48.4082
 20
143.65
 30
0
 40
8.17611
100
AcDbArc
 50
161.254
 51
-174.933
  0
ARC
  5
1127
330
A02
100
AcDbEntity
  8
Body
100
AcDbCircle
 10
-48.4082
 20
143.65
 30
10.0076
 40
8.17611
100
AcDbArc
 50
161.254
 51
-174.933
  0
LINE
  5
1128
330
A02
100
AcDbEntity
  8
Body
100
AcDbLine
 10
-56.1506
 20
146.277
 30
0
 11
-56.1506
 21
146.277
 31
10.0076
  0
LINE
  5
1129
330
A02
100
AcDbEntity
  8
Body
100
AcDbLine
 10
-53.6107
 20
144.057
 30
0
 11
-53.6107
 21
144.057
 31
10.0076
  0
ARC
  5
112A
330
A02
100
AcDbEntity
  8
Body
100
AcDbCircle
 10
-60.1461
 20
139.144
 30
0
 40
8.17611
100
AcDbArc
 50
36.9333
 51
60.746
  0
ARC
  5
112B
330
A02
100
AcDbEntity
  8
Body
100
AcDbCircle
 10
-60.1461
 20
139.144
 30
10.0076
 40
8.17611
100
AcDbArc
 50
36.9333
 51
60.746
  0
LINE
  5
112C
330
A02
100
AcDbEntity
  8
Body
100
AcDbLine
 10
-53.6107
 20
144.057
 30
0
 11
-53.6107
 21
144.057
 31
10.0076
  0
LINE
  5
112D
330
A02
100
AcDbEntity
  8
Body
100
AcDbLine
 10
-52.6977
 20
142.842
 30
0
 11
-52.6977
 21
142.842
 31
10.0076
  0
LINE
  5
112E
330
A02
100
AcDbEntity
  8
Body
100
AcDbLine
 10
-53.6107
 20
144.057
 30
0
 11
-52.6977
 21
142.842
 31
0
  0
LINE
  5
112F
330
A02
100
AcDbEntity
  8
Body
100
AcDbLine
 10
-53.6107
 20
144.057
 30
10.0076
 11
-52.6977
 21
142.842
 31
10.0076
  0
LINE
  5
1130
330
A02
100
AcDbEntity
  8
Body
100
AcDbLine
 10
-52.6977
 20
142.842
 30
0
 11
-52.6977
 21
142.842
 31
10.0076
  0
LINE
  5
1131
330
A02
100
AcDbEntity
  8
Body
100
AcDbLine
 10
-49.8901
 20
140.08
 30
0
 11
-49.8901
 21
140.08
 31
10.0076
  0
ARC
  5
1132
330
A02
100
AcDbEntity
  8
Body
100
AcDbCircle
 10
-42.0894
 20
150.817
 30
0
 40
13.2715
100
AcDbArc
 50
-143.067
 51
-126
  0
ARC
  5
1133
330
A02
100
AcDbEntity
  8
Body
100
AcDbCircle
 10
-42.0894
 20
150.817
 30
10.0076
 40
13.2715
100
AcDbArc
 50
-143.067
 51
-126
  0
LINE
  5
1134
330
A02
100
AcDbEntity
  8
Body
100
AcDbLine
 10
-49.8901
 20
140.08
 30
0
 11
-49.8901
 21
140.08
 31
10.0076
  0
LINE
  5
1135
330
A02
100
AcDbEntity
  8
Body
100
AcDbLine
 10
-45.2774
 20
139.35
 30
0
 11
-45.2774
 21
139.35
 31
10.0076
  0
ARC
  5
1136
330
A02
100
AcDbEntity
  8
Body
100
AcDbCircle
 10
-46.8669
 20
144.241
 30
0
 40
5.1435
100
AcDbArc
 50
-126
 51
-72
  0
ARC
  5
1137
330
A02
100
AcDbEntity
  8
Body
100
AcDbCircle
 10
-46.8669
 20
144.241
 30
10.0076
 40
5.1435
100
AcDbArc
 50
-126
 51
-72
  0
LINE
  5
1138
330
A02
100
AcDbEntity
  8
Body
100
AcDbLine
 10
-45.2774
 20
139.35
 30
0
 11
-45.2774
 21
139.35
 31
10.0076
  0
LINE
  5
1139
330
A02
100
AcDbEntity
  8
Body
100
AcDbLine
 10
-41.9751
 20
142.652
 30
0
 11
-41.9751
 21
142.652
 31
10.0076
  0
ARC
  5
113A
330
A02
100
AcDbEntity
  8
Body
100
AcDbCircle
 10
-46.8669
 20
144.241
 30
0
 40
5.1435
100
AcDbArc
 50
-72
 51
-18
  0
ARC
  5
113B
330
A02
100
AcDbEntity
  8
Body
100
AcDbCircle
 10
-46.8669
 20
144.241
 30
10.0076
 40
5.1435
100
AcDbArc
 50
-72
 51
-18
  0
LINE
  5
113C
330
A02
100
AcDbEntity
  8
Body
100
AcDbLine
 10
-41.9751
 20
142.652
 30
0
 11
-41.9751
 21
142.652
 31
10.0076
  0
LINE
  5
113D
330
A02
100
AcDbEntity
  8
Body
100
AcDbLine
 10
-41.3273
 20
146.537
 30
0
 11
-41.3273
 21
146.537
 31
10.0076
  0
LINE
  5
113E
330
A02
100
AcDbEntity
  8
Body
100
AcDbLine
 10
-41.9751
 20
142.652
 30
0
 11
-41.3273
 21
146.537
 31
0
  0
LINE
  5
113F
330
A02
100
AcDbEntity
  8
Body
100
AcDbLine
 10
-41.9751
 20
142.652
 30
10.0076
 11
-41.3273
 21
146.537
 31
10.0076
  0
LINE
  5
1140
330
A02
100
AcDbEntity
  8
Body
100
AcDbLine
 10
-41.3273
 20
146.537
 30
0
 11
-41.3273
 21
146.537
 31
10.0076
  0
LINE
  5
1141
330
A02
100
AcDbEntity
  8
Body
100
AcDbLine
 10
-41.3026
 20
148.056
 30
0
 11
-41.3026
 21
148.056
 31
10.0076
  0
ARC
  5
1142
330
A02
100
AcDbEntity
  8
Body
100
AcDbCircle
 10
-28.067
 20
147.081
 30
0
 40
13.2715
100
AcDbArc
 50
175.785
 51
-177.652
  0
ARC
  5
1143
330
A02
100
AcDbEntity
  8
Body
100
AcDbCircle
 10
-28.067
 20
147.081
 30
10.0076
 40
13.2715
100
AcDbArc
 50
175.785
 51
-177.652
  0
LINE
  5
1144
330
A02
100
AcDbEntity
  8
Body
100
AcDbLine
 10
-41.3026
 20
148.056
 30
0
 11
-41.3026
 21
148.056
 31
10.0076
  0
LINE
  5
1145
330
A02
100
AcDbEntity
  8
Body
100
AcDbLine
 10
-40.5529
 20
151.345
 30
0
 11
-40.5529
 21
151.345
 31
10.0076
  0
ARC
  5
1146
330
A02
100
AcDbEntity
  8
Body
100
AcDbCircle
 10
-33.1275
 20
147.923
 30
0
 40
8.17611
100
AcDbArc
 50
155.254
 51
179.067
  0
ARC
  5
1147
330
A02
100
AcDbEntity
  8
Body
100
AcDbCircle
 10
-33.1275
 20
147.923
 30
10.0076
 40
8.17611
100
AcDbArc
 50
155.254
 51
179.067
  0
LINE
  5
1148
330
A02
100
AcDbEntity
  8
Body
100
AcDbLine
 10
-40.5529
 20
151.345
 30
0
 11
-40.5529
 21
151.345
 31
10.0076
  0
LINE
  5
1149
330
A02
100
AcDbEntity
  8
Body
100
AcDbLine
 10
-38.2589
 20
148.872
 30
0
 11
-38.2589
 21
148.872
 31
10.0076
  0
ARC
  5
114A
330
A02
100
AcDbEntity
  8
Body
100
AcDbCircle
 10
-45.2721
 20
144.669
 30
0
 40
8.17611
100
AcDbArc
 50
30.9333
 51
54.746
  0
ARC
  5
114B
330
A02
100
AcDbEntity
  8
Body
100
AcDbCircle
 10
-45.2721
 20
144.669
 30
10.0076
 40
8.17611
100
AcDbArc
 50
30.9333
 51
54.746
  0
LINE
  5
114C
330
A02
100
AcDbEntity
  8
Body
100
AcDbLine
 10
-38.2589
 20
148.872
 30
0
 11
-38.2589
 21
148.872
 31
10.0076
  0
LINE
  5
114D
330
A02
100
AcDbEntity
  8
Body
100
AcDbLine
 10
-37.4779
 20
147.568
 30
0
 11
-37.4779
 21
147.568
 31
10.0076
  0
LINE
  5
114E
330
A02
100
AcDbEntity
  8
Body
100
AcDbLine
 10
-38.2589
 20
148.872
 30
0
 11
-37.4779
 21
147.568
 31
0
  0
LINE
  5
114F
330
A02
100
AcDbEntity
  8
Body
100
AcDbLine
 10
-38.2589
 20
148.872
 30
10.0076
 11
-37.4779
 21
147.568
 31
10.0076
  0
LINE
  5
1150
330
A02
100
AcDbEntity
  8
Body
100
AcDbLine
 10
-37.4779
 20
147.568
 30
0
 11
-37.4779
 21
147.568
 31
10.0076
  0
LINE
  5
1151
330
A02
100
AcDbEntity
  8
Body
100
AcDbLine
 10
-34.9745
 20
144.528
 30
0
 11
-34.9745
 21
144.528
 31
10.0076
  0
ARC
  5
1152
330
A02
100
AcDbEntity
  8
Body
100
AcDbCircle
 10
-26.0941
 20
154.39
 30
0
 40
13.2715
100
AcDbArc
 50
-149.067
 51
-132
  0
ARC
  5
1153
330
A02
100
AcDbEntity
  8
Body
100
AcDbCircle
 10
-26.0941
 20
154.39
 30
10.0076
 40
13.2715
100
AcDbArc
 50
-149.067
 51
-132
  0
LINE
  5
1154
330
A02
100
AcDbEntity
  8
Body
100
AcDbLine
 10
-34.9745
 20
144.528
 30
0
 11
-34.9745
 21
144.528
 31
10.0076
  0
LINE
  5
1155
330
A02
100
AcDbEntity
  8
Body
100
AcDbLine
 10
-30.4634
 20
143.319
 30
0
 11
-30.4634
 21
143.319
 31
10.0076
  0
ARC
  5
1156
330
A02
100
AcDbEntity
  8
Body
100
AcDbCircle
 10
-31.5328
 20
148.35
 30
0
 40
5.1435
100
AcDbArc
 50
-132
 51
-78
  0
ARC
  5
1157
330
A02
100
AcDbEntity
  8
Body
100
AcDbCircle
 10
-31.5328
 20
148.35
 30
10.0076
 40
5.1435
100
AcDbArc
 50
-132
 51
-78
  0
LINE
  5
1158
330
A02
100
AcDbEntity
  8
Body
100
AcDbLine
 10
-30.4634
 20
143.319
 30
0
 11
-30.4634
 21
143.319
 31
10.0076
  0
LINE
  5
1159
330
A02
100
AcDbEntity
  8
Body
100
AcDbLine
 10
-26.834
 20
146.258
 30
0
 11
-26.834
 21
146.258
 31
10.0076
  0
ARC
  5
115A
330
A02
100
AcDbEntity
  8
Body
100
AcDbCircle
 10
-31.5328
 20
148.35
 30
0
 40
5.1435
100
AcDbArc
 50
-78
 51
-24
  0
ARC
  5
115B
330
A02
100
AcDbEntity
  8
Body
100
AcDbCircle
 10
-31.5328
 20
148.35
 30
10.0076
 40
5.1435
100
AcDbArc
 50
-78
 51
-24
  0
LINE
  5
115C
330
A02
100
AcDbEntity
  8
Body
100
AcDbLine
 10
-26.834
 20
146.258
 30
0
 11
-26.834
 21
146.258
 31
10.0076
  0
LINE
  5
115D
330
A02
100
AcDbEntity
  8
Body
100
AcDbLine
 10
-25.7836
 20
150.054
 30
0
 11
-25.7836
 21
150.054
 31
10.0076
  0
LINE
  5
115E
330
A02
100
AcDbEntity
  8
Body
100
AcDbLine
 10
-26.834
 20
146.258
 30
0
 11
-25.7836
 21
150.054
 31
0
  0
LINE
  5
115F
330
A02
100
AcDbEntity
  8
Body
100
AcDbLine
 10
-26.834
 20
146.258
 30
10.0076
 11
-25.7836
 21
150.054
 31
10.0076
  0
LINE
  5
1160
330
A02
100
AcDbEntity
  8
Body
100
AcDbLine
 10
-25.7836
 20
150.054
 30
0
 11
-25.7836
 21
150.054
 31
10.0076
  0
LINE
  5
1161
330
A02
100
AcDbEntity
  8
Body
100
AcDbLine
 10
-25.6002
 20
151.562
 30
0
 11
-25.6002
 21
151.562
 31
10.0076
  0
ARC
  5
1162
330
A02
100
AcDbEntity
  8
Body
100
AcDbCircle
 10
-12.5391
 20
149.209
 30
0
 40
13.2715
100
AcDbArc
 50
169.785
 51
176.348
  0
ARC
  5
1163
330
A02
100
AcDbEntity
  8
Body
100
AcDbCircle
 10
-12.5391
 20
149.209
 30
10.0076
 40
13.2715
100
AcDbArc
 50
169.785
 51
176.348
  0
LINE
  5
1164
330
A02
100
AcDbEntity
  8
Body
100
AcDbLine
 10
-25.6002
 20
151.562
 30
0
 11
-25.6002
 21
151.562
 31
10.0076
  0
LINE
  5
1165
330
A02
100
AcDbEntity
  8
Body
100
AcDbLine
 10
-24.5108
 20
154.755
 30
0
 11
-24.5108
 21
154.755
 31
10.0076
  0
ARC
  5
1166
330
A02
100
AcDbEntity
  8
Body
100
AcDbCircle
 10
-17.4839
 20
150.575
 30
0
 40
8.17611
100
AcDbArc
 50
149.254
 51
173.067
  0
ARC
  5
1167
330
A02
100
AcDbEntity
  8
Body
100
AcDbCircle
 10
-17.4839
 20
150.575
 30
10.0076
 40
8.17611
100
AcDbArc
 50
149.254
 51
173.067
  0
LINE
  5
1168
330
A02
100
AcDbEntity
  8
Body
100
AcDbLine
 10
-24.5108
 20
154.755
 30
0
 11
-24.5108
 21
154.755
 31
10.0076
  0
LINE
  5
1169
330
A02
100
AcDbEntity
  8
Body
100
AcDbLine
 10
-22.488
 20
152.055
 30
0
 11
-22.488
 21
152.055
 31
10.0076
  0
ARC
  5
116A
330
A02
100
AcDbEntity
  8
Body
100
AcDbCircle
 10
-29.9021
 20
148.608
 30
0
 40
8.17611
100
AcDbArc
 50
24.9333
 51
48.746
  0
ARC
  5
116B
330
A02
100
AcDbEntity
  8
Body
100
AcDbCircle
 10
-29.9021
 20
148.608
 30
10.0076
 40
8.17611
100
AcDbArc
 50
24.9333
 51
48.746
  0
LINE
  5
116C
330
A02
100
AcDbEntity
  8
Body
100
AcDbLine
 10
-22.488
 20
152.055
 30
0
 11
-22.488
 21
152.055
 31
10.0076
  0
LINE
  5
116D
330
A02
100
AcDbEntity
  8
Body
100
AcDbLine
 10
-21.8475
 20
150.677
 30
0
 11
-21.8475
 21
150.677
 31
10.0076
  0
LINE
  5
116E
330
A02
100
AcDbEntity
  8
Body
100
AcDbLine
 10
-22.488
 20
152.055
 30
0
 11
-21.8475
 21
150.677
 31
0
  0
LINE
  5
116F
330
A02
100
AcDbEntity
  8
Body
100
AcDbLine
 10
-22.488
 20
152.055
 30
10.0076
 11
-21.8475
 21
150.677
 31
10.0076
  0
LINE
  5
1170
330
A02
100
AcDbEntity
  8
Body
100
AcDbLine
 10
-21.8475
 20
150.677
 30
0
 11
-21.8475
 21
150.677
 31
10.0076
  0
LINE
  5
1171
330
A02
100
AcDbEntity
  8
Body
100
AcDbLine
 10
-19.6756
 20
147.392
 30
0
 11
-19.6756
 21
147.392
 31
10.0076
  0
ARC
  5
1172
330
A02
100
AcDbEntity
  8
Body
100
AcDbCircle
 10
-9.81296
 20
156.272
 30
0
 40
13.2715
100
AcDbArc
 50
-155.067
 51
-138
  0
ARC
  5
1173
330
A02
100
AcDbEntity
  8
Body
100
AcDbCircle
 10
-9.81296
 20
156.272
 30
10.0076
 40
13.2715
100
AcDbArc
 50
-155.067
 51
-138
  0
LINE
  5
1174
330
A02
100
AcDbEntity
  8
Body
100
AcDbLine
 10
-19.6756
 20
147.392
 30
0
 11
-19.6756
 21
147.392
 31
10.0076
  0
LINE
  5
1175
330
A02
100
AcDbEntity
  8
Body
100
AcDbLine
 10
-15.3156
 20
145.718
 30
0
 11
-15.3156
 21
145.718
 31
10.0076
  0
ARC
  5
1176
330
A02
100
AcDbEntity
  8
Body
100
AcDbCircle
 10
-15.8532
 20
150.834
 30
0
 40
5.1435
100
AcDbArc
 50
-138
 51
-84
  0
ARC
  5
1177
330
A02
100
AcDbEntity
  8
Body
100
AcDbCircle
 10
-15.8532
 20
150.834
 30
10.0076
 40
5.1435
100
AcDbArc
 50
-138
 51
-84
  0
LINE
  5
1178
330
A02
100
AcDbEntity
  8
Body
100
AcDbLine
 10
-15.3156
 20
145.718
 30
0
 11
-15.3156
 21
145.718
 31
10.0076
  0
LINE
  5
1179
330
A02
100
AcDbEntity
  8
Body
100
AcDbLine
 10
-11.3988
 20
148.262
 30
0
 11
-11.3988
 21
148.262
 31
10.0076
  0
ARC
  5
117A
330
A02
100
AcDbEntity
  8
Body
100
AcDbCircle
 10
-15.8532
 20
150.834
 30
0
 40
5.1435
100
AcDbArc
 50
-84
 51
-30
  0
ARC
  5
117B
330
A02
100
AcDbEntity
  8
Body
100
AcDbCircle
 10
-15.8532
 20
150.834
 30
10.0076
 40
5.1435
100
AcDbArc
 50
-84
 51
-30
  0
LINE
  5
117C
330
A02
100
AcDbEntity
  8
Body
100
AcDbLine
 10
-11.3988
 20
148.262
 30
0
 11
-11.3988
 21
148.262
 31
10.0076
  0
LINE
  5
117D
330
A02
100
AcDbEntity
  8
Body
100
AcDbLine
 10
-9.95748
 20
151.927
 30
0
 11
-9.95748
 21
151.927
 31
10.0076
  0
LINE
  5
117E
330
A02
100
AcDbEntity
  8
Body
100
AcDbLine
 10
-11.3988
 20
148.262
 30
0
 11
-9.95748
 21
151.927
 31
0
  0
LINE
  5
117F
330
A02
100
AcDbEntity
  8
Body
100
AcDbLine
 10
-11.3988
 20
148.262
 30
10.0076
 11
-9.95748
 21
151.927
 31
10.0076
  0
LINE
  5
1180
330
A02
100
AcDbEntity
  8
Body
100
AcDbLine
 10
-9.95748
 20
151.927
 30
0
 11
-9.95748
 21
151.927
 31
10.0076
  0
LINE
  5
1181
330
A02
100
AcDbEntity
  8
Body
100
AcDbLine
 10
-9.61743
 20
153.408
 30
0
 11
-9.61743
 21
153.408
 31
10.0076
  0
ARC
  5
1182
330
A02
100
AcDbEntity
  8
Body
100
AcDbCircle
 10
3.12615
 20
149.702
 30
0
 40
13.2715
100
AcDbArc
 50
163.785
 51
170.348
  0
ARC
  5
1183
330
A02
100
AcDbEntity
  8
Body
100
AcDbCircle
 10
3.12615
 20
149.702
 30
10.0076
 40
13.2715
100
AcDbArc
 50
163.785
 51
170.348
  0
LINE
  5
1184
330
A02
100
AcDbEntity
  8
Body
100
AcDbLine
 10
-9.61743
 20
153.408
 30
0
 11
-9.61743
 21
153.408
 31
10.0076
  0
LINE
  5
1185
330
A02
100
AcDbEntity
  8
Body
100
AcDbLine
 10
-8.20022
 20
156.469
 30
0
 11
-8.20022
 21
156.469
 31
10.0076
  0
ARC
  5
1186
330
A02
100
AcDbEntity
  8
Body
100
AcDbCircle
 10
-1.64874
 20
151.578
 30
0
 40
8.17611
100
AcDbArc
 50
143.254
 51
167.067
  0
ARC
  5
1187
330
A02
100
AcDbEntity
  8
Body
100
AcDbCircle
 10
-1.64874
 20
151.578
 30
10.0076
 40
8.17611
100
AcDbArc
 50
143.254
 51
167.067
  0
ARC
  5
1188
330
A02
100
AcDbEntity
  8
Body
100
AcDbCircle
 10
-14.2045
 20
150.92
 30
0
 40
8.17611
100
AcDbArc
 50
18.9333
 51
42.746
  0
LINE
  5
1189
330
A02
100
AcDbEntity
  8
Body
100
AcDbLine
 10
-6.47075
 20
153.573
 30
0
 11
-5.97778
 21
152.136
 31
0
  0
ARC
  5
118A
330
A02
100
AcDbEntity
  8
Body
100
AcDbCircle
 10
6.57569
 20
156.442
 30
0
 40
13.2715
100
AcDbArc
 50
-161.067
 51
-144
  0
ARC
  5
118B
330
A02
100
AcDbEntity
  8
Body
100
AcDbCircle
 10
-3.06422e-14
 20
151.664
 30
0
 40
5.1435
100
AcDbArc
 50
-144
 51
-90
  0
ARC
  5
118C
330
A02
100
AcDbEntity
  8
Body
100
AcDbCircle
 10
3.06422e-14
 20
151.664
 30
0
 40
5.1435
100
AcDbArc
 50
-90
 51
-36
  0
ARC
  5
118D
330
A02
100
AcDbEntity
  8
Body
100
AcDbCircle
 10
-6.57569
 20
156.442
 30
0
 40
13.2715
100
AcDbArc
 50
-36
 51
-18.9333
  0
LINE
  5
118E
330
A02
100
AcDbEntity
  8
Body
100
AcDbLine
 10
5.97778
 20
152.136
 30
0
 11
6.47075
 21
153.573
 31
0
  0
ARC
  5
118F
330
A02
100
AcDbEntity
  8
Body
100
AcDbCircle
 10
14.2045
 20
150.92
 30
0
 40
8.17611
100
AcDbArc
 50
137.254
 51
161.067
  0
ARC
  5
1190
330
A02
100
AcDbEntity
  8
Body
100
AcDbCircle
 10
1.64874
 20
151.578
 30
0
 40
8.17611
100
AcDbArc
 50
12.9333
 51
36.746
  0
LINE
  5
1191
330
A02
100
AcDbEntity
  8
Body
100
AcDbLine
 10
9.61743
 20
153.408
 30
0
 11
9.95748
 21
151.927
 31
0
  0
ARC
  5
1192
330
A02
100
AcDbEntity
  8
Body
100
AcDbCircle
 10
22.8923
 20
154.898
 30
0
 40
13.2715
100
AcDbArc
 50
-167.067
 51
-150
  0
ARC
  5
1193
330
A02
100
AcDbEntity
  8
Body
100
AcDbCircle
 10
15.8532
 20
150.834
 30
0
 40
5.1435
100
AcDbArc
 50
-150
 51
-96
  0
ARC
  5
1194
330
A02
100
AcDbEntity
  8
Body
100
AcDbCircle
 10
15.8532
 20
150.834
 30
0
 40
5.1435
100
AcDbArc
 50
-96
 51
-42
  0
LINE
  5
1195
330
A02
100
AcDbEntity
  8
Body
100
AcDbLine
 10
19.6756
 20
147.392
 30
0
 11
21.8475
 21
150.677
 31
0
  0
ARC
  5
1196
330
A02
100
AcDbEntity
  8
Body
100
AcDbCircle
 10
34.1826
 20
145.781
 30
0
 40
13.2715
100
AcDbArc
 50
151.785
 51
158.348
  0
ARC
  5
1197
330
A02
100
AcDbEntity
  8
Body
100
AcDbCircle
 10
29.9021
 20
148.608
 30
0
 40
8.17611
100
AcDbArc
 50
131.254
 51
155.067
  0
ARC
  5
1198
330
A02
100
AcDbEntity
  8
Body
100
AcDbCircle
 10
17.4839
 20
150.575
 30
0
 40
8.17611
100
AcDbArc
 50
6.93333
 51
30.746
  0
LINE
  5
1199
330
A02
100
AcDbEntity
  8
Body
100
AcDbLine
 10
25.6002
 20
151.562
 30
0
 11
25.7836
 21
150.054
 31
0
  0
ARC
  5
119A
330
A02
100
AcDbEntity
  8
Body
100
AcDbCircle
 10
38.9581
 20
151.656
 30
0
 40
13.2715
100
AcDbArc
 50
-173.067
 51
-156
  0
ARC
  5
119B
330
A02
100
AcDbEntity
  8
Body
100
AcDbCircle
 10
31.5328
 20
148.35
 30
0
 40
5.1435
100
AcDbArc
 50
-156
 51
-102
  0
ARC
  5
119C
330
A02
100
AcDbEntity
  8
Body
100
AcDbCircle
 10
31.5328
 20
148.35
 30
0
 40
5.1435
100
AcDbArc
 50
-102
 51
-48
  0
LINE
  5
119D
330
A02
100
AcDbEntity
  8
Body
100
AcDbLine
 10
34.9745
 20
144.528
 30
0
 11
37.4779
 21
147.568
 31
0
  0
ARC
  5
119E
330
A02
100
AcDbEntity
  8
Body
100
AcDbCircle
 10
49.2336
 20
141.409
 30
0
 40
13.2715
100
AcDbArc
 50
145.785
 51
152.348
  0
ARC
  5
119F
330
A02
100
AcDbEntity
  8
Body
100
AcDbCircle
 10
45.2721
 20
144.669
 30
0
 40
8.17611
100
AcDbArc
 50
125.254
 51
149.067
  0
ARC
  5
11A0
330
A02
100
AcDbEntity
  8
Body
100
AcDbCircle
 10
33.1275
 20
147.923
 30
0
 40
8.17611
100
AcDbArc
 50
0.933333
 51
24.746
  0
LINE
  5
11A1
330
A02
100
AcDbEntity
  8
Body
100
AcDbLine
 10
41.3026
 20
148.056
 30
0
 11
41.3273
 21
146.537
 31
0
  0
ARC
  5
11A2
330
A02
100
AcDbEntity
  8
Body
100
AcDbCircle
 10
54.5971
 20
146.753
 30
0
 40
13.2715
100
AcDbArc
 50
-179.067
 51
-162
  0
ARC
  5
11A3
330
A02
100
AcDbEntity
  8
Body
100
AcDbCircle
 10
46.8669
 20
144.241
 30
0
 40
5.1435
100
AcDbArc
 50
-162
 51
-108
  0
ARC
  5
11A4
330
A02
100
AcDbEntity
  8
Body
100
AcDbCircle
 10
46.8669
 20
144.241
 30
0
 40
5.1435
100
AcDbArc
 50
-108
 51
-54
  0
LINE
  5
11A5
330
A02
100
AcDbEntity
  8
Body
100
AcDbLine
 10
49.8901
 20
140.08
 30
0
 11
52.6977
 21
142.842
 31
0
  0
ARC
  5
11A6
330
A02
100
AcDbEntity
  8
Body
100
AcDbCircle
 10
63.7452
 20
135.488
 30
0
 40
13.2715
100
AcDbArc
 50
139.785
 51
146.348
  0
ARC
  5
11A7
330
A02
100
AcDbEntity
  8
Body
100
AcDbCircle
 10
60.1461
 20
139.144
 30
0
 40
8.17611
100
AcDbArc
 50
119.254
 51
143.067
  0
ARC
  5
11A8
330
A02
100
AcDbEntity
  8
Body
100
AcDbCircle
 10
48.4082
 20
143.65
 30
0
 40
8.17611
100
AcDbArc
 50
-5.06667
 51
18.746
  0
LINE
  5
11A9
330
A02
100
AcDbEntity
  8
Body
100
AcDbLine
 10
56.5524
 20
142.928
 30
0
 11
56.4182
 21
141.414
 31
0
  0
ARC
  5
11AA
330
A02
100
AcDbEntity
  8
Body
100
AcDbCircle
 10
69.6378
 20
140.242
 30
0
 40
13.2715
100
AcDbArc
 50
174.933
 51
-168
  0
ARC
  5
11AB
330
A02
100
AcDbEntity
  8
Body
100
AcDbCircle
 10
61.6875
 20
138.552
 30
0
 40
5.1435
100
AcDbArc
 50
-168
 51
-114
  0
ARC
  5
11AC
330
A02
100
AcDbEntity
  8
Body
100
AcDbCircle
 10
61.6875
 20
138.552
 30
0
 40
5.1435
100
AcDbArc
 50
-114
 51
-60
  0
LINE
  5
11AD
330
A02
100
AcDbEntity
  8
Body
100
AcDbLine
 10
64.2592
 20
134.098
 30
0
 11
67.3401
 21
136.552
 31
0
  0
ARC
  5
11AE
330
A02
100
AcDbEntity
  8
Body
100
AcDbCircle
 10
77.5583
 20
128.083
 30
0
 40
13.2715
100
AcDbArc
 50
133.785
 51
140.348
  0
ARC
  5
11AF
330
A02
100
AcDbEntity
  8
Body
100
AcDbCircle
 10
74.3611
 20
132.095
 30
0
 40
8.17611
100
AcDbArc
 50
113.254
 51
137.067
  0
ARC
  5
11B0
330
A02
100
AcDbEntity
  8
Body
100
AcDbCircle
 10
63.1585
 20
137.803
 30
0
 40
8.17611
100
AcDbArc
 50
-11.0667
 51
12.746
  0
LINE
  5
11B1
330
A02
100
AcDbEntity
  8
Body
100
AcDbLine
 10
71.1826
 20
136.233
 30
0
 11
70.891
 21
134.742
 31
0
  0
ARC
  5
11B2
330
A02
100
AcDbEntity
  8
Body
100
AcDbCircle
 10
83.9157
 20
132.195
 30
0
 40
13.2715
100
AcDbArc
 50
168.933
 51
-174
  0
ARC
  5
11B3
330
A02
100
AcDbEntity
  8
Body
100
AcDbCircle
 10
75.8322
 20
131.345
 30
0
 40
5.1435
100
AcDbArc
 50
-174
 51
-120
  0
ARC
  5
11B4
330
A02
100
AcDbEntity
  8
Body
100
AcDbCircle
 10
75.8322
 20
131.345
 30
0
 40
5.1435
100
AcDbArc
 50
-120
 51
-66
  0
LINE
  5
11B5
330
A02
100
AcDbEntity
  8
Body
100
AcDbLine
 10
77.9242
 20
126.646
 30
0
 11
81.2448
 21
128.765
 31
0
  0
ARC
  5
11B6
330
A02
100
AcDbEntity
  8
Body
100
AcDbCircle
 10
90.5217
 20
119.274
 30
0
 40
13.2715
100
AcDbArc
 50
127.785
 51
134.348
  0
ARC
  5
11B7
330
A02
100
AcDbEntity
  8
Body
100
AcDbCircle
 10
87.7614
 20
123.598
 30
0
 40
8.17611
100
AcDbArc
 50
107.254
 51
131.067
  0
ARC
  5
11B8
330
A02
100
AcDbEntity
  8
Body
100
AcDbCircle
 10
77.2168
 20
130.446
 30
0
 40
8.17611
100
AcDbArc
 50
-17.0667
 51
6.74604
  0
LINE
  5
11B9
330
A02
100
AcDbEntity
  8
Body
100
AcDbLine
 10
85.0329
 20
128.046
 30
0
 11
84.587
 21
126.594
 31
0
  0
ARC
  5
11BA
330
A02
100
AcDbEntity
  8
Body
100
AcDbCircle
 10
97.2741
 20
122.699
 30
0
 40
13.2715
100
AcDbArc
 50
162.933
 51
180
  0
ARC
  5
11BB
330
A02
100
AcDbEntity
  8
Body
100
AcDbCircle
 10
89.1461
 20
122.699
 30
0
 40
5.1435
100
AcDbArc
 50
-180
 51
-126
  0
ARC
  5
11BC
330
A02
100
AcDbEntity
  8
Body
100
AcDbCircle
 10
89.1461
 20
122.699
 30
0
 40
5.1435
100
AcDbArc
 50
-126
 51
-72
  0
LINE
  5
11BD
330
A02
100
AcDbEntity
  8
Body
100
AcDbLine
 10
90.7355
 20
117.807
 30
0
 11
94.2593
 21
119.567
 31
0
  0
ARC
  5
11BE
330
A02
100
AcDbEntity
  8
Body
100
AcDbCircle
 10
102.493
 20
109.158
 30
0
 40
13.2715
100
AcDbArc
 50
121.785
 51
128.348
  0
ARC
  5
11BF
330
A02
100
AcDbEntity
  8
Body
100
AcDbCircle
 10
100.2
 20
113.748
 30
0
 40
8.17611
100
AcDbArc
 50
101.254
 51
125.067
  0
ARC
  5
11C0
330
A02
100
AcDbEntity
  8
Body
100
AcDbCircle
 10
90.4291
 20
121.66
 30
0
 40
8.17611
100
AcDbArc
 50
-23.0667
 51
0.746036
  0
LINE
  5
11C1
330
A02
100
AcDbEntity
  8
Body
100
AcDbLine
 10
97.9516
 20
118.457
 30
0
 11
97.3563
 21
117.059
 31
0
  0
ARC
  5
11C2
330
A02
100
AcDbEntity
  8
Body
100
AcDbCircle
 10
109.567
 20
111.859
 30
0
 40
13.2715
100
AcDbArc
 50
156.933
 51
174
  0
ARC
  5
11C3
330
A02
100
AcDbEntity
  8
Body
100
AcDbCircle
 10
101.483
 20
112.709
 30
0
 40
5.1435
100
AcDbArc
 50
174
 51
-132
  0
ARC
  5
11C4
330
A02
100
AcDbEntity
  8
Body
100
AcDbCircle
 10
101.483
 20
112.709
 30
0
 40
5.1435
100
AcDbArc
 50
-132
 51
-78
  0
LINE
  5
11C5
330
A02
100
AcDbEntity
  8
Body
100
AcDbLine
 10
102.553
 20
107.677
 30
0
 11
106.241
 21
109.059
 31
0
  0
ARC
  5
11C6
330
A02
100
AcDbEntity
  8
Body
100
AcDbCircle
 10
113.342
 20
97.847
 30
0
 40
13.2715
100
AcDbArc
 50
115.785
 51
122.348
  0
ARC
  5
11C7
330
A02
100
AcDbEntity
  8
Body
100
AcDbCircle
 10
111.541
 20
102.651
 30
0
 40
8.17611
100
AcDbArc
 50
95.254
 51
119.067
  0
ARC
  5
11C8
330
A02
100
AcDbEntity
  8
Body
100
AcDbCircle
 10
102.651
 20
111.541
 30
0
 40
8.17611
100
AcDbArc
 50
-29.0667
 51
-5.25396
  0
LINE
  5
11C9
330
A02
100
AcDbEntity
  8
Body
100
AcDbLine
 10
109.797
 20
107.569
 30
0
 11
109.059
 21
106.241
 31
0
  0
ARC
  5
11CA
330
A02
100
AcDbEntity
  8
Body
100
AcDbCircle
 10
120.659
 20
99.7934
 30
0
 40
13.2715
100
AcDbArc
 50
150.933
 51
168
  0
ARC
  5
11CB
330
A02
100
AcDbEntity
  8
Body
100
AcDbCircle
 10
112.709
 20
101.483
 30
0
 40
5.1435
100
AcDbArc
 50
168
 51
-138
  0
ARC
  5
11CC
330
A02
100
AcDbEntity
  8
Body
100
AcDbCircle
 10
112.709
 20
101.483
 30
0
 40
5.1435
100
AcDbArc
 50
-138
 51
-84
  0
LINE
  5
11CD
330
A02
100
AcDbEntity
  8
Body
100
AcDbLine
 10
113.246
 20
96.368
 30
0
 11
117.059
 21
97.3563
 31
0
  0
ARC
  5
11CE
330
A02
100
AcDbEntity
  8
Body
100
AcDbCircle
 10
122.949
 20
85.4635
 30
0
 40
13.2715
100
AcDbArc
 50
109.785
 51
116.348
  0
ARC
  5
11CF
330
A02
100
AcDbEntity
  8
Body
100
AcDbCircle
 10
121.66
 20
90.4291
 30
0
 40
8.17611
100
AcDbArc
 50
89.254
 51
113.067
  0
ARC
  5
11D0
330
A02
100
AcDbEntity
  8
Body
100
AcDbCircle
 10
113.748
 20
100.2
 30
0
 40
8.17611
100
AcDbArc
 50
-35.0667
 51
-11.254
  0
LINE
  5
11D1
330
A02
100
AcDbEntity
  8
Body
100
AcDbLine
 10
120.44
 20
95.5028
 30
0
 11
119.567
 21
94.2593
 31
0
  0
ARC
  5
11D2
330
A02
100
AcDbEntity
  8
Body
100
AcDbCircle
 10
130.429
 20
86.6344
 30
0
 40
13.2715
100
AcDbArc
 50
144.933
 51
162
  0
ARC
  5
11D3
330
A02
100
AcDbEntity
  8
Body
100
AcDbCircle
 10
122.699
 20
89.1461
 30
0
 40
5.1435
100
AcDbArc
 50
162
 51
-144
  0
ARC
  5
11D4
330
A02
100
AcDbEntity
  8
Body
100
AcDbCircle
 10
122.699
 20
89.1461
 30
0
 40
5.1435
100
AcDbArc
 50
-144
 51
-90
  0
LINE
  5
11D5
330
A02
100
AcDbEntity
  8
Body
100
AcDbLine
 10
122.699
 20
84.0026
 30
0
 11
126.594
 21
84.587
 31
0
  0
ARC
  5
11D6
330
A02
100
AcDbEntity
  8
Body
100
AcDbCircle
 10
131.209
 20
72.1437
 30
0
 40
13.2715
100
AcDbArc
 50
103.785
 51
110.348
  0
ARC
  5
11D7
330
A02
100
AcDbEntity
  8
Body
100
AcDbCircle
 10
130.446
 20
77.2168
 30
0
 40
8.17611
100
AcDbArc
 50
83.254
 51
107.067
  0
ARC
  5
11D8
330
A02
100
AcDbEntity
  8
Body
100
AcDbCircle
 10
123.598
 20
87.7614
 30
0
 40
8.17611
100
AcDbArc
 50
-41.0667
 51
-17.254
  0
LINE
  5
11D9
330
A02
100
AcDbEntity
  8
Body
100
AcDbLine
 10
129.763
 20
82.3902
 30
0
 11
128.765
 21
81.2448
 31
0
  0
ARC
  5
11DA
330
A02
100
AcDbEntity
  8
Body
100
AcDbCircle
 10
138.77
 20
72.5262
 30
0
 40
13.2715
100
AcDbArc
 50
138.933
 51
156
  0
ARC
  5
11DB
330
A02
100
AcDbEntity
  8
Body
100
AcDbCircle
 10
131.345
 20
75.8322
 30
0
 40
5.1435
100
AcDbArc
 50
156
 51
-150
  0
ARC
  5
11DC
330
A02
100
AcDbEntity
  8
Body
100
AcDbCircle
 10
131.345
 20
75.8322
 30
0
 40
5.1435
100
AcDbArc
 50
-150
 51
-96
  0
LINE
  5
11DD
330
A02
100
AcDbEntity
  8
Body
100
AcDbLine
 10
130.808
 20
70.7169
 30
0
 11
134.742
 21
70.891
 31
0
  0
ARC
  5
11DE
330
A02
100
AcDbEntity
  8
Body
100
AcDbCircle
 10
138.031
 20
58.0334
 30
0
 40
13.2715
100
AcDbArc
 50
97.7853
 51
104.348
  0
ARC
  5
11DF
330
A02
100
AcDbEntity
  8
Body
100
AcDbCircle
 10
137.803
 20
63.1585
 30
0
 40
8.17611
100
AcDbArc
 50
77.254
 51
101.067
  0
ARC
  5
11E0
330
A02
100
AcDbEntity
  8
Body
100
AcDbCircle
 10
132.095
 20
74.3611
 30
0
 40
8.17611
100
AcDbArc
 50
-47.0667
 51
-23.254
  0
LINE
  5
11E1
330
A02
100
AcDbEntity
  8
Body
100
AcDbLine
 10
137.664
 20
68.375
 30
0
 11
136.552
 21
67.3401
 31
0
  0
ARC
  5
11E2
330
A02
100
AcDbEntity
  8
Body
100
AcDbCircle
 10
145.591
 20
57.6235
 30
0
 40
13.2715
100
AcDbArc
 50
132.933
 51
150
  0
ARC
  5
11E3
330
A02
100
AcDbEntity
  8
Body
100
AcDbCircle
 10
138.552
 20
61.6875
 30
0
 40
5.1435
100
AcDbArc
 50
150
 51
-156
  0
ARC
  5
11E4
330
A02
100
AcDbEntity
  8
Body
100
AcDbCircle
 10
138.552
 20
61.6875
 30
0
 40
5.1435
100
AcDbArc
 50
-156
 51
-102
  0
LINE
  5
11E5
330
A02
100
AcDbEntity
  8
Body
100
AcDbLine
 10
137.483
 20
56.6564
 30
0
 11
141.414
 21
56.4182
 31
0
  0
ARC
  5
11E6
330
A02
100
AcDbEntity
  8
Body
100
AcDbCircle
 10
143.341
 20
43.2873
 30
0
 40
13.2715
100
AcDbArc
 50
91.7853
 51
98.3481
  0
ARC
  5
11E7
330
A02
100
AcDbEntity
  8
Body
100
AcDbCircle
 10
143.65
 20
48.4082
 30
0
 40
8.17611
100
AcDbArc
 50
71.254
 51
95.0667
  0
ARC
  5
11E8
330
A02
100
AcDbEntity
  8
Body
100
AcDbCircle
 10
139.144
 20
60.1461
 30
0
 40
8.17611
100
AcDbArc
 50
-53.0667
 51
-29.254
  0
LINE
  5
11E9
330
A02
100
AcDbEntity
  8
Body
100
AcDbLine
 10
144.057
 20
53.6107
 30
0
 11
142.842
 21
52.6977
 31
0
  0
ARC
  5
11EA
330
A02
100
AcDbEntity
  8
Body
100
AcDbCircle
 10
150.817
 20
42.0894
 30
0
 40
13.2715
100
AcDbArc
 50
126.933
 51
144
  0
ARC
  5
11EB
330
A02
100
AcDbEntity
  8
Body
100
AcDbCircle
 10
144.241
 20
46.8669
 30
0
 40
5.1435
100
AcDbArc
 50
144
 51
-162
  0
ARC
  5
11EC
330
A02
100
AcDbEntity
  8
Body
100
AcDbCircle
 10
144.241
 20
46.8669
 30
0
 40
5.1435
100
AcDbArc
 50
-162
 51
-108
  0
LINE
  5
11ED
330
A02
100
AcDbEntity
  8
Body
100
AcDbLine
 10
142.652
 20
41.9751
 30
0
 11
146.537
 21
41.3273
 31
0
  0
ARC
  5
11EE
330
A02
100
AcDbEntity
  8
Body
100
AcDbCircle
 10
147.081
 20
28.067
 30
0
 40
13.2715
100
AcDbArc
 50
85.7853
 51
92.3481
  0
ARC
  5
11EF
330
A02
100
AcDbEntity
  8
Body
100
AcDbCircle
 10
147.923
 20
33.1275
 30
0
 40
8.17611
100
AcDbArc
 50
65.254
 51
89.0667
  0
ARC
  5
11F0
330
A02
100
AcDbEntity
  8
Body
100
AcDbCircle
 10
144.669
 20
45.2721
 30
0
 40
8.17611
100
AcDbArc
 50
-59.0667
 51
-35.254
  0
LINE
  5
11F1
330
A02
100
AcDbEntity
  8
Body
100
AcDbLine
 10
148.872
 20
38.2589
 30
0
 11
147.568
 21
37.4779
 31
0
  0
ARC
  5
11F2
330
A02
100
AcDbEntity
  8
Body
100
AcDbCircle
 10
154.39
 20
26.0941
 30
0
 40
13.2715
100
AcDbArc
 50
120.933
 51
138
  0
ARC
  5
11F3
330
A02
100
AcDbEntity
  8
Body
100
AcDbCircle
 10
148.35
 20
31.5328
 30
0
 40
5.1435
100
AcDbArc
 50
138
 51
-168
  0
ARC
  5
11F4
330
A02
100
AcDbEntity
  8
Body
100
AcDbCircle
 10
148.35
 20
31.5328
 30
0
 40
5.1435
100
AcDbArc
 50
-168
 51
-114
  0
LINE
  5
11F5
330
A02
100
AcDbEntity
  8
Body
100
AcDbLine
 10
146.258
 20
26.834
 30
0
 11
150.054
 21
25.7836
 31
0
  0
ARC
  5
11F6
330
A02
100
AcDbEntity
  8
Body
100
AcDbCircle
 10
149.209
 20
12.5391
 30
0
 40
13.2715
100
AcDbArc
 50
79.7853
 51
86.3481
  0
ARC
  5
11F7
330
A02
100
AcDbEntity
  8
Body
100
AcDbCircle
 10
150.575
 20
17.4839
 30
0
 40
8.17611
100
AcDbArc
 50
59.254
 51
83.0667
  0
ARC
  5
11F8
330
A02
100
AcDbEntity
  8
Body
100
AcDbCircle
 10
148.608
 20
29.9021
 30
0
 40
8.17611
100
AcDbArc
 50
-65.0667
 51
-41.254
  0
LINE
  5
11F9
330
A02
100
AcDbEntity
  8
Body
100
AcDbLine
 10
152.055
 20
22.488
 30
0
 11
150.677
 21
21.8475
 31
0
  0
ARC
  5
11FA
330
A02
100
AcDbEntity
  8
Body
100
AcDbCircle
 10
156.272
 20
9.81296
 30
0
 40
13.2715
100
AcDbArc
 50
114.933
 51
132
  0
ARC
  5
11FB
330
A02
100
AcDbEntity
  8
Body
100
AcDbCircle
 10
150.834
 20
15.8532
 30
0
 40
5.1435
100
AcDbArc
 50
132
 51
-174
  0
ARC
  5
11FC
330
A02
100
AcDbEntity
  8
Body
100
AcDbCircle
 10
150.834
 20
15.8532
 30
0
 40
5.1435
100
AcDbArc
 50
-174
 51
-120
  0
LINE
  5
11FD
330
A02
100
AcDbEntity
  8
Body
100
AcDbLine
 10
148.262
 20
11.3988
 30
0
 11
151.927
 21
9.95748
 31
0
  0
ARC
  5
11FE
330
A02
100
AcDbEntity
  8
Body
100
AcDbCircle
 10
149.702
 20
-3.12615
 30
0
 40
13.2715
100
AcDbArc
 50
73.7853
 51
80.3481
  0
ARC
  5
11FF
330
A02
100
AcDbEntity
  8
Body
100
AcDbCircle
 10
151.578
 20
1.64874
 30
0
 40
8.17611
100
AcDbArc
 50
53.254
 51
77.0667
  0
ARC
  5
1200
330
A02
100
AcDbEntity
  8
Body
100
AcDbCircle
 10
150.92
 20
14.2045
 30
0
 40
8.17611
100
AcDbArc
 50
-71.0667
 51
-47.254
  0
LINE
  5
1201
330
A02
100
AcDbEntity
  8
Body
100
AcDbLine
 10
153.573
 20
6.47075
 30
0
 11
152.136
 21
5.97778
 31
0
  0
ARC
  5
1202
330
A02
100
AcDbEntity
  8
Body
100
AcDbCircle
 10
156.442
 20
-6.57569
 30
0
 40
13.2715
100
AcDbArc
 50
108.933
 51
126
  0
ARC
  5
1203
330
A02
100
AcDbEntity
  8
Body
100
AcDbCircle
 10
151.664
 20
6.77236e-15
 30
0
 40
5.1435
100
AcDbArc
 50
126
 51
-180
  0
ARC
  5
1204
330
A02
100
AcDbEntity
  8
Body
100
AcDbCircle
 10
151.664
 20
-5.67324e-14
 30
0
 40
5.1435
100
AcDbArc
 50
180
 51
-126
  0
LINE
  5
1205
330
A02
100
AcDbEntity
  8
Body
100
AcDbLine
 10
148.641
 20
-4.16118
 30
0
 11
152.136
 21
-5.97778
 31
0
  0
ARC
  5
1206
330
A02
100
AcDbEntity
  8
Body
100
AcDbCircle
 10
148.555
 20
-18.7571
 30
0
 40
13.2715
100
AcDbArc
 50
67.7853
 51
74.3481
  0
ARC
  5
1207
330
A02
100
AcDbEntity
  8
Body
100
AcDbCircle
 10
150.92
 20
-14.2045
 30
0
 40
8.17611
100
AcDbArc
 50
47.254
 51
71.0667
  0
ARC
  5
1208
330
A02
100
AcDbEntity
  8
Body
100
AcDbCircle
 10
151.578
 20
-1.64874
 30
0
 40
8.17611
100
AcDbArc
 50
-77.0667
 51
-53.254
  0
LINE
  5
1209
330
A02
100
AcDbEntity
  8
Body
100
AcDbLine
 10
153.408
 20
-9.61743
 30
0
 11
151.927
 21
-9.95748
 31
0
  0
ARC
  5
120A
330
A02
100
AcDbEntity
  8
Body
100
AcDbCircle
 10
154.898
 20
-22.8923
 30
0
 40
13.2715
100
AcDbArc
 50
102.933
 51
120
  0
ARC
  5
120B
330
A02
100
AcDbEntity
  8
Body
100
AcDbCircle
 10
150.834
 20
-15.8532
 30
0
 40
5.1435
100
AcDbArc
 50
120
 51
174
  0
ARC
  5
120C
330
A02
100
AcDbEntity
  8
Body
100
AcDbCircle
 10
150.834
 20
-15.8532
 30
0
 40
5.1435
100
AcDbArc
 50
174
 51
-132
  0
LINE
  5
120D
330
A02
100
AcDbEntity
  8
Body
100
AcDbLine
 10
147.392
 20
-19.6756
 30
0
 11
150.677
 21
-21.8475
 31
0
  0
ARC
  5
120E
330
A02
100
AcDbEntity
  8
Body
100
AcDbCircle
 10
145.781
 20
-34.1826
 30
0
 40
13.2715
100
AcDbArc
 50
61.7853
 51
68.3481
  0
ARC
  5
120F
330
A02
100
AcDbEntity
  8
Body
100
AcDbCircle
 10
148.608
 20
-29.9021
 30
0
 40
8.17611
100
AcDbArc
 50
41.254
 51
65.0667
  0
ARC
  5
1210
330
A02
100
AcDbEntity
  8
Body
100
AcDbCircle
 10
150.575
 20
-17.4839
 30
0
 40
8.17611
100
AcDbArc
 50
-83.0667
 51
-59.254
  0
LINE
  5
1211
330
A02
100
AcDbEntity
  8
Body
100
AcDbLine
 10
151.562
 20
-25.6002
 30
0
 11
150.054
 21
-25.7836
 31
0
  0
ARC
  5
1212
330
A02
100
AcDbEntity
  8
Body
100
AcDbCircle
 10
151.656
 20
-38.9581
 30
0
 40
13.2715
100
AcDbArc
 50
96.9333
 51
114
  0
ARC
  5
1213
330
A02
100
AcDbEntity
  8
Body
100
AcDbCircle
 10
148.35
 20
-31.5328
 30
0
 40
5.1435
100
AcDbArc
 50
114
 51
168
  0
ARC
  5
1214
330
A02
100
AcDbEntity
  8
Body
100
AcDbCircle
 10
148.35
 20
-31.5328
 30
0
 40
5.1435
100
AcDbArc
 50
168
 51
-138
  0
LINE
  5
1215
330
A02
100
AcDbEntity
  8
Body
100
AcDbLine
 10
144.528
 20
-34.9745
 30
0
 11
147.568
 21
-37.4779
 31
0
  0
ARC
  5
1216
330
A02
100
AcDbEntity
  8
Body
100
AcDbCircle
 10
141.409
 20
-49.2336
 30
0
 40
13.2715
100
AcDbArc
 50
55.7853
 51
62.3481
  0
ARC
  5
1217
330
A02
100
AcDbEntity
  8
Body
100
AcDbCircle
 10
144.669
 20
-45.2721
 30
0
 40
8.17611
100
AcDbArc
 50
35.254
 51
59.0667
  0
ARC
  5
1218
330
A02
100
AcDbEntity
  8
Body
100
AcDbCircle
 10
147.923
 20
-33.1275
 30
0
 40
8.17611
100
AcDbArc
 50
-89.0667
 51
-65.254
  0
LINE
  5
1219
330
A02
100
AcDbEntity
  8
Body
100
AcDbLine
 10
148.056
 20
-41.3026
 30
0
 11
146.537
 21
-41.3273
 31
0
  0
ARC
  5
121A
330
A02
100
AcDbEntity
  8
Body
100
AcDbCircle
 10
146.753
 20
-54.5971
 30
0
 40
13.2715
100
AcDbArc
 50
90.9333
 51
108
  0
ARC
  5
121B
330
A02
100
AcDbEntity
  8
Body
100
AcDbCircle
 10
144.241
 20
-46.8669
 30
0
 40
5.1435
100
AcDbArc
 50
108
 51
162
  0
ARC
  5
121C
330
A02
100
AcDbEntity
  8
Body
100
AcDbCircle
 10
144.241
 20
-46.8669
 30
0
 40
5.1435
100
AcDbArc
 50
162
 51
-144
  0
LINE
  5
121D
330
A02
100
AcDbEntity
  8
Body
100
AcDbLine
 10
140.08
 20
-49.8901
 30
0
 11
142.842
 21
-52.6977
 31
0
  0
ARC
  5
121E
330
A02
100
AcDbEntity
  8
Body
100
AcDbCircle
 10
135.488
 20
-63.7452
 30
0
 40
13.2715
100
AcDbArc
 50
49.7853
 51
56.3481
  0
ARC
  5
121F
330
A02
100
AcDbEntity
  8
Body
100
AcDbCircle
 10
139.144
 20
-60.1461
 30
0
 40
8.17611
100
AcDbArc
 50
29.254
 51
53.0667
  0
ARC
  5
1220
330
A02
100
AcDbEntity
  8
Body
100
AcDbCircle
 10
143.65
 20
-48.4082
 30
0
 40
8.17611
100
AcDbArc
 50
-95.0667
 51
-71.254
  0
LINE
  5
1221
330
A02
100
AcDbEntity
  8
Body
100
AcDbLine
 10
142.928
 20
-56.5524
 30
0
 11
141.414
 21
-56.4182
 31
0
  0
ARC
  5
1222
330
A02
100
AcDbEntity
  8
Body
100
AcDbCircle
 10
140.242
 20
-69.6378
 30
0
 40
13.2715
100
AcDbArc
 50
84.9333
 51
102
  0
ARC
  5
1223
330
A02
100
AcDbEntity
  8
Body
100
AcDbCircle
 10
138.552
 20
-61.6875
 30
0
 40
5.1435
100
AcDbArc
 50
102
 51
156
  0
ARC
  5
1224
330
A02
100
AcDbEntity
  8
Body
100
AcDbCircle
 10
138.552
 20
-61.6875
 30
0
 40
5.1435
100
AcDbArc
 50
156
 51
-150
  0
LINE
  5
1225
330
A02
100
AcDbEntity
  8
Body
100
AcDbLine
 10
134.098
 20
-64.2592
 30
0
 11
136.552
 21
-67.3401
 31
0
  0
ARC
  5
1226
330
A02
100
AcDbEntity
  8
Body
100
AcDbCircle
 10
128.083
 20
-77.5583
 30
0
 40
13.2715
100
AcDbArc
 50
43.7853
 51
50.3481
  0
ARC
  5
1227
330
A02
100
AcDbEntity
  8
Body
100
AcDbCircle
 10
132.095
 20
-74.3611
 30
0
 40
8.17611
100
AcDbArc
 50
23.254
 51
47.0667
  0
ARC
  5
1228
330
A02
100
AcDbEntity
  8
Body
100
AcDbCircle
 10
137.803
 20
-63.1585
 30
0
 40
8.17611
100
AcDbArc
 50
-101.067
 51
-77.254
  0
LINE
  5
1229
330
A02
100
AcDbEntity
  8
Body
100
AcDbLine
 10
136.233
 20
-71.1826
 30
0
 11
134.742
 21
-70.891
 31
0
  0
ARC
  5
122A
330
A02
100
AcDbEntity
  8
Body
100
AcDbCircle
 10
132.195
 20
-83.9157
 30
0
 40
13.2715
100
AcDbArc
 50
78.9333
 51
96
  0
ARC
  5
122B
330
A02
100
AcDbEntity
  8
Body
100
AcDbCircle
 10
131.345
 20
-75.8322
 30
0
 40
5.1435
100
AcDbArc
 50
96
 51
150
  0
ARC
  5
122C
330
A02
100
AcDbEntity
  8
Body
100
AcDbCircle
 10
131.345
 20
-75.8322
 30
0
 40
5.1435
100
AcDbArc
 50
150
 51
-156
  0
LINE
  5
122D
330
A02
100
AcDbEntity
  8
Body
100
AcDbLine
 10
126.646
 20
-77.9242
 30
0
 11
128.765
 21
-81.2448
 31
0
  0
ARC
  5
122E
330
A02
100
AcDbEntity
  8
Body
100
AcDbCircle
 10
119.274
 20
-90.5217
 30
0
 40
13.2715
100
AcDbArc
 50
37.7853
 51
44.3481
  0
ARC
  5
122F
330
A02
100
AcDbEntity
  8
Body
100
AcDbCircle
 10
123.598
 20
-87.7614
 30
0
 40
8.17611
100
AcDbArc
 50
17.254
 51
41.0667
  0
ARC
  5
1230
330
A02
100
AcDbEntity
  8
Body
100
AcDbCircle
 10
130.446
 20
-77.2168
 30
0
 40
8.17611
100
AcDbArc
 50
-107.067
 51
-83.254
  0
LINE
  5
1231
330
A02
100
AcDbEntity
  8
Body
100
AcDbLine
 10
128.046
 20
-85.0329
 30
0
 11
126.594
 21
-84.587
 31
0
  0
ARC
  5
1232
330
A02
100
AcDbEntity
  8
Body
100
AcDbCircle
 10
122.699
 20
-97.2741
 30
0
 40
13.2715
100
AcDbArc
 50
72.9333
 51
90
  0
ARC
  5
1233
330
A02
100
AcDbEntity
  8
Body
100
AcDbCircle
 10
122.699
 20
-89.1461
 30
0
 40
5.1435
100
AcDbArc
 50
90
 51
144
  0
ARC
  5
1234
330
A02
100
AcDbEntity
  8
Body
100
AcDbCircle
 10
122.699
 20
-89.1461
 30
0
 40
5.1435
100
AcDbArc
 50
144
 51
-162
  0
LINE
  5
1235
330
A02
100
AcDbEntity
  8
Body
100
AcDbLine
 10
117.807
 20
-90.7355
 30
0
 11
119.567
 21
-94.2593
 31
0
  0
ARC
  5
1236
330
A02
100
AcDbEntity
  8
Body
100
AcDbCircle
 10
109.158
 20
-102.493
 30
0
 40
13.2715
100
AcDbArc
 50
31.7853
 51
38.3481
  0
ARC
  5
1237
330
A02
100
AcDbEntity
  8
Body
100
AcDbCircle
 10
113.748
 20
-100.2
 30
0
 40
8.17611
100
AcDbArc
 50
11.254
 51
35.0667
  0
ARC
  5
1238
330
A02
100
AcDbEntity
  8
Body
100
AcDbCircle
 10
121.66
 20
-90.4291
 30
0
 40
8.17611
100
AcDbArc
 50
-113.067
 51
-89.254
  0
LINE
  5
1239
330
A02
100
AcDbEntity
  8
Body
100
AcDbLine
 10
118.457
 20
-97.9516
 30
0
 11
117.059
 21
-97.3563
 31
0
  0
ARC
  5
123A
330
A02
100
AcDbEntity
  8
Body
100
AcDbCircle
 10
111.859
 20
-109.567
 30
0
 40
13.2715
100
AcDbArc
 50
66.9333
 51
84
  0
ARC
  5
123B
330
A02
100
AcDbEntity
  8
Body
100
AcDbCircle
 10
112.709
 20
-101.483
 30
0
 40
5.1435
100
AcDbArc
 50
84
 51
138
  0
ARC
  5
123C
330
A02
100
AcDbEntity
  8
Body
100
AcDbCircle
 10
112.709
 20
-101.483
 30
0
 40
5.1435
100
AcDbArc
 50
138
 51
-168
  0
LINE
  5
123D
330
A02
100
AcDbEntity
  8
Body
100
AcDbLine
 10
107.677
 20
-102.553
 30
0
 11
109.059
 21
-106.241
 31
0
  0
ARC
  5
123E
330
A02
100
AcDbEntity
  8
Body
100
AcDbCircle
 10
97.847
 20
-113.342
 30
0
 40
13.2715
100
AcDbArc
 50
25.7853
 51
32.3481
  0
ARC
  5
123F
330
A02
100
AcDbEntity
  8
Body
100
AcDbCircle
 10
102.651
 20
-111.541
 30
0
 40
8.17611
100
AcDbArc
 50
5.25396
 51
29.0667
  0
ARC
  5
1240
330
A02
100
AcDbEntity
  8
Body
100
AcDbCircle
 10
111.541
 20
-102.651
 30
0
 40
8.17611
100
AcDbArc
 50
-119.067
 51
-95.254
  0
LINE
  5
1241
330
A02
100
AcDbEntity
  8
Body
100
AcDbLine
 10
107.569
 20
-109.797
 30
0
 11
106.241
 21
-109.059
 31
0
  0
ARC
  5
1242
330
A02
100
AcDbEntity
  8
Body
100
AcDbCircle
 10
99.7934
 20
-120.659
 30
0
 40
13.2715
100
AcDbArc
 50
60.9333
 51
78
  0
ARC
  5
1243
330
A02
100
AcDbEntity
  8
Body
100
AcDbCircle
 10
101.483
 20
-112.709
 30
0
 40
5.1435
100
AcDbArc
 50
78
 51
132
  0
ARC
  5
1244
330
A02
100
AcDbEntity
  8
Body
100
AcDbCircle
 10
101.483
 20
-112.709
 30
0
 40
5.1435
100
AcDbArc
 50
132
 51
-174
  0
LINE
  5
1245
330
A02
100
AcDbEntity
  8
Body
100
AcDbLine
 10
96.368
 20
-113.246
 30
0
 11
97.3563
 21
-117.059
 31
0
  0
ARC
  5
1246
330
A02
100
AcDbEntity
  8
Body
100
AcDbCircle
 10
85.4635
 20
-122.949
 30
0
 40
13.2715
100
AcDbArc
 50
19.7853
 51
26.3481
  0
ARC
  5
1247
330
A02
100
AcDbEntity
  8
Body
100
AcDbCircle
 10
90.4291
 20
-121.66
 30
0
 40
8.17611
100
AcDbArc
 50
-0.746036
 51
23.0667
  0
ARC
  5
1248
330
A02
100
AcDbEntity
  8
Body
100
AcDbCircle
 10
100.2
 20
-113.748
 30
0
 40
8.17611
100
AcDbArc
 50
-125.067
 51
-101.254
  0
LINE
  5
1249
330
A02
100
AcDbEntity
  8
Body
100
AcDbLine
 10
95.5028
 20
-120.44
 30
0
 11
94.2593
 21
-119.567
 31
0
  0
ARC
  5
124A
330
A02
100
AcDbEntity
  8
Body
100
AcDbCircle
 10
86.6344
 20
-130.429
 30
0
 40
13.2715
100
AcDbArc
 50
54.9333
 51
72
  0
ARC
  5
124B
330
A02
100
AcDbEntity
  8
Body
100
AcDbCircle
 10
89.1461
 20
-122.699
 30
0
 40
5.1435
100
AcDbArc
 50
72
 51
126
  0
ARC
  5
124C
330
A02
100
AcDbEntity
  8
Body
100
AcDbCircle
 10
89.1461
 20
-122.699
 30
0
 40
5.1435
100
AcDbArc
 50
126
 51
180
  0
LINE
  5
124D
330
A02
100
AcDbEntity
  8
Body
100
AcDbLine
 10
84.0026
 20
-122.699
 30
0
 11
84.587
 21
-126.594
 31
0
  0
ARC
  5
124E
330
A02
100
AcDbEntity
  8
Body
100
AcDbCircle
 10
72.1437
 20
-131.209
 30
0
 40
13.2715
100
AcDbArc
 50
13.7853
 51
20.3481
  0
ARC
  5
124F
330
A02
100
AcDbEntity
  8
Body
100
AcDbCircle
 10
77.2168
 20
-130.446
 30
0
 40
8.17611
100
AcDbArc
 50
-6.74604
 51
17.0667
  0
ARC
  5
1250
330
A02
100
AcDbEntity
  8
Body
100
AcDbCircle
 10
87.7614
 20
-123.598
 30
0
 40
8.17611
100
AcDbArc
 50
-131.067
 51
-107.254
  0
LINE
  5
1251
330
A02
100
AcDbEntity
  8
Body
100
AcDbLine
 10
82.3902
 20
-129.763
 30
0
 11
81.2448
 21
-128.765
 31
0
  0
ARC
  5
1252
330
A02
100
AcDbEntity
  8
Body
100
AcDbCircle
 10
72.5262
 20
-138.77
 30
0
 40
13.2715
100
AcDbArc
 50
48.9333
 51
66
  0
ARC
  5
1253
330
A02
100
AcDbEntity
  8
Body
100
AcDbCircle
 10
75.8322
 20
-131.345
 30
0
 40
5.1435
100
AcDbArc
 50
66
 51
120
  0
ARC
  5
1254
330
A02
100
AcDbEntity
  8
Body
100
AcDbCircle
 10
75.8322
 20
-131.345
 30
0
 40
5.1435
100
AcDbArc
 50
120
 51
174
  0
LINE
  5
1255
330
A02
100
AcDbEntity
  8
Body
100
AcDbLine
 10
70.7169
 20
-130.808
 30
0
 11
70.891
 21
-134.742
 31
0
  0
ARC
  5
1256
330
A02
100
AcDbEntity
  8
Body
100
AcDbCircle
 10
58.0334
 20
-138.031
 30
0
 40
13.2715
100
AcDbArc
 50
7.78528
 51
14.3481
  0
ARC
  5
1257
330
A02
100
AcDbEntity
  8
Body
100
AcDbCircle
 10
63.1585
 20
-137.803
 30
0
 40
8.17611
100
AcDbArc
 50
-12.746
 51
11.0667
  0
ARC
  5
1258
330
A02
100
AcDbEntity
  8
Body
100
AcDbCircle
 10
74.3611
 20
-132.095
 30
0
 40
8.17611
100
AcDbArc
 50
-137.067
 51
-113.254
  0
LINE
  5
1259
330
A02
100
AcDbEntity
  8
Body
100
AcDbLine
 10
68.375
 20
-137.664
 30
0
 11
67.3401
 21
-136.552
 31
0
  0
ARC
  5
125A
330
A02
100
AcDbEntity
  8
Body
100
AcDbCircle
 10
57.6235
 20
-145.591
 30
0
 40
13.2715
100
AcDbArc
 50
42.9333
 51
60
  0
ARC
  5
125B
330
A02
100
AcDbEntity
  8
Body
100
AcDbCircle
 10
61.6875
 20
-138.552
 30
0
 40
5.1435
100
AcDbArc
 50
60
 51
114
  0
ARC
  5
125C
330
A02
100
AcDbEntity
  8
Body
100
AcDbCircle
 10
61.6875
 20
-138.552
 30
0
 40
5.1435
100
AcDbArc
 50
114
 51
168
  0
LINE
  5
125D
330
A02
100
AcDbEntity
  8
Body
100
AcDbLine
 10
56.6564
 20
-137.483
 30
0
 11
56.4182
 21
-141.414
 31
0
  0
ARC
  5
125E
330
A02
100
AcDbEntity
  8
Body
100
AcDbCircle
 10
43.2873
 20
-143.341
 30
0
 40
13.2715
100
AcDbArc
 50
1.78528
 51
8.34806
  0
ARC
  5
125F
330
A02
100
AcDbEntity
  8
Body
100
AcDbCircle
 10
48.4082
 20
-143.65
 30
0
 40
8.17611
100
AcDbArc
 50
-18.746
 51
5.06667
  0
ARC
  5
1260
330
A02
100
AcDbEntity
  8
Body
100
AcDbCircle
 10
60.1461
 20
-139.144
 30
0
 40
8.17611
100
AcDbArc
 50
-143.067
 51
-119.254
  0
LINE
  5
1261
330
A02
100
AcDbEntity
  8
Body
100
AcDbLine
 10
53.6107
 20
-144.057
 30
0
 11
52.6977
 21
-142.842
 31
0
  0
ARC
  5
1262
330
A02
100
AcDbEntity
  8
Body
100
AcDbCircle
 10
42.0894
 20
-150.817
 30
0
 40
13.2715
100
AcDbArc
 50
36.9333
 51
54
  0
ARC
  5
1263
330
A02
100
AcDbEntity
  8
Body
100
AcDbCircle
 10
46.8669
 20
-144.241
 30
0
 40
5.1435
100
AcDbArc
 50
54
 51
108
  0
ARC
  5
1264
330
A02
100
AcDbEntity
  8
Body
100
AcDbCircle
 10
46.8669
 20
-144.241
 30
0
 40
5.1435
100
AcDbArc
 50
108
 51
162
  0
LINE
  5
1265
330
A02
100
AcDbEntity
  8
Body
100
AcDbLine
 10
41.9751
 20
-142.652
 30
0
 11
41.3273
 21
-146.537
 31
0
  0
ARC
  5
1266
330
A02
100
AcDbEntity
  8
Body
100
AcDbCircle
 10
28.067
 20
-147.081
 30
0
 40
13.2715
100
AcDbArc
 50
-4.21472
 51
2.34806
  0
ARC
  5
1267
330
A02
100
AcDbEntity
  8
Body
100
AcDbCircle
 10
33.1275
 20
-147.923
 30
0
 40
8.17611
100
AcDbArc
 50
-24.746
 51
-0.933333
  0
ARC
  5
1268
330
A02
100
AcDbEntity
  8
Body
100
AcDbCircle
 10
45.2721
 20
-144.669
 30
0
 40
8.17611
100
AcDbArc
 50
-149.067
 51
-125.254
  0
LINE
  5
1269
330
A02
100
AcDbEntity
  8
Body
100
AcDbLine
 10
38.2589
 20
-148.872
 30
0
 11
37.4779
 21
-147.568
 31
0
  0
ARC
  5
126A
330
A02
100
AcDbEntity
  8
Body
100
AcDbCircle
 10
26.0941
 20
-154.39
 30
0
 40
13.2715
100
AcDbArc
 50
30.9333
 51
48
  0
ARC
  5
126B
330
A02
100
AcDbEntity
  8
Body
100
AcDbCircle
 10
31.5328
 20
-148.35
 30
0
 40
5.1435
100
AcDbArc
 50
48
 51
102
  0
ARC
  5
126C
330
A02
100
AcDbEntity
  8
Body
100
AcDbCircle
 10
31.5328
 20
-148.35
 30
0
 40
5.1435
100
AcDbArc
 50
102
 51
156
  0
LINE
  5
126D
330
A02
100
AcDbEntity
  8
Body
100
AcDbLine
 10
26.834
 20
-146.258
 30
0
 11
25.7836
 21
-150.054
 31
0
  0
ARC
  5
126E
330
A02
100
AcDbEntity
  8
Body
100
AcDbCircle
 10
12.5391
 20
-149.209
 30
0
 40
13.2715
100
AcDbArc
 50
-10.2147
 51
-3.65194
  0
ARC
  5
126F
330
A02
100
AcDbEntity
  8
Body
100
AcDbCircle
 10
17.4839
 20
-150.575
 30
0
 40
8.17611
100
AcDbArc
 50
-30.746
 51
-6.93333
  0
ARC
  5
1270
330
A02
100
AcDbEntity
  8
Body
100
AcDbCircle
 10
29.9021
 20
-148.608
 30
0
 40
8.17611
100
AcDbArc
 50
-155.067
 51
-131.254
  0
LINE
  5
1271
330
A02
100
AcDbEntity
  8
Body
100
AcDbLine
 10
22.488
 20
-152.055
 30
0
 11
21.8475
 21
-150.677
 31
0
  0
ARC
  5
1272
330
A02
100
AcDbEntity
  8
Body
100
AcDbCircle
 10
9.81296
 20
-156.272
 30
0
 40
13.2715
100
AcDbArc
 50
24.9333
 51
42
  0
ARC
  5
1273
330
A02
100
AcDbEntity
  8
Body
100
AcDbCircle
 10
15.8532
 20
-150.834
 30
0
 40
5.1435
100
AcDbArc
 50
42
 51
96
  0
ARC
  5
1274
330
A02
100
AcDbEntity
  8
Body
100
AcDbCircle
 10
15.8532
 20
-150.834
 30
0
 40
5.1435
100
AcDbArc
 50
96
 51
150
  0
LINE
  5
1275
330
A02
100
AcDbEntity
  8
Body
100
AcDbLine
 10
11.3988
 20
-148.262
 30
0
 11
9.95748
 21
-151.927
 31
0
  0
ARC
  5
1276
330
A02
100
AcDbEntity
  8
Body
100
AcDbCircle
 10
-3.12615
 20
-149.702
 30
0
 40
13.2715
100
AcDbArc
 50
-16.2147
 51
-9.65194
  0
ARC
  5
1277
330
A02
100
AcDbEntity
  8
Body
100
AcDbCircle
 10
1.64874
 20
-151.578
 30
0
 40
8.17611
100
AcDbArc
 50
-36.746
 51
-12.9333
  0
ARC
  5
1278
330
A02
100
AcDbEntity
  8
Body
100
AcDbCircle
 10
14.2045
 20
-150.92
 30
0
 40
8.17611
100
AcDbArc
 50
-161.067
 51
-137.254
  0
LINE
  5
1279
330
A02
100
AcDbEntity
  8
Body
100
AcDbLine
 10
6.47075
 20
-153.573
 30
0
 11
5.97778
 21
-152.136
 31
0
  0
ARC
  5
127A
330
A02
100
AcDbEntity
  8
Body
100
AcDbCircle
 10
-6.57569
 20
-156.442
 30
0
 40
13.2715
100
AcDbArc
 50
18.9333
 51
36
  0
ARC
  5
127B
330
A02
100
AcDbEntity
  8
Body
100
AcDbCircle
 10
-1.37668e-14
 20
-151.664
 30
0
 40
5.1435
100
AcDbArc
 50
36
 51
90
  0
ARC
  5
127C
330
A02
100
AcDbEntity
  8
Body
100
AcDbCircle
 10
-7.62723e-14
 20
-151.664
 30
0
 40
5.1435
100
AcDbArc
 50
90
 51
144
  0
LINE
  5
127D
330
A02
100
AcDbEntity
  8
Body
100
AcDbLine
 10
-4.16118
 20
-148.641
 30
0
 11
-5.97778
 21
-152.136
 31
0
  0
ARC
  5
127E
330
A02
100
AcDbEntity
  8
Body
100
AcDbCircle
 10
-18.7571
 20
-148.555
 30
0
 40
13.2715
100
AcDbArc
 50
-22.2147
 51
-15.6519
  0
ARC
  5
127F
330
A02
100
AcDbEntity
  8
Body
100
AcDbCircle
 10
-14.2045
 20
-150.92
 30
0
 40
8.17611
100
AcDbArc
 50
-42.746
 51
-18.9333
  0
ARC
  5
1280
330
A02
100
AcDbEntity
  8
Body
100
AcDbCircle
 10
-1.64874
 20
-151.578
 30
0
 40
8.17611
100
AcDbArc
 50
-167.067
 51
-143.254
  0
LINE
  5
1281
330
A02
100
AcDbEntity
  8
Body
100
AcDbLine
 10
-9.61743
 20
-153.408
 30
0
 11
-9.95748
 21
-151.927
 31
0
  0
ARC
  5
1282
330
A02
100
AcDbEntity
  8
Body
100
AcDbCircle
 10
-22.8923
 20
-154.898
 30
0
 40
13.2715
100
AcDbArc
 50
12.9333
 51
30
  0
ARC
  5
1283
330
A02
100
AcDbEntity
  8
Body
100
AcDbCircle
 10
-15.8532
 20
-150.834
 30
0
 40
5.1435
100
AcDbArc
 50
30
 51
84
  0
ARC
  5
1284
330
A02
100
AcDbEntity
  8
Body
100
AcDbCircle
 10
-15.8532
 20
-150.834
 30
0
 40
5.1435
100
AcDbArc
 50
84
 51
138
  0
LINE
  5
1285
330
A02
100
AcDbEntity
  8
Body
100
AcDbLine
 10
-19.6756
 20
-147.392
 30
0
 11
-21.8475
 21
-150.677
 31
0
  0
ARC
  5
1286
330
A02
100
AcDbEntity
  8
Body
100
AcDbCircle
 10
-34.1826
 20
-145.781
 30
0
 40
13.2715
100
AcDbArc
 50
-28.2147
 51
-21.6519
  0
ARC
  5
1287
330
A02
100
AcDbEntity
  8
Body
100
AcDbCircle
 10
-29.9021
 20
-148.608
 30
0
 40
8.17611
100
AcDbArc
 50
-48.746
 51
-24.9333
  0
ARC
  5
1288
330
A02
100
AcDbEntity
  8
Body
100
AcDbCircle
 10
-17.4839
 20
-150.575
 30
0
 40
8.17611
100
AcDbArc
 50
-173.067
 51
-149.254
  0
LINE
  5
1289
330
A02
100
AcDbEntity
  8
Body
100
AcDbLine
 10
-25.6002
 20
-151.562
 30
0
 11
-25.7836
 21
-150.054
 31
0
  0
ARC
  5
128A
330
A02
100
AcDbEntity
  8
Body
100
AcDbCircle
 10
-38.9581
 20
-151.656
 30
0
 40
13.2715
100
AcDbArc
 50
6.93333
 51
24
  0
ARC
  5
128B
330
A02
100
AcDbEntity
  8
Body
100
AcDbCircle
 10
-31.5328
 20
-148.35
 30
0
 40
5.1435
100
AcDbArc
 50
24
 51
78
  0
ARC
  5
128C
330
A02
100
AcDbEntity
  8
Body
100
AcDbCircle
 10
-31.5328
 20
-148.35
 30
0
 40
5.1435
100
AcDbArc
 50
78
 51
132
  0
LINE
  5
128D
330
A02
100
AcDbEntity
  8
Body
100
AcDbLine
 10
-34.9745
 20
-144.528
 30
0
 11
-37.4779
 21
-147.568
 31
0
  0
ARC
  5
128E
330
A02
100
AcDbEntity
  8
Body
100
AcDbCircle
 10
-49.2336
 20
-141.409
 30
0
 40
13.2715
100
AcDbArc
 50
-34.2147
 51
-27.6519
  0
ARC
  5
128F
330
A02
100
AcDbEntity
  8
Body
100
AcDbCircle
 10
-45.2721
 20
-144.669
 30
0
 40
8.17611
100
AcDbArc
 50
-54.746
 51
-30.9333
  0
ARC
  5
1290
330
A02
100
AcDbEntity
  8
Body
100
AcDbCircle
 10
-33.1275
 20
-147.923
 30
0
 40
8.17611
100
AcDbArc
 50
-179.067
 51
-155.254
  0
LINE
  5
1291
330
A02
100
AcDbEntity
  8
Body
100
AcDbLine
 10
-41.3026
 20
-148.056
 30
0
 11
-41.3273
 21
-146.537
 31
0
  0
ARC
  5
1292
330
A02
100
AcDbEntity
  8
Body
100
AcDbCircle
 10
-54.5971
 20
-146.753
 30
0
 40
13.2715
100
AcDbArc
 50
0.933333
 51
18
  0
ARC
  5
1293
330
A02
100
AcDbEntity
  8
Body
100
AcDbCircle
 10
-46.8669
 20
-144.241
 30
0
 40
5.1435
100
AcDbArc
 50
18
 51
72
  0
ARC
  5
1294
330
A02
100
AcDbEntity
  8
Body
100
AcDbCircle
 10
-46.8669
 20
-144.241
 30
0
 40
5.1435
100
AcDbArc
 50
72
 51
126
  0
LINE
  5
1295
330
A02
100
AcDbEntity
  8
Body
100
AcDbLine
 10
-49.8901
 20
-140.08
 30
0
 11
-52.6977
 21
-142.842
 31
0
  0
ARC
  5
1296
330
A02
100
AcDbEntity
  8
Body
100
AcDbCircle
 10
-63.7452
 20
-135.488
 30
0
 40
13.2715
100
AcDbArc
 50
-40.2147
 51
-33.6519
  0
ARC
  5
1297
330
A02
100
AcDbEntity
  8
Body
100
AcDbCircle
 10
-60.1461
 20
-139.144
 30
0
 40
8.17611
100
AcDbArc
 50
-60.746
 51
-36.9333
  0
ARC
  5
1298
330
A02
100
AcDbEntity
  8
Body
100
AcDbCircle
 10
-48.4082
 20
-143.65
 30
0
 40
8.17611
100
AcDbArc
 50
174.933
 51
-161.254
  0
LINE
  5
1299
330
A02
100
AcDbEntity
  8
Body
100
AcDbLine
 10
-56.5524
 20
-142.928
 30
0
 11
-56.4182
 21
-141.414
 31
0
  0
ARC
  5
129A
330
A02
100
AcDbEntity
  8
Body
100
AcDbCircle
 10
-69.6378
 20
-140.242
 30
0
 40
13.2715
100
AcDbArc
 50
-5.06667
 51
12
  0
ARC
  5
129B
330
A02
100
AcDbEntity
  8
Body
100
AcDbCircle
 10
-61.6875
 20
-138.552
 30
0
 40
5.1435
100
AcDbArc
 50
12
 51
66
  0
ARC
  5
129C
330
A02
100
AcDbEntity
  8
Body
100
AcDbCircle
 10
-61.6875
 20
-138.552
 30
0
 40
5.1435
100
AcDbArc
 50
66
 51
120
  0
LINE
  5
129D
330
A02
100
AcDbEntity
  8
Body
100
AcDbLine
 10
-64.2592
 20
-134.098
 30
0
 11
-67.3401
 21
-136.552
 31
0
  0
ARC
  5
129E
330
A02
100
AcDbEntity
  8
Body
100
AcDbCircle
 10
-77.5583
 20
-128.083
 30
0
 40
13.2715
100
AcDbArc
 50
-46.2147
 51
-39.6519
  0
ARC
  5
129F
330
A02
100
AcDbEntity
  8
Body
100
AcDbCircle
 10
-74.3611
 20
-132.095
 30
0
 40
8.17611
100
AcDbArc
 50
-66.746
 51
-42.9333
  0
ARC
  5
12A0
330
A02
100
AcDbEntity
  8
Body
100
AcDbCircle
 10
-63.1585
 20
-137.803
 30
0
 40
8.17611
100
AcDbArc
 50
168.933
 51
-167.254
  0
LINE
  5
12A1
330
A02
100
AcDbEntity
  8
Body
100
AcDbLine
 10
-71.1826
 20
-136.233
 30
0
 11
-70.891
 21
-134.742
 31
0
  0
ARC
  5
12A2
330
A02
100
AcDbEntity
  8
Body
100
AcDbCircle
 10
-83.9157
 20
-132.195
 30
0
 40
13.2715
100
AcDbArc
 50
-11.0667
 51
6
  0
ARC
  5
12A3
330
A02
100
AcDbEntity
  8
Body
100
AcDbCircle
 10
-75.8322
 20
-131.345
 30
0
 40
5.1435
100
AcDbArc
 50
6
 51
60
  0
ARC
  5
12A4
330
A02
100
AcDbEntity
  8
Body
100
AcDbCircle
 10
-75.8322
 20
-131.345
 30
0
 40
5.1435
100
AcDbArc
 50
60
 51
114
  0
LINE
  5
12A5
330
A02
100
AcDbEntity
  8
Body
100
AcDbLine
 10
-77.9242
 20
-126.646
 30
0
 11
-81.2448
 21
-128.765
 31
0
  0
ARC
  5
12A6
330
A02
100
AcDbEntity
  8
Body
100
AcDbCircle
 10
-90.5217
 20
-119.274
 30
0
 40
13.2715
100
AcDbArc
 50
-52.2147
 51
-45.6519
  0
ARC
  5
12A7
330
A02
100
AcDbEntity
  8
Body
100
AcDbCircle
 10
-87.7614
 20
-123.598
 30
0
 40
8.17611
100
AcDbArc
 50
-72.746
 51
-48.9333
  0
ARC
  5
12A8
330
A02
100
AcDbEntity
  8
Body
100
AcDbCircle
 10
-77.2168
 20
-130.446
 30
0
 40
8.17611
100
AcDbArc
 50
162.933
 51
-173.254
  0
LINE
  5
12A9
330
A02
100
AcDbEntity
  8
Body
100
AcDbLine
 10
-85.0329
 20
-128.046
 30
0
 11
-84.587
 21
-126.594
 31
0
  0
ARC
  5
12AA
330
A02
100
AcDbEntity
  8
Body
100
AcDbCircle
 10
-97.2741
 20
-122.699
 30
0
 40
13.2715
100
AcDbArc
 50
-17.0667
 51
-1.84053e-13
  0
ARC
  5
12AB
330
A02
100
AcDbEntity
  8
Body
100
AcDbCircle
 10
-89.1461
 20
-122.699
 30
0
 40
5.1435
100
AcDbArc
 50
3.16602e-13
 51
54
  0
ARC
  5
12AC
330
A02
100
AcDbEntity
  8
Body
100
AcDbCircle
 10
-89.1461
 20
-122.699
 30
0
 40
5.1435
100
AcDbArc
 50
54
 51
108
  0
LINE
  5
12AD
330
A02
100
AcDbEntity
  8
Body
100
AcDbLine
 10
-90.7355
 20
-117.807
 30
0
 11
-94.2593
 21
-119.567
 31
0
  0
ARC
  5
12AE
330
A02
100
AcDbEntity
  8
Body
100
AcDbCircle
 10
-102.493
 20
-109.158
 30
0
 40
13.2715
100
AcDbArc
 50
-58.2147
 51
-51.6519
  0
ARC
  5
12AF
330
A02
100
AcDbEntity
  8
Body
100
AcDbCircle
 10
-100.2
 20
-113.748
 30
0
 40
8.17611
100
AcDbArc
 50
-78.746
 51
-54.9333
  0
ARC
  5
12B0
330
A02
100
AcDbEntity
  8
Body
100
AcDbCircle
 10
-90.4291
 20
-121.66
 30
0
 40
8.17611
100
AcDbArc
 50
156.933
 51
-179.254
  0
LINE
  5
12B1
330
A02
100
AcDbEntity
  8
Body
100
AcDbLine
 10
-97.9516
 20
-118.457
 30
0
 11
-97.3563
 21
-117.059
 31
0
  0
ARC
  5
12B2
330
A02
100
AcDbEntity
  8
Body
100
AcDbCircle
 10
-109.567
 20
-111.859
 30
0
 40
13.2715
100
AcDbArc
 50
-23.0667
 51
-6
  0
ARC
  5
12B3
330
A02
100
AcDbEntity
  8
Body
100
AcDbCircle
 10
-101.483
 20
-112.709
 30
0
 40
5.1435
100
AcDbArc
 50
-6
 51
48
  0
ARC
  5
12B4
330
A02
100
AcDbEntity
  8
Body
100
AcDbCircle
 10
-101.483
 20
-112.709
 30
0
 40
5.1435
100
AcDbArc
 50
48
 51
102
  0
LINE
  5
12B5
330
A02
100
AcDbEntity
  8
Body
100
AcDbLine
 10
-102.553
 20
-107.677
 30
0
 11
-106.241
 21
-109.059
 31
0
  0
ARC
  5
12B6
330
A02
100
AcDbEntity
  8
Body
100
AcDbCircle
 10
-113.342
 20
-97.847
 30
0
 40
13.2715
100
AcDbArc
 50
-64.2147
 51
-57.6519
  0
ARC
  5
12B7
330
A02
100
AcDbEntity
  8
Body
100
AcDbCircle
 10
-111.541
 20
-102.651
 30
0
 40
8.17611
100
AcDbArc
 50
-84.746
 51
-60.9333
  0
ARC
  5
12B8
330
A02
100
AcDbEntity
  8
Body
100
AcDbCircle
 10
-102.651
 20
-111.541
 30
0
 40
8.17611
100
AcDbArc
 50
150.933
 51
174.746
  0
LINE
  5
12B9
330
A02
100
AcDbEntity
  8
Body
100
AcDbLine
 10
-109.797
 20
-107.569
 30
0
 11
-109.059
 21
-106.241
 31
0
  0
ARC
  5
12BA
330
A02
100
AcDbEntity
  8
Body
100
AcDbCircle
 10
-120.659
 20
-99.7934
 30
0
 40
13.2715
100
AcDbArc
 50
-29.0667
 51
-12
  0
ARC
  5
12BB
330
A02
100
AcDbEntity
  8
Body
100
AcDbCircle
 10
-112.709
 20
-101.483
 30
0
 40
5.1435
100
AcDbArc
 50
-12
 51
42
  0
ARC
  5
12BC
330
A02
100
AcDbEntity
  8
Body
100
AcDbCircle
 10
-112.709
 20
-101.483
 30
0
 40
5.1435
100
AcDbArc
 50
42
 51
96
  0
LINE
  5
12BD
330
A02
100
AcDbEntity
  8
Body
100
AcDbLine
 10
-113.246
 20
-96.368
 30
0
 11
-117.059
 21
-97.3563
 31
0
  0
ARC
  5
12BE
330
A02
100
AcDbEntity
  8
Body
100
AcDbCircle
 10
-122.949
 20
-85.4635
 30
0
 40
13.2715
100
AcDbArc
 50
-70.2147
 51
-63.6519
  0
ARC
  5
12BF
330
A02
100
AcDbEntity
  8
Body
100
AcDbCircle
 10
-121.66
 20
-90.4291
 30
0
 40
8.17611
100
AcDbArc
 50
-90.746
 51
-66.9333
  0
ARC
  5
12C0
330
A02
100
AcDbEntity
  8
Body
100
AcDbCircle
 10
-113.748
 20
-100.2
 30
0
 40
8.17611
100
AcDbArc
 50
144.933
 51
168.746
  0
LINE
  5
12C1
330
A02
100
AcDbEntity
  8
Body
100
AcDbLine
 10
-120.44
 20
-95.5028
 30
0
 11
-119.567
 21
-94.2593
 31
0
  0
ARC
  5
12C2
330
A02
100
AcDbEntity
  8
Body
100
AcDbCircle
 10
-130.429
 20
-86.6344
 30
0
 40
13.2715
100
AcDbArc
 50
-35.0667
 51
-18
  0
ARC
  5
12C3
330
A02
100
AcDbEntity
  8
Body
100
AcDbCircle
 10
-122.699
 20
-89.1461
 30
0
 40
5.1435
100
AcDbArc
 50
-18
 51
36
  0
ARC
  5
12C4
330
A02
100
AcDbEntity
  8
Body
100
AcDbCircle
 10
-122.699
 20
-89.1461
 30
0
 40
5.1435
100
AcDbArc
 50
36
 51
90
  0
LINE
  5
12C5
330
A02
100
AcDbEntity
  8
Body
100
AcDbLine
 10
-122.699
 20
-84.0026
 30
0
 11
-126.594
 21
-84.587
 31
0
  0
ARC
  5
12C6
330
A02
100
AcDbEntity
  8
Body
100
AcDbCircle
 10
-131.209
 20
-72.1437
 30
0
 40
13.2715
100
AcDbArc
 50
-76.2147
 51
-69.6519
  0
ARC
  5
12C7
330
A02
100
AcDbEntity
  8
Body
100
AcDbCircle
 10
-130.446
 20
-77.2168
 30
0
 40
8.17611
100
AcDbArc
 50
-96.746
 51
-72.9333
  0
ARC
  5
12C8
330
A02
100
AcDbEntity
  8
Body
100
AcDbCircle
 10
-123.598
 20
-87.7614
 30
0
 40
8.17611
100
AcDbArc
 50
138.933
 51
162.746
  0
LINE
  5
12C9
330
A02
100
AcDbEntity
  8
Body
100
AcDbLine
 10
-129.763
 20
-82.3902
 30
0
 11
-128.765
 21
-81.2448
 31
0
  0
ARC
  5
12CA
330
A02
100
AcDbEntity
  8
Body
100
AcDbCircle
 10
-138.77
 20
-72.5262
 30
0
 40
13.2715
100
AcDbArc
 50
-41.0667
 51
-24
  0
ARC
  5
12CB
330
A02
100
AcDbEntity
  8
Body
100
AcDbCircle
 10
-131.345
 20
-75.8322
 30
0
 40
5.1435
100
AcDbArc
 50
-24
 51
30
  0
ARC
  5
12CC
330
A02
100
AcDbEntity
  8
Body
100
AcDbCircle
 10
-131.345
 20
-75.8322
 30
0
 40
5.1435
100
AcDbArc
 50
30
 51
84
  0
LINE
  5
12CD
330
A02
100
AcDbEntity
  8
Body
100
AcDbLine
 10
-130.808
 20
-70.7169
 30
0
 11
-134.742
 21
-70.891
 31
0
  0
ARC
  5
12CE
330
A02
100
AcDbEntity
  8
Body
100
AcDbCircle
 10
-138.031
 20
-58.0334
 30
0
 40
13.2715
100
AcDbArc
 50
-82.2147
 51
-75.6519
  0
ARC
  5
12CF
330
A02
100
AcDbEntity
  8
Body
100
AcDbCircle
 10
-137.803
 20
-63.1585
 30
0
 40
8.17611
100
AcDbArc
 50
-102.746
 51
-78.9333
  0
ARC
  5
12D0
330
A02
100
AcDbEntity
  8
Body
100
AcDbCircle
 10
-132.095
 20
-74.3611
 30
0
 40
8.17611
100
AcDbArc
 50
132.933
 51
156.746
  0
LINE
  5
12D1
330
A02
100
AcDbEntity
  8
Body
100
AcDbLine
 10
-137.664
 20
-68.375
 30
0
 11
-136.552
 21
-67.3401
 31
0
  0
ARC
  5
12D2
330
A02
100
AcDbEntity
  8
Body
100
AcDbCircle
 10
-145.591
 20
-57.6235
 30
0
 40
13.2715
100
AcDbArc
 50
-47.0667
 51
-30
  0
ARC
  5
12D3
330
A02
100
AcDbEntity
  8
Body
100
AcDbCircle
 10
-138.552
 20
-61.6875
 30
0
 40
5.1435
100
AcDbArc
 50
-30
 51
24
  0
ARC
  5
12D4
330
A02
100
AcDbEntity
  8
Body
100
AcDbCircle
 10
-138.552
 20
-61.6875
 30
0
 40
5.1435
100
AcDbArc
 50
24
 51
78
  0
LINE
  5
12D5
330
A02
100
AcDbEntity
  8
Body
100
AcDbLine
 10
-137.483
 20
-56.6564
 30
0
 11
-141.414
 21
-56.4182
 31
0
  0
ARC
  5
12D6
330
A02
100
AcDbEntity
  8
Body
100
AcDbCircle
 10
-143.341
 20
-43.2873
 30
0
 40
13.2715
100
AcDbArc
 50
-88.2147
 51
-81.6519
  0
ARC
  5
12D7
330
A02
100
AcDbEntity
  8
Body
100
AcDbCircle
 10
-143.65
 20
-48.4082
 30
0
 40
8.17611
100
AcDbArc
 50
-108.746
 51
-84.9333
  0
ARC
  5
12D8
330
A02
100
AcDbEntity
  8
Body
100
AcDbCircle
 10
-139.144
 20
-60.1461
 30
0
 40
8.17611
100
AcDbArc
 50
126.933
 51
150.746
  0
LINE
  5
12D9
330
A02
100
AcDbEntity
  8
Body
100
AcDbLine
 10
-144.057
 20
-53.6107
 30
0
 11
-142.842
 21
-52.6977
 31
0
  0
ARC
  5
12DA
330
A02
100
AcDbEntity
  8
Body
100
AcDbCircle
 10
-150.817
 20
-42.0894
 30
0
 40
13.2715
100
AcDbArc
 50
-53.0667
 51
-36
  0
ARC
  5
12DB
330
A02
100
AcDbEntity
  8
Body
100
AcDbCircle
 10
-144.241
 20
-46.8669
 30
0
 40
5.1435
100
AcDbArc
 50
-36
 51
18
  0
ARC
  5
12DC
330
A02
100
AcDbEntity
  8
Body
100
AcDbCircle
 10
-144.241
 20
-46.8669
 30
0
 40
5.1435
100
AcDbArc
 50
18
 51
72
  0
LINE
  5
12DD
330
A02
100
AcDbEntity
  8
Body
100
AcDbLine
 10
-142.652
 20
-41.9751
 30
0
 11
-146.537
 21
-41.3273
 31
0
  0
ARC
  5
12DE
330
A02
100
AcDbEntity
  8
Body
100
AcDbCircle
 10
-147.081
 20
-28.067
 30
0
 40
13.2715
100
AcDbArc
 50
-94.2147
 51
-87.6519
  0
ARC
  5
12DF
330
A02
100
AcDbEntity
  8
Body
100
AcDbCircle
 10
-147.923
 20
-33.1275
 30
0
 40
8.17611
100
AcDbArc
 50
-114.746
 51
-90.9333
  0
ARC
  5
12E0
330
A02
100
AcDbEntity
  8
Body
100
AcDbCircle
 10
-144.669
 20
-45.2721
 30
0
 40
8.17611
100
AcDbArc
 50
120.933
 51
144.746
  0
LINE
  5
12E1
330
A02
100
AcDbEntity
  8
Body
100
AcDbLine
 10
-148.872
 20
-38.2589
 30
0
 11
-147.568
 21
-37.4779
 31
0
  0
ARC
  5
12E2
330
A02
100
AcDbEntity
  8
Body
100
AcDbCircle
 10
-154.39
 20
-26.0941
 30
0
 40
13.2715
100
AcDbArc
 50
-59.0667
 51
-42
  0
ARC
  5
12E3
330
A02
100
AcDbEntity
  8
Body
100
AcDbCircle
 10
-148.35
 20
-31.5328
 30
0
 40
5.1435
100
AcDbArc
 50
-42
 51
12
  0
ARC
  5
12E4
330
A02
100
AcDbEntity
  8
Body
100
AcDbCircle
 10
-148.35
 20
-31.5328
 30
0
 40
5.1435
100
AcDbArc
 50
12
 51
66
  0
LINE
  5
12E5
330
A02
100
AcDbEntity
  8
Body
100
AcDbLine
 10
-146.258
 20
-26.834
 30
0
 11
-150.054
 21
-25.7836
 31
0
  0
ARC
  5
12E6
330
A02
100
AcDbEntity
  8
Body
100
AcDbCircle
 10
-149.209
 20
-12.5391
 30
0
 40
13.2715
100
AcDbArc
 50
-100.215
 51
-93.6519
  0
ARC
  5
12E7
330
A02
100
AcDbEntity
  8
Body
100
AcDbCircle
 10
-150.575
 20
-17.4839
 30
0
 40
8.17611
100
AcDbArc
 50
-120.746
 51
-96.9333
  0
ARC
  5
12E8
330
A02
100
AcDbEntity
  8
Body
100
AcDbCircle
 10
-148.608
 20
-29.9021
 30
0
 40
8.17611
100
AcDbArc
 50
114.933
 51
138.746
  0
LINE
  5
12E9
330
A02
100
AcDbEntity
  8
Body
100
AcDbLine
 10
-152.055
 20
-22.488
 30
0
 11
-150.677
 21
-21.8475
 31
0
  0
ARC
  5
12EA
330
A02
100
AcDbEntity
  8
Body
100
AcDbCircle
 10
-156.272
 20
-9.81296
 30
0
 40
13.2715
100
AcDbArc
 50
-65.0667
 51
-48
  0
ARC
  5
12EB
330
A02
100
AcDbEntity
  8
Body
100
AcDbCircle
 10
-150.834
 20
-15.8532
 30
0
 40
5.1435
100
AcDbArc
 50
-48
 51
6
  0
ARC
  5
12EC
330
A02
100
AcDbEntity
  8
Body
100
AcDbCircle
 10
-150.834
 20
-15.8532
 30
0
 40
5.1435
100
AcDbArc
 50
6
 51
60
  0
LINE
  5
12ED
330
A02
100
AcDbEntity
  8
Body
100
AcDbLine
 10
-148.262
 20
-11.3988
 30
0
 11
-151.927
 21
-9.95748
 31
0
  0
ARC
  5
12EE
330
A02
100
AcDbEntity
  8
Body
100
AcDbCircle
 10
-149.702
 20
3.12615
 30
0
 40
13.2715
100
AcDbArc
 50
-106.215
 51
-99.6519
  0
ARC
  5
12EF
330
A02
100
AcDbEntity
  8
Body
100
AcDbCircle
 10
-151.578
 20
-1.64874
 30
0
 40
8.17611
100
AcDbArc
 50
-126.746
 51
-102.933
  0
ARC
  5
12F0
330
A02
100
AcDbEntity
  8
Body
100
AcDbCircle
 10
-150.92
 20
-14.2045
 30
0
 40
8.17611
100
AcDbArc
 50
108.933
 51
132.746
  0
LINE
  5
12F1
330
A02
100
AcDbEntity
  8
Body
100
AcDbLine
 10
-153.573
 20
-6.47075
 30
0
 11
-152.136
 21
-5.97778
 31
0
  0
ARC
  5
12F2
330
A02
100
AcDbEntity
  8
Body
100
AcDbCircle
 10
-156.442
 20
6.57569
 30
0
 40
13.2715
100
AcDbArc
 50
-71.0667
 51
-54
  0
ARC
  5
12F3
330
A02
100
AcDbEntity
  8
Body
100
AcDbCircle
 10
-151.664
 20
-6.09512e-14
 30
0
 40
5.1435
100
AcDbArc
 50
-54
 51
3.71018e-13
  0
ARC
  5
12F4
330
A02
100
AcDbEntity
  8
Body
100
AcDbCircle
 10
-151.664
 20
3.21965e-15
 30
0
 40
5.1435
100
AcDbArc
 50
-3.35688e-13
 51
54
  0
LINE
  5
12F5
330
A02
100
AcDbEntity
  8
Body
100
AcDbLine
 10
-148.641
 20
4.16118
 30
0
 11
-152.136
 21
5.97778
 31
0
  0
ARC
  5
12F6
330
A02
100
AcDbEntity
  8
Body
100
AcDbCircle
 10
-148.555
 20
18.7571
 30
0
 40
13.2715
100
AcDbArc
 50
-112.215
 51
-105.652
  0
ARC
  5
12F7
330
A02
100
AcDbEntity
  8
Body
100
AcDbCircle
 10
-150.92
 20
14.2045
 30
0
 40
8.17611
100
AcDbArc
 50
-132.746
 51
-108.933
  0
ARC
  5
12F8
330
A02
100
AcDbEntity
  8
Body
100
AcDbCircle
 10
-151.578
 20
1.64874
 30
0
 40
8.17611
100
AcDbArc
 50
102.933
 51
126.746
  0
LINE
  5
12F9
330
A02
100
AcDbEntity
  8
Body
100
AcDbLine
 10
-153.408
 20
9.61743
 30
0
 11
-151.927
 21
9.95748
 31
0
  0
ARC
  5
12FA
330
A02
100
AcDbEntity
  8
Body
100
AcDbCircle
 10
-154.898
 20
22.8923
 30
0
 40
13.2715
100
AcDbArc
 50
-77.0667
 51
-60
  0
ARC
  5
12FB
330
A02
100
AcDbEntity
  8
Body
100
AcDbCircle
 10
-150.834
 20
15.8532
 30
0
 40
5.1435
100
AcDbArc
 50
-60
 51
-6
  0
ARC
  5
12FC
330
A02
100
AcDbEntity
  8
Body
100
AcDbCircle
 10
-150.834
 20
15.8532
 30
0
 40
5.1435
100
AcDbArc
 50
-6
 51
48
  0
LINE
  5
12FD
330
A02
100
AcDbEntity
  8
Body
100
AcDbLine
 10
-147.392
 20
19.6756
 30
0
 11
-150.677
 21
21.8475
 31
0
  0
ARC
  5
12FE
330
A02
100
AcDbEntity
  8
Body
100
AcDbCircle
 10
-145.781
 20
34.1826
 30
0
 40
13.2715
100
AcDbArc
 50
-118.215
 51
-111.652
  0
ARC
  5
12FF
330
A02
100
AcDbEntity
  8
Body
100
AcDbCircle
 10
-148.608
 20
29.9021
 30
0
 40
8.17611
100
AcDbArc
 50
-138.746
 51
-114.933
  0
ARC
  5
1300
330
A02
100
AcDbEntity
  8
Body
100
AcDbCircle
 10
-150.575
 20
17.4839
 30
0
 40
8.17611
100
AcDbArc
 50
96.9333
 51
120.746
  0
LINE
  5
1301
330
A02
100
AcDbEntity
  8
Body
100
AcDbLine
 10
-151.562
 20
25.6002
 30
0
 11
-150.054
 21
25.7836
 31
0
  0
ARC
  5
1302
330
A02
100
AcDbEntity
  8
Body
100
AcDbCircle
 10
-151.656
 20
38.9581
 30
0
 40
13.2715
100
AcDbArc
 50
-83.0667
 51
-66
  0
ARC
  5
1303
330
A02
100
AcDbEntity
  8
Body
100
AcDbCircle
 10
-148.35
 20
31.5328
 30
0
 40
5.1435
100
AcDbArc
 50
-66
 51
-12
  0
ARC
  5
1304
330
A02
100
AcDbEntity
  8
Body
100
AcDbCircle
 10
-148.35
 20
31.5328
 30
0
 40
5.1435
100
AcDbArc
 50
-12
 51
42
  0
LINE
  5
1305
330
A02
100
AcDbEntity
  8
Body
100
AcDbLine
 10
-144.528
 20
34.9745
 30
0
 11
-147.568
 21
37.4779
 31
0
  0
ARC
  5
1306
330
A02
100
AcDbEntity
  8
Body
100
AcDbCircle
 10
-141.409
 20
49.2336
 30
0
 40
13.2715
100
AcDbArc
 50
-124.215
 51
-117.652
  0
ARC
  5
1307
330
A02
100
AcDbEntity
  8
Body
100
AcDbCircle
 10
-144.669
 20
45.2721
 30
0
 40
8.17611
100
AcDbArc
 50
-144.746
 51
-120.933
  0
ARC
  5
1308
330
A02
100
AcDbEntity
  8
Body
100
AcDbCircle
 10
-147.923
 20
33.1275
 30
0
 40
8.17611
100
AcDbArc
 50
90.9333
 51
114.746
  0
LINE
  5
1309
330
A02
100
AcDbEntity
  8
Body
100
AcDbLine
 10
-148.056
 20
41.3026
 30
0
 11
-146.537
 21
41.3273
 31
0
  0
ARC
  5
130A
330
A02
100
AcDbEntity
  8
Body
100
AcDbCircle
 10
-146.753
 20
54.5971
 30
0
 40
13.2715
100
AcDbArc
 50
-89.0667
 51
-72
  0
ARC
  5
130B
330
A02
100
AcDbEntity
  8
Body
100
AcDbCircle
 10
-144.241
 20
46.8669
 30
0
 40
5.1435
100
AcDbArc
 50
-72
 51
-18
  0
ARC
  5
130C
330
A02
100
AcDbEntity
  8
Body
100
AcDbCircle
 10
-144.241
 20
46.8669
 30
0
 40
5.1435
100
AcDbArc
 50
-18
 51
36
  0
LINE
  5
130D
330
A02
100
AcDbEntity
  8
Body
100
AcDbLine
 10
-140.08
 20
49.8901
 30
0
 11
-142.842
 21
52.6977
 31
0
  0
ARC
  5
130E
330
A02
100
AcDbEntity
  8
Body
100
AcDbCircle
 10
-135.488
 20
63.7452
 30
0
 40
13.2715
100
AcDbArc
 50
-130.215
 51
-123.652
  0
ARC
  5
130F
330
A02
100
AcDbEntity
  8
Body
100
AcDbCircle
 10
-139.144
 20
60.1461
 30
0
 40
8.17611
100
AcDbArc
 50
-150.746
 51
-126.933
  0
ARC
  5
1310
330
A02
100
AcDbEntity
  8
Body
100
AcDbCircle
 10
-143.65
 20
48.4082
 30
0
 40
8.17611
100
AcDbArc
 50
84.9333
 51
108.746
  0
LINE
  5
1311
330
A02
100
AcDbEntity
  8
Body
100
AcDbLine
 10
-142.928
 20
56.5524
 30
0
 11
-141.414
 21
56.4182
 31
0
  0
ARC
  5
1312
330
A02
100
AcDbEntity
  8
Body
100
AcDbCircle
 10
-140.242
 20
69.6378
 30
0
 40
13.2715
100
AcDbArc
 50
-95.0667
 51
-78
  0
ARC
  5
1313
330
A02
100
AcDbEntity
  8
Body
100
AcDbCircle
 10
-138.552
 20
61.6875
 30
0
 40
5.1435
100
AcDbArc
 50
-78
 51
-24
  0
ARC
  5
1314
330
A02
100
AcDbEntity
  8
Body
100
AcDbCircle
 10
-138.552
 20
61.6875
 30
0
 40
5.1435
100
AcDbArc
 50
-24
 51
30
  0
LINE
  5
1315
330
A02
100
AcDbEntity
  8
Body
100
AcDbLine
 10
-134.098
 20
64.2592
 30
0
 11
-136.552
 21
67.3401
 31
0
  0
ARC
  5
1316
330
A02
100
AcDbEntity
  8
Body
100
AcDbCircle
 10
-128.083
 20
77.5583
 30
0
 40
13.2715
100
AcDbArc
 50
-136.215
 51
-129.652
  0
ARC
  5
1317
330
A02
100
AcDbEntity
  8
Body
100
AcDbCircle
 10
-132.095
 20
74.3611
 30
0
 40
8.17611
100
AcDbArc
 50
-156.746
 51
-132.933
  0
ARC
  5
1318
330
A02
100
AcDbEntity
  8
Body
100
AcDbCircle
 10
-137.803
 20
63.1585
 30
0
 40
8.17611
100
AcDbArc
 50
78.9333
 51
102.746
  0
LINE
  5
1319
330
A02
100
AcDbEntity
  8
Body
100
AcDbLine
 10
-136.233
 20
71.1826
 30
0
 11
-134.742
 21
70.891
 31
0
  0
ARC
  5
131A
330
A02
100
AcDbEntity
  8
Body
100
AcDbCircle
 10
-132.195
 20
83.9157
 30
0
 40
13.2715
100
AcDbArc
 50
-101.067
 51
-84
  0
ARC
  5
131B
330
A02
100
AcDbEntity
  8
Body
100
AcDbCircle
 10
-131.345
 20
75.8322
 30
0
 40
5.1435
100
AcDbArc
 50
-84
 51
-30
  0
ARC
  5
131C
330
A02
100
AcDbEntity
  8
Body
100
AcDbCircle
 10
-131.345
 20
75.8322
 30
0
 40
5.1435
100
AcDbArc
 50
-30
 51
24
  0
LINE
  5
131D
330
A02
100
AcDbEntity
  8
Body
100
AcDbLine
 10
-126.646
 20
77.9242
 30
0
 11
-128.765
 21
81.2448
 31
0
  0
ARC
  5
131E
330
A02
100
AcDbEntity
  8
Body
100
AcDbCircle
 10
-119.274
 20
90.5217
 30
0
 40
13.2715
100
AcDbArc
 50
-142.215
 51
-135.652
  0
ARC
  5
131F
330
A02
100
AcDbEntity
  8
Body
100
AcDbCircle
 10
-123.598
 20
87.7614
 30
0
 40
8.17611
100
AcDbArc
 50
-162.746
 51
-138.933
  0
ARC
  5
1320
330
A02
100
AcDbEntity
  8
Body
100
AcDbCircle
 10
-130.446
 20
77.2168
 30
0
 40
8.17611
100
AcDbArc
 50
72.9333
 51
96.746
  0
LINE
  5
1321
330
A02
100
AcDbEntity
  8
Body
100
AcDbLine
 10
-128.046
 20
85.0329
 30
0
 11
-126.594
 21
84.587
 31
0
  0
ARC
  5
1322
330
A02
100
AcDbEntity
  8
Body
100
AcDbCircle
 10
-122.699
 20
97.2741
 30
0
 40
13.2715
100
AcDbArc
 50
-107.067
 51
-90
  0
ARC
  5
1323
330
A02
100
AcDbEntity
  8
Body
100
AcDbCircle
 10
-122.699
 20
89.1461
 30
0
 40
5.1435
100
AcDbArc
 50
-90
 51
-36
  0
ARC
  5
1324
330
A02
100
AcDbEntity
  8
Body
100
AcDbCircle
 10
-122.699
 20
89.1461
 30
0
 40
5.1435
100
AcDbArc
 50
-36
 51
18
  0
LINE
  5
1325
330
A02
100
AcDbEntity
  8
Body
100
AcDbLine
 10
-117.807
 20
90.7355
 30
0
 11
-119.567
 21
94.2593
 31
0
  0
ARC
  5
1326
330
A02
100
AcDbEntity
  8
Body
100
AcDbCircle
 10
-109.158
 20
102.493
 30
0
 40
13.2715
100
AcDbArc
 50
-148.215
 51
-141.652
  0
ARC
  5
1327
330
A02
100
AcDbEntity
  8
Body
100
AcDbCircle
 10
-113.748
 20
100.2
 30
0
 40
8.17611
100
AcDbArc
 50
-168.746
 51
-144.933
  0
ARC
  5
1328
330
A02
100
AcDbEntity
  8
Body
100
AcDbCircle
 10
-121.66
 20
90.4291
 30
0
 40
8.17611
100
AcDbArc
 50
66.9333
 51
90.746
  0
LINE
  5
1329
330
A02
100
AcDbEntity
  8
Body
100
AcDbLine
 10
-118.457
 20
97.9516
 30
0
 11
-117.059
 21
97.3563
 31
0
  0
ARC
  5
132A
330
A02
100
AcDbEntity
  8
Body
100
AcDbCircle
 10
-111.859
 20
109.567
 30
0
 40
13.2715
100
AcDbArc
 50
-113.067
 51
-96
  0
ARC
  5
132B
330
A02
100
AcDbEntity
  8
Body
100
AcDbCircle
 10
-112.709
 20
101.483
 30
0
 40
5.1435
100
AcDbArc
 50
-96
 51
-42
  0
ARC
  5
132C
330
A02
100
AcDbEntity
  8
Body
100
AcDbCircle
 10
-112.709
 20
101.483
 30
0
 40
5.1435
100
AcDbArc
 50
-42
 51
12
  0
LINE
  5
132D
330
A02
100
AcDbEntity
  8
Body
100
AcDbLine
 10
-107.677
 20
102.553
 30
0
 11
-109.059
 21
106.241
 31
0
  0
ARC
  5
132E
330
A02
100
AcDbEntity
  8
Body
100
AcDbCircle
 10
-97.847
 20
113.342
 30
0
 40
13.2715
100
AcDbArc
 50
-154.215
 51
-147.652
  0
ARC
  5
132F
330
A02
100
AcDbEntity
  8
Body
100
AcDbCircle
 10
-102.651
 20
111.541
 30
0
 40
8.17611
100
AcDbArc
 50
-174.746
 51
-150.933
  0
ARC
  5
1330
330
A02
100
AcDbEntity
  8
Body
100
AcDbCircle
 10
-111.541
 20
102.651
 30
0
 40
8.17611
100
AcDbArc
 50
60.9333
 51
84.746
  0
LINE
  5
1331
330
A02
100
AcDbEntity
  8
Body
100
AcDbLine
 10
-107.569
 20
109.797
 30
0
 11
-106.241
 21
109.059
 31
0
  0
ARC
  5
1332
330
A02
100
AcDbEntity
  8
Body
100
AcDbCircle
 10
-99.7934
 20
120.659
 30
0
 40
13.2715
100
AcDbArc
 50
-119.067
 51
-102
  0
ARC
  5
1333
330
A02
100
AcDbEntity
  8
Body
100
AcDbCircle
 10
-101.483
 20
112.709
 30
0
 40
5.1435
100
AcDbArc
 50
-102
 51
-48
  0
ARC
  5
1334
330
A02
100
AcDbEntity
  8
Body
100
AcDbCircle
 10
-101.483
 20
112.709
 30
0
 40
5.1435
100
AcDbArc
 50
-48
 51
6
  0
LINE
  5
1335
330
A02
100
AcDbEntity
  8
Body
100
AcDbLine
 10
-96.368
 20
113.246
 30
0
 11
-97.3563
 21
117.059
 31
0
  0
ARC
  5
1336
330
A02
100
AcDbEntity
  8
Body
100
AcDbCircle
 10
-85.4635
 20
122.949
 30
0
 40
13.2715
100
AcDbArc
 50
-160.215
 51
-153.652
  0
ARC
  5
1337
330
A02
100
AcDbEntity
  8
Body
100
AcDbCircle
 10
-90.4291
 20
121.66
 30
0
 40
8.17611
100
AcDbArc
 50
179.254
 51
-156.933
  0
ARC
  5
1338
330
A02
100
AcDbEntity
  8
Body
100
AcDbCircle
 10
-100.2
 20
113.748
 30
0
 40
8.17611
100
AcDbArc
 50
54.9333
 51
78.746
  0
LINE
  5
1339
330
A02
100
AcDbEntity
  8
Body
100
AcDbLine
 10
-95.5028
 20
120.44
 30
0
 11
-94.2593
 21
119.567
 31
0
  0
ARC
  5
133A
330
A02
100
AcDbEntity
  8
Body
100
AcDbCircle
 10
-86.6344
 20
130.429
 30
0
 40
13.2715
100
AcDbArc
 50
-125.067
 51
-108
  0
ARC
  5
133B
330
A02
100
AcDbEntity
  8
Body
100
AcDbCircle
 10
-89.1461
 20
122.699
 30
0
 40
5.1435
100
AcDbArc
 50
-108
 51
-54
  0
ARC
  5
133C
330
A02
100
AcDbEntity
  8
Body
100
AcDbCircle
 10
-89.1461
 20
122.699
 30
0
 40
5.1435
100
AcDbArc
 50
-54
 51
-3.16602e-13
  0
LINE
  5
133D
330
A02
100
AcDbEntity
  8
Body
100
AcDbLine
 10
-84.0026
 20
122.699
 30
0
 11
-84.587
 21
126.594
 31
0
  0
ARC
  5
133E
330
A02
100
AcDbEntity
  8
Body
100
AcDbCircle
 10
-72.1437
 20
131.209
 30
0
 40
13.2715
100
AcDbArc
 50
-166.215
 51
-159.652
  0
ARC
  5
133F
330
A02
100
AcDbEntity
  8
Body
100
AcDbCircle
 10
-77.2168
 20
130.446
 30
0
 40
8.17611
100
AcDbArc
 50
173.254
 51
-162.933
  0
ARC
  5
1340
330
A02
100
AcDbEntity
  8
Body
100
AcDbCircle
 10
-87.7614
 20
123.598
 30
0
 40
8.17611
100
AcDbArc
 50
48.9333
 51
72.746
  0
LINE
  5
1341
330
A02
100
AcDbEntity
  8
Body
100
AcDbLine
 10
-82.3902
 20
129.763
 30
0
 11
-81.2448
 21
128.765
 31
0
  0
ARC
  5
1342
330
A02
100
AcDbEntity
  8
Body
100
AcDbCircle
 10
-72.5262
 20
138.77
 30
0
 40
13.2715
100
AcDbArc
 50
-131.067
 51
-114
  0
ARC
  5
1343
330
A02
100
AcDbEntity
  8
Body
100
AcDbCircle
 10
-75.8322
 20
131.345
 30
0
 40
5.1435
100
AcDbArc
 50
-114
 51
-60
  0
ARC
  5
1344
330
A02
100
AcDbEntity
  8
Body
100
AcDbCircle
 10
-75.8322
 20
131.345
 30
0
 40
5.1435
100
AcDbArc
 50
-60
 51
-6
  0
LINE
  5
1345
330
A02
100
AcDbEntity
  8
Body
100
AcDbLine
 10
-70.7169
 20
130.808
 30
0
 11
-70.891
 21
134.742
 31
0
  0
ARC
  5
1346
330
A02
100
AcDbEntity
  8
Body
100
AcDbCircle
 10
-58.0334
 20
138.031
 30
0
 40
13.2715
100
AcDbArc
 50
-172.215
 51
-165.652
  0
ARC
  5
1347
330
A02
100
AcDbEntity
  8
Body
100
AcDbCircle
 10
-63.1585
 20
137.803
 30
0
 40
8.17611
100
AcDbArc
 50
167.254
 51
-168.933
  0
ARC
  5
1348
330
A02
100
AcDbEntity
  8
Body
100
AcDbCircle
 10
-74.3611
 20
132.095
 30
0
 40
8.17611
100
AcDbArc
 50
42.9333
 51
66.746
  0
LINE
  5
1349
330
A02
100
AcDbEntity
  8
Body
100
AcDbLine
 10
-68.375
 20
137.664
 30
0
 11
-67.3401
 21
136.552
 31
0
  0
ARC
  5
134A
330
A02
100
AcDbEntity
  8
Body
100
AcDbCircle
 10
-57.6235
 20
145.591
 30
0
 40
13.2715
100
AcDbArc
 50
-137.067
 51
-120
  0
ARC
  5
134B
330
A02
100
AcDbEntity
  8
Body
100
AcDbCircle
 10
-61.6875
 20
138.552
 30
0
 40
5.1435
100
AcDbArc
 50
-120
 51
-66
  0
ARC
  5
134C
330
A02
100
AcDbEntity
  8
Body
100
AcDbCircle
 10
-61.6875
 20
138.552
 30
0
 40
5.1435
100
AcDbArc
 50
-66
 51
-12
  0
LINE
  5
134D
330
A02
100
AcDbEntity
  8
Body
100
AcDbLine
 10
-56.6564
 20
137.483
 30
0
 11
-56.4182
 21
141.414
 31
0
  0
ARC
  5
134E
330
A02
100
AcDbEntity
  8
Body
100
AcDbCircle
 10
-43.2873
 20
143.341
 30
0
 40
13.2715
100
AcDbArc
 50
-178.215
 51
-171.652
  0
ARC
  5
134F
330
A02
100
AcDbEntity
  8
Body
100
AcDbCircle
 10
-48.4082
 20
143.65
 30
0
 40
8.17611
100
AcDbArc
 50
161.254
 51
-174.933
  0
ARC
  5
1350
330
A02
100
AcDbEntity
  8
Body
100
AcDbCircle
 10
-60.1461
 20
139.144
 30
0
 40
8.17611
100
AcDbArc
 50
36.9333
 51
60.746
  0
LINE
  5
1351
330
A02
100
AcDbEntity
  8
Body
100
AcDbLine
 10
-53.6107
 20
144.057
 30
0
 11
-52.6977
 21
142.842
 31
0
  0
ARC
  5
1352
330
A02
100
AcDbEntity
  8
Body
100
AcDbCircle
 10
-42.0894
 20
150.817
 30
0
 40
13.2715
100
AcDbArc
 50
-143.067
 51
-126
  0
ARC
  5
1353
330
A02
100
AcDbEntity
  8
Body
100
AcDbCircle
 10
-46.8669
 20
144.241
 30
0
 40
5.1435
100
AcDbArc
 50
-126
 51
-72
  0
ARC
  5
1354
330
A02
100
AcDbEntity
  8
Body
100
AcDbCircle
 10
-46.8669
 20
144.241
 30
0
 40
5.1435
100
AcDbArc
 50
-72
 51
-18
  0
LINE
  5
1355
330
A02
100
AcDbEntity
  8
Body
100
AcDbLine
 10
-41.9751
 20
142.652
 30
0
 11
-41.3273
 21
146.537
 31
0
  0
ARC
  5
1356
330
A02
100
AcDbEntity
  8
Body
100
AcDbCircle
 10
-28.067
 20
147.081
 30
0
 40
13.2715
100
AcDbArc
 50
175.785
 51
-177.652
  0
ARC
  5
1357
330
A02
100
AcDbEntity
  8
Body
100
AcDbCircle
 10
-33.1275
 20
147.923
 30
0
 40
8.17611
100
AcDbArc
 50
155.254
 51
179.067
  0
ARC
  5
1358
330
A02
100
AcDbEntity
  8
Body
100
AcDbCircle
 10
-45.2721
 20
144.669
 30
0
 40
8.17611
100
AcDbArc
 50
30.9333
 51
54.746
  0
LINE
  5
1359
330
A02
100
AcDbEntity
  8
Body
100
AcDbLine
 10
-38.2589
 20
148.872
 30
0
 11
-37.4779
 21
147.568
 31
0
  0
ARC
  5
135A
330
A02
100
AcDbEntity
  8
Body
100
AcDbCircle
 10
-26.0941
 20
154.39
 30
0
 40
13.2715
100
AcDbArc
 50
-149.067
 51
-132
  0
ARC
  5
135B
330
A02
100
AcDbEntity
  8
Body
100
AcDbCircle
 10
-31.5328
 20
148.35
 30
0
 40
5.1435
100
AcDbArc
 50
-132
 51
-78
  0
ARC
  5
135C
330
A02
100
AcDbEntity
  8
Body
100
AcDbCircle
 10
-31.5328
 20
148.35
 30
0
 40
5.1435
100
AcDbArc
 50
-78
 51
-24
  0
LINE
  5
135D
330
A02
100
AcDbEntity
  8
Body
100
AcDbLine
 10
-26.834
 20
146.258
 30
0
 11
-25.7836
 21
150.054
 31
0
  0
ARC
  5
135E
330
A02
100
AcDbEntity
  8
Body
100
AcDbCircle
 10
-12.5391
 20
149.209
 30
0
 40
13.2715
100
AcDbArc
 50
169.785
 51
176.348
  0
ARC
  5
135F
330
A02
100
AcDbEntity
  8
Body
100
AcDbCircle
 10
-17.4839
 20
150.575
 30
0
 40
8.17611
100
AcDbArc
 50
149.254
 51
173.067
  0
ARC
  5
1360
330
A02
100
AcDbEntity
  8
Body
100
AcDbCircle
 10
-29.9021
 20
148.608
 30
0
 40
8.17611
100
AcDbArc
 50
24.9333
 51
48.746
  0
LINE
  5
1361
330
A02
100
AcDbEntity
  8
Body
100
AcDbLine
 10
-22.488
 20
152.055
 30
0
 11
-21.8475
 21
150.677
 31
0
  0
ARC
  5
1362
330
A02
100
AcDbEntity
  8
Body
100
AcDbCircle
 10
-9.81296
 20
156.272
 30
0
 40
13.2715
100
AcDbArc
 50
-155.067
 51
-138
  0
ARC
  5
1363
330
A02
100
AcDbEntity
  8
Body
100
AcDbCircle
 10
-15.8532
 20
150.834
 30
0
 40
5.1435
100
AcDbArc
 50
-138
 51
-84
  0
ARC
  5
1364
330
A02
100
AcDbEntity
  8
Body
100
AcDbCircle
 10
-15.8532
 20
150.834
 30
0
 40
5.1435
100
AcDbArc
 50
-84
 51
-30
  0
LINE
  5
1365
330
A02
100
AcDbEntity
  8
Body
100
AcDbLine
 10
-11.3988
 20
148.262
 30
0
 11
-9.95748
 21
151.927
 31
0
  0
ARC
  5
1366
330
A02
100
AcDbEntity
  8
Body
100
AcDbCircle
 10
3.12615
 20
149.702
 30
0
 40
13.2715
100
AcDbArc
 50
163.785
 51
170.348
  0
ARC
  5
1367
330
A02
100
AcDbEntity
  8
Body
100
AcDbCircle
 10
-1.64874
 20
151.578
 30
0
 40
8.17611
100
AcDbArc
 50
143.254
 51
167.067
  0
ARC
  5
1368
330
A02
100
AcDbEntity
  8
Body
100
AcDbCircle
 10
-14.2045
 20
150.92
 30
10.0076
 40
8.17611
100
AcDbArc
 50
18.9333
 51
42.746
  0
LINE
  5
1369
330
A02
100
AcDbEntity
  8
Body
100
AcDbLine
 10
-6.47075
 20
153.573
 30
10.0076
 11
-5.97778
 21
152.136
 31
10.0076
  0
ARC
  5
136A
330
A02
100
AcDbEntity
  8
Body
100
AcDbCircle
 10
6.57569
 20
156.442
 30
10.0076
 40
13.2715
100
AcDbArc
 50
-161.067
 51
-144
  0
ARC
  5
136B
330
A02
100
AcDbEntity
  8
Body
100
AcDbCircle
 10
-3.06422e-14
 20
151.664
 30
10.0076
 40
5.1435
100
AcDbArc
 50
-144
 51
-90
  0
ARC
  5
136C
330
A02
100
AcDbEntity
  8
Body
100
AcDbCircle
 10
3.06422e-14
 20
151.664
 30
10.0076
 40
5.1435
100
AcDbArc
 50
-90
 51
-36
  0
ARC
  5
136D
330
A02
100
AcDbEntity
  8
Body
100
AcDbCircle
 10
-6.57569
 20
156.442
 30
10.0076
 40
13.2715
100
AcDbArc
 50
-36
 51
-18.9333
  0
LINE
  5
136E
330
A02
100
AcDbEntity
  8
Body
100
AcDbLine
 10
5.97778
 20
152.136
 30
10.0076
 11
6.47075
 21
153.573
 31
10.0076
  0
ARC
  5
136F
330
A02
100
AcDbEntity
  8
Body
100
AcDbCircle
 10
14.2045
 20
150.92
 30
10.0076
 40
8.17611
100
AcDbArc
 50
137.254
 51
161.067
  0
ARC
  5
1370
330
A02
100
AcDbEntity
  8
Body
100
AcDbCircle
 10
1.64874
 20
151.578
 30
10.0076
 40
8.17611
100
AcDbArc
 50
12.9333
 51
36.746
  0
LINE
  5
1371
330
A02
100
AcDbEntity
  8
Body
100
AcDbLine
 10
9.61743
 20
153.408
 30
10.0076
 11
9.95748
 21
151.927
 31
10.0076
  0
ARC
  5
1372
330
A02
100
AcDbEntity
  8
Body
100
AcDbCircle
 10
22.8923
 20
154.898
 30
10.0076
 40
13.2715
100
AcDbArc
 50
-167.067
 51
-150
  0
ARC
  5
1373
330
A02
100
AcDbEntity
  8
Body
100
AcDbCircle
 10
15.8532
 20
150.834
 30
10.0076
 40
5.1435
100
AcDbArc
 50
-150
 51
-96
  0
ARC
  5
1374
330
A02
100
AcDbEntity
  8
Body
100
AcDbCircle
 10
15.8532
 20
150.834
 30
10.0076
 40
5.1435
100
AcDbArc
 50
-96
 51
-42
  0
LINE
  5
1375
330
A02
100
AcDbEntity
  8
Body
100
AcDbLine
 10
19.6756
 20
147.392
 30
10.0076
 11
21.8475
 21
150.677
 31
10.0076
  0
ARC
  5
1376
330
A02
100
AcDbEntity
  8
Body
100
AcDbCircle
 10
34.1826
 20
145.781
 30
10.0076
 40
13.2715
100
AcDbArc
 50
151.785
 51
158.348
  0
ARC
  5
1377
330
A02
100
AcDbEntity
  8
Body
100
AcDbCircle
 10
29.9021
 20
148.608
 30
10.0076
 40
8.17611
100
AcDbArc
 50
131.254
 51
155.067
  0
ARC
  5
1378
330
A02
100
AcDbEntity
  8
Body
100
AcDbCircle
 10
17.4839
 20
150.575
 30
10.0076
 40
8.17611
100
AcDbArc
 50
6.93333
 51
30.746
  0
LINE
  5
1379
330
A02
100
AcDbEntity
  8
Body
100
AcDbLine
 10
25.6002
 20
151.562
 30
10.0076
 11
25.7836
 21
150.054
 31
10.0076
  0
ARC
  5
137A
330
A02
100
AcDbEntity
  8
Body
100
AcDbCircle
 10
38.9581
 20
151.656
 30
10.0076
 40
13.2715
100
AcDbArc
 50
-173.067
 51
-156
  0
ARC
  5
137B
330
A02
100
AcDbEntity
  8
Body
100
AcDbCircle
 10
31.5328
 20
148.35
 30
10.0076
 40
5.1435
100
AcDbArc
 50
-156
 51
-102
  0
ARC
  5
137C
330
A02
100
AcDbEntity
  8
Body
100
AcDbCircle
 10
31.5328
 20
148.35
 30
10.0076
 40
5.1435
100
AcDbArc
 50
-102
 51
-48
  0
LINE
  5
137D
330
A02
100
AcDbEntity
  8
Body
100
AcDbLine
 10
34.9745
 20
144.528
 30
10.0076
 11
37.4779
 21
147.568
 31
10.0076
  0
ARC
  5
137E
330
A02
100
AcDbEntity
  8
Body
100
AcDbCircle
 10
49.2336
 20
141.409
 30
10.0076
 40
13.2715
100
AcDbArc
 50
145.785
 51
152.348
  0
ARC
  5
137F
330
A02
100
AcDbEntity
  8
Body
100
AcDbCircle
 10
45.2721
 20
144.669
 30
10.0076
 40
8.17611
100
AcDbArc
 50
125.254
 51
149.067
  0
ARC
  5
1380
330
A02
100
AcDbEntity
  8
Body
100
AcDbCircle
 10
33.1275
 20
147.923
 30
10.0076
 40
8.17611
100
AcDbArc
 50
0.933333
 51
24.746
  0
LINE
  5
1381
330
A02
100
AcDbEntity
  8
Body
100
AcDbLine
 10
41.3026
 20
148.056
 30
10.0076
 11
41.3273
 21
146.537
 31
10.0076
  0
ARC
  5
1382
330
A02
100
AcDbEntity
  8
Body
100
AcDbCircle
 10
54.5971
 20
146.753
 30
10.0076
 40
13.2715
100
AcDbArc
 50
-179.067
 51
-162
  0
ARC
  5
1383
330
A02
100
AcDbEntity
  8
Body
100
AcDbCircle
 10
46.8669
 20
144.241
 30
10.0076
 40
5.1435
100
AcDbArc
 50
-162
 51
-108
  0
ARC
  5
1384
330
A02
100
AcDbEntity
  8
Body
100
AcDbCircle
 10
46.8669
 20
144.241
 30
10.0076
 40
5.1435
100
AcDbArc
 50
-108
 51
-54
  0
LINE
  5
1385
330
A02
100
AcDbEntity
  8
Body
100
AcDbLine
 10
49.8901
 20
140.08
 30
10.0076
 11
52.6977
 21
142.842
 31
10.0076
  0
ARC
  5
1386
330
A02
100
AcDbEntity
  8
Body
100
AcDbCircle
 10
63.7452
 20
135.488
 30
10.0076
 40
13.2715
100
AcDbArc
 50
139.785
 51
146.348
  0
ARC
  5
1387
330
A02
100
AcDbEntity
  8
Body
100
AcDbCircle
 10
60.1461
 20
139.144
 30
10.0076
 40
8.17611
100
AcDbArc
 50
119.254
 51
143.067
  0
ARC
  5
1388
330
A02
100
AcDbEntity
  8
Body
100
AcDbCircle
 10
48.4082
 20
143.65
 30
10.0076
 40
8.17611
100
AcDbArc
 50
-5.06667
 51
18.746
  0
LINE
  5
1389
330
A02
100
AcDbEntity
  8
Body
100
AcDbLine
 10
56.5524
 20
142.928
 30
10.0076
 11
56.4182
 21
141.414
 31
10.0076
  0
ARC
  5
138A
330
A02
100
AcDbEntity
  8
Body
100
AcDbCircle
 10
69.6378
 20
140.242
 30
10.0076
 40
13.2715
100
AcDbArc
 50
174.933
 51
-168
  0
ARC
  5
138B
330
A02
100
AcDbEntity
  8
Body
100
AcDbCircle
 10
61.6875
 20
138.552
 30
10.0076
 40
5.1435
100
AcDbArc
 50
-168
 51
-114
  0
ARC
  5
138C
330
A02
100
AcDbEntity
  8
Body
100
AcDbCircle
 10
61.6875
 20
138.552
 30
10.0076
 40
5.1435
100
AcDbArc
 50
-114
 51
-60
  0
LINE
  5
138D
330
A02
100
AcDbEntity
  8
Body
100
AcDbLine
 10
64.2592
 20
134.098
 30
10.0076
 11
67.3401
 21
136.552
 31
10.0076
  0
ARC
  5
138E
330
A02
100
AcDbEntity
  8
Body
100
AcDbCircle
 10
77.5583
 20
128.083
 30
10.0076
 40
13.2715
100
AcDbArc
 50
133.785
 51
140.348
  0
ARC
  5
138F
330
A02
100
AcDbEntity
  8
Body
100
AcDbCircle
 10
74.3611
 20
132.095
 30
10.0076
 40
8.17611
100
AcDbArc
 50
113.254
 51
137.067
  0
ARC
  5
1390
330
A02
100
AcDbEntity
  8
Body
100
AcDbCircle
 10
63.1585
 20
137.803
 30
10.0076
 40
8.17611
100
AcDbArc
 50
-11.0667
 51
12.746
  0
LINE
  5
1391
330
A02
100
AcDbEntity
  8
Body
100
AcDbLine
 10
71.1826
 20
136.233
 30
10.0076
 11
70.891
 21
134.742
 31
10.0076
  0
ARC
  5
1392
330
A02
100
AcDbEntity
  8
Body
100
AcDbCircle
 10
83.9157
 20
132.195
 30
10.0076
 40
13.2715
100
AcDbArc
 50
168.933
 51
-174
  0
ARC
  5
1393
330
A02
100
AcDbEntity
  8
Body
100
AcDbCircle
 10
75.8322
 20
131.345
 30
10.0076
 40
5.1435
100
AcDbArc
 50
-174
 51
-120
  0
ARC
  5
1394
330
A02
100
AcDbEntity
  8
Body
100
AcDbCircle
 10
75.8322
 20
131.345
 30
10.0076
 40
5.1435
100
AcDbArc
 50
-120
 51
-66
  0
LINE
  5
1395
330
A02
100
AcDbEntity
  8
Body
100
AcDbLine
 10
77.9242
 20
126.646
 30
10.0076
 11
81.2448
 21
128.765
 31
10.0076
  0
ARC
  5
1396
330
A02
100
AcDbEntity
  8
Body
100
AcDbCircle
 10
90.5217
 20
119.274
 30
10.0076
 40
13.2715
100
AcDbArc
 50
127.785
 51
134.348
  0
ARC
  5
1397
330
A02
100
AcDbEntity
  8
Body
100
AcDbCircle
 10
87.7614
 20
123.598
 30
10.0076
 40
8.17611
100
AcDbArc
 50
107.254
 51
131.067
  0
ARC
  5
1398
330
A02
100
AcDbEntity
  8
Body
100
AcDbCircle
 10
77.2168
 20
130.446
 30
10.0076
 40
8.17611
100
AcDbArc
 50
-17.0667
 51
6.74604
  0
LINE
  5
1399
330
A02
100
AcDbEntity
  8
Body
100
AcDbLine
 10
85.0329
 20
128.046
 30
10.0076
 11
84.587
 21
126.594
 31
10.0076
  0
ARC
  5
139A
330
A02
100
AcDbEntity
  8
Body
100
AcDbCircle
 10
97.2741
 20
122.699
 30
10.0076
 40
13.2715
100
AcDbArc
 50
162.933
 51
180
  0
ARC
  5
139B
330
A02
100
AcDbEntity
  8
Body
100
AcDbCircle
 10
89.1461
 20
122.699
 30
10.0076
 40
5.1435
100
AcDbArc
 50
-180
 51
-126
  0
ARC
  5
139C
330
A02
100
AcDbEntity
  8
Body
100
AcDbCircle
 10
89.1461
 20
122.699
 30
10.0076
 40
5.1435
100
AcDbArc
 50
-126
 51
-72
  0
LINE
  5
139D
330
A02
100
AcDbEntity
  8
Body
100
AcDbLine
 10
90.7355
 20
117.807
 30
10.0076
 11
94.2593
 21
119.567
 31
10.0076
  0
ARC
  5
139E
330
A02
100
AcDbEntity
  8
Body
100
AcDbCircle
 10
102.493
 20
109.158
 30
10.0076
 40
13.2715
100
AcDbArc
 50
121.785
 51
128.348
  0
ARC
  5
139F
330
A02
100
AcDbEntity
  8
Body
100
AcDbCircle
 10
100.2
 20
113.748
 30
10.0076
 40
8.17611
100
AcDbArc
 50
101.254
 51
125.067
  0
ARC
  5
13A0
330
A02
100
AcDbEntity
  8
Body
100
AcDbCircle
 10
90.4291
 20
121.66
 30
10.0076
 40
8.17611
100
AcDbArc
 50
-23.0667
 51
0.746036
  0
LINE
  5
13A1
330
A02
100
AcDbEntity
  8
Body
100
AcDbLine
 10
97.9516
 20
118.457
 30
10.0076
 11
97.3563
 21
117.059
 31
10.0076
  0
ARC
  5
13A2
330
A02
100
AcDbEntity
  8
Body
100
AcDbCircle
 10
109.567
 20
111.859
 30
10.0076
 40
13.2715
100
AcDbArc
 50
156.933
 51
174
  0
ARC
  5
13A3
330
A02
100
AcDbEntity
  8
Body
100
AcDbCircle
 10
101.483
 20
112.709
 30
10.0076
 40
5.1435
100
AcDbArc
 50
174
 51
-132
  0
ARC
  5
13A4
330
A02
100
AcDbEntity
  8
Body
100
AcDbCircle
 10
101.483
 20
112.709
 30
10.0076
 40
5.1435
100
AcDbArc
 50
-132
 51
-78
  0
LINE
  5
13A5
330
A02
100
AcDbEntity
  8
Body
100
AcDbLine
 10
102.553
 20
107.677
 30
10.0076
 11
106.241
 21
109.059
 31
10.0076
  0
ARC
  5
13A6
330
A02
100
AcDbEntity
  8
Body
100
AcDbCircle
 10
113.342
 20
97.847
 30
10.0076
 40
13.2715
100
AcDbArc
 50
115.785
 51
122.348
  0
ARC
  5
13A7
330
A02
100
AcDbEntity
  8
Body
100
AcDbCircle
 10
111.541
 20
102.651
 30
10.0076
 40
8.17611
100
AcDbArc
 50
95.254
 51
119.067
  0
ARC
  5
13A8
330
A02
100
AcDbEntity
  8
Body
100
AcDbCircle
 10
102.651
 20
111.541
 30
10.0076
 40
8.17611
100
AcDbArc
 50
-29.0667
 51
-5.25396
  0
LINE
  5
13A9
330
A02
100
AcDbEntity
  8
Body
100
AcDbLine
 10
109.797
 20
107.569
 30
10.0076
 11
109.059
 21
106.241
 31
10.0076
  0
ARC
  5
13AA
330
A02
100
AcDbEntity
  8
Body
100
AcDbCircle
 10
120.659
 20
99.7934
 30
10.0076
 40
13.2715
100
AcDbArc
 50
150.933
 51
168
  0
ARC
  5
13AB
330
A02
100
AcDbEntity
  8
Body
100
AcDbCircle
 10
112.709
 20
101.483
 30
10.0076
 40
5.1435
100
AcDbArc
 50
168
 51
-138
  0
ARC
  5
13AC
330
A02
100
AcDbEntity
  8
Body
100
AcDbCircle
 10
112.709
 20
101.483
 30
10.0076
 40
5.1435
100
AcDbArc
 50
-138
 51
-84
  0
LINE
  5
13AD
330
A02
100
AcDbEntity
  8
Body
100
AcDbLine
 10
113.246
 20
96.368
 30
10.0076
 11
117.059
 21
97.3563
 31
10.0076
  0
ARC
  5
13AE
330
A02
100
AcDbEntity
  8
Body
100
AcDbCircle
 10
122.949
 20
85.4635
 30
10.0076
 40
13.2715
100
AcDbArc
 50
109.785
 51
116.348
  0
ARC
  5
13AF
330
A02
100
AcDbEntity
  8
Body
100
AcDbCircle
 10
121.66
 20
90.4291
 30
10.0076
 40
8.17611
100
AcDbArc
 50
89.254
 51
113.067
  0
ARC
  5
13B0
330
A02
100
AcDbEntity
  8
Body
100
AcDbCircle
 10
113.748
 20
100.2
 30
10.0076
 40
8.17611
100
AcDbArc
 50
-35.0667
 51
-11.254
  0
LINE
  5
13B1
330
A02
100
AcDbEntity
  8
Body
100
AcDbLine
 10
120.44
 20
95.5028
 30
10.0076
 11
119.567
 21
94.2593
 31
10.0076
  0
ARC
  5
13B2
330
A02
100
AcDbEntity
  8
Body
100
AcDbCircle
 10
130.429
 20
86.6344
 30
10.0076
 40
13.2715
100
AcDbArc
 50
144.933
 51
162
  0
ARC
  5
13B3
330
A02
100
AcDbEntity
  8
Body
100
AcDbCircle
 10
122.699
 20
89.1461
 30
10.0076
 40
5.1435
100
AcDbArc
 50
162
 51
-144
  0
ARC
  5
13B4
330
A02
100
AcDbEntity
  8
Body
100
AcDbCircle
 10
122.699
 20
89.1461
 30
10.0076
 40
5.1435
100
AcDbArc
 50
-144
 51
-90
  0
LINE
  5
13B5
330
A02
100
AcDbEntity
  8
Body
100
AcDbLine
 10
122.699
 20
84.0026
 30
10.0076
 11
126.594
 21
84.587
 31
10.0076
  0
ARC
  5
13B6
330
A02
100
AcDbEntity
  8
Body
100
AcDbCircle
 10
131.209
 20
72.1437
 30
10.0076
 40
13.2715
100
AcDbArc
 50
103.785
 51
110.348
  0
ARC
  5
13B7
330
A02
100
AcDbEntity
  8
Body
100
AcDbCircle
 10
130.446
 20
77.2168
 30
10.0076
 40
8.17611
100
AcDbArc
 50
83.254
 51
107.067
  0
ARC
  5
13B8
330
A02
100
AcDbEntity
  8
Body
100
AcDbCircle
 10
123.598
 20
87.7614
 30
10.0076
 40
8.17611
100
AcDbArc
 50
-41.0667
 51
-17.254
  0
LINE
  5
13B9
330
A02
100
AcDbEntity
  8
Body
100
AcDbLine
 10
129.763
 20
82.3902
 30
10.0076
 11
128.765
 21
81.2448
 31
10.0076
  0
ARC
  5
13BA
330
A02
100
AcDbEntity
  8
Body
100
AcDbCircle
 10
138.77
 20
72.5262
 30
10.0076
 40
13.2715
100
AcDbArc
 50
138.933
 51
156
  0
ARC
  5
13BB
330
A02
100
AcDbEntity
  8
Body
100
AcDbCircle
 10
131.345
 20
75.8322
 30
10.0076
 40
5.1435
100
AcDbArc
 50
156
 51
-150
  0
ARC
  5
13BC
330
A02
100
AcDbEntity
  8
Body
100
AcDbCircle
 10
131.345
 20
75.8322
 30
10.0076
 40
5.1435
100
AcDbArc
 50
-150
 51
-96
  0
LINE
  5
13BD
330
A02
100
AcDbEntity
  8
Body
100
AcDbLine
 10
130.808
 20
70.7169
 30
10.0076
 11
134.742
 21
70.891
 31
10.0076
  0
ARC
  5
13BE
330
A02
100
AcDbEntity
  8
Body
100
AcDbCircle
 10
138.031
 20
58.0334
 30
10.0076
 40
13.2715
100
AcDbArc
 50
97.7853
 51
104.348
  0
ARC
  5
13BF
330
A02
100
AcDbEntity
  8
Body
100
AcDbCircle
 10
137.803
 20
63.1585
 30
10.0076
 40
8.17611
100
AcDbArc
 50
77.254
 51
101.067
  0
ARC
  5
13C0
330
A02
100
AcDbEntity
  8
Body
100
AcDbCircle
 10
132.095
 20
74.3611
 30
10.0076
 40
8.17611
100
AcDbArc
 50
-47.0667
 51
-23.254
  0
LINE
  5
13C1
330
A02
100
AcDbEntity
  8
Body
100
AcDbLine
 10
137.664
 20
68.375
 30
10.0076
 11
136.552
 21
67.3401
 31
10.0076
  0
ARC
  5
13C2
330
A02
100
AcDbEntity
  8
Body
100
AcDbCircle
 10
145.591
 20
57.6235
 30
10.0076
 40
13.2715
100
AcDbArc
 50
132.933
 51
150
  0
ARC
  5
13C3
330
A02
100
AcDbEntity
  8
Body
100
AcDbCircle
 10
138.552
 20
61.6875
 30
10.0076
 40
5.1435
100
AcDbArc
 50
150
 51
-156
  0
ARC
  5
13C4
330
A02
100
AcDbEntity
  8
Body
100
AcDbCircle
 10
138.552
 20
61.6875
 30
10.0076
 40
5.1435
100
AcDbArc
 50
-156
 51
-102
  0
LINE
  5
13C5
330
A02
100
AcDbEntity
  8
Body
100
AcDbLine
 10
137.483
 20
56.6564
 30
10.0076
 11
141.414
 21
56.4182
 31
10.0076
  0
ARC
  5
13C6
330
A02
100
AcDbEntity
  8
Body
100
AcDbCircle
 10
143.341
 20
43.2873
 30
10.0076
 40
13.2715
100
AcDbArc
 50
91.7853
 51
98.3481
  0
ARC
  5
13C7
330
A02
100
AcDbEntity
  8
Body
100
AcDbCircle
 10
143.65
 20
48.4082
 30
10.0076
 40
8.17611
100
AcDbArc
 50
71.254
 51
95.0667
  0
ARC
  5
13C8
330
A02
100
AcDbEntity
  8
Body
100
AcDbCircle
 10
139.144
 20
60.1461
 30
10.0076
 40
8.17611
100
AcDbArc
 50
-53.0667
 51
-29.254
  0
LINE
  5
13C9
330
A02
100
AcDbEntity
  8
Body
100
AcDbLine
 10
144.057
 20
53.6107
 30
10.0076
 11
142.842
 21
52.6977
 31
10.0076
  0
ARC
  5
13CA
330
A02
100
AcDbEntity
  8
Body
100
AcDbCircle
 10
150.817
 20
42.0894
 30
10.0076
 40
13.2715
100
AcDbArc
 50
126.933
 51
144
  0
ARC
  5
13CB
330
A02
100
AcDbEntity
  8
Body
100
AcDbCircle
 10
144.241
 20
46.8669
 30
10.0076
 40
5.1435
100
AcDbArc
 50
144
 51
-162
  0
ARC
  5
13CC
330
A02
100
AcDbEntity
  8
Body
100
AcDbCircle
 10
144.241
 20
46.8669
 30
10.0076
 40
5.1435
100
AcDbArc
 50
-162
 51
-108
  0
LINE
  5
13CD
330
A02
100
AcDbEntity
  8
Body
100
AcDbLine
 10
142.652
 20
41.9751
 30
10.0076
 11
146.537
 21
41.3273
 31
10.0076
  0
ARC
  5
13CE
330
A02
100
AcDbEntity
  8
Body
100
AcDbCircle
 10
147.081
 20
28.067
 30
10.0076
 40
13.2715
100
AcDbArc
 50
85.7853
 51
92.3481
  0
ARC
  5
13CF
330
A02
100
AcDbEntity
  8
Body
100
AcDbCircle
 10
147.923
 20
33.1275
 30
10.0076
 40
8.17611
100
AcDbArc
 50
65.254
 51
89.0667
  0
ARC
  5
13D0
330
A02
100
AcDbEntity
  8
Body
100
AcDbCircle
 10
144.669
 20
45.2721
 30
10.0076
 40
8.17611
100
AcDbArc
 50
-59.0667
 51
-35.254
  0
LINE
  5
13D1
330
A02
100
AcDbEntity
  8
Body
100
AcDbLine
 10
148.872
 20
38.2589
 30
10.0076
 11
147.568
 21
37.4779
 31
10.0076
  0
ARC
  5
13D2
330
A02
100
AcDbEntity
  8
Body
100
AcDbCircle
 10
154.39
 20
26.0941
 30
10.0076
 40
13.2715
100
AcDbArc
 50
120.933
 51
138
  0
ARC
  5
13D3
330
A02
100
AcDbEntity
  8
Body
100
AcDbCircle
 10
148.35
 20
31.5328
 30
10.0076
 40
5.1435
100
AcDbArc
 50
138
 51
-168
  0
ARC
  5
13D4
330
A02
100
AcDbEntity
  8
Body
100
AcDbCircle
 10
148.35
 20
31.5328
 30
10.0076
 40
5.1435
100
AcDbArc
 50
-168
 51
-114
  0
LINE
  5
13D5
330
A02
100
AcDbEntity
  8
Body
100
AcDbLine
 10
146.258
 20
26.834
 30
10.0076
 11
150.054
 21
25.7836
 31
10.0076
  0
ARC
  5
13D6
330
A02
100
AcDbEntity
  8
Body
100
AcDbCircle
 10
149.209
 20
12.5391
 30
10.0076
 40
13.2715
100
AcDbArc
 50
79.7853
 51
86.3481
  0
ARC
  5
13D7
330
A02
100
AcDbEntity
  8
Body
100
AcDbCircle
 10
150.575
 20
17.4839
 30
10.0076
 40
8.17611
100
AcDbArc
 50
59.254
 51
83.0667
  0
ARC
  5
13D8
330
A02
100
AcDbEntity
  8
Body
100
AcDbCircle
 10
148.608
 20
29.9021
 30
10.0076
 40
8.17611
100
AcDbArc
 50
-65.0667
 51
-41.254
  0
LINE
  5
13D9
330
A02
100
AcDbEntity
  8
Body
100
AcDbLine
 10
152.055
 20
22.488
 30
10.0076
 11
150.677
 21
21.8475
 31
10.0076
  0
ARC
  5
13DA
330
A02
100
AcDbEntity
  8
Body
100
AcDbCircle
 10
156.272
 20
9.81296
 30
10.0076
 40
13.2715
100
AcDbArc
 50
114.933
 51
132
  0
ARC
  5
13DB
330
A02
100
AcDbEntity
  8
Body
100
AcDbCircle
 10
150.834
 20
15.8532
 30
10.0076
 40
5.1435
100
AcDbArc
 50
132
 51
-174
  0
ARC
  5
13DC
330
A02
100
AcDbEntity
  8
Body
100
AcDbCircle
 10
150.834
 20
15.8532
 30
10.0076
 40
5.1435
100
AcDbArc
 50
-174
 51
-120
  0
LINE
  5
13DD
330
A02
100
AcDbEntity
  8
Body
100
AcDbLine
 10
148.262
 20
11.3988
 30
10.0076
 11
151.927
 21
9.95748
 31
10.0076
  0
ARC
  5
13DE
330
A02
100
AcDbEntity
  8
Body
100
AcDbCircle
 10
149.702
 20
-3.12615
 30
10.0076
 40
13.2715
100
AcDbArc
 50
73.7853
 51
80.3481
  0
ARC
  5
13DF
330
A02
100
AcDbEntity
  8
Body
100
AcDbCircle
 10
151.578
 20
1.64874
 30
10.0076
 40
8.17611
100
AcDbArc
 50
53.254
 51
77.0667
  0
ARC
  5
13E0
330
A02
100
AcDbEntity
  8
Body
100
AcDbCircle
 10
150.92
 20
14.2045
 30
10.0076
 40
8.17611
100
AcDbArc
 50
-71.0667
 51
-47.254
  0
LINE
  5
13E1
330
A02
100
AcDbEntity
  8
Body
100
AcDbLine
 10
153.573
 20
6.47075
 30
10.0076
 11
152.136
 21
5.97778
 31
10.0076
  0
ARC
  5
13E2
330
A02
100
AcDbEntity
  8
Body
100
AcDbCircle
 10
156.442
 20
-6.57569
 30
10.0076
 40
13.2715
100
AcDbArc
 50
108.933
 51
126
  0
ARC
  5
13E3
330
A02
100
AcDbEntity
  8
Body
100
AcDbCircle
 10
151.664
 20
6.77236e-15
 30
10.0076
 40
5.1435
100
AcDbArc
 50
126
 51
-180
  0
ARC
  5
13E4
330
A02
100
AcDbEntity
  8
Body
100
AcDbCircle
 10
151.664
 20
-5.67324e-14
 30
10.0076
 40
5.1435
100
AcDbArc
 50
180
 51
-126
  0
LINE
  5
13E5
330
A02
100
AcDbEntity
  8
Body
100
AcDbLine
 10
148.641
 20
-4.16118
 30
10.0076
 11
152.136
 21
-5.97778
 31
10.0076
  0
ARC
  5
13E6
330
A02
100
AcDbEntity
  8
Body
100
AcDbCircle
 10
148.555
 20
-18.7571
 30
10.0076
 40
13.2715
100
AcDbArc
 50
67.7853
 51
74.3481
  0
ARC
  5
13E7
330
A02
100
AcDbEntity
  8
Body
100
AcDbCircle
 10
150.92
 20
-14.2045
 30
10.0076
 40
8.17611
100
AcDbArc
 50
47.254
 51
71.0667
  0
ARC
  5
13E8
330
A02
100
AcDbEntity
  8
Body
100
AcDbCircle
 10
151.578
 20
-1.64874
 30
10.0076
 40
8.17611
100
AcDbArc
 50
-77.0667
 51
-53.254
  0
LINE
  5
13E9
330
A02
100
AcDbEntity
  8
Body
100
AcDbLine
 10
153.408
 20
-9.61743
 30
10.0076
 11
151.927
 21
-9.95748
 31
10.0076
  0
ARC
  5
13EA
330
A02
100
AcDbEntity
  8
Body
100
AcDbCircle
 10
154.898
 20
-22.8923
 30
10.0076
 40
13.2715
100
AcDbArc
 50
102.933
 51
120
  0
ARC
  5
13EB
330
A02
100
AcDbEntity
  8
Body
100
AcDbCircle
 10
150.834
 20
-15.8532
 30
10.0076
 40
5.1435
100
AcDbArc
 50
120
 51
174
  0
ARC
  5
13EC
330
A02
100
AcDbEntity
  8
Body
100
AcDbCircle
 10
150.834
 20
-15.8532
 30
10.0076
 40
5.1435
100
AcDbArc
 50
174
 51
-132
  0
LINE
  5
13ED
330
A02
100
AcDbEntity
  8
Body
100
AcDbLine
 10
147.392
 20
-19.6756
 30
10.0076
 11
150.677
 21
-21.8475
 31
10.0076
  0
ARC
  5
13EE
330
A02
100
AcDbEntity
  8
Body
100
AcDbCircle
 10
145.781
 20
-34.1826
 30
10.0076
 40
13.2715
100
AcDbArc
 50
61.7853
 51
68.3481
  0
ARC
  5
13EF
330
A02
100
AcDbEntity
  8
Body
100
AcDbCircle
 10
148.608
 20
-29.9021
 30
10.0076
 40
8.17611
100
AcDbArc
 50
41.254
 51
65.0667
  0
ARC
  5
13F0
330
A02
100
AcDbEntity
  8
Body
100
AcDbCircle
 10
150.575
 20
-17.4839
 30
10.0076
 40
8.17611
100
AcDbArc
 50
-83.0667
 51
-59.254
  0
LINE
  5
13F1
330
A02
100
AcDbEntity
  8
Body
100
AcDbLine
 10
151.562
 20
-25.6002
 30
10.0076
 11
150.054
 21
-25.7836
 31
10.0076
  0
ARC
  5
13F2
330
A02
100
AcDbEntity
  8
Body
100
AcDbCircle
 10
151.656
 20
-38.9581
 30
10.0076
 40
13.2715
100
AcDbArc
 50
96.9333
 51
114
  0
ARC
  5
13F3
330
A02
100
AcDbEntity
  8
Body
100
AcDbCircle
 10
148.35
 20
-31.5328
 30
10.0076
 40
5.1435
100
AcDbArc
 50
114
 51
168
  0
ARC
  5
13F4
330
A02
100
AcDbEntity
  8
Body
100
AcDbCircle
 10
148.35
 20
-31.5328
 30
10.0076
 40
5.1435
100
AcDbArc
 50
168
 51
-138
  0
LINE
  5
13F5
330
A02
100
AcDbEntity
  8
Body
100
AcDbLine
 10
144.528
 20
-34.9745
 30
10.0076
 11
147.568
 21
-37.4779
 31
10.0076
  0
ARC
  5
13F6
330
A02
100
AcDbEntity
  8
Body
100
AcDbCircle
 10
141.409
 20
-49.2336
 30
10.0076
 40
13.2715
100
AcDbArc
 50
55.7853
 51
62.3481
  0
ARC
  5
13F7
330
A02
100
AcDbEntity
  8
Body
100
AcDbCircle
 10
144.669
 20
-45.2721
 30
10.0076
 40
8.17611
100
AcDbArc
 50
35.254
 51
59.0667
  0
ARC
  5
13F8
330
A02
100
AcDbEntity
  8
Body
100
AcDbCircle
 10
147.923
 20
-33.1275
 30
10.0076
 40
8.17611
100
AcDbArc
 50
-89.0667
 51
-65.254
  0
LINE
  5
13F9
330
A02
100
AcDbEntity
  8
Body
100
AcDbLine
 10
148.056
 20
-41.3026
 30
10.0076
 11
146.537
 21
-41.3273
 31
10.0076
  0
ARC
  5
13FA
330
A02
100
AcDbEntity
  8
Body
100
AcDbCircle
 10
146.753
 20
-54.5971
 30
10.0076
 40
13.2715
100
AcDbArc
 50
90.9333
 51
108
  0
ARC
  5
13FB
330
A02
100
AcDbEntity
  8
Body
100
AcDbCircle
 10
144.241
 20
-46.8669
 30
10.0076
 40
5.1435
100
AcDbArc
 50
108
 51
162
  0
ARC
  5
13FC
330
A02
100
AcDbEntity
  8
Body
100
AcDbCircle
 10
144.241
 20
-46.8669
 30
10.0076
 40
5.1435
100
AcDbArc
 50
162
 51
-144
  0
LINE
  5
13FD
330
A02
100
AcDbEntity
  8
Body
100
AcDbLine
 10
140.08
 20
-49.8901
 30
10.0076
 11
142.842
 21
-52.6977
 31
10.0076
  0
ARC
  5
13FE
330
A02
100
AcDbEntity
  8
Body
100
AcDbCircle
 10
135.488
 20
-63.7452
 30
10.0076
 40
13.2715
100
AcDbArc
 50
49.7853
 51
56.3481
  0
ARC
  5
13FF
330
A02
100
AcDbEntity
  8
Body
100
AcDbCircle
 10
139.144
 20
-60.1461
 30
10.0076
 40
8.17611
100
AcDbArc
 50
29.254
 51
53.0667
  0
ARC
  5
1400
330
A02
100
AcDbEntity
  8
Body
100
AcDbCircle
 10
143.65
 20
-48.4082
 30
10.0076
 40
8.17611
100
AcDbArc
 50
-95.0667
 51
-71.254
  0
LINE
  5
1401
330
A02
100
AcDbEntity
  8
Body
100
AcDbLine
 10
142.928
 20
-56.5524
 30
10.0076
 11
141.414
 21
-56.4182
 31
10.0076
  0
ARC
  5
1402
330
A02
100
AcDbEntity
  8
Body
100
AcDbCircle
 10
140.242
 20
-69.6378
 30
10.0076
 40
13.2715
100
AcDbArc
 50
84.9333
 51
102
  0
ARC
  5
1403
330
A02
100
AcDbEntity
  8
Body
100
AcDbCircle
 10
138.552
 20
-61.6875
 30
10.0076
 40
5.1435
100
AcDbArc
 50
102
 51
156
  0
ARC
  5
1404
330
A02
100
AcDbEntity
  8
Body
100
AcDbCircle
 10
138.552
 20
-61.6875
 30
10.0076
 40
5.1435
100
AcDbArc
 50
156
 51
-150
  0
LINE
  5
1405
330
A02
100
AcDbEntity
  8
Body
100
AcDbLine
 10
134.098
 20
-64.2592
 30
10.0076
 11
136.552
 21
-67.3401
 31
10.0076
  0
ARC
  5
1406
330
A02
100
AcDbEntity
  8
Body
100
AcDbCircle
 10
128.083
 20
-77.5583
 30
10.0076
 40
13.2715
100
AcDbArc
 50
43.7853
 51
50.3481
  0
ARC
  5
1407
330
A02
100
AcDbEntity
  8
Body
100
AcDbCircle
 10
132.095
 20
-74.3611
 30
10.0076
 40
8.17611
100
AcDbArc
 50
23.254
 51
47.0667
  0
ARC
  5
1408
330
A02
100
AcDbEntity
  8
Body
100
AcDbCircle
 10
137.803
 20
-63.1585
 30
10.0076
 40
8.17611
100
AcDbArc
 50
-101.067
 51
-77.254
  0
LINE
  5
1409
330
A02
100
AcDbEntity
  8
Body
100
AcDbLine
 10
136.233
 20
-71.1826
 30
10.0076
 11
134.742
 21
-70.891
 31
10.0076
  0
ARC
  5
140A
330
A02
100
AcDbEntity
  8
Body
100
AcDbCircle
 10
132.195
 20
-83.9157
 30
10.0076
 40
13.2715
100
AcDbArc
 50
78.9333
 51
96
  0
ARC
  5
140B
330
A02
100
AcDbEntity
  8
Body
100
AcDbCircle
 10
131.345
 20
-75.8322
 30
10.0076
 40
5.1435
100
AcDbArc
 50
96
 51
150
  0
ARC
  5
140C
330
A02
100
AcDbEntity
  8
Body
100
AcDbCircle
 10
131.345
 20
-75.8322
 30
10.0076
 40
5.1435
100
AcDbArc
 50
150
 51
-156
  0
LINE
  5
140D
330
A02
100
AcDbEntity
  8
Body
100
AcDbLine
 10
126.646
 20
-77.9242
 30
10.0076
 11
128.765
 21
-81.2448
 31
10.0076
  0
ARC
  5
140E
330
A02
100
AcDbEntity
  8
Body
100
AcDbCircle
 10
119.274
 20
-90.5217
 30
10.0076
 40
13.2715
100
AcDbArc
 50
37.7853
 51
44.3481
  0
ARC
  5
140F
330
A02
100
AcDbEntity
  8
Body
100
AcDbCircle
 10
123.598
 20
-87.7614
 30
10.0076
 40
8.17611
100
AcDbArc
 50
17.254
 51
41.0667
  0
ARC
  5
1410
330
A02
100
AcDbEntity
  8
Body
100
AcDbCircle
 10
130.446
 20
-77.2168
 30
10.0076
 40
8.17611
100
AcDbArc
 50
-107.067
 51
-83.254
  0
LINE
  5
1411
330
A02
100
AcDbEntity
  8
Body
100
AcDbLine
 10
128.046
 20
-85.0329
 30
10.0076
 11
126.594
 21
-84.587
 31
10.0076
  0
ARC
  5
1412
330
A02
100
AcDbEntity
  8
Body
100
AcDbCircle
 10
122.699
 20
-97.2741
 30
10.0076
 40
13.2715
100
AcDbArc
 50
72.9333
 51
90
  0
ARC
  5
1413
330
A02
100
AcDbEntity
  8
Body
100
AcDbCircle
 10
122.699
 20
-89.1461
 30
10.0076
 40
5.1435
100
AcDbArc
 50
90
 51
144
  0
ARC
  5
1414
330
A02
100
AcDbEntity
  8
Body
100
AcDbCircle
 10
122.699
 20
-89.1461
 30
10.0076
 40
5.1435
100
AcDbArc
 50
144
 51
-162
  0
LINE
  5
1415
330
A02
100
AcDbEntity
  8
Body
100
AcDbLine
 10
117.807
 20
-90.7355
 30
10.0076
 11
119.567
 21
-94.2593
 31
10.0076
  0
ARC
  5
1416
330
A02
100
AcDbEntity
  8
Body
100
AcDbCircle
 10
109.158
 20
-102.493
 30
10.0076
 40
13.2715
100
AcDbArc
 50
31.7853
 51
38.3481
  0
ARC
  5
1417
330
A02
100
AcDbEntity
  8
Body
100
AcDbCircle
 10
113.748
 20
-100.2
 30
10.0076
 40
8.17611
100
AcDbArc
 50
11.254
 51
35.0667
  0
ARC
  5
1418
330
A02
100
AcDbEntity
  8
Body
100
AcDbCircle
 10
121.66
 20
-90.4291
 30
10.0076
 40
8.17611
100
AcDbArc
 50
-113.067
 51
-89.254
  0
LINE
  5
1419
330
A02
100
AcDbEntity
  8
Body
100
AcDbLine
 10
118.457
 20
-97.9516
 30
10.0076
 11
117.059
 21
-97.3563
 31
10.0076
  0
ARC
  5
141A
330
A02
100
AcDbEntity
  8
Body
100
AcDbCircle
 10
111.859
 20
-109.567
 30
10.0076
 40
13.2715
100
AcDbArc
 50
66.9333
 51
84
  0
ARC
  5
141B
330
A02
100
AcDbEntity
  8
Body
100
AcDbCircle
 10
112.709
 20
-101.483
 30
10.0076
 40
5.1435
100
AcDbArc
 50
84
 51
138
  0
ARC
  5
141C
330
A02
100
AcDbEntity
  8
Body
100
AcDbCircle
 10
112.709
 20
-101.483
 30
10.0076
 40
5.1435
100
AcDbArc
 50
138
 51
-168
  0
LINE
  5
141D
330
A02
100
AcDbEntity
  8
Body
100
AcDbLine
 10
107.677
 20
-102.553
 30
10.0076
 11
109.059
 21
-106.241
 31
10.0076
  0
ARC
  5
141E
330
A02
100
AcDbEntity
  8
Body
100
AcDbCircle
 10
97.847
 20
-113.342
 30
10.0076
 40
13.2715
100
AcDbArc
 50
25.7853
 51
32.3481
  0
ARC
  5
141F
330
A02
100
AcDbEntity
  8
Body
100
AcDbCircle
 10
102.651
 20
-111.541
 30
10.0076
 40
8.17611
100
AcDbArc
 50
5.25396
 51
29.0667
  0
ARC
  5
1420
330
A02
100
AcDbEntity
  8
Body
100
AcDbCircle
 10
111.541
 20
-102.651
 30
10.0076
 40
8.17611
100
AcDbArc
 50
-119.067
 51
-95.254
  0
LINE
  5
1421
330
A02
100
AcDbEntity
  8
Body
100
AcDbLine
 10
107.569
 20
-109.797
 30
10.0076
 11
106.241
 21
-109.059
 31
10.0076
  0
ARC
  5
1422
330
A02
100
AcDbEntity
  8
Body
100
AcDbCircle
 10
99.7934
 20
-120.659
 30
10.0076
 40
13.2715
100
AcDbArc
 50
60.9333
 51
78
  0
ARC
  5
1423
330
A02
100
AcDbEntity
  8
Body
100
AcDbCircle
 10
101.483
 20
-112.709
 30
10.0076
 40
5.1435
100
AcDbArc
 50
78
 51
132
  0
ARC
  5
1424
330
A02
100
AcDbEntity
  8
Body
100
AcDbCircle
 10
101.483
 20
-112.709
 30
10.0076
 40
5.1435
100
AcDbArc
 50
132
 51
-174
  0
LINE
  5
1425
330
A02
100
AcDbEntity
  8
Body
100
AcDbLine
 10
96.368
 20
-113.246
 30
10.0076
 11
97.3563
 21
-117.059
 31
10.0076
  0
ARC
  5
1426
330
A02
100
AcDbEntity
  8
Body
100
AcDbCircle
 10
85.4635
 20
-122.949
 30
10.0076
 40
13.2715
100
AcDbArc
 50
19.7853
 51
26.3481
  0
ARC
  5
1427
330
A02
100
AcDbEntity
  8
Body
100
AcDbCircle
 10
90.4291
 20
-121.66
 30
10.0076
 40
8.17611
100
AcDbArc
 50
-0.746036
 51
23.0667
  0
ARC
  5
1428
330
A02
100
AcDbEntity
  8
Body
100
AcDbCircle
 10
100.2
 20
-113.748
 30
10.0076
 40
8.17611
100
AcDbArc
 50
-125.067
 51
-101.254
  0
LINE
  5
1429
330
A02
100
AcDbEntity
  8
Body
100
AcDbLine
 10
95.5028
 20
-120.44
 30
10.0076
 11
94.2593
 21
-119.567
 31
10.0076
  0
ARC
  5
142A
330
A02
100
AcDbEntity
  8
Body
100
AcDbCircle
 10
86.6344
 20
-130.429
 30
10.0076
 40
13.2715
100
AcDbArc
 50
54.9333
 51
72
  0
ARC
  5
142B
330
A02
100
AcDbEntity
  8
Body
100
AcDbCircle
 10
89.1461
 20
-122.699
 30
10.0076
 40
5.1435
100
AcDbArc
 50
72
 51
126
  0
ARC
  5
142C
330
A02
100
AcDbEntity
  8
Body
100
AcDbCircle
 10
89.1461
 20
-122.699
 30
10.0076
 40
5.1435
100
AcDbArc
 50
126
 51
180
  0
LINE
  5
142D
330
A02
100
AcDbEntity
  8
Body
100
AcDbLine
 10
84.0026
 20
-122.699
 30
10.0076
 11
84.587
 21
-126.594
 31
10.0076
  0
ARC
  5
142E
330
A02
100
AcDbEntity
  8
Body
100
AcDbCircle
 10
72.1437
 20
-131.209
 30
10.0076
 40
13.2715
100
AcDbArc
 50
13.7853
 51
20.3481
  0
ARC
  5
142F
330
A02
100
AcDbEntity
  8
Body
100
AcDbCircle
 10
77.2168
 20
-130.446
 30
10.0076
 40
8.17611
100
AcDbArc
 50
-6.74604
 51
17.0667
  0
ARC
  5
1430
330
A02
100
AcDbEntity
  8
Body
100
AcDbCircle
 10
87.7614
 20
-123.598
 30
10.0076
 40
8.17611
100
AcDbArc
 50
-131.067
 51
-107.254
  0
LINE
  5
1431
330
A02
100
AcDbEntity
  8
Body
100
AcDbLine
 10
82.3902
 20
-129.763
 30
10.0076
 11
81.2448
 21
-128.765
 31
10.0076
  0
ARC
  5
1432
330
A02
100
AcDbEntity
  8
Body
100
AcDbCircle
 10
72.5262
 20
-138.77
 30
10.0076
 40
13.2715
100
AcDbArc
 50
48.9333
 51
66
  0
ARC
  5
1433
330
A02
100
AcDbEntity
  8
Body
100
AcDbCircle
 10
75.8322
 20
-131.345
 30
10.0076
 40
5.1435
100
AcDbArc
 50
66
 51
120
  0
ARC
  5
1434
330
A02
100
AcDbEntity
  8
Body
100
AcDbCircle
 10
75.8322
 20
-131.345
 30
10.0076
 40
5.1435
100
AcDbArc
 50
120
 51
174
  0
LINE
  5
1435
330
A02
100
AcDbEntity
  8
Body
100
AcDbLine
 10
70.7169
 20
-130.808
 30
10.0076
 11
70.891
 21
-134.742
 31
10.0076
  0
ARC
  5
1436
330
A02
100
AcDbEntity
  8
Body
100
AcDbCircle
 10
58.0334
 20
-138.031
 30
10.0076
 40
13.2715
100
AcDbArc
 50
7.78528
 51
14.3481
  0
ARC
  5
1437
330
A02
100
AcDbEntity
  8
Body
100
AcDbCircle
 10
63.1585
 20
-137.803
 30
10.0076
 40
8.17611
100
AcDbArc
 50
-12.746
 51
11.0667
  0
ARC
  5
1438
330
A02
100
AcDbEntity
  8
Body
100
AcDbCircle
 10
74.3611
 20
-132.095
 30
10.0076
 40
8.17611
100
AcDbArc
 50
-137.067
 51
-113.254
  0
LINE
  5
1439
330
A02
100
AcDbEntity
  8
Body
100
AcDbLine
 10
68.375
 20
-137.664
 30
10.0076
 11
67.3401
 21
-136.552
 31
10.0076
  0
ARC
  5
143A
330
A02
100
AcDbEntity
  8
Body
100
AcDbCircle
 10
57.6235
 20
-145.591
 30
10.0076
 40
13.2715
100
AcDbArc
 50
42.9333
 51
60
  0
ARC
  5
143B
330
A02
100
AcDbEntity
  8
Body
100
AcDbCircle
 10
61.6875
 20
-138.552
 30
10.0076
 40
5.1435
100
AcDbArc
 50
60
 51
114
  0
ARC
  5
143C
330
A02
100
AcDbEntity
  8
Body
100
AcDbCircle
 10
61.6875
 20
-138.552
 30
10.0076
 40
5.1435
100
AcDbArc
 50
114
 51
168
  0
LINE
  5
143D
330
A02
100
AcDbEntity
  8
Body
100
AcDbLine
 10
56.6564
 20
-137.483
 30
10.0076
 11
56.4182
 21
-141.414
 31
10.0076
  0
ARC
  5
143E
330
A02
100
AcDbEntity
  8
Body
100
AcDbCircle
 10
43.2873
 20
-143.341
 30
10.0076
 40
13.2715
100
AcDbArc
 50
1.78528
 51
8.34806
  0
ARC
  5
143F
330
A02
100
AcDbEntity
  8
Body
100
AcDbCircle
 10
48.4082
 20
-143.65
 30
10.0076
 40
8.17611
100
AcDbArc
 50
-18.746
 51
5.06667
  0
ARC
  5
1440
330
A02
100
AcDbEntity
  8
Body
100
AcDbCircle
 10
60.1461
 20
-139.144
 30
10.0076
 40
8.17611
100
AcDbArc
 50
-143.067
 51
-119.254
  0
LINE
  5
1441
330
A02
100
AcDbEntity
  8
Body
100
AcDbLine
 10
53.6107
 20
-144.057
 30
10.0076
 11
52.6977
 21
-142.842
 31
10.0076
  0
ARC
  5
1442
330
A02
100
AcDbEntity
  8
Body
100
AcDbCircle
 10
42.0894
 20
-150.817
 30
10.0076
 40
13.2715
100
AcDbArc
 50
36.9333
 51
54
  0
ARC
  5
1443
330
A02
100
AcDbEntity
  8
Body
100
AcDbCircle
 10
46.8669
 20
-144.241
 30
10.0076
 40
5.1435
100
AcDbArc
 50
54
 51
108
  0
ARC
  5
1444
330
A02
100
AcDbEntity
  8
Body
100
AcDbCircle
 10
46.8669
 20
-144.241
 30
10.0076
 40
5.1435
100
AcDbArc
 50
108
 51
162
  0
LINE
  5
1445
330
A02
100
AcDbEntity
  8
Body
100
AcDbLine
 10
41.9751
 20
-142.652
 30
10.0076
 11
41.3273
 21
-146.537
 31
10.0076
  0
ARC
  5
1446
330
A02
100
AcDbEntity
  8
Body
100
AcDbCircle
 10
28.067
 20
-147.081
 30
10.0076
 40
13.2715
100
AcDbArc
 50
-4.21472
 51
2.34806
  0
ARC
  5
1447
330
A02
100
AcDbEntity
  8
Body
100
AcDbCircle
 10
33.1275
 20
-147.923
 30
10.0076
 40
8.17611
100
AcDbArc
 50
-24.746
 51
-0.933333
  0
ARC
  5
1448
330
A02
100
AcDbEntity
  8
Body
100
AcDbCircle
 10
45.2721
 20
-144.669
 30
10.0076
 40
8.17611
100
AcDbArc
 50
-149.067
 51
-125.254
  0
LINE
  5
1449
330
A02
100
AcDbEntity
  8
Body
100
AcDbLine
 10
38.2589
 20
-148.872
 30
10.0076
 11
37.4779
 21
-147.568
 31
10.0076
  0
ARC
  5
144A
330
A02
100
AcDbEntity
  8
Body
100
AcDbCircle
 10
26.0941
 20
-154.39
 30
10.0076
 40
13.2715
100
AcDbArc
 50
30.9333
 51
48
  0
ARC
  5
144B
330
A02
100
AcDbEntity
  8
Body
100
AcDbCircle
 10
31.5328
 20
-148.35
 30
10.0076
 40
5.1435
100
AcDbArc
 50
48
 51
102
  0
ARC
  5
144C
330
A02
100
AcDbEntity
  8
Body
100
AcDbCircle
 10
31.5328
 20
-148.35
 30
10.0076
 40
5.1435
100
AcDbArc
 50
102
 51
156
  0
LINE
  5
144D
330
A02
100
AcDbEntity
  8
Body
100
AcDbLine
 10
26.834
 20
-146.258
 30
10.0076
 11
25.7836
 21
-150.054
 31
10.0076
  0
ARC
  5
144E
330
A02
100
AcDbEntity
  8
Body
100
AcDbCircle
 10
12.5391
 20
-149.209
 30
10.0076
 40
13.2715
100
AcDbArc
 50
-10.2147
 51
-3.65194
  0
ARC
  5
144F
330
A02
100
AcDbEntity
  8
Body
100
AcDbCircle
 10
17.4839
 20
-150.575
 30
10.0076
 40
8.17611
100
AcDbArc
 50
-30.746
 51
-6.93333
  0
ARC
  5
1450
330
A02
100
AcDbEntity
  8
Body
100
AcDbCircle
 10
29.9021
 20
-148.608
 30
10.0076
 40
8.17611
100
AcDbArc
 50
-155.067
 51
-131.254
  0
LINE
  5
1451
330
A02
100
AcDbEntity
  8
Body
100
AcDbLine
 10
22.488
 20
-152.055
 30
10.0076
 11
21.8475
 21
-150.677
 31
10.0076
  0
ARC
  5
1452
330
A02
100
AcDbEntity
  8
Body
100
AcDbCircle
 10
9.81296
 20
-156.272
 30
10.0076
 40
13.2715
100
AcDbArc
 50
24.9333
 51
42
  0
ARC
  5
1453
330
A02
100
AcDbEntity
  8
Body
100
AcDbCircle
 10
15.8532
 20
-150.834
 30
10.0076
 40
5.1435
100
AcDbArc
 50
42
 51
96
  0
ARC
  5
1454
330
A02
100
AcDbEntity
  8
Body
100
AcDbCircle
 10
15.8532
 20
-150.834
 30
10.0076
 40
5.1435
100
AcDbArc
 50
96
 51
150
  0
LINE
  5
1455
330
A02
100
AcDbEntity
  8
Body
100
AcDbLine
 10
11.3988
 20
-148.262
 30
10.0076
 11
9.95748
 21
-151.927
 31
10.0076
  0
ARC
  5
1456
330
A02
100
AcDbEntity
  8
Body
100
AcDbCircle
 10
-3.12615
 20
-149.702
 30
10.0076
 40
13.2715
100
AcDbArc
 50
-16.2147
 51
-9.65194
  0
ARC
  5
1457
330
A02
100
AcDbEntity
  8
Body
100
AcDbCircle
 10
1.64874
 20
-151.578
 30
10.0076
 40
8.17611
100
AcDbArc
 50
-36.746
 51
-12.9333
  0
ARC
  5
1458
330
A02
100
AcDbEntity
  8
Body
100
AcDbCircle
 10
14.2045
 20
-150.92
 30
10.0076
 40
8.17611
100
AcDbArc
 50
-161.067
 51
-137.254
  0
LINE
  5
1459
330
A02
100
AcDbEntity
  8
Body
100
AcDbLine
 10
6.47075
 20
-153.573
 30
10.0076
 11
5.97778
 21
-152.136
 31
10.0076
  0
ARC
  5
145A
330
A02
100
AcDbEntity
  8
Body
100
AcDbCircle
 10
-6.57569
 20
-156.442
 30
10.0076
 40
13.2715
100
AcDbArc
 50
18.9333
 51
36
  0
ARC
  5
145B
330
A02
100
AcDbEntity
  8
Body
100
AcDbCircle
 10
-1.37668e-14
 20
-151.664
 30
10.0076
 40
5.1435
100
AcDbArc
 50
36
 51
90
  0
ARC
  5
145C
330
A02
100
AcDbEntity
  8
Body
100
AcDbCircle
 10
-7.62723e-14
 20
-151.664
 30
10.0076
 40
5.1435
100
AcDbArc
 50
90
 51
144
  0
LINE
  5
145D
330
A02
100
AcDbEntity
  8
Body
100
AcDbLine
 10
-4.16118
 20
-148.641
 30
10.0076
 11
-5.97778
 21
-152.136
 31
10.0076
  0
ARC
  5
145E
330
A02
100
AcDbEntity
  8
Body
100
AcDbCircle
 10
-18.7571
 20
-148.555
 30
10.0076
 40
13.2715
100
AcDbArc
 50
-22.2147
 51
-15.6519
  0
ARC
  5
145F
330
A02
100
AcDbEntity
  8
Body
100
AcDbCircle
 10
-14.2045
 20
-150.92
 30
10.0076
 40
8.17611
100
AcDbArc
 50
-42.746
 51
-18.9333
  0
ARC
  5
1460
330
A02
100
AcDbEntity
  8
Body
100
AcDbCircle
 10
-1.64874
 20
-151.578
 30
10.0076
 40
8.17611
100
AcDbArc
 50
-167.067
 51
-143.254
  0
LINE
  5
1461
330
A02
100
AcDbEntity
  8
Body
100
AcDbLine
 10
-9.61743
 20
-153.408
 30
10.0076
 11
-9.95748
 21
-151.927
 31
10.0076
  0
ARC
  5
1462
330
A02
100
AcDbEntity
  8
Body
100
AcDbCircle
 10
-22.8923
 20
-154.898
 30
10.0076
 40
13.2715
100
AcDbArc
 50
12.9333
 51
30
  0
ARC
  5
1463
330
A02
100
AcDbEntity
  8
Body
100
AcDbCircle
 10
-15.8532
 20
-150.834
 30
10.0076
 40
5.1435
100
AcDbArc
 50
30
 51
84
  0
ARC
  5
1464
330
A02
100
AcDbEntity
  8
Body
100
AcDbCircle
 10
-15.8532
 20
-150.834
 30
10.0076
 40
5.1435
100
AcDbArc
 50
84
 51
138
  0
LINE
  5
1465
330
A02
100
AcDbEntity
  8
Body
100
AcDbLine
 10
-19.6756
 20
-147.392
 30
10.0076
 11
-21.8475
 21
-150.677
 31
10.0076
  0
ARC
  5
1466
330
A02
100
AcDbEntity
  8
Body
100
AcDbCircle
 10
-34.1826
 20
-145.781
 30
10.0076
 40
13.2715
100
AcDbArc
 50
-28.2147
 51
-21.6519
  0
ARC
  5
1467
330
A02
100
AcDbEntity
  8
Body
100
AcDbCircle
 10
-29.9021
 20
-148.608
 30
10.0076
 40
8.17611
100
AcDbArc
 50
-48.746
 51
-24.9333
  0
ARC
  5
1468
330
A02
100
AcDbEntity
  8
Body
100
AcDbCircle
 10
-17.4839
 20
-150.575
 30
10.0076
 40
8.17611
100
AcDbArc
 50
-173.067
 51
-149.254
  0
LINE
  5
1469
330
A02
100
AcDbEntity
  8
Body
100
AcDbLine
 10
-25.6002
 20
-151.562
 30
10.0076
 11
-25.7836
 21
-150.054
 31
10.0076
  0
ARC
  5
146A
330
A02
100
AcDbEntity
  8
Body
100
AcDbCircle
 10
-38.9581
 20
-151.656
 30
10.0076
 40
13.2715
100
AcDbArc
 50
6.93333
 51
24
  0
ARC
  5
146B
330
A02
100
AcDbEntity
  8
Body
100
AcDbCircle
 10
-31.5328
 20
-148.35
 30
10.0076
 40
5.1435
100
AcDbArc
 50
24
 51
78
  0
ARC
  5
146C
330
A02
100
AcDbEntity
  8
Body
100
AcDbCircle
 10
-31.5328
 20
-148.35
 30
10.0076
 40
5.1435
100
AcDbArc
 50
78
 51
132
  0
LINE
  5
146D
330
A02
100
AcDbEntity
  8
Body
100
AcDbLine
 10
-34.9745
 20
-144.528
 30
10.0076
 11
-37.4779
 21
-147.568
 31
10.0076
  0
ARC
  5
146E
330
A02
100
AcDbEntity
  8
Body
100
AcDbCircle
 10
-49.2336
 20
-141.409
 30
10.0076
 40
13.2715
100
AcDbArc
 50
-34.2147
 51
-27.6519
  0
ARC
  5
146F
330
A02
100
AcDbEntity
  8
Body
100
AcDbCircle
 10
-45.2721
 20
-144.669
 30
10.0076
 40
8.17611
100
AcDbArc
 50
-54.746
 51
-30.9333
  0
ARC
  5
1470
330
A02
100
AcDbEntity
  8
Body
100
AcDbCircle
 10
-33.1275
 20
-147.923
 30
10.0076
 40
8.17611
100
AcDbArc
 50
-179.067
 51
-155.254
  0
LINE
  5
1471
330
A02
100
AcDbEntity
  8
Body
100
AcDbLine
 10
-41.3026
 20
-148.056
 30
10.0076
 11
-41.3273
 21
-146.537
 31
10.0076
  0
ARC
  5
1472
330
A02
100
AcDbEntity
  8
Body
100
AcDbCircle
 10
-54.5971
 20
-146.753
 30
10.0076
 40
13.2715
100
AcDbArc
 50
0.933333
 51
18
  0
ARC
  5
1473
330
A02
100
AcDbEntity
  8
Body
100
AcDbCircle
 10
-46.8669
 20
-144.241
 30
10.0076
 40
5.1435
100
AcDbArc
 50
18
 51
72
  0
ARC
  5
1474
330
A02
100
AcDbEntity
  8
Body
100
AcDbCircle
 10
-46.8669
 20
-144.241
 30
10.0076
 40
5.1435
100
AcDbArc
 50
72
 51
126
  0
LINE
  5
1475
330
A02
100
AcDbEntity
  8
Body
100
AcDbLine
 10
-49.8901
 20
-140.08
 30
10.0076
 11
-52.6977
 21
-142.842
 31
10.0076
  0
ARC
  5
1476
330
A02
100
AcDbEntity
  8
Body
100
AcDbCircle
 10
-63.7452
 20
-135.488
 30
10.0076
 40
13.2715
100
AcDbArc
 50
-40.2147
 51
-33.6519
  0
ARC
  5
1477
330
A02
100
AcDbEntity
  8
Body
100
AcDbCircle
 10
-60.1461
 20
-139.144
 30
10.0076
 40
8.17611
100
AcDbArc
 50
-60.746
 51
-36.9333
  0
ARC
  5
1478
330
A02
100
AcDbEntity
  8
Body
100
AcDbCircle
 10
-48.4082
 20
-143.65
 30
10.0076
 40
8.17611
100
AcDbArc
 50
174.933
 51
-161.254
  0
LINE
  5
1479
330
A02
100
AcDbEntity
  8
Body
100
AcDbLine
 10
-56.5524
 20
-142.928
 30
10.0076
 11
-56.4182
 21
-141.414
 31
10.0076
  0
ARC
  5
147A
330
A02
100
AcDbEntity
  8
Body
100
AcDbCircle
 10
-69.6378
 20
-140.242
 30
10.0076
 40
13.2715
100
AcDbArc
 50
-5.06667
 51
12
  0
ARC
  5
147B
330
A02
100
AcDbEntity
  8
Body
100
AcDbCircle
 10
-61.6875
 20
-138.552
 30
10.0076
 40
5.1435
100
AcDbArc
 50
12
 51
66
  0
ARC
  5
147C
330
A02
100
AcDbEntity
  8
Body
100
AcDbCircle
 10
-61.6875
 20
-138.552
 30
10.0076
 40
5.1435
100
AcDbArc
 50
66
 51
120
  0
LINE
  5
147D
330
A02
100
AcDbEntity
  8
Body
100
AcDbLine
 10
-64.2592
 20
-134.098
 30
10.0076
 11
-67.3401
 21
-136.552
 31
10.0076
  0
ARC
  5
147E
330
A02
100
AcDbEntity
  8
Body
100
AcDbCircle
 10
-77.5583
 20
-128.083
 30
10.0076
 40
13.2715
100
AcDbArc
 50
-46.2147
 51
-39.6519
  0
ARC
  5
147F
330
A02
100
AcDbEntity
  8
Body
100
AcDbCircle
 10
-74.3611
 20
-132.095
 30
10.0076
 40
8.17611
100
AcDbArc
 50
-66.746
 51
-42.9333
  0
ARC
  5
1480
330
A02
100
AcDbEntity
  8
Body
100
AcDbCircle
 10
-63.1585
 20
-137.803
 30
10.0076
 40
8.17611
100
AcDbArc
 50
168.933
 51
-167.254
  0
LINE
  5
1481
330
A02
100
AcDbEntity
  8
Body
100
AcDbLine
 10
-71.1826
 20
-136.233
 30
10.0076
 11
-70.891
 21
-134.742
 31
10.0076
  0
ARC
  5
1482
330
A02
100
AcDbEntity
  8
Body
100
AcDbCircle
 10
-83.9157
 20
-132.195
 30
10.0076
 40
13.2715
100
AcDbArc
 50
-11.0667
 51
6
  0
ARC
  5
1483
330
A02
100
AcDbEntity
  8
Body
100
AcDbCircle
 10
-75.8322
 20
-131.345
 30
10.0076
 40
5.1435
100
AcDbArc
 50
6
 51
60
  0
ARC
  5
1484
330
A02
100
AcDbEntity
  8
Body
100
AcDbCircle
 10
-75.8322
 20
-131.345
 30
10.0076
 40
5.1435
100
AcDbArc
 50
60
 51
114
  0
LINE
  5
1485
330
A02
100
AcDbEntity
  8
Body
100
AcDbLine
 10
-77.9242
 20
-126.646
 30
10.0076
 11
-81.2448
 21
-128.765
 31
10.0076
  0
ARC
  5
1486
330
A02
100
AcDbEntity
  8
Body
100
AcDbCircle
 10
-90.5217
 20
-119.274
 30
10.0076
 40
13.2715
100
AcDbArc
 50
-52.2147
 51
-45.6519
  0
ARC
  5
1487
330
A02
100
AcDbEntity
  8
Body
100
AcDbCircle
 10
-87.7614
 20
-123.598
 30
10.0076
 40
8.17611
100
AcDbArc
 50
-72.746
 51
-48.9333
  0
ARC
  5
1488
330
A02
100
AcDbEntity
  8
Body
100
AcDbCircle
 10
-77.2168
 20
-130.446
 30
10.0076
 40
8.17611
100
AcDbArc
 50
162.933
 51
-173.254
  0
LINE
  5
1489
330
A02
100
AcDbEntity
  8
Body
100
AcDbLine
 10
-85.0329
 20
-128.046
 30
10.0076
 11
-84.587
 21
-126.594
 31
10.0076
  0
ARC
  5
148A
330
A02
100
AcDbEntity
  8
Body
100
AcDbCircle
 10
-97.2741
 20
-122.699
 30
10.0076
 40
13.2715
100
AcDbArc
 50
-17.0667
 51
-1.84053e-13
  0
ARC
  5
148B
330
A02
100
AcDbEntity
  8
Body
100
AcDbCircle
 10
-89.1461
 20
-122.699
 30
10.0076
 40
5.1435
100
AcDbArc
 50
3.16602e-13
 51
54
  0
ARC
  5
148C
330
A02
100
AcDbEntity
  8
Body
100
AcDbCircle
 10
-89.1461
 20
-122.699
 30
10.0076
 40
5.1435
100
AcDbArc
 50
54
 51
108
  0
LINE
  5
148D
330
A02
100
AcDbEntity
  8
Body
100
AcDbLine
 10
-90.7355
 20
-117.807
 30
10.0076
 11
-94.2593
 21
-119.567
 31
10.0076
  0
ARC
  5
148E
330
A02
100
AcDbEntity
  8
Body
100
AcDbCircle
 10
-102.493
 20
-109.158
 30
10.0076
 40
13.2715
100
AcDbArc
 50
-58.2147
 51
-51.6519
  0
ARC
  5
148F
330
A02
100
AcDbEntity
  8
Body
100
AcDbCircle
 10
-100.2
 20
-113.748
 30
10.0076
 40
8.17611
100
AcDbArc
 50
-78.746
 51
-54.9333
  0
ARC
  5
1490
330
A02
100
AcDbEntity
  8
Body
100
AcDbCircle
 10
-90.4291
 20
-121.66
 30
10.0076
 40
8.17611
100
AcDbArc
 50
156.933
 51
-179.254
  0
LINE
  5
1491
330
A02
100
AcDbEntity
  8
Body
100
AcDbLine
 10
-97.9516
 20
-118.457
 30
10.0076
 11
-97.3563
 21
-117.059
 31
10.0076
  0
ARC
  5
1492
330
A02
100
AcDbEntity
  8
Body
100
AcDbCircle
 10
-109.567
 20
-111.859
 30
10.0076
 40
13.2715
100
AcDbArc
 50
-23.0667
 51
-6
  0
ARC
  5
1493
330
A02
100
AcDbEntity
  8
Body
100
AcDbCircle
 10
-101.483
 20
-112.709
 30
10.0076
 40
5.1435
100
AcDbArc
 50
-6
 51
48
  0
ARC
  5
1494
330
A02
100
AcDbEntity
  8
Body
100
AcDbCircle
 10
-101.483
 20
-112.709
 30
10.0076
 40
5.1435
100
AcDbArc
 50
48
 51
102
  0
LINE
  5
1495
330
A02
100
AcDbEntity
  8
Body
100
AcDbLine
 10
-102.553
 20
-107.677
 30
10.0076
 11
-106.241
 21
-109.059
 31
10.0076
  0
ARC
  5
1496
330
A02
100
AcDbEntity
  8
Body
100
AcDbCircle
 10
-113.342
 20
-97.847
 30
10.0076
 40
13.2715
100
AcDbArc
 50
-64.2147
 51
-57.6519
  0
ARC
  5
1497
330
A02
100
AcDbEntity
  8
Body
100
AcDbCircle
 10
-111.541
 20
-102.651
 30
10.0076
 40
8.17611
100
AcDbArc
 50
-84.746
 51
-60.9333
  0
ARC
  5
1498
330
A02
100
AcDbEntity
  8
Body
100
AcDbCircle
 10
-102.651
 20
-111.541
 30
10.0076
 40
8.17611
100
AcDbArc
 50
150.933
 51
174.746
  0
LINE
  5
1499
330
A02
100
AcDbEntity
  8
Body
100
AcDbLine
 10
-109.797
 20
-107.569
 30
10.0076
 11
-109.059
 21
-106.241
 31
10.0076
  0
ARC
  5
149A
330
A02
100
AcDbEntity
  8
Body
100
AcDbCircle
 10
-120.659
 20
-99.7934
 30
10.0076
 40
13.2715
100
AcDbArc
 50
-29.0667
 51
-12
  0
ARC
  5
149B
330
A02
100
AcDbEntity
  8
Body
100
AcDbCircle
 10
-112.709
 20
-101.483
 30
10.0076
 40
5.1435
100
AcDbArc
 50
-12
 51
42
  0
ARC
  5
149C
330
A02
100
AcDbEntity
  8
Body
100
AcDbCircle
 10
-112.709
 20
-101.483
 30
10.0076
 40
5.1435
100
AcDbArc
 50
42
 51
96
  0
LINE
  5
149D
330
A02
100
AcDbEntity
  8
Body
100
AcDbLine
 10
-113.246
 20
-96.368
 30
10.0076
 11
-117.059
 21
-97.3563
 31
10.0076
  0
ARC
  5
149E
330
A02
100
AcDbEntity
  8
Body
100
AcDbCircle
 10
-122.949
 20
-85.4635
 30
10.0076
 40
13.2715
100
AcDbArc
 50
-70.2147
 51
-63.6519
  0
ARC
  5
149F
330
A02
100
AcDbEntity
  8
Body
100
AcDbCircle
 10
-121.66
 20
-90.4291
 30
10.0076
 40
8.17611
100
AcDbArc
 50
-90.746
 51
-66.9333
  0
ARC
  5
14A0
330
A02
100
AcDbEntity
  8
Body
100
AcDbCircle
 10
-113.748
 20
-100.2
 30
10.0076
 40
8.17611
100
AcDbArc
 50
144.933
 51
168.746
  0
LINE
  5
14A1
330
A02
100
AcDbEntity
  8
Body
100
AcDbLine
 10
-120.44
 20
-95.5028
 30
10.0076
 11
-119.567
 21
-94.2593
 31
10.0076
  0
ARC
  5
14A2
330
A02
100
AcDbEntity
  8
Body
100
AcDbCircle
 10
-130.429
 20
-86.6344
 30
10.0076
 40
13.2715
100
AcDbArc
 50
-35.0667
 51
-18
  0
ARC
  5
14A3
330
A02
100
AcDbEntity
  8
Body
100
AcDbCircle
 10
-122.699
 20
-89.1461
 30
10.0076
 40
5.1435
100
AcDbArc
 50
-18
 51
36
  0
ARC
  5
14A4
330
A02
100
AcDbEntity
  8
Body
100
AcDbCircle
 10
-122.699
 20
-89.1461
 30
10.0076
 40
5.1435
100
AcDbArc
 50
36
 51
90
  0
LINE
  5
14A5
330
A02
100
AcDbEntity
  8
Body
100
AcDbLine
 10
-122.699
 20
-84.0026
 30
10.0076
 11
-126.594
 21
-84.587
 31
10.0076
  0
ARC
  5
14A6
330
A02
100
AcDbEntity
  8
Body
100
AcDbCircle
 10
-131.209
 20
-72.1437
 30
10.0076
 40
13.2715
100
AcDbArc
 50
-76.2147
 51
-69.6519
  0
ARC
  5
14A7
330
A02
100
AcDbEntity
  8
Body
100
AcDbCircle
 10
-130.446
 20
-77.2168
 30
10.0076
 40
8.17611
100
AcDbArc
 50
-96.746
 51
-72.9333
  0
ARC
  5
14A8
330
A02
100
AcDbEntity
  8
Body
100
AcDbCircle
 10
-123.598
 20
-87.7614
 30
10.0076
 40
8.17611
100
AcDbArc
 50
138.933
 51
162.746
  0
LINE
  5
14A9
330
A02
100
AcDbEntity
  8
Body
100
AcDbLine
 10
-129.763
 20
-82.3902
 30
10.0076
 11
-128.765
 21
-81.2448
 31
10.0076
  0
ARC
  5
14AA
330
A02
100
AcDbEntity
  8
Body
100
AcDbCircle
 10
-138.77
 20
-72.5262
 30
10.0076
 40
13.2715
100
AcDbArc
 50
-41.0667
 51
-24
  0
ARC
  5
14AB
330
A02
100
AcDbEntity
  8
Body
100
AcDbCircle
 10
-131.345
 20
-75.8322
 30
10.0076
 40
5.1435
100
AcDbArc
 50
-24
 51
30
  0
ARC
  5
14AC
330
A02
100
AcDbEntity
  8
Body
100
AcDbCircle
 10
-131.345
 20
-75.8322
 30
10.0076
 40
5.1435
100
AcDbArc
 50
30
 51
84
  0
LINE
  5
14AD
330
A02
100
AcDbEntity
  8
Body
100
AcDbLine
 10
-130.808
 20
-70.7169
 30
10.0076
 11
-134.742
 21
-70.891
 31
10.0076
  0
ARC
  5
14AE
330
A02
100
AcDbEntity
  8
Body
100
AcDbCircle
 10
-138.031
 20
-58.0334
 30
10.0076
 40
13.2715
100
AcDbArc
 50
-82.2147
 51
-75.6519
  0
ARC
  5
14AF
330
A02
100
AcDbEntity
  8
Body
100
AcDbCircle
 10
-137.803
 20
-63.1585
 30
10.0076
 40
8.17611
100
AcDbArc
 50
-102.746
 51
-78.9333
  0
ARC
  5
14B0
330
A02
100
AcDbEntity
  8
Body
100
AcDbCircle
 10
-132.095
 20
-74.3611
 30
10.0076
 40
8.17611
100
AcDbArc
 50
132.933
 51
156.746
  0
LINE
  5
14B1
330
A02
100
AcDbEntity
  8
Body
100
AcDbLine
 10
-137.664
 20
-68.375
 30
10.0076
 11
-136.552
 21
-67.3401
 31
10.0076
  0
ARC
  5
14B2
330
A02
100
AcDbEntity
  8
Body
100
AcDbCircle
 10
-145.591
 20
-57.6235
 30
10.0076
 40
13.2715
100
AcDbArc
 50
-47.0667
 51
-30
  0
ARC
  5
14B3
330
A02
100
AcDbEntity
  8
Body
100
AcDbCircle
 10
-138.552
 20
-61.6875
 30
10.0076
 40
5.1435
100
AcDbArc
 50
-30
 51
24
  0
ARC
  5
14B4
330
A02
100
AcDbEntity
  8
Body
100
AcDbCircle
 10
-138.552
 20
-61.6875
 30
10.0076
 40
5.1435
100
AcDbArc
 50
24
 51
78
  0
LINE
  5
14B5
330
A02
100
AcDbEntity
  8
Body
100
AcDbLine
 10
-137.483
 20
-56.6564
 30
10.0076
 11
-141.414
 21
-56.4182
 31
10.0076
  0
ARC
  5
14B6
330
A02
100
AcDbEntity
  8
Body
100
AcDbCircle
 10
-143.341
 20
-43.2873
 30
10.0076
 40
13.2715
100
AcDbArc
 50
-88.2147
 51
-81.6519
  0
ARC
  5
14B7
330
A02
100
AcDbEntity
  8
Body
100
AcDbCircle
 10
-143.65
 20
-48.4082
 30
10.0076
 40
8.17611
100
AcDbArc
 50
-108.746
 51
-84.9333
  0
ARC
  5
14B8
330
A02
100
AcDbEntity
  8
Body
100
AcDbCircle
 10
-139.144
 20
-60.1461
 30
10.0076
 40
8.17611
100
AcDbArc
 50
126.933
 51
150.746
  0
LINE
  5
14B9
330
A02
100
AcDbEntity
  8
Body
100
AcDbLine
 10
-144.057
 20
-53.6107
 30
10.0076
 11
-142.842
 21
-52.6977
 31
10.0076
  0
ARC
  5
14BA
330
A02
100
AcDbEntity
  8
Body
100
AcDbCircle
 10
-150.817
 20
-42.0894
 30
10.0076
 40
13.2715
100
AcDbArc
 50
-53.0667
 51
-36
  0
ARC
  5
14BB
330
A02
100
AcDbEntity
  8
Body
100
AcDbCircle
 10
-144.241
 20
-46.8669
 30
10.0076
 40
5.1435
100
AcDbArc
 50
-36
 51
18
  0
ARC
  5
14BC
330
A02
100
AcDbEntity
  8
Body
100
AcDbCircle
 10
-144.241
 20
-46.8669
 30
10.0076
 40
5.1435
100
AcDbArc
 50
18
 51
72
  0
LINE
  5
14BD
330
A02
100
AcDbEntity
  8
Body
100
AcDbLine
 10
-142.652
 20
-41.9751
 30
10.0076
 11
-146.537
 21
-41.3273
 31
10.0076
  0
ARC
  5
14BE
330
A02
100
AcDbEntity
  8
Body
100
AcDbCircle
 10
-147.081
 20
-28.067
 30
10.0076
 40
13.2715
100
AcDbArc
 50
-94.2147
 51
-87.6519
  0
ARC
  5
14BF
330
A02
100
AcDbEntity
  8
Body
100
AcDbCircle
 10
-147.923
 20
-33.1275
 30
10.0076
 40
8.17611
100
AcDbArc
 50
-114.746
 51
-90.9333
  0
ARC
  5
14C0
330
A02
100
AcDbEntity
  8
Body
100
AcDbCircle
 10
-144.669
 20
-45.2721
 30
10.0076
 40
8.17611
100
AcDbArc
 50
120.933
 51
144.746
  0
LINE
  5
14C1
330
A02
100
AcDbEntity
  8
Body
100
AcDbLine
 10
-148.872
 20
-38.2589
 30
10.0076
 11
-147.568
 21
-37.4779
 31
10.0076
  0
ARC
  5
14C2
330
A02
100
AcDbEntity
  8
Body
100
AcDbCircle
 10
-154.39
 20
-26.0941
 30
10.0076
 40
13.2715
100
AcDbArc
 50
-59.0667
 51
-42
  0
ARC
  5
14C3
330
A02
100
AcDbEntity
  8
Body
100
AcDbCircle
 10
-148.35
 20
-31.5328
 30
10.0076
 40
5.1435
100
AcDbArc
 50
-42
 51
12
  0
ARC
  5
14C4
330
A02
100
AcDbEntity
  8
Body
100
AcDbCircle
 10
-148.35
 20
-31.5328
 30
10.0076
 40
5.1435
100
AcDbArc
 50
12
 51
66
  0
LINE
  5
14C5
330
A02
100
AcDbEntity
  8
Body
100
AcDbLine
 10
-146.258
 20
-26.834
 30
10.0076
 11
-150.054
 21
-25.7836
 31
10.0076
  0
ARC
  5
14C6
330
A02
100
AcDbEntity
  8
Body
100
AcDbCircle
 10
-149.209
 20
-12.5391
 30
10.0076
 40
13.2715
100
AcDbArc
 50
-100.215
 51
-93.6519
  0
ARC
  5
14C7
330
A02
100
AcDbEntity
  8
Body
100
AcDbCircle
 10
-150.575
 20
-17.4839
 30
10.0076
 40
8.17611
100
AcDbArc
 50
-120.746
 51
-96.9333
  0
ARC
  5
14C8
330
A02
100
AcDbEntity
  8
Body
100
AcDbCircle
 10
-148.608
 20
-29.9021
 30
10.0076
 40
8.17611
100
AcDbArc
 50
114.933
 51
138.746
  0
LINE
  5
14C9
330
A02
100
AcDbEntity
  8
Body
100
AcDbLine
 10
-152.055
 20
-22.488
 30
10.0076
 11
-150.677
 21
-21.8475
 31
10.0076
  0
ARC
  5
14CA
330
A02
100
AcDbEntity
  8
Body
100
AcDbCircle
 10
-156.272
 20
-9.81296
 30
10.0076
 40
13.2715
100
AcDbArc
 50
-65.0667
 51
-48
  0
ARC
  5
14CB
330
A02
100
AcDbEntity
  8
Body
100
AcDbCircle
 10
-150.834
 20
-15.8532
 30
10.0076
 40
5.1435
100
AcDbArc
 50
-48
 51
6
  0
ARC
  5
14CC
330
A02
100
AcDbEntity
  8
Body
100
AcDbCircle
 10
-150.834
 20
-15.8532
 30
10.0076
 40
5.1435
100
AcDbArc
 50
6
 51
60
  0
LINE
  5
14CD
330
A02
100
AcDbEntity
  8
Body
100
AcDbLine
 10
-148.262
 20
-11.3988
 30
10.0076
 11
-151.927
 21
-9.95748
 31
10.0076
  0
ARC
  5
14CE
330
A02
100
AcDbEntity
  8
Body
100
AcDbCircle
 10
-149.702
 20
3.12615
 30
10.0076
 40
13.2715
100
AcDbArc
 50
-106.215
 51
-99.6519
  0
ARC
  5
14CF
330
A02
100
AcDbEntity
  8
Body
100
AcDbCircle
 10
-151.578
 20
-1.64874
 30
10.0076
 40
8.17611
100
AcDbArc
 50
-126.746
 51
-102.933
  0
ARC
  5
14D0
330
A02
100
AcDbEntity
  8
Body
100
AcDbCircle
 10
-150.92
 20
-14.2045
 30
10.0076
 40
8.17611
100
AcDbArc
 50
108.933
 51
132.746
  0
LINE
  5
14D1
330
A02
100
AcDbEntity
  8
Body
100
AcDbLine
 10
-153.573
 20
-6.47075
 30
10.0076
 11
-152.136
 21
-5.97778
 31
10.0076
  0
ARC
  5
14D2
330
A02
100
AcDbEntity
  8
Body
100
AcDbCircle
 10
-156.442
 20
6.57569
 30
10.0076
 40
13.2715
100
AcDbArc
 50
-71.0667
 51
-54
  0
ARC
  5
14D3
330
A02
100
AcDbEntity
  8
Body
100
AcDbCircle
 10
-151.664
 20
-6.09512e-14
 30
10.0076
 40
5.1435
100
AcDbArc
 50
-54
 51
3.71018e-13
  0
ARC
  5
14D4
330
A02
100
AcDbEntity
  8
Body
100
AcDbCircle
 10
-151.664
 20
3.21965e-15
 30
10.0076
 40
5.1435
100
AcDbArc
 50
-3.35688e-13
 51
54
  0
LINE
  5
14D5
330
A02
100
AcDbEntity
  8
Body
100
AcDbLine
 10
-148.641
 20
4.16118
 30
10.0076
 11
-152.136
 21
5.97778
 31
10.0076
  0
ARC
  5
14D6
330
A02
100
AcDbEntity
  8
Body
100
AcDbCircle
 10
-148.555
 20
18.7571
 30
10.0076
 40
13.2715
100
AcDbArc
 50
-112.215
 51
-105.652
  0
ARC
  5
14D7
330
A02
100
AcDbEntity
  8
Body
100
AcDbCircle
 10
-150.92
 20
14.2045
 30
10.0076
 40
8.17611
100
AcDbArc
 50
-132.746
 51
-108.933
  0
ARC
  5
14D8
330
A02
100
AcDbEntity
  8
Body
100
AcDbCircle
 10
-151.578
 20
1.64874
 30
10.0076
 40
8.17611
100
AcDbArc
 50
102.933
 51
126.746
  0
LINE
  5
14D9
330
A02
100
AcDbEntity
  8
Body
100
AcDbLine
 10
-153.408
 20
9.61743
 30
10.0076
 11
-151.927
 21
9.95748
 31
10.0076
  0
ARC
  5
14DA
330
A02
100
AcDbEntity
  8
Body
100
AcDbCircle
 10
-154.898
 20
22.8923
 30
10.0076
 40
13.2715
100
AcDbArc
 50
-77.0667
 51
-60
  0
ARC
  5
14DB
330
A02
100
AcDbEntity
  8
Body
100
AcDbCircle
 10
-150.834
 20
15.8532
 30
10.0076
 40
5.1435
100
AcDbArc
 50
-60
 51
-6
  0
ARC
  5
14DC
330
A02
100
AcDbEntity
  8
Body
100
AcDbCircle
 10
-150.834
 20
15.8532
 30
10.0076
 40
5.1435
100
AcDbArc
 50
-6
 51
48
  0
LINE
  5
14DD
330
A02
100
AcDbEntity
  8
Body
100
AcDbLine
 10
-147.392
 20
19.6756
 30
10.0076
 11
-150.677
 21
21.8475
 31
10.0076
  0
ARC
  5
14DE
330
A02
100
AcDbEntity
  8
Body
100
AcDbCircle
 10
-145.781
 20
34.1826
 30
10.0076
 40
13.2715
100
AcDbArc
 50
-118.215
 51
-111.652
  0
ARC
  5
14DF
330
A02
100
AcDbEntity
  8
Body
100
AcDbCircle
 10
-148.608
 20
29.9021
 30
10.0076
 40
8.17611
100
AcDbArc
 50
-138.746
 51
-114.933
  0
ARC
  5
14E0
330
A02
100
AcDbEntity
  8
Body
100
AcDbCircle
 10
-150.575
 20
17.4839
 30
10.0076
 40
8.17611
100
AcDbArc
 50
96.9333
 51
120.746
  0
LINE
  5
14E1
330
A02
100
AcDbEntity
  8
Body
100
AcDbLine
 10
-151.562
 20
25.6002
 30
10.0076
 11
-150.054
 21
25.7836
 31
10.0076
  0
ARC
  5
14E2
330
A02
100
AcDbEntity
  8
Body
100
AcDbCircle
 10
-151.656
 20
38.9581
 30
10.0076
 40
13.2715
100
AcDbArc
 50
-83.0667
 51
-66
  0
ARC
  5
14E3
330
A02
100
AcDbEntity
  8
Body
100
AcDbCircle
 10
-148.35
 20
31.5328
 30
10.0076
 40
5.1435
100
AcDbArc
 50
-66
 51
-12
  0
ARC
  5
14E4
330
A02
100
AcDbEntity
  8
Body
100
AcDbCircle
 10
-148.35
 20
31.5328
 30
10.0076
 40
5.1435
100
AcDbArc
 50
-12
 51
42
  0
LINE
  5
14E5
330
A02
100
AcDbEntity
  8
Body
100
AcDbLine
 10
-144.528
 20
34.9745
 30
10.0076
 11
-147.568
 21
37.4779
 31
10.0076
  0
ARC
  5
14E6
330
A02
100
AcDbEntity
  8
Body
100
AcDbCircle
 10
-141.409
 20
49.2336
 30
10.0076
 40
13.2715
100
AcDbArc
 50
-124.215
 51
-117.652
  0
ARC
  5
14E7
330
A02
100
AcDbEntity
  8
Body
100
AcDbCircle
 10
-144.669
 20
45.2721
 30
10.0076
 40
8.17611
100
AcDbArc
 50
-144.746
 51
-120.933
  0
ARC
  5
14E8
330
A02
100
AcDbEntity
  8
Body
100
AcDbCircle
 10
-147.923
 20
33.1275
 30
10.0076
 40
8.17611
100
AcDbArc
 50
90.9333
 51
114.746
  0
LINE
  5
14E9
330
A02
100
AcDbEntity
  8
Body
100
AcDbLine
 10
-148.056
 20
41.3026
 30
10.0076
 11
-146.537
 21
41.3273
 31
10.0076
  0
ARC
  5
14EA
330
A02
100
AcDbEntity
  8
Body
100
AcDbCircle
 10
-146.753
 20
54.5971
 30
10.0076
 40
13.2715
100
AcDbArc
 50
-89.0667
 51
-72
  0
ARC
  5
14EB
330
A02
100
AcDbEntity
  8
Body
100
AcDbCircle
 10
-144.241
 20
46.8669
 30
10.0076
 40
5.1435
100
AcDbArc
 50
-72
 51
-18
  0
ARC
  5
14EC
330
A02
100
AcDbEntity
  8
Body
100
AcDbCircle
 10
-144.241
 20
46.8669
 30
10.0076
 40
5.1435
100
AcDbArc
 50
-18
 51
36
  0
LINE
  5
14ED
330
A02
100
AcDbEntity
  8
Body
100
AcDbLine
 10
-140.08
 20
49.8901
 30
10.0076
 11
-142.842
 21
52.6977
 31
10.0076
  0
ARC
  5
14EE
330
A02
100
AcDbEntity
  8
Body
100
AcDbCircle
 10
-135.488
 20
63.7452
 30
10.0076
 40
13.2715
100
AcDbArc
 50
-130.215
 51
-123.652
  0
ARC
  5
14EF
330
A02
100
AcDbEntity
  8
Body
100
AcDbCircle
 10
-139.144
 20
60.1461
 30
10.0076
 40
8.17611
100
AcDbArc
 50
-150.746
 51
-126.933
  0
ARC
  5
14F0
330
A02
100
AcDbEntity
  8
Body
100
AcDbCircle
 10
-143.65
 20
48.4082
 30
10.0076
 40
8.17611
100
AcDbArc
 50
84.9333
 51
108.746
  0
LINE
  5
14F1
330
A02
100
AcDbEntity
  8
Body
100
AcDbLine
 10
-142.928
 20
56.5524
 30
10.0076
 11
-141.414
 21
56.4182
 31
10.0076
  0
ARC
  5
14F2
330
A02
100
AcDbEntity
  8
Body
100
AcDbCircle
 10
-140.242
 20
69.6378
 30
10.0076
 40
13.2715
100
AcDbArc
 50
-95.0667
 51
-78
  0
ARC
  5
14F3
330
A02
100
AcDbEntity
  8
Body
100
AcDbCircle
 10
-138.552
 20
61.6875
 30
10.0076
 40
5.1435
100
AcDbArc
 50
-78
 51
-24
  0
ARC
  5
14F4
330
A02
100
AcDbEntity
  8
Body
100
AcDbCircle
 10
-138.552
 20
61.6875
 30
10.0076
 40
5.1435
100
AcDbArc
 50
-24
 51
30
  0
LINE
  5
14F5
330
A02
100
AcDbEntity
  8
Body
100
AcDbLine
 10
-134.098
 20
64.2592
 30
10.0076
 11
-136.552
 21
67.3401
 31
10.0076
  0
ARC
  5
14F6
330
A02
100
AcDbEntity
  8
Body
100
AcDbCircle
 10
-128.083
 20
77.5583
 30
10.0076
 40
13.2715
100
AcDbArc
 50
-136.215
 51
-129.652
  0
ARC
  5
14F7
330
A02
100
AcDbEntity
  8
Body
100
AcDbCircle
 10
-132.095
 20
74.3611
 30
10.0076
 40
8.17611
100
AcDbArc
 50
-156.746
 51
-132.933
  0
ARC
  5
14F8
330
A02
100
AcDbEntity
  8
Body
100
AcDbCircle
 10
-137.803
 20
63.1585
 30
10.0076
 40
8.17611
100
AcDbArc
 50
78.9333
 51
102.746
  0
LINE
  5
14F9
330
A02
100
AcDbEntity
  8
Body
100
AcDbLine
 10
-136.233
 20
71.1826
 30
10.0076
 11
-134.742
 21
70.891
 31
10.0076
  0
ARC
  5
14FA
330
A02
100
AcDbEntity
  8
Body
100
AcDbCircle
 10
-132.195
 20
83.9157
 30
10.0076
 40
13.2715
100
AcDbArc
 50
-101.067
 51
-84
  0
ARC
  5
14FB
330
A02
100
AcDbEntity
  8
Body
100
AcDbCircle
 10
-131.345
 20
75.8322
 30
10.0076
 40
5.1435
100
AcDbArc
 50
-84
 51
-30
  0
ARC
  5
14FC
330
A02
100
AcDbEntity
  8
Body
100
AcDbCircle
 10
-131.345
 20
75.8322
 30
10.0076
 40
5.1435
100
AcDbArc
 50
-30
 51
24
  0
LINE
  5
14FD
330
A02
100
AcDbEntity
  8
Body
100
AcDbLine
 10
-126.646
 20
77.9242
 30
10.0076
 11
-128.765
 21
81.2448
 31
10.0076
  0
ARC
  5
14FE
330
A02
100
AcDbEntity
  8
Body
100
AcDbCircle
 10
-119.274
 20
90.5217
 30
10.0076
 40
13.2715
100
AcDbArc
 50
-142.215
 51
-135.652
  0
ARC
  5
14FF
330
A02
100
AcDbEntity
  8
Body
100
AcDbCircle
 10
-123.598
 20
87.7614
 30
10.0076
 40
8.17611
100
AcDbArc
 50
-162.746
 51
-138.933
  0
ARC
  5
1500
330
A02
100
AcDbEntity
  8
Body
100
AcDbCircle
 10
-130.446
 20
77.2168
 30
10.0076
 40
8.17611
100
AcDbArc
 50
72.9333
 51
96.746
  0
LINE
  5
1501
330
A02
100
AcDbEntity
  8
Body
100
AcDbLine
 10
-128.046
 20
85.0329
 30
10.0076
 11
-126.594
 21
84.587
 31
10.0076
  0
ARC
  5
1502
330
A02
100
AcDbEntity
  8
Body
100
AcDbCircle
 10
-122.699
 20
97.2741
 30
10.0076
 40
13.2715
100
AcDbArc
 50
-107.067
 51
-90
  0
ARC
  5
1503
330
A02
100
AcDbEntity
  8
Body
100
AcDbCircle
 10
-122.699
 20
89.1461
 30
10.0076
 40
5.1435
100
AcDbArc
 50
-90
 51
-36
  0
ARC
  5
1504
330
A02
100
AcDbEntity
  8
Body
100
AcDbCircle
 10
-122.699
 20
89.1461
 30
10.0076
 40
5.1435
100
AcDbArc
 50
-36
 51
18
  0
LINE
  5
1505
330
A02
100
AcDbEntity
  8
Body
100
AcDbLine
 10
-117.807
 20
90.7355
 30
10.0076
 11
-119.567
 21
94.2593
 31
10.0076
  0
ARC
  5
1506
330
A02
100
AcDbEntity
  8
Body
100
AcDbCircle
 10
-109.158
 20
102.493
 30
10.0076
 40
13.2715
100
AcDbArc
 50
-148.215
 51
-141.652
  0
ARC
  5
1507
330
A02
100
AcDbEntity
  8
Body
100
AcDbCircle
 10
-113.748
 20
100.2
 30
10.0076
 40
8.17611
100
AcDbArc
 50
-168.746
 51
-144.933
  0
ARC
  5
1508
330
A02
100
AcDbEntity
  8
Body
100
AcDbCircle
 10
-121.66
 20
90.4291
 30
10.0076
 40
8.17611
100
AcDbArc
 50
66.9333
 51
90.746
  0
LINE
  5
1509
330
A02
100
AcDbEntity
  8
Body
100
AcDbLine
 10
-118.457
 20
97.9516
 30
10.0076
 11
-117.059
 21
97.3563
 31
10.0076
  0
ARC
  5
150A
330
A02
100
AcDbEntity
  8
Body
100
AcDbCircle
 10
-111.859
 20
109.567
 30
10.0076
 40
13.2715
100
AcDbArc
 50
-113.067
 51
-96
  0
ARC
  5
150B
330
A02
100
AcDbEntity
  8
Body
100
AcDbCircle
 10
-112.709
 20
101.483
 30
10.0076
 40
5.1435
100
AcDbArc
 50
-96
 51
-42
  0
ARC
  5
150C
330
A02
100
AcDbEntity
  8
Body
100
AcDbCircle
 10
-112.709
 20
101.483
 30
10.0076
 40
5.1435
100
AcDbArc
 50
-42
 51
12
  0
LINE
  5
150D
330
A02
100
AcDbEntity
  8
Body
100
AcDbLine
 10
-107.677
 20
102.553
 30
10.0076
 11
-109.059
 21
106.241
 31
10.0076
  0
ARC
  5
150E
330
A02
100
AcDbEntity
  8
Body
100
AcDbCircle
 10
-97.847
 20
113.342
 30
10.0076
 40
13.2715
100
AcDbArc
 50
-154.215
 51
-147.652
  0
ARC
  5
150F
330
A02
100
AcDbEntity
  8
Body
100
AcDbCircle
 10
-102.651
 20
111.541
 30
10.0076
 40
8.17611
100
AcDbArc
 50
-174.746
 51
-150.933
  0
ARC
  5
1510
330
A02
100
AcDbEntity
  8
Body
100
AcDbCircle
 10
-111.541
 20
102.651
 30
10.0076
 40
8.17611
100
AcDbArc
 50
60.9333
 51
84.746
  0
LINE
  5
1511
330
A02
100
AcDbEntity
  8
Body
100
AcDbLine
 10
-107.569
 20
109.797
 30
10.0076
 11
-106.241
 21
109.059
 31
10.0076
  0
ARC
  5
1512
330
A02
100
AcDbEntity
  8
Body
100
AcDbCircle
 10
-99.7934
 20
120.659
 30
10.0076
 40
13.2715
100
AcDbArc
 50
-119.067
 51
-102
  0
ARC
  5
1513
330
A02
100
AcDbEntity
  8
Body
100
AcDbCircle
 10
-101.483
 20
112.709
 30
10.0076
 40
5.1435
100
AcDbArc
 50
-102
 51
-48
  0
ARC
  5
1514
330
A02
100
AcDbEntity
  8
Body
100
AcDbCircle
 10
-101.483
 20
112.709
 30
10.0076
 40
5.1435
100
AcDbArc
 50
-48
 51
6
  0
LINE
  5
1515
330
A02
100
AcDbEntity
  8
Body
100
AcDbLine
 10
-96.368
 20
113.246
 30
10.0076
 11
-97.3563
 21
117.059
 31
10.0076
  0
ARC
  5
1516
330
A02
100
AcDbEntity
  8
Body
100
AcDbCircle
 10
-85.4635
 20
122.949
 30
10.0076
 40
13.2715
100
AcDbArc
 50
-160.215
 51
-153.652
  0
ARC
  5
1517
330
A02
100
AcDbEntity
  8
Body
100
AcDbCircle
 10
-90.4291
 20
121.66
 30
10.0076
 40
8.17611
100
AcDbArc
 50
179.254
 51
-156.933
  0
ARC
  5
1518
330
A02
100
AcDbEntity
  8
Body
100
AcDbCircle
 10
-100.2
 20
113.748
 30
10.0076
 40
8.17611
100
AcDbArc
 50
54.9333
 51
78.746
  0
LINE
  5
1519
330
A02
100
AcDbEntity
  8
Body
100
AcDbLine
 10
-95.5028
 20
120.44
 30
10.0076
 11
-94.2593
 21
119.567
 31
10.0076
  0
ARC
  5
151A
330
A02
100
AcDbEntity
  8
Body
100
AcDbCircle
 10
-86.6344
 20
130.429
 30
10.0076
 40
13.2715
100
AcDbArc
 50
-125.067
 51
-108
  0
ARC
  5
151B
330
A02
100
AcDbEntity
  8
Body
100
AcDbCircle
 10
-89.1461
 20
122.699
 30
10.0076
 40
5.1435
100
AcDbArc
 50
-108
 51
-54
  0
ARC
  5
151C
330
A02
100
AcDbEntity
  8
Body
100
AcDbCircle
 10
-89.1461
 20
122.699
 30
10.0076
 40
5.1435
100
AcDbArc
 50
-54
 51
-3.16602e-13
  0
LINE
  5
151D
330
A02
100
AcDbEntity
  8
Body
100
AcDbLine
 10
-84.0026
 20
122.699
 30
10.0076
 11
-84.587
 21
126.594
 31
10.0076
  0
ARC
  5
151E
330
A02
100
AcDbEntity
  8
Body
100
AcDbCircle
 10
-72.1437
 20
131.209
 30
10.0076
 40
13.2715
100
AcDbArc
 50
-166.215
 51
-159.652
  0
ARC
  5
151F
330
A02
100
AcDbEntity
  8
Body
100
AcDbCircle
 10
-77.2168
 20
130.446
 30
10.0076
 40
8.17611
100
AcDbArc
 50
173.254
 51
-162.933
  0
ARC
  5
1520
330
A02
100
AcDbEntity
  8
Body
100
AcDbCircle
 10
-87.7614
 20
123.598
 30
10.0076
 40
8.17611
100
AcDbArc
 50
48.9333
 51
72.746
  0
LINE
  5
1521
330
A02
100
AcDbEntity
  8
Body
100
AcDbLine
 10
-82.3902
 20
129.763
 30
10.0076
 11
-81.2448
 21
128.765
 31
10.0076
  0
ARC
  5
1522
330
A02
100
AcDbEntity
  8
Body
100
AcDbCircle
 10
-72.5262
 20
138.77
 30
10.0076
 40
13.2715
100
AcDbArc
 50
-131.067
 51
-114
  0
ARC
  5
1523
330
A02
100
AcDbEntity
  8
Body
100
AcDbCircle
 10
-75.8322
 20
131.345
 30
10.0076
 40
5.1435
100
AcDbArc
 50
-114
 51
-60
  0
ARC
  5
1524
330
A02
100
AcDbEntity
  8
Body
100
AcDbCircle
 10
-75.8322
 20
131.345
 30
10.0076
 40
5.1435
100
AcDbArc
 50
-60
 51
-6
  0
LINE
  5
1525
330
A02
100
AcDbEntity
  8
Body
100
AcDbLine
 10
-70.7169
 20
130.808
 30
10.0076
 11
-70.891
 21
134.742
 31
10.0076
  0
ARC
  5
1526
330
A02
100
AcDbEntity
  8
Body
100
AcDbCircle
 10
-58.0334
 20
138.031
 30
10.0076
 40
13.2715
100
AcDbArc
 50
-172.215
 51
-165.652
  0
ARC
  5
1527
330
A02
100
AcDbEntity
  8
Body
100
AcDbCircle
 10
-63.1585
 20
137.803
 30
10.0076
 40
8.17611
100
AcDbArc
 50
167.254
 51
-168.933
  0
ARC
  5
1528
330
A02
100
AcDbEntity
  8
Body
100
AcDbCircle
 10
-74.3611
 20
132.095
 30
10.0076
 40
8.17611
100
AcDbArc
 50
42.9333
 51
66.746
  0
LINE
  5
1529
330
A02
100
AcDbEntity
  8
Body
100
AcDbLine
 10
-68.375
 20
137.664
 30
10.0076
 11
-67.3401
 21
136.552
 31
10.0076
  0
ARC
  5
152A
330
A02
100
AcDbEntity
  8
Body
100
AcDbCircle
 10
-57.6235
 20
145.591
 30
10.0076
 40
13.2715
100
AcDbArc
 50
-137.067
 51
-120
  0
ARC
  5
152B
330
A02
100
AcDbEntity
  8
Body
100
AcDbCircle
 10
-61.6875
 20
138.552
 30
10.0076
 40
5.1435
100
AcDbArc
 50
-120
 51
-66
  0
ARC
  5
152C
330
A02
100
AcDbEntity
  8
Body
100
AcDbCircle
 10
-61.6875
 20
138.552
 30
10.0076
 40
5.1435
100
AcDbArc
 50
-66
 51
-12
  0
LINE
  5
152D
330
A02
100
AcDbEntity
  8
Body
100
AcDbLine
 10
-56.6564
 20
137.483
 30
10.0076
 11
-56.4182
 21
141.414
 31
10.0076
  0
ARC
  5
152E
330
A02
100
AcDbEntity
  8
Body
100
AcDbCircle
 10
-43.2873
 20
143.341
 30
10.0076
 40
13.2715
100
AcDbArc
 50
-178.215
 51
-171.652
  0
ARC
  5
152F
330
A02
100
AcDbEntity
  8
Body
100
AcDbCircle
 10
-48.4082
 20
143.65
 30
10.0076
 40
8.17611
100
AcDbArc
 50
161.254
 51
-174.933
  0
ARC
  5
1530
330
A02
100
AcDbEntity
  8
Body
100
AcDbCircle
 10
-60.1461
 20
139.144
 30
10.0076
 40
8.17611
100
AcDbArc
 50
36.9333
 51
60.746
  0
LINE
  5
1531
330
A02
100
AcDbEntity
  8
Body
100
AcDbLine
 10
-53.6107
 20
144.057
 30
10.0076
 11
-52.6977
 21
142.842
 31
10.0076
  0
ARC
  5
1532
330
A02
100
AcDbEntity
  8
Body
100
AcDbCircle
 10
-42.0894
 20
150.817
 30
10.0076
 40
13.2715
100
AcDbArc
 50
-143.067
 51
-126
  0
ARC
  5
1533
330
A02
100
AcDbEntity
  8
Body
100
AcDbCircle
 10
-46.8669
 20
144.241
 30
10.0076
 40
5.1435
100
AcDbArc
 50
-126
 51
-72
  0
ARC
  5
1534
330
A02
100
AcDbEntity
  8
Body
100
AcDbCircle
 10
-46.8669
 20
144.241
 30
10.0076
 40
5.1435
100
AcDbArc
 50
-72
 51
-18
  0
LINE
  5
1535
330
A02
100
AcDbEntity
  8
Body
100
AcDbLine
 10
-41.9751
 20
142.652
 30
10.0076
 11
-41.3273
 21
146.537
 31
10.0076
  0
ARC
  5
1536
330
A02
100
AcDbEntity
  8
Body
100
AcDbCircle
 10
-28.067
 20
147.081
 30
10.0076
 40
13.2715
100
AcDbArc
 50
175.785
 51
-177.652
  0
ARC
  5
1537
330
A02
100
AcDbEntity
  8
Body
100
AcDbCircle
 10
-33.1275
 20
147.923
 30
10.0076
 40
8.17611
100
AcDbArc
 50
155.254
 51
179.067
  0
ARC
  5
1538
330
A02
100
AcDbEntity
  8
Body
100
AcDbCircle
 10
-45.2721
 20
144.669
 30
10.0076
 40
8.17611
100
AcDbArc
 50
30.9333
 51
54.746
  0
LINE
  5
1539
330
A02
100
AcDbEntity
  8
Body
100
AcDbLine
 10
-38.2589
 20
148.872
 30
10.0076
 11
-37.4779
 21
147.568
 31
10.0076
  0
ARC
  5
153A
330
A02
100
AcDbEntity
  8
Body
100
AcDbCircle
 10
-26.0941
 20
154.39
 30
10.0076
 40
13.2715
100
AcDbArc
 50
-149.067
 51
-132
  0
ARC
  5
153B
330
A02
100
AcDbEntity
  8
Body
100
AcDbCircle
 10
-31.5328
 20
148.35
 30
10.0076
 40
5.1435
100
AcDbArc
 50
-132
 51
-78
  0
ARC
  5
153C
330
A02
100
AcDbEntity
  8
Body
100
AcDbCircle
 10
-31.5328
 20
148.35
 30
10.0076
 40
5.1435
100
AcDbArc
 50
-78
 51
-24
  0
LINE
  5
153D
330
A02
100
AcDbEntity
  8
Body
100
AcDbLine
 10
-26.834
 20
146.258
 30
10.0076
 11
-25.7836
 21
150.054
 31
10.0076
  0
ARC
  5
153E
330
A02
100
AcDbEntity
  8
Body
100
AcDbCircle
 10
-12.5391
 20
149.209
 30
10.0076
 40
13.2715
100
AcDbArc
 50
169.785
 51
176.348
  0
ARC
  5
153F
330
A02
100
AcDbEntity
  8
Body
100
AcDbCircle
 10
-17.4839
 20
150.575
 30
10.0076
 40
8.17611
100
AcDbArc
 50
149.254
 51
173.067
  0
ARC
  5
1540
330
A02
100
AcDbEntity
  8
Body
100
AcDbCircle
 10
-29.9021
 20
148.608
 30
10.0076
 40
8.17611
100
AcDbArc
 50
24.9333
 51
48.746
  0
LINE
  5
1541
330
A02
100
AcDbEntity
  8
Body
100
AcDbLine
 10
-22.488
 20
152.055
 30
10.0076
 11
-21.8475
 21
150.677
 31
10.0076
  0
ARC
  5
1542
330
A02
100
AcDbEntity
  8
Body
100
AcDbCircle
 10
-9.81296
 20
156.272
 30
10.0076
 40
13.2715
100
AcDbArc
 50
-155.067
 51
-138
  0
ARC
  5
1543
330
A02
100
AcDbEntity
  8
Body
100
AcDbCircle
 10
-15.8532
 20
150.834
 30
10.0076
 40
5.1435
100
AcDbArc
 50
-138
 51
-84
  0
ARC
  5
1544
330
A02
100
AcDbEntity
  8
Body
100
AcDbCircle
 10
-15.8532
 20
150.834
 30
10.0076
 40
5.1435
100
AcDbArc
 50
-84
 51
-30
  0
LINE
  5
1545
330
A02
100
AcDbEntity
  8
Body
100
AcDbLine
 10
-11.3988
 20
148.262
 30
10.0076
 11
-9.95748
 21
151.927
 31
10.0076
  0
ARC
  5
1546
330
A02
100
AcDbEntity
  8
Body
100
AcDbCircle
 10
3.12615
 20
149.702
 30
10.0076
 40
13.2715
100
AcDbArc
 50
163.785
 51
170.348
  0
ARC
  5
1547
330
A02
100
AcDbEntity
  8
Body
100
AcDbCircle
 10
-1.64874
 20
151.578
 30
10.0076
 40
8.17611
100
AcDbArc
 50
143.254
 51
167.067
  0
ENDSEC
  0
SECTION
  2
OBJECTS
  0
DICTIONARY
  5
F000
330
0
100
AcDbDictionary
  3
ACAD_GROUP
350
F001
  0
DICTIONARY
  5
F001
330
F000
100
AcDbDictionary
  0
ENDSEC
  0
EOF