  0
SECTION
  2
HEADER
  9
$ACADVER
  1
AC1027
  9
$ACADMAINTVER
 70
   125
  9
$DWGCODEPAGE
  3
ANSI_1252
  9
$REQUIREDVERSIONS
160
                 0
  9
$INSBASE
 10
0.0
 20
0.0
 30
0.0
  9
$EXTMIN
 10
1.000000000000000E+20
 20
1.000000000000000E+20
 30
1.000000000000000E+20
  9
$EXTMAX
 10
-1.000000000000000E+20
 20
-1.000000000000000E+20
 30
-1.000000000000000E+20
  9
$LIMMIN
 10
0.0
 20
0.0
  9
$LIMMAX
 10
12.0
 20
9.0
  9
$ORTHOMODE
 70
     0
  9
$REGENMODE
 70
     1
  9
$FILLMODE
 70
     1
  9
$QTEXTMODE
 70
     0
  9
$MIRRTEXT
 70
     0
  9
$LTSCALE
 40
1.0
  9
$ATTMODE
 70
     1
  9
$TEXTSIZE
 40
0.2
  9
$TRACEWID
 40
0.05
  9
$TEXTSTYLE
  7
Standard
  9
$CLAYER
  8
0
  9
$CELTYPE
  6
ByLayer
  9
$CECOLOR
 62
   256
  9
$CELTSCALE
 40
1.0
  9
$DISPSILH
 70
     0
  9
$DIMSCALE
 40
1.0
  9
$DIMASZ
 40
0.18
  9
$DIMEXO
 40
0.0625
  9
$DIMDLI
 40
0.38
  9
$DIMRND
 40
0.0
  9
$DIMDLE
 40
0.0
  9
$DIMEXE
 40
0.18
  9
$DIMTP
 40
0.0
  9
$DIMTM
 40
0.0
  9
$DIMTXT
 40
0.18
  9
$DIMCEN
 40
0.09
  9
$DIMTSZ
 40
0.0
  9
$DIMTOL
 70
     0
  9
$DIMLIM
 70
     0
  9
$DIMTIH
 70
     1
  9
$DIMTOH
 70
     1
  9
$DIMSE1
 70
     0
  9
$DIMSE2
 70
     0
  9
$DIMTAD
 70
     0
  9
$DIMZIN
 70
     0
  9
$DIMBLK
  1

  9
$DIMASO
 70
     1
  9
$DIMSHO
 70
     1
  9
$DIMPOST
  1

  9
$DIMAPOST
  1

  9
$DIMALT
 70
     0
  9
$DIMALTD
 70
     2
  9
$DIMALTF
 40
25.4
  9
$DIMLFAC
 40
1.0
  9
$DIMTOFL
 70
     0
  9
$DIMTVP
 40
0.0
  9
$DIMTIX
 70
     0
  9
$DIMSOXD
 70
     0
  9
$DIMSAH
 70
     0
  9
$DIMBLK1
  1

  9
$DIMBLK2
  1

  9
$DIMSTYLE
  2
Standard
  9
$DIMCLRD
 70
     0
  9
$DIMCLRE
 70
     0
  9
$DIMCLRT
 70
     0
  9
$DIMTFAC
 40
1.0
  9
$DIMGAP
 40
0.09
  9
$DIMJUST
 70
     0
  9
$DIMSD1
 70
     0
  9
$DIMSD2
 70
     0
  9
$DIMTOLJ
 70
     1
  9
$DIMTZIN
 70
     0
  9
$DIMALTZ
 70
     0
  9
$DIMALTTZ
 70
     0
  9
$DIMUPT
 70
     0
  9
$DIMDEC
 70
     4
  9
$DIMTDEC
 70
     4
  9
$DIMALTU
 70
     2
  9
$DIMALTTD
 70
     2
  9
$DIMTXSTY
  7
Standard
  9
$DIMAUNIT
 70
     0
  9
$DIMADEC
 70
     0
  9
$DIMALTRND
 40
0.0
  9
$DIMAZIN
 70
     0
  9
$DIMDSEP
 70
    46
  9
$DIMATFIT
 70
     3
  9
$DIMFRAC
 70
     0
  9
$DIMLDRBLK
  1

  9
$DIMLUNIT
 70
     2
  9
$DIMLWD
 70
    -2
  9
$DIMLWE
 70
    -2
  9
$DIMTMOVE
 70
     0
  9
$DIMFXL
 40
1.0
  9
$DIMFXLON
 70
     0
  9
$DIMJOGANG
 40
0.7853981633974483
  9
$DIMTFILL
 70
     0
  9
$DIMTFILLCLR
 70
     0
  9
$DIMARCSYM
 70
     0
  9
$DIMLTYPE
  6

  9
$DIMLTEX1
  6

  9
$DIMLTEX2
  6

  9
$DIMTXTDIRECTION
 70
     0
  9
$LUNITS
 70
     2
  9
$LUPREC
 70
     4
  9
$SKETCHINC
 40
0.1
  9
$FILLETRAD
 40
0.0
  9
$AUNITS
 70
     0
  9
$AUPREC
 70
     0
  9
$MENU
  1
.
  9
$ELEVATION
 40
0.0
  9
$PELEVATION
 40
0.0
  9
$THICKNESS
 40
0.0
  9
$LIMCHECK
 70
     0
  9
$CHAMFERA
 40
0.0
  9
$CHAMFERB
 40
0.0
  9
$CHAMFERC
 40
0.0
  9
$CHAMFERD
 40
0.0
  9
$SKPOLY
 70
     0
  9
$TDCREATE
 40
2459465.638344907
  9
$TDUCREATE
 40
2459465.638344907
  9
$TDUPDATE
 40
2459465.638344907
  9
$TDUUPDATE
 40
2459465.638344907
  9
$TDINDWG
 40
0.0000000000
  9
$TDUSRTIMER
 40
0.0000000000
  9
$USRTIMER
 70
     1
  9
$ANGBASE
 50
0.0
  9
$ANGDIR
 70
     0
  9
$PDMODE
 70
     0
  9
$PDSIZE
 40
0.0
  9
$PLINEWID
 40
0.0
  9
$SPLFRAME
 70
     0
  9
$SPLINETYPE
 70
     6
  9
$SPLINESEGS
 70
     8
  9
$HANDSEED
  5
147
  9
$SURFTAB1
 70
     6
  9
$SURFTAB2
 70
     6
  9
$SURFTYPE
 70
     6
  9
$SURFU
 70
     6
  9
$SURFV
 70
     6
  9
$UCSBASE
  2

  9
$UCSNAME
  2

  9
$UCSORG
 10
0.0
 20
0.0
 30
0.0
  9
$UCSXDIR
 10
1.0
 20
0.0
 30
0.0
  9
$UCSYDIR
 10
0.0
 20
1.0
 30
0.0
  9
$UCSORTHOREF
  2

  9
$UCSORTHOVIEW
 70
     0
  9
$UCSORGTOP
 10
0.0
 20
0.0
 30
0.0
  9
$UCSORGBOTTOM
 10
0.0
 20
0.0
 30
0.0
  9
$UCSORGLEFT
 10
0.0
 20
0.0
 30
0.0
  9
$UCSORGRIGHT
 10
0.0
 20
0.0
 30
0.0
  9
$UCSORGFRONT
 10
0.0
 20
0.0
 30
0.0
  9
$UCSORGBACK
 10
0.0
 20
0.0
 30
0.0
  9
$PUCSBASE
  2

  9
$PUCSNAME
  2

  9
$PUCSORG
 10
0.0
 20
0.0
 30
0.0
  9
$PUCSXDIR
 10
1.0
 20
0.0
 30
0.0
  9
$PUCSYDIR
 10
0.0
 20
1.0
 30
0.0
  9
$PUCSORTHOREF
  2

  9
$PUCSORTHOVIEW
 70
     0
  9
$PUCSORGTOP
 10
0.0
 20
0.0
 30
0.0
  9
$PUCSORGBOTTOM
 10
0.0
 20
0.0
 30
0.0
  9
$PUCSORGLEFT
 10
0.0
 20
0.0
 30
0.0
  9
$PUCSORGRIGHT
 10
0.0
 20
0.0
 30
0.0
  9
$PUCSORGFRONT
 10
0.0
 20
0.0
 30
0.0
  9
$PUCSORGBACK
 10
0.0
 20
0.0
 30
0.0
  9
$USERI1
 70
     0
  9
$USERI2
 70
     0
  9
$USERI3
 70
     0
  9
$USERI4
 70
     0
  9
$USERI5
 70
     0
  9
$USERR1
 40
0.0
  9
$USERR2
 40
0.0
  9
$USERR3
 40
0.0
  9
$USERR4
 40
0.0
  9
$USERR5
 40
0.0
  9
$WORLDVIEW
 70
     1
  9
$SHADEDGE
 70
     3
  9
$SHADEDIF
 70
    70
  9
$TILEMODE
 70
     1
  9
$MAXACTVP
 70
    64
  9
$PINSBASE
 10
0.0
 20
0.0
 30
0.0
  9
$PLIMCHECK
 70
     0
  9
$PEXTMIN
 10
1.000000000000000E+20
 20
1.000000000000000E+20
 30
1.000000000000000E+20
  9
$PEXTMAX
 10
-1.000000000000000E+20
 20
-1.000000000000000E+20
 30
-1.000000000000000E+20
  9
$PLIMMIN
 10
0.0
 20
0.0
  9
$PLIMMAX
 10
12.0
 20
9.0
  9
$UNITMODE
 70
     0
  9
$VISRETAIN
 70
     1
  9
$PLINEGEN
 70
     0
  9
$PSLTSCALE
 70
     1
  9
$TREEDEPTH
 70
  3020
  9
$CMLSTYLE
  2
Standard
  9
$CMLJUST
 70
     0
  9
$CMLSCALE
 40
1.0
  9
$PROXYGRAPHICS
 70
     1
  9
$MEASUREMENT
 70
     0
  9
$CELWEIGHT
370
    -1
  9
$ENDCAPS
280
     0
  9
$JOINSTYLE
280
     0
  9
$LWDISPLAY
290
     0
  9
$INSUNITS
 70
     5
  9
$HYPERLINKBASE
  1

  9
$STYLESHEET
  1

  9
$XEDIT
290
     1
  9
$CEPSNTYPE
380
     0
  9
$PSTYLEMODE
290
     1
  9
$FINGERPRINTGUID
  2
{0AB58F1F-ACF9-6842-8DA2-BE629421D542}
  9
$VERSIONGUID
  2
{62E8FBD6-6047-484A-826F-73CA83AE40B6}
  9
$EXTNAMES
290
     1
  9
$PSVPSCALE
 40
0.0
  9
$OLESTARTUP
290
     0
  9
$SORTENTS
280
   127
  9
$INDEXCTL
280
     0
  9
$HIDETEXT
280
     1
  9
$XCLIPFRAME
280
     2
  9
$HALOGAP
280
     0
  9
$OBSCOLOR
 70
   257
  9
$OBSLTYPE
280
     0
  9
$INTERSECTIONDISPLAY
280
     0
  9
$INTERSECTIONCOLOR
 70
   257
  9
$DIMASSOC
280
     2
  9
$PROJECTNAME
  1

  9
$CAMERADISPLAY
290
     0
  9
$LENSLENGTH
 40
50.0
  9
$CAMERAHEIGHT
 40
0.0
  9
$STEPSPERSEC
 40
2.0
  9
$STEPSIZE
 40
6.0
  9
$3DDWFPREC
 40
2.0
  9
$PSOLWIDTH
 40
0.25
  9
$PSOLHEIGHT
 40
4.0
  9
$LOFTANG1
 40
1.570796326794896
  9
$LOFTANG2
 40
1.570796326794896
  9
$LOFTMAG1
 40
0.0
  9
$LOFTMAG2
 40
0.0
  9
$LOFTPARAM
 70
     7
  9
$LOFTNORMALS
280
     1
  9
$LATITUDE
 40
37.795
  9
$LONGITUDE
 40
-122.394
  9
$NORTHDIRECTION
 40
0.0
  9
$TIMEZONE
 70
 -8000
  9
$LIGHTGLYPHDISPLAY
280
     1
  9
$TILEMODELIGHTSYNCH
280
     1
  9
$CMATERIAL
347
11
  9
$SOLIDHIST
280
     0
  9
$SHOWHIST
280
     1
  9
$DWFFRAME
280
     2
  9
$DGNFRAME
280
     0
  9
$REALWORLDSCALE
290
     1
  9
$INTERFERECOLOR
 62
     1
  9
$INTERFEREOBJVS
345
33
  9
$INTERFEREVPVS
346
30
  9
$CSHADOW
280
     0
  9
$SHADOWPLANELOCATION
 40
0.0
  0
ENDSEC
  0
SECTION
  2
CLASSES
  0
CLASS
  1
ACDBDICTIONARYWDFLT
  2
AcDbDictionaryWithDefault
  3
ObjectDBX Classes
 90
        0
 91
        1
280
     0
281
     0
  0
CLASS
  1
MATERIAL
  2
AcDbMaterial
  3
ObjectDBX Classes
 90
     1153
 91
        3
280
     0
281
     0
  0
CLASS
  1
VISUALSTYLE
  2
AcDbVisualStyle
  3
ObjectDBX Classes
 90
     4095
 91
       24
280
     0
281
     0
  0
CLASS
  1
SCALE
  2
AcDbScale
  3
ObjectDBX Classes
 90
     1153
 91
       17
280
     0
281
     0
  0
CLASS
  1
TABLESTYLE
  2
AcDbTableStyle
  3
ObjectDBX Classes
 90
     4095
 91
        1
280
     0
281
     0
  0
CLASS
  1
MLEADERSTYLE
  2
AcDbMLeaderStyle
  3
ACDB_MLEADERSTYLE_CLASS
 90
     4095
 91
        1
280
     0
281
     0
  0
CLASS
  1
ACDBSECTIONVIEWSTYLE
  2
AcDbSectionViewStyle
  3
ObjectDBX Classes
 90
     1025
 91
        1
280
     0
281
     0
  0
CLASS
  1
ACDBDETAILVIEWSTYLE
  2
AcDbDetailViewStyle
  3
ObjectDBX Classes
 90
     1025
 91
        1
280
     0
281
     0
  0
CLASS
  1
DICTIONARYVAR
  2
AcDbDictionaryVar
  3
ObjectDBX Classes
 90
        0
 91
        5
280
     0
281
     0
  0
CLASS
  1
CELLSTYLEMAP
  2
AcDbCellStyleMap
  3
ObjectDBX Classes
 90
     1152
 91
        1
280
     0
281
     0
  0
ENDSEC
  0
SECTION
  2
TABLES
  0
TABLE
  2
VPORT
  5
8
330
0
100
AcDbSymbolTable
 70
     1
1001
ACAD
1000
DbSaveVer
1071
      247
  0
VPORT
  5
57
330
8
100
AcDbSymbolTableRecord
100
AcDbViewportTableRecord
  2
*Active
 70
     0
 10
0.0
 20
0.0
 11
1.0
 21
1.0
 12
500.0
 22
500.0
 13
0.0
 23
0.0
 14
1.0
 24
1.0
 15
0.0
 25
0.0
 16
0.0
 26
0.0
 36
1.0
 17
0.0
 27
0.0
 37
0.0
 40
12.0
 41
1.0
 42
50.0
 43
0.0
 44
0.0
 50
0.0
 51
0.0
 71
     0
 72
   100
 73
     1
 74
     1
 75
     0
 76
     0
 77
     0
 78
     0
281
     0
 65
     1
110
0.0
120
0.0
130
0.0
111
1.0
121
0.0
131
0.0
112
0.0
122
1.0
132
0.0
 79
     0
146
0.0
 60
     3
 61
     5
292
     1
282
     1
141
0.0
142
0.0
 63
   250
421
  3355443
  0
ENDTAB
  0
TABLE
  2
LTYPE
  5
5
330
0
100
AcDbSymbolTable
 70
     1
  0
LTYPE
  5
5B
330
5
100
AcDbSymbolTableRecord
100
AcDbLinetypeTableRecord
  2
ByBlock
 70
     0
  3

 72
    65
 73
     0
 40
0.0
  0
LTYPE
  5
5C
330
5
100
AcDbSymbolTableRecord
100
AcDbLinetypeTableRecord
  2
ByLayer
 70
     0
  3

 72
    65
 73
     0
 40
0.0
  0
LTYPE
  5
5D
330
5
100
AcDbSymbolTableRecord
100
AcDbLinetypeTableRecord
  2
Continuous
 70
     0
  3
Solid line
 72
    65
 73
     0
 40
0.0
  0
ENDTAB
  0
TABLE
  2
LAYER
  5
2
330
0
100
AcDbSymbolTable
 70
     2
  0
LAYER
  5
54
330
2
100
AcDbSymbolTableRecord
100
AcDbLayerTableRecord
  2
0
 70
     0
 62
     7
  6
Continuous
370
    -3
390
F
347
21
348
0
  0
LAYER
  5
7A
330
2
100
AcDbSymbolTableRecord
100
AcDbLayerTableRecord
  2
Eagle (Simone) v13_Sketch1
 70
     0
 62
     7
  6
Continuous
370
    -3
390
F
347
21
348
0
1001
NFusion_SketchTransform
1000
1.000000;0.000000;0.000000;0.000000;0.000000;1.000000;0.000000;0.000000;0.000000;0.000000;1.000000;0.000000;0.000000;0.000000;0.000000;1.000000
  0
ENDTAB
  0
TABLE
  2
STYLE
  5
3
330
0
100
AcDbSymbolTable
 70
     2
  0
STYLE
  5
55
330
3
100
AcDbSymbolTableRecord
100
AcDbTextStyleTableRecord
  2
Standard
 70
     0
 40
0.0
 41
1.0
 50
0.0
 71
     0
 42
0.2
  3
txt
  4

  0
STYLE
  5
5A
330
3
100
AcDbSymbolTableRecord
100
AcDbTextStyleTableRecord
  2
Annotative
 70
     0
 40
0.0
 41
1.0
 50
0.0
 71
     0
 42
0.2
  3
txt
  4

1001
AcadAnnotative
1000
AnnotativeData
1002
{
1070
     1
1070
     1
1002
}
  0
ENDTAB
  0
TABLE
  2
VIEW
  5
6
330
0
100
AcDbSymbolTable
 70
     0
  0
ENDTAB
  0
TABLE
  2
UCS
  5
7
330
0
100
AcDbSymbolTable
 70
     0
  0
ENDTAB
  0
TABLE
  2
APPID
  5
9
330
0
100
AcDbSymbolTable
 70
     4
  0
APPID
  5
56
330
9
100
AcDbSymbolTableRecord
100
AcDbRegAppTableRecord
  2
ACAD
 70
     0
  0
APPID
  5
5E
330
9
100
AcDbSymbolTableRecord
100
AcDbRegAppTableRecord
  2
AcadAnnotative
 70
     0
  0
APPID
  5
78
330
9
100
AcDbSymbolTableRecord
100
AcDbRegAppTableRecord
  2
EDIT_IN_FUSION_ACAD_ADDIN
 70
     0
  0
APPID
  5
79
330
9
100
AcDbSymbolTableRecord
100
AcDbRegAppTableRecord
  2
NFusion_SketchTransform
 70
     0
  0
ENDTAB
  0
TABLE
  2
DIMSTYLE
  5
A
330
0
100
AcDbSymbolTable
 70
     2
100
AcDbDimStyleTable
 71
     0
  0
DIMSTYLE
105
58
330
A
100
AcDbSymbolTableRecord
100
AcDbDimStyleTableRecord
  2
Standard
 70
     0
340
55
  0
DIMSTYLE
105
59
330
A
100
AcDbSymbolTableRecord
100
AcDbDimStyleTableRecord
  2
Annotative
 70
     0
340
55
1001
AcadAnnotative
1000
AnnotativeData
1002
{
1070
     1
1070
     1
1002
}
  0
ENDTAB
  0
TABLE
  2
BLOCK_RECORD
  5
1
330
0
100
AcDbSymbolTable
 70
     1
  0
BLOCK_RECORD
  5
70
330
1
100
AcDbSymbolTableRecord
100
AcDbBlockTableRecord
  2
*Model_Space
340
73
 70
     0
280
     1
281
     0
  0
BLOCK_RECORD
  5
6C
330
1
100
AcDbSymbolTableRecord
100
AcDbBlockTableRecord
  2
*Paper_Space
340
6F
 70
     0
280
     1
281
     0
  0
BLOCK_RECORD
  5
74
330
1
100
AcDbSymbolTableRecord
100
AcDbBlockTableRecord
  2
*Paper_Space0
340
77
 70
     0
280
     1
281
     0
  0
ENDTAB
  0
ENDSEC
  0
SECTION
  2
BLOCKS
  0
BLOCK
  5
71
330
70
100
AcDbEntity
  8
0
100
AcDbBlockBegin
  2
*Model_Space
 70
     0
 10
0.0
 20
0.0
 30
0.0
  3
*Model_Space
  1

  0
ENDBLK
  5
72
330
70
100
AcDbEntity
  8
0
100
AcDbBlockEnd
  0
BLOCK
  5
6D
330
6C
100
AcDbEntity
 67
     1
  8
0
100
AcDbBlockBegin
  2
*Paper_Space
 70
     0
 10
0.0
 20
0.0
 30
0.0
  3
*Paper_Space
  1

  0
ENDBLK
  5
6E
330
6C
100
AcDbEntity
 67
     1
  8
0
100
AcDbBlockEnd
  0
BLOCK
  5
75
330
74
100
AcDbEntity
 67
     1
  8
0
100
AcDbBlockBegin
  2
*Paper_Space0
 70
     0
 10
0.0
 20
0.0
 30
0.0
  3
*Paper_Space0
  1

  0
ENDBLK
  5
76
330
74
100
AcDbEntity
 67
     1
  8
0
100
AcDbBlockEnd
  0
ENDSEC
  0
SECTION
  2
ENTITIES
  0
POINT
  5
7B
330
70
100
AcDbEntity
  8
Eagle (Simone) v13_Sketch1
100
AcDbPoint
 10
-1.363458569477771
 20
0.0907043006360864
 30
0.0
  0
POINT
  5
7C
330
70
100
AcDbEntity
  8
Eagle (Simone) v13_Sketch1
100
AcDbPoint
 10
0.0
 20
0.0
 30
0.0
  0
POINT
  5
7D
330
70
100
AcDbEntity
  8
Eagle (Simone) v13_Sketch1
100
AcDbPoint
 10
0.7116660663277301
 20
4.578764559471536
 30
0.0
  0
SPLINE
  5
7E
330
70
100
AcDbEntity
  8
Eagle (Simone) v13_Sketch1
100
AcDbSpline
210
0.0
220
0.0
230
1.0
 70
    12
 71
     3
 72
     8
 73
     4
 74
     0
 42
0.000000001
 43
0.0000000001
 40
0.0
 40
0.0
 40
0.0
 40
0.0
 40
1.0
 40
1.0
 40
1.0
 40
1.0
 10
-0.6395778825691281
 20
4.337470997168553
 30
0.0
 41
1.0
 10
-0.8791198664914432
 20
4.589950781498282
 30
0.0
 41
1.0
 10
-1.235185826421862
 20
4.354754906648333
 30
0.0
 41
1.0
 10
-1.450953219851932
 20
4.64823287486427
 30
0.0
 41
1.0
  0
SPLINE
  5
7F
330
70
100
AcDbEntity
  8
Eagle (Simone) v13_Sketch1
100
AcDbSpline
210
0.0
220
0.0
230
1.0
 70
    12
 71
     3
 72
     8
 73
     4
 74
     0
 42
0.000000001
 43
0.0000000001
 40
0.0
 40
0.0
 40
0.0
 40
0.0
 40
1.0
 40
1.0
 40
1.0
 40
1.0
 10
-3.996525064390034
 20
3.790188168738263
 30
0.0
 41
1.0
 10
-4.052612322411071
 20
3.257188321961942
 30
0.0
 41
1.0
 10
-3.603760117134591
 20
3.224818689240999
 30
0.0
 41
1.0
 10
-3.435478237709538
 20
2.916228190634637
 30
0.0
 41
1.0
  0
SPLINE
  5
80
330
70
100
AcDbEntity
  8
Eagle (Simone) v13_Sketch1
100
AcDbSpline
210
0.0
220
0.0
230
1.0
 70
    12
 71
     3
 72
     8
 73
     4
 74
     0
 42
0.000000001
 43
0.0000000001
 40
0.0
 40
0.0
 40
0.0
 40
0.0
 40
1.0
 40
1.0
 40
1.0
 40
1.0
 10
0.3040845664852796
 20
6.330182821169058
 30
0.0
 41
1.0
 10
0.7917803310268994
 20
6.444552172556077
 30
0.0
 41
1.0
 10
0.7011520611955575
 20
7.117813726002529
 30
0.0
 41
1.0
 10
0.4292605499142326
 20
7.39187996726687
 30
0.0
 41
1.0
  0
SPLINE
  5
81
330
70
100
AcDbEntity
  8
Eagle (Simone) v13_Sketch1
100
AcDbSpline
210
0.0
220
0.0
230
1.0
 70
    12
 71
     3
 72
     8
 73
     4
 74
     0
 42
0.000000001
 43
0.0000000001
 40
0.0
 40
0.0
 40
0.0
 40
0.0
 40
1.0
 40
1.0
 40
1.0
 40
1.0
 10
-0.3288629173845976
 20
4.27277529334419
 30
0.0
 41
1.0
 10
-0.3849501754056348
 20
3.73977544656787
 30
0.0
 41
1.0
 10
0.063902029870853
 20
3.707405813846926
 30
0.0
 41
1.0
 10
0.2321839092959053
 20
3.398815315240564
 30
0.0
 41
1.0
  0
SPLINE
  5
82
330
70
100
AcDbEntity
  8
Eagle (Simone) v13_Sketch1
100
AcDbSpline
210
0.0
220
0.0
230
1.0
 70
    12
 71
     3
 72
     8
 73
     4
 74
     0
 42
0.000000001
 43
0.0000000001
 40
0.0
 40
0.0
 40
0.0
 40
0.0
 40
1.0
 40
1.0
 40
1.0
 40
1.0
 10
-4.682855103096493
 20
2.2322102685511
 30
0.0
 41
1.0
 10
-4.406634237211079
 20
2.154536553595456
 30
0.0
 41
1.0
 10
-4.419595493874084
 20
1.789838691606117
 30
0.0
 41
1.0
 10
-4.18439626813047
 20
1.671166792764266
 30
0.0
 41
1.0
  0
SPLINE
  5
83
330
70
100
AcDbEntity
  8
Eagle (Simone) v13_Sketch1
100
AcDbSpline
210
0.0
220
0.0
230
1.0
 70
    12
 71
     3
 72
     8
 73
     4
 74
     0
 42
0.000000001
 43
0.0000000001
 40
0.0
 40
0.0
 40
0.0
 40
0.0
 40
1.0
 40
1.0
 40
1.0
 40
1.0
 10
0.4432764819850235
 20
1.618546108011447
 30
0.0
 41
1.0
 10
0.3871892239639862
 20
1.085546261235125
 30
0.0
 41
1.0
 10
0.8360414292404669
 20
1.053176628514183
 30
0.0
 41
1.0
 10
1.004323308665519
 20
0.744586129907821
 30
0.0
 41
1.0
  0
SPLINE
  5
84
330
70
100
AcDbEntity
  8
Eagle (Simone) v13_Sketch1
100
AcDbSpline
210
0.0
220
0.0
230
1.0
 70
    12
 71
     3
 72
     8
 73
     4
 74
     0
 42
0.000000001
 43
0.0000000001
 40
0.0
 40
0.0
 40
0.0
 40
0.0
 40
1.0
 40
1.0
 40
1.0
 40
1.0
 10
-1.379052562662558
 20
7.579600380792763
 30
0.0
 41
1.0
 10
-1.519314269332689
 20
7.428555498336303
 30
0.0
 41
1.0
 10
-1.597008089650273
 20
7.21490251880343
 30
0.0
 41
1.0
 10
-1.814943511276048
 20
7.143685975923684
 30
0.0
 41
1.0
  0
SPLINE
  5
85
330
70
100
AcDbEntity
  8
Eagle (Simone) v13_Sketch1
100
AcDbSpline
210
0.0
220
0.0
230
1.0
 70
    12
 71
     3
 72
     8
 73
     4
 74
     0
 42
0.000000001
 43
0.0000000001
 40
0.0
 40
0.0
 40
0.0
 40
0.0
 40
1.0
 40
1.0
 40
1.0
 40
1.0
 10
-3.683889083159023
 20
6.389752360871203
 30
0.0
 41
1.0
 10
-3.824150789829147
 20
6.238707478414744
 30
0.0
 41
1.0
 10
-3.901844610146731
 20
6.02505449888187
 30
0.0
 41
1.0
 10
-4.119780031772506
 20
5.953837956002124
 30
0.0
 41
1.0
  0
SPLINE
  5
86
330
70
100
AcDbEntity
  8
Eagle (Simone) v13_Sketch1
100
AcDbSpline
210
0.0
220
0.0
230
1.0
 70
    12
 71
     3
 72
     8
 73
     4
 74
     0
 42
0.000000001
 43
0.0000000001
 40
0.0
 40
0.0
 40
0.0
 40
0.0
 40
1.0
 40
1.0
 40
1.0
 40
1.0
 10
-4.119780031772506
 20
5.953837956002124
 30
0.0
 41
1.0
 10
-4.044257590544276
 20
4.937464997500953
 30
0.0
 41
1.0
 10
-2.628669214499055
 20
4.969834630221904
 30
0.0
 41
1.0
 10
-2.872513745876211
 20
6.078990483175487
 30
0.0
 41
1.0
  0
SPLINE
  5
87
330
70
100
AcDbEntity
  8
Eagle (Simone) v13_Sketch1
100
AcDbSpline
210
0.0
220
0.0
230
1.0
 70
    12
 71
     3
 72
     8
 73
     4
 74
     0
 42
0.000000001
 43
0.0000000001
 40
0.0
 40
0.0
 40
0.0
 40
0.0
 40
1.0
 40
1.0
 40
1.0
 40
1.0
 10
-3.248128819398139
 20
4.456316879163959
 30
0.0
 41
1.0
 10
-2.971907953512726
 20
4.378643164208316
 30
0.0
 41
1.0
 10
-2.98486921017573
 20
4.013945302218976
 30
0.0
 41
1.0
 10
-2.749669984432117
 20
3.895273403377123
 30
0.0
 41
1.0
  0
SPLINE
  5
88
330
70
100
AcDbEntity
  8
Eagle (Simone) v13_Sketch1
100
AcDbSpline
210
0.0
220
0.0
230
1.0
 70
    12
 71
     5
 72
    39
 73
    33
 74
     0
 42
0.000000001
 43
0.0000000001
 40
0.0
 40
0.0
 40
0.0
 40
0.0
 40
0.0
 40
0.0
 40
0.0357142857142857
 40
0.0714285714285714
 40
0.1071428571428571
 40
0.1428571428571428
 40
0.1785714285714286
 40
0.2142857142857143
 40
0.25
 40
0.2857142857142857
 40
0.3214285714285714
 40
0.3571428571428571
 40
0.3928571428571428
 40
0.4285714285714286
 40
0.4642857142857143
 40
0.5
 40
0.5357142857142857
 40
0.5714285714285714
 40
0.6071428571428572
 40
0.6428571428571428
 40
0.6785714285714285
 40
0.7142857142857143
 40
0.75
 40
0.7857142857142857
 40
0.8214285714285713
 40
0.8571428571428571
 40
0.8928571428571427
 40
0.9285714285714284
 40
0.9642857142857142
 40
1.0
 40
1.0
 40
1.0
 40
1.0
 40
1.0
 40
1.0
 10
0.601368460754884
 20
18.04671900124588
 30
0.0
 41
1.0
 10
-0.1956733854351107
 20
17.88852146273759
 30
0.0
 41
1.0
 10
-0.6799977704184049
 20
17.83587750784811
 30
0.0
 41
1.0
 10
-1.270000040531158
 20
17.52600055932999
 30
0.0
 41
1.0
 10
-1.778000056743621
 20
17.27200055122375
 30
0.0
 41
1.0
 10
-2.385661908837833
 20
16.84617115592572
 30
0.0
 41
1.0
 10
-2.996331785555902
 20
15.91963754987072
 30
0.0
 41
1.0
 10
-3.556000113487243
 20
14.73200047016144
 30
0.0
 41
1.0
 10
-3.556000113487243
 20
14.22400045394897
 30
0.0
 41
1.0
 10
-3.670174408141354
 20
13.729649026468
 30
0.0
 41
1.0
 10
-4.122912420190956
 20
13.32955496930789
 30
0.0
 41
1.0
 10
-4.459833731483683
 20
13.10845035877204
 30
0.0
 41
1.0
 10
-4.826000154018402
 20
12.95400041341781
 30
0.0
 41
1.0
 10
-5.334000170230865
 20
12.70000040531158
 30
0.0
 41
1.0
 10
-5.954922050345157
 20
12.3503774083634
 30
0.0
 41
1.0
 10
-6.828811701510667
 20
11.83446665044641
 30
0.0
 41
1.0
 10
-7.502654324096119
 20
11.48701654817579
 30
0.0
 41
1.0
 10
-8.755580450465945
 20
10.60259810603238
 30
0.0
 41
1.0
 10
-9.652000308036804
 20
9.906000316143035
 30
0.0
 41
1.0
 10
-10.88239622800128
 20
9.00222187739193
 30
0.0
 41
1.0
 10
-12.36695575588486
 20
7.980929152535852
 30
0.0
 41
1.0
 10
-13.19873024313877
 20
7.243913784083011
 30
0.0
 41
1.0
 10
-13.97000044584274
 20
6.09600019454956
 30
0.0
 41
1.0
 10
-14.73200047016144
 20
4.826000154018402
 30
0.0
 41
1.0
 10
-15.2400004863739
 20
3.302000105381011
 30
0.0
 41
1.0
 10
-15.49400049448013
 20
2.032000064849853
 30
0.0
 41
1.0
 10
-15.74800050258636
 20
0.2540000081062317
 30
0.0
 41
1.0
 10
-16.00200051069259
 20
-1.52400004863739
 30
0.0
 41
1.0
 10
-16.00200051069259
 20
-3.302000105381011
 30
0.0
 41
1.0
 10
-15.49400049448013
 20
-6.858000218868255
 30
0.0
 41
1.0
 10
-15.2400004863739
 20
-8.636000275611877
 30
0.0
 41
1.0
 10
-14.22400045394897
 20
-10.92200034856796
 30
0.0
 41
1.0
 10
-13.46200042963028
 20
-12.19200038909912
 30
0.0
 41
1.0
  0
SPLINE
  5
89
330
70
100
AcDbEntity
  8
Eagle (Simone) v13_Sketch1
100
AcDbSpline
210
0.0
220
0.0
230
1.0
 70
    12
 71
     3
 72
     8
 73
     4
 74
     0
 42
0.000000001
 43
0.0000000001
 40
0.0
 40
0.0
 40
0.0
 40
0.0
 40
1.0
 40
1.0
 40
1.0
 40
1.0
 10
0.4292806552761732
 20
7.391859861904929
 30
0.0
 41
1.0
 10
0.2091470474117898
 20
7.299076967452517
 30
0.0
 41
1.0
 10
0.040845062624804
 20
7.037968631957523
 30
0.0
 41
1.0
 10
-0.2569622601952233
 20
7.204142799272684
 30
0.0
 41
1.0
  0
SPLINE
  5
8A
330
70
100
AcDbEntity
  8
Eagle (Simone) v13_Sketch1
100
AcDbSpline
210
0.0
220
0.0
230
1.0
 70
    12
 71
     3
 72
     8
 73
     4
 74
     0
 42
0.000000001
 43
0.0000000001
 40
0.0
 40
0.0
 40
0.0
 40
0.0
 40
1.0
 40
1.0
 40
1.0
 40
1.0
 10
1.004323308665519
 20
0.744586129907821
 30
0.0
 41
1.0
 10
1.492019073207146
 20
0.8589554812948394
 30
0.0
 41
1.0
 10
1.401390803375804
 20
1.53221703474129
 30
0.0
 41
1.0
 10
1.129499292094472
 20
1.806283276005631
 30
0.0
 41
1.0
  0
SPLINE
  5
8B
330
70
100
AcDbEntity
  8
Eagle (Simone) v13_Sketch1
100
AcDbSpline
210
0.0
220
0.0
230
1.0
 70
    12
 71
     3
 72
     8
 73
     4
 74
     0
 42
0.000000001
 43
0.0000000001
 40
0.0
 40
0.0
 40
0.0
 40
0.0
 40
1.0
 40
1.0
 40
1.0
 40
1.0
 10
-1.886844168465422
 20
4.212318469995191
 30
0.0
 41
1.0
 10
-1.811321727237192
 20
3.195945511494019
 30
0.0
 41
1.0
 10
-0.3957333511919714
 20
3.22831514421497
 30
0.0
 41
1.0
 10
-0.6395778825691281
 20
4.337470997168553
 30
0.0
 41
1.0
  0
SPLINE
  5
8C
330
70
100
AcDbEntity
  8
Eagle (Simone) v13_Sketch1
100
AcDbSpline
210
0.0
220
0.0
230
1.0
 70
    12
 71
     3
 72
     8
 73
     4
 74
     0
 42
0.000000001
 43
0.0000000001
 40
0.0
 40
0.0
 40
0.0
 40
0.0
 40
1.0
 40
1.0
 40
1.0
 40
1.0
 10
-0.6788138204823114
 20
1.994003689531525
 30
0.0
 41
1.0
 10
-0.8190755271524423
 20
1.842958807075065
 30
0.0
 41
1.0
 10
-0.8967693474700269
 20
1.629305827542192
 30
0.0
 41
1.0
 10
-1.114704769095801
 20
1.558089284662446
 30
0.0
 41
1.0
  0
SPLINE
  5
8D
330
70
100
AcDbEntity
  8
Eagle (Simone) v13_Sketch1
100
AcDbSpline
210
0.0
220
0.0
230
1.0
 70
    12
 71
     3
 72
     8
 73
     4
 74
     0
 42
0.000000001
 43
0.0000000001
 40
0.0
 40
0.0
 40
0.0
 40
0.0
 40
1.0
 40
1.0
 40
1.0
 40
1.0
 10
-2.180751713733734
 20
-1.040986231134277
 30
0.0
 41
1.0
 10
-1.693055949192107
 20
-0.9266168797472587
 30
0.0
 41
1.0
 10
-1.783684219023449
 20
-0.2533553263008055
 30
0.0
 41
1.0
 10
-2.055575730304781
 20
0.0207109149635367
 30
0.0
 41
1.0
  0
SPLINE
  5
8E
330
70
100
AcDbEntity
  8
Eagle (Simone) v13_Sketch1
100
AcDbSpline
210
0.0
220
0.0
230
1.0
 70
    12
 71
     3
 72
     8
 73
     4
 74
     0
 42
0.000000001
 43
0.0000000001
 40
0.0
 40
0.0
 40
0.0
 40
0.0
 40
1.0
 40
1.0
 40
1.0
 40
1.0
 10
-3.052513505598767
 20
-0.102330549206286
 30
0.0
 41
1.0
 10
-3.292055489521089
 20
0.1501492351234424
 30
0.0
 41
1.0
 10
-3.648121449451508
 20
-0.0850466397265066
 30
0.0
 41
1.0
 10
-3.863888842881571
 20
0.2084313284894312
 30
0.0
 41
1.0
  0
SPLINE
  5
8F
330
70
100
AcDbEntity
  8
Eagle (Simone) v13_Sketch1
100
AcDbSpline
210
0.0
220
0.0
230
1.0
 70
    12
 71
     3
 72
     8
 73
     4
 74
     0
 42
0.000000001
 43
0.0000000001
 40
0.0
 40
0.0
 40
0.0
 40
0.0
 40
1.0
 40
1.0
 40
1.0
 40
1.0
 10
-1.015192956091048
 20
2.714797393157025
 30
0.0
 41
1.0
 10
-0.7389720902056354
 20
2.637123678201382
 30
0.0
 41
1.0
 10
-0.7519333468686398
 20
2.272425816212042
 30
0.0
 41
1.0
 10
-0.5167341211250332
 20
2.153753917370189
 30
0.0
 41
1.0
  0
SPLINE
  5
90
330
70
100
AcDbEntity
  8
Eagle (Simone) v13_Sketch1
100
AcDbSpline
210
0.0
220
0.0
230
1.0
 70
    12
 71
     3
 72
     8
 73
     4
 74
     0
 42
0.000000001
 43
0.0000000001
 40
0.0
 40
0.0
 40
0.0
 40
0.0
 40
1.0
 40
1.0
 40
1.0
 40
1.0
 10
-0.2569622601952233
 20
7.204142799272684
 30
0.0
 41
1.0
 10
-0.3130495182162605
 20
6.671142952496364
 30
0.0
 41
1.0
 10
0.1358026870602274
 20
6.63877331977542
 30
0.0
 41
1.0
 10
0.3040845664852796
 20
6.330182821169058
 30
0.0
 41
1.0
  0
SPLINE
  5
91
330
70
100
AcDbEntity
  8
Eagle (Simone) v13_Sketch1
100
AcDbSpline
210
0.0
220
0.0
230
1.0
 70
    12
 71
     3
 72
     8
 73
     4
 74
     0
 42
0.000000001
 43
0.0000000001
 40
0.0
 40
0.0
 40
0.0
 40
0.0
 40
1.0
 40
1.0
 40
1.0
 40
1.0
 10
-2.561798780691681
 20
6.014294779351125
 30
0.0
 41
1.0
 10
-2.617886038712718
 20
5.481294932574803
 30
0.0
 41
1.0
 10
-2.169033833436238
 20
5.448925299853859
 30
0.0
 41
1.0
 10
-2.000751954011185
 20
5.140334801247497
 30
0.0
 41
1.0
  0
SPLINE
  5
92
330
70
100
AcDbEntity
  8
Eagle (Simone) v13_Sketch1
100
AcDbSpline
210
0.0
220
0.0
230
1.0
 70
    12
 71
     3
 72
     8
 73
     4
 74
     0
 42
0.000000001
 43
0.0000000001
 40
0.0
 40
0.0
 40
0.0
 40
0.0
 40
1.0
 40
1.0
 40
1.0
 40
1.0
 10
-2.872513745876211
 20
6.078990483175487
 30
0.0
 41
1.0
 10
-3.112055729798534
 20
6.331470267505215
 30
0.0
 41
1.0
 10
-3.468121689728953
 20
6.096274392655265
 30
0.0
 41
1.0
 10
-3.683889083159023
 20
6.389752360871203
 30
0.0
 41
1.0
  0
SPLINE
  5
93
330
70
100
AcDbEntity
  8
Eagle (Simone) v13_Sketch1
100
AcDbSpline
210
0.0
220
0.0
230
1.0
 70
    12
 71
     3
 72
     8
 73
     4
 74
     0
 42
0.000000001
 43
0.0000000001
 40
0.0
 40
0.0
 40
0.0
 40
0.0
 40
1.0
 40
1.0
 40
1.0
 40
1.0
 10
-1.814943511276048
 20
7.143685975923684
 30
0.0
 41
1.0
 10
-1.739421070047818
 20
6.127313017422514
 30
0.0
 41
1.0
 10
-0.3238326940025971
 20
6.159682650143465
 30
0.0
 41
1.0
 10
-0.5676772253797538
 20
7.268838503097047
 30
0.0
 41
1.0
  0
SPLINE
  5
94
330
70
100
AcDbEntity
  8
Eagle (Simone) v13_Sketch1
100
AcDbSpline
210
0.0
220
0.0
230
1.0
 70
    12
 71
     3
 72
     8
 73
     4
 74
     0
 42
0.000000001
 43
0.0000000001
 40
0.0
 40
0.0
 40
0.0
 40
0.0
 40
1.0
 40
1.0
 40
1.0
 40
1.0
 10
-2.741798540414237
 20
-0.1670262530306488
 30
0.0
 41
1.0
 10
-2.797885798435274
 20
-0.700026099806971
 30
0.0
 41
1.0
 10
-2.349033593158786
 20
-0.7323957325279143
 30
0.0
 41
1.0
 10
-2.180751713733734
 20
-1.040986231134277
 30
0.0
 41
1.0
  0
SPLINE
  5
95
330
70
100
AcDbEntity
  8
Eagle (Simone) v13_Sketch1
100
AcDbSpline
210
0.0
220
0.0
230
1.0
 70
    12
 71
     3
 72
     8
 73
     4
 74
     0
 42
0.000000001
 43
0.0000000001
 40
0.0
 40
0.0
 40
0.0
 40
0.0
 40
1.0
 40
1.0
 40
1.0
 40
1.0
 10
-4.299779791495062
 20
-0.2274830763796483
 30
0.0
 41
1.0
 10
-4.224257350266832
 20
-1.243856034880821
 30
0.0
 41
1.0
 10
-2.80866897422161
 20
-1.21148640215987
 30
0.0
 41
1.0
 10
-3.052513505598767
 20
-0.102330549206286
 30
0.0
 41
1.0
  0
SPLINE
  5
96
330
70
100
AcDbEntity
  8
Eagle (Simone) v13_Sketch1
100
AcDbSpline
210
0.0
220
0.0
230
1.0
 70
    12
 71
     3
 72
     8
 73
     4
 74
     0
 42
0.000000001
 43
0.0000000001
 40
0.0
 40
0.0
 40
0.0
 40
0.0
 40
1.0
 40
1.0
 40
1.0
 40
1.0
 10
-1.875555865220292
 20
6.202011841983368
 30
0.0
 41
1.0
 10
-2.095689473084675
 20
6.109228947530957
 30
0.0
 41
1.0
 10
-2.263991457871654
 20
5.848120612035963
 30
0.0
 41
1.0
 10
-2.561798780691681
 20
6.014294779351125
 30
0.0
 41
1.0
  0
SPLINE
  5
97
330
70
100
AcDbEntity
  8
Eagle (Simone) v13_Sketch1
100
AcDbSpline
210
0.0
220
0.0
230
1.0
 70
    12
 71
     3
 72
     8
 73
     4
 74
     0
 42
0.000000001
 43
0.0000000001
 40
0.0
 40
0.0
 40
0.0
 40
0.0
 40
1.0
 40
1.0
 40
1.0
 40
1.0
 10
-1.114704769095801
 20
1.558089284662446
 30
0.0
 41
1.0
 10
-1.039182327867571
 20
0.5417163261612768
 30
0.0
 41
1.0
 10
0.3764060481776497
 20
0.5740859588822272
 30
0.0
 41
1.0
 10
0.132561516800493
 20
1.683241811835809
 30
0.0
 41
1.0
  0
SPLINE
  5
98
330
70
100
AcDbEntity
  8
Eagle (Simone) v13_Sketch1
100
AcDbSpline
210
0.0
220
0.0
230
1.0
 70
    12
 71
     3
 72
     8
 73
     4
 74
     0
 42
0.000000001
 43
0.0000000001
 40
0.0
 40
0.0
 40
0.0
 40
0.0
 40
1.0
 40
1.0
 40
1.0
 40
1.0
 10
-2.05555562494284
 20
0.0206908096015961
 30
0.0
 41
1.0
 10
-2.275689232807224
 20
-0.0720920848508158
 30
0.0
 41
1.0
 10
-2.443991217594209
 20
-0.3332004203458108
 30
0.0
 41
1.0
 10
-2.741798540414237
 20
-0.1670262530306488
 30
0.0
 41
1.0
  0
SPLINE
  5
99
330
70
100
AcDbEntity
  8
Eagle (Simone) v13_Sketch1
100
AcDbSpline
210
0.0
220
0.0
230
1.0
 70
    12
 71
     3
 72
     8
 73
     4
 74
     0
 42
0.000000001
 43
0.0000000001
 40
0.0
 40
0.0
 40
0.0
 40
0.0
 40
1.0
 40
1.0
 40
1.0
 40
1.0
 10
-3.863888842881571
 20
0.2084313284894312
 30
0.0
 41
1.0
 10
-4.004150549551702
 20
0.0573864460329712
 30
0.0
 41
1.0
 10
-4.081844369869287
 20
-0.1562665334999025
 30
0.0
 41
1.0
 10
-4.299779791495062
 20
-0.2274830763796483
 30
0.0
 41
1.0
  0
SPLINE
  5
9A
330
70
100
AcDbEntity
  8
Eagle (Simone) v13_Sketch1
100
AcDbSpline
210
0.0
220
0.0
230
1.0
 70
    12
 71
     3
 72
     8
 73
     4
 74
     0
 42
0.000000001
 43
0.0000000001
 40
0.0
 40
0.0
 40
0.0
 40
0.0
 40
1.0
 40
1.0
 40
1.0
 40
1.0
 10
0.3573799980867989
 20
4.460492355976436
 30
0.0
 41
1.0
 10
0.1372463902224155
 20
4.367709461524023
 30
0.0
 41
1.0
 10
-0.0310555945645703
 20
4.10660112602903
 30
0.0
 41
1.0
 10
-0.3288629173845976
 20
4.27277529334419
 30
0.0
 41
1.0
  0
SPLINE
  5
9B
330
70
100
AcDbEntity
  8
Eagle (Simone) v13_Sketch1
100
AcDbSpline
210
0.0
220
0.0
230
1.0
 70
    12
 71
     3
 72
     8
 73
     4
 74
     0
 42
0.000000001
 43
0.0000000001
 40
0.0
 40
0.0
 40
0.0
 40
0.0
 40
1.0
 40
1.0
 40
1.0
 40
1.0
 10
-4.059220284701517
 20
2.918449833128836
 30
0.0
 41
1.0
 10
-4.238305445274839
 20
2.661644045088677
 30
0.0
 41
1.0
 10
-4.544717863004535
 20
2.530014240477469
 30
0.0
 41
1.0
 10
-4.682855103096493
 20
2.2322102685511
 30
0.0
 41
1.0
  0
SPLINE
  5
9C
330
70
100
AcDbEntity
  8
Eagle (Simone) v13_Sketch1
100
AcDbSpline
210
0.0
220
0.0
230
1.0
 70
    12
 71
     3
 72
     8
 73
     4
 74
     0
 42
0.000000001
 43
0.0000000001
 40
0.0
 40
0.0
 40
0.0
 40
0.0
 40
1.0
 40
1.0
 40
1.0
 40
1.0
 10
-3.310282148918645
 20
3.977905231370507
 30
0.0
 41
1.0
 10
-3.530415756783028
 20
3.885122336918095
 30
0.0
 41
1.0
 10
-3.698717741570014
 20
3.624014001423101
 30
0.0
 41
1.0
 10
-3.996525064390034
 20
3.790188168738263
 30
0.0
 41
1.0
  0
SPLINE
  5
9D
330
70
100
AcDbEntity
  8
Eagle (Simone) v13_Sketch1
100
AcDbSpline
210
0.0
220
0.0
230
1.0
 70
    12
 71
     3
 72
     8
 73
     4
 74
     0
 42
0.000000001
 43
0.0000000001
 40
0.0
 40
0.0
 40
0.0
 40
0.0
 40
1.0
 40
1.0
 40
1.0
 40
1.0
 10
-4.593687336763629
 20
0.3102577177624259
 30
0.0
 41
1.0
 10
-4.105991572222009
 20
0.4246270691494441
 30
0.0
 41
1.0
 10
-4.196619842053351
 20
1.097888622595895
 30
0.0
 41
1.0
 10
-4.468511353334676
 20
1.371954863860237
 30
0.0
 41
1.0
  0
SPLINE
  5
9E
330
70
100
AcDbEntity
  8
Eagle (Simone) v13_Sketch1
100
AcDbSpline
210
0.0
220
0.0
230
1.0
 70
    12
 71
     3
 72
     8
 73
     4
 74
     0
 42
0.000000001
 43
0.0000000001
 40
0.0
 40
0.0
 40
0.0
 40
0.0
 40
1.0
 40
1.0
 40
1.0
 40
1.0
 10
-5.154734163444132
 20
1.184217695866052
 30
0.0
 41
1.0
 10
-5.210821421465169
 20
0.6512178490897314
 30
0.0
 41
1.0
 10
-4.761969216188681
 20
0.6188482163687881
 30
0.0
 41
1.0
 10
-4.593687336763629
 20
0.3102577177624259
 30
0.0
 41
1.0
  0
SPLINE
  5
9F
330
70
100
AcDbEntity
  8
Eagle (Simone) v13_Sketch1
100
AcDbSpline
210
0.0
220
0.0
230
1.0
 70
    12
 71
     3
 72
     8
 73
     4
 74
     0
 42
0.000000001
 43
0.0000000001
 40
0.0
 40
0.0
 40
0.0
 40
0.0
 40
1.0
 40
1.0
 40
1.0
 40
1.0
 10
-6.712715414524957
 20
1.123760872517052
 30
0.0
 41
1.0
 10
-6.637192973296727
 20
0.1073879140158818
 30
0.0
 41
1.0
 10
-5.221604597251506
 20
0.1397575467368322
 30
0.0
 41
1.0
 10
-5.465449128628662
 20
1.248913399690414
 30
0.0
 41
1.0
  0
SPLINE
  5
A0
330
70
100
AcDbEntity
  8
Eagle (Simone) v13_Sketch1
100
AcDbSpline
210
0.0
220
0.0
230
1.0
 70
    12
 71
     3
 72
     8
 73
     4
 74
     0
 42
0.000000001
 43
0.0000000001
 40
0.0
 40
0.0
 40
0.0
 40
0.0
 40
1.0
 40
1.0
 40
1.0
 40
1.0
 10
-6.276824465911467
 20
1.55967527738613
 30
0.0
 41
1.0
 10
-6.417086172581598
 20
1.408630394929671
 30
0.0
 41
1.0
 10
-6.494779992899182
 20
1.194977415396798
 30
0.0
 41
1.0
 10
-6.712715414524957
 20
1.123760872517052
 30
0.0
 41
1.0
  0
SPLINE
  5
A1
330
70
100
AcDbEntity
  8
Eagle (Simone) v13_Sketch1
100
AcDbSpline
210
0.0
220
0.0
230
1.0
 70
    12
 71
     3
 72
     8
 73
     4
 74
     0
 42
0.000000001
 43
0.0000000001
 40
0.0
 40
0.0
 40
0.0
 40
0.0
 40
1.0
 40
1.0
 40
1.0
 40
1.0
 10
1.129519397456412
 20
1.806263170643691
 30
0.0
 41
1.0
 10
0.9093857895920294
 20
1.713480276191279
 30
0.0
 41
1.0
 10
0.7410838048050437
 20
1.452371940696285
 30
0.0
 41
1.0
 10
0.4432764819850235
 20
1.618546108011447
 30
0.0
 41
1.0
  0
SPLINE
  5
A2
330
70
100
AcDbEntity
  8
Eagle (Simone) v13_Sketch1
100
AcDbSpline
210
0.0
220
0.0
230
1.0
 70
    12
 71
     3
 72
     8
 73
     4
 74
     0
 42
0.000000001
 43
0.0000000001
 40
0.0
 40
0.0
 40
0.0
 40
0.0
 40
1.0
 40
1.0
 40
1.0
 40
1.0
 10
-2.624494001003164
 20
5.142556443741696
 30
0.0
 41
1.0
 10
-2.803579161576486
 20
4.885750655701536
 30
0.0
 41
1.0
 10
-3.109991579306182
 20
4.754120851090329
 30
0.0
 41
1.0
 10
-3.248128819398139
 20
4.456316879163959
 30
0.0
 41
1.0
  0
SPLINE
  5
A3
330
70
100
AcDbEntity
  8
Eagle (Simone) v13_Sketch1
100
AcDbSpline
210
0.0
220
0.0
230
1.0
 70
    12
 71
     3
 72
     8
 73
     4
 74
     0
 42
0.000000001
 43
0.0000000001
 40
0.0
 40
0.0
 40
0.0
 40
0.0
 40
1.0
 40
1.0
 40
1.0
 40
1.0
 10
-1.450953219851932
 20
4.64823287486427
 30
0.0
 41
1.0
 10
-1.591214926522063
 20
4.497187992407811
 30
0.0
 41
1.0
 10
-1.668908746839647
 20
4.283535012874937
 30
0.0
 41
1.0
 10
-1.886844168465422
 20
4.212318469995191
 30
0.0
 41
1.0
  0
SPLINE
  5
A4
330
70
100
AcDbEntity
  8
Eagle (Simone) v13_Sketch1
100
AcDbSpline
210
0.0
220
0.0
230
1.0
 70
    12
 71
     3
 72
     8
 73
     4
 74
     0
 42
0.000000001
 43
0.0000000001
 40
0.0
 40
0.0
 40
0.0
 40
0.0
 40
1.0
 40
1.0
 40
1.0
 40
1.0
 10
-4.18439626813047
 20
1.671166792764266
 30
0.0
 41
1.0
 10
-3.52837171165261
 20
1.722971608692402
 30
0.0
 41
1.0
 10
-3.446375343880191
 20
2.754453746690343
 30
0.0
 41
1.0
 10
-4.059247091850764
 20
2.918453184022493
 30
0.0
 41
1.0
  0
SPLINE
  5
A5
330
70
100
AcDbEntity
  8
Eagle (Simone) v13_Sketch1
100
AcDbSpline
210
0.0
220
0.0
230
1.0
 70
    12
 71
     3
 72
     8
 73
     4
 74
     0
 42
0.000000001
 43
0.0000000001
 40
0.0
 40
0.0
 40
0.0
 40
0.0
 40
1.0
 40
1.0
 40
1.0
 40
1.0
 10
-5.118615366857369
 20
4.165645750258341
 30
0.0
 41
1.0
 10
-5.2588770735275
 20
4.014600867801881
 30
0.0
 41
1.0
 10
-5.336570893845085
 20
3.800947888269008
 30
0.0
 41
1.0
 10
-5.55450631547086
 20
3.729731345389263
 30
0.0
 41
1.0
  0
SPLINE
  5
A6
330
70
100
AcDbEntity
  8
Eagle (Simone) v13_Sketch1
100
AcDbSpline
210
0.0
220
0.0
230
1.0
 70
    12
 71
     3
 72
     8
 73
     4
 74
     0
 42
0.000000001
 43
0.0000000001
 40
0.0
 40
0.0
 40
0.0
 40
0.0
 40
1.0
 40
1.0
 40
1.0
 40
1.0
 10
-5.465449128628662
 20
1.248913399690414
 30
0.0
 41
1.0
 10
-5.704991112550978
 20
1.501393184020142
 30
0.0
 41
1.0
 10
-6.061057072481396
 20
1.266197309170193
 30
0.0
 41
1.0
 10
-6.276824465911467
 20
1.55967527738613
 30
0.0
 41
1.0
  0
SPLINE
  5
A7
330
70
100
AcDbEntity
  8
Eagle (Simone) v13_Sketch1
100
AcDbSpline
210
0.0
220
0.0
230
1.0
 70
    12
 71
     3
 72
     8
 73
     4
 74
     0
 42
0.000000001
 43
0.0000000001
 40
0.0
 40
0.0
 40
0.0
 40
0.0
 40
1.0
 40
1.0
 40
1.0
 40
1.0
 10
0.132561516800493
 20
1.683241811835809
 30
0.0
 41
1.0
 10
-0.1069804671218293
 20
1.935721596165537
 30
0.0
 41
1.0
 10
-0.4630464270522481
 20
1.700525721315588
 30
0.0
 41
1.0
 10
-0.6788138204823114
 20
1.994003689531525
 30
0.0
 41
1.0
  0
SPLINE
  5
A8
330
70
100
AcDbEntity
  8
Eagle (Simone) v13_Sketch1
100
AcDbSpline
210
0.0
220
0.0
230
1.0
 70
    12
 71
     3
 72
     8
 73
     4
 74
     0
 42
0.000000001
 43
0.0000000001
 40
0.0
 40
0.0
 40
0.0
 40
0.0
 40
1.0
 40
1.0
 40
1.0
 40
1.0
 10
-2.000751954011185
 20
5.140334801247497
 30
0.0
 41
1.0
 10
-1.513056189469558
 20
5.254704152634516
 30
0.0
 41
1.0
 10
-1.6036844593009
 20
5.927965706080968
 30
0.0
 41
1.0
 10
-1.875575970582232
 20
6.202031947345309
 30
0.0
 41
1.0
  0
SPLINE
  5
A9
330
70
100
AcDbEntity
  8
Eagle (Simone) v13_Sketch1
100
AcDbSpline
210
0.0
220
0.0
230
1.0
 70
    12
 71
     3
 72
     8
 73
     4
 74
     0
 42
0.000000001
 43
0.0000000001
 40
0.0
 40
0.0
 40
0.0
 40
0.0
 40
1.0
 40
1.0
 40
1.0
 40
1.0
 10
-5.55450631547086
 20
3.729731345389263
 30
0.0
 41
1.0
 10
-5.478983874242629
 20
2.713358386888093
 30
0.0
 41
1.0
 10
-4.063395498197408
 20
2.745728019609044
 30
0.0
 41
1.0
 10
-4.307240029574565
 20
3.854883872562625
 30
0.0
 41
1.0
  0
SPLINE
  5
AA
330
70
100
AcDbEntity
  8
Eagle (Simone) v13_Sketch1
100
AcDbSpline
210
0.0
220
0.0
230
1.0
 70
    12
 71
     3
 72
     8
 73
     4
 74
     0
 42
0.000000001
 43
0.0000000001
 40
0.0
 40
0.0
 40
0.0
 40
0.0
 40
1.0
 40
1.0
 40
1.0
 40
1.0
 10
1.010241115638677
 20
6.289029098524528
 30
0.0
 41
1.0
 10
0.8699794089685468
 20
6.137984216068067
 30
0.0
 41
1.0
 10
0.7922855886509624
 20
5.924331236535194
 30
0.0
 41
1.0
 10
0.5743501670251874
 20
5.853114693655448
 30
0.0
 41
1.0
  0
SPLINE
  5
AB
330
70
100
AcDbEntity
  8
Eagle (Simone) v13_Sketch1
100
AcDbSpline
210
0.0
220
0.0
230
1.0
 70
    12
 71
     3
 72
     8
 73
     4
 74
     0
 42
0.000000001
 43
0.0000000001
 40
0.0
 40
0.0
 40
0.0
 40
0.0
 40
1.0
 40
1.0
 40
1.0
 40
1.0
 10
-0.5167341211250332
 20
2.153753917370189
 30
0.0
 41
1.0
 10
0.1392904353528337
 20
2.205558733298325
 30
0.0
 41
1.0
 10
0.2212868031252526
 20
3.237040871296269
 30
0.0
 41
1.0
 10
-0.3915849448453272
 20
3.401040308628419
 30
0.0
 41
1.0
  0
SPLINE
  5
AC
330
70
100
AcDbEntity
  8
Eagle (Simone) v13_Sketch1
100
AcDbSpline
210
0.0
220
0.0
230
1.0
 70
    12
 71
     3
 72
     8
 73
     4
 74
     0
 42
0.000000001
 43
0.0000000001
 40
0.0
 40
0.0
 40
0.0
 40
0.0
 40
1.0
 40
1.0
 40
1.0
 40
1.0
 10
-3.435478237709538
 20
2.916228190634637
 30
0.0
 41
1.0
 10
-2.947782473167912
 20
3.030597542021656
 30
0.0
 41
1.0
 10
-3.038410742999253
 20
3.703859095468106
 30
0.0
 41
1.0
 10
-3.310302254280585
 20
3.977925336732448
 30
0.0
 41
1.0
  0
SPLINE
  5
AD
330
70
100
AcDbEntity
  8
Eagle (Simone) v13_Sketch1
100
AcDbSpline
210
0.0
220
0.0
230
1.0
 70
    12
 71
     3
 72
     8
 73
     4
 74
     0
 42
0.000000001
 43
0.0000000001
 40
0.0
 40
0.0
 40
0.0
 40
0.0
 40
1.0
 40
1.0
 40
1.0
 40
1.0
 10
0.2321839092959053
 20
3.398815315240564
 30
0.0
 41
1.0
 10
0.7198796738375322
 20
3.513184666627582
 30
0.0
 41
1.0
 10
0.6292514040061903
 20
4.186446220074034
 30
0.0
 41
1.0
 10
0.3573598927248582
 20
4.460512461338376
 30
0.0
 41
1.0
  0
SPLINE
  5
AE
330
70
100
AcDbEntity
  8
Eagle (Simone) v13_Sketch1
100
AcDbSpline
210
0.0
220
0.0
230
1.0
 70
    12
 71
     3
 72
     8
 73
     4
 74
     0
 42
0.000000001
 43
0.0000000001
 40
0.0
 40
0.0
 40
0.0
 40
0.0
 40
1.0
 40
1.0
 40
1.0
 40
1.0
 10
-4.468491247972735
 20
1.371934758498296
 30
0.0
 41
1.0
 10
-4.688624855837119
 20
1.279151864045884
 30
0.0
 41
1.0
 10
-4.856926840624105
 20
1.01804352855089
 30
0.0
 41
1.0
 10
-5.154734163444132
 20
1.184217695866052
 30
0.0
 41
1.0
  0
SPLINE
  5
AF
330
70
100
AcDbEntity
  8
Eagle (Simone) v13_Sketch1
100
AcDbSpline
210
0.0
220
0.0
230
1.0
 70
    12
 71
     3
 72
     8
 73
     4
 74
     0
 42
0.000000001
 43
0.0000000001
 40
0.0
 40
0.0
 40
0.0
 40
0.0
 40
1.0
 40
1.0
 40
1.0
 40
1.0
 10
-4.307240029574565
 20
3.854883872562625
 30
0.0
 41
1.0
 10
-4.546782013496887
 20
4.107363656892353
 30
0.0
 41
1.0
 10
-4.902847973427299
 20
3.872167782042404
 30
0.0
 41
1.0
 10
-5.118615366857369
 20
4.165645750258341
 30
0.0
 41
1.0
  0
SPLINE
  5
B0
330
70
100
AcDbEntity
  8
Eagle (Simone) v13_Sketch1
100
AcDbSpline
210
0.0
220
0.0
230
1.0
 70
    12
 71
     3
 72
     8
 73
     4
 74
     0
 42
0.000000001
 43
0.0000000001
 40
0.0
 40
0.0
 40
0.0
 40
0.0
 40
1.0
 40
1.0
 40
1.0
 40
1.0
 10
-0.3915581376960802
 20
3.401036957734762
 30
0.0
 41
1.0
 10
-0.5706432982694026
 20
3.144231169694603
 30
0.0
 41
1.0
 10
-0.8770557159990914
 20
3.012601365083394
 30
0.0
 41
1.0
 10
-1.015192956091048
 20
2.714797393157025
 30
0.0
 41
1.0
  0
SPLINE
  5
B1
330
70
100
AcDbEntity
  8
Eagle (Simone) v13_Sketch1
100
AcDbSpline
210
0.0
220
0.0
230
1.0
 70
    12
 71
     3
 72
     8
 73
     4
 74
     0
 42
0.000000001
 43
0.0000000001
 40
0.0
 40
0.0
 40
0.0
 40
0.0
 40
1.0
 40
1.0
 40
1.0
 40
1.0
 10
-0.4448334639356589
 20
5.085121423298685
 30
0.0
 41
1.0
 10
0.211191092542208
 20
5.136926239226821
 30
0.0
 41
1.0
 10
0.2931874603146269
 20
6.168408377224763
 30
0.0
 41
1.0
 10
-0.3196842876559529
 20
6.332407814556914
 30
0.0
 41
1.0
  0
SPLINE
  5
B2
330
70
100
AcDbEntity
  8
Eagle (Simone) v13_Sketch1
100
AcDbSpline
210
0.0
220
0.0
230
1.0
 70
    12
 71
     3
 72
     8
 73
     4
 74
     0
 42
0.000000001
 43
0.0000000001
 40
0.0
 40
0.0
 40
0.0
 40
0.0
 40
1.0
 40
1.0
 40
1.0
 40
1.0
 10
-0.9432922989016745
 20
5.646164899085521
 30
0.0
 41
1.0
 10
-0.6670714330162682
 20
5.568491184129878
 30
0.0
 41
1.0
 10
-0.6800326896792726
 20
5.203793322140538
 30
0.0
 41
1.0
 10
-0.4448334639356589
 20
5.085121423298685
 30
0.0
 41
1.0
  0
SPLINE
  5
B3
330
70
100
AcDbEntity
  8
Eagle (Simone) v13_Sketch1
100
AcDbSpline
210
0.0
220
0.0
230
1.0
 70
    12
 71
     3
 72
     8
 73
     4
 74
     0
 42
0.000000001
 43
0.0000000001
 40
0.0
 40
0.0
 40
0.0
 40
0.0
 40
1.0
 40
1.0
 40
1.0
 40
1.0
 10
-0.5676772253797538
 20
7.268838503097047
 30
0.0
 41
1.0
 10
-0.8072192093020689
 20
7.521318287426774
 30
0.0
 41
1.0
 10
-1.163285169232487
 20
7.286122412576826
 30
0.0
 41
1.0
 10
-1.379052562662558
 20
7.579600380792763
 30
0.0
 41
1.0
  0
SPLINE
  5
B4
330
70
100
AcDbEntity
  8
Eagle (Simone) v13_Sketch1
100
AcDbSpline
210
0.0
220
0.0
230
1.0
 70
    12
 71
     3
 72
     8
 73
     4
 74
     0
 42
0.000000001
 43
0.0000000001
 40
0.0
 40
0.0
 40
0.0
 40
0.0
 40
1.0
 40
1.0
 40
1.0
 40
1.0
 10
-2.749669984432117
 20
3.895273403377123
 30
0.0
 41
1.0
 10
-2.093645427954257
 20
3.947078219305259
 30
0.0
 41
1.0
 10
-2.011649060181838
 20
4.978560357303202
 30
0.0
 41
1.0
 10
-2.624520808152411
 20
5.142559794635353
 30
0.0
 41
1.0
  0
SPLINE
  5
B5
330
70
100
AcDbEntity
  8
Eagle (Simone) v13_Sketch1
100
AcDbSpline
210
0.0
220
0.0
230
1.0
 70
    12
 71
     3
 72
     8
 73
     4
 74
     0
 42
0.000000001
 43
0.0000000001
 40
0.0
 40
0.0
 40
0.0
 40
0.0
 40
1.0
 40
1.0
 40
1.0
 40
1.0
 10
-0.3196574805067058
 20
6.332404463663257
 30
0.0
 41
1.0
 10
-0.4987426410800282
 20
6.075598675623097
 30
0.0
 41
1.0
 10
-0.8051550588097171
 20
5.94396887101189
 30
0.0
 41
1.0
 10
-0.9432922989016745
 20
5.646164899085521
 30
0.0
 41
1.0
  0
SPLINE
  5
B6
330
70
100
AcDbEntity
  8
Eagle (Simone) v13_Sketch1
100
AcDbSpline
210
0.0
220
0.0
230
1.0
 70
    12
 71
     3
 72
     8
 73
     4
 74
     0
 42
0.000000001
 43
0.0000000001
 40
0.0
 40
0.0
 40
0.0
 40
0.0
 40
1.0
 40
1.0
 40
1.0
 40
1.0
 10
-7.20171094795018
 20
9.778083091813183
 30
0.0
 41
1.0
 10
-8.340677350061753
 20
8.322438582447123
 30
0.0
 41
1.0
 10
-8.356018508238772
 20
7.379336346471502
 30
0.0
 41
1.0
 10
-6.202550746217248
 20
8.497121799966759
 30
0.0
 41
1.0
  0
SPLINE
  5
B7
330
70
100
AcDbEntity
  8
Eagle (Simone) v13_Sketch1
100
AcDbSpline
210
0.0
220
0.0
230
1.0
 70
    12
 71
     3
 72
     8
 73
     4
 74
     0
 42
0.000000001
 43
0.0000000001
 40
0.0
 40
0.0
 40
0.0
 40
0.0
 40
1.0
 40
1.0
 40
1.0
 40
1.0
 10
-8.580089715127151
 20
7.361154253315827
 30
0.0
 41
1.0
 10
-8.781050219908856
 20
7.911522856901065
 30
0.0
 41
1.0
 10
-8.359897936205904
 20
8.746624028614474
 30
0.0
 41
1.0
 10
-8.08120781918172
 20
9.109434600458566
 30
0.0
 41
1.0
  0
SPLINE
  5
B8
330
70
100
AcDbEntity
  8
Eagle (Simone) v13_Sketch1
100
AcDbSpline
210
0.0
220
0.0
230
1.0
 70
    12
 71
     3
 72
     8
 73
     4
 74
     0
 42
0.000000001
 43
0.0000000001
 40
0.0
 40
0.0
 40
0.0
 40
0.0
 40
1.0
 40
1.0
 40
1.0
 40
1.0
 10
-13.50792717256726
 20
2.4036866332872
 30
0.0
 41
1.0
 10
-12.22703481998329
 20
4.386565397162959
 30
0.0
 41
1.0
 10
-10.47483778475458
 20
6.196478117451018
 30
0.0
 41
1.0
 10
-8.580089715127151
 20
7.361154253315827
 30
0.0
 41
1.0
  0
SPLINE
  5
B9
330
70
100
AcDbEntity
  8
Eagle (Simone) v13_Sketch1
100
AcDbSpline
210
0.0
220
0.0
230
1.0
 70
    12
 71
     3
 72
     8
 73
     4
 74
     0
 42
0.000000001
 43
0.0000000001
 40
0.0
 40
0.0
 40
0.0
 40
0.0
 40
1.0
 40
1.0
 40
1.0
 40
1.0
 10
1.708623946983657
 20
4.701785918279417
 30
0.0
 41
1.0
 10
1.488490339119273
 20
4.609003023827006
 30
0.0
 41
1.0
 10
1.320188354332287
 20
4.347894688332011
 30
0.0
 41
1.0
 10
1.02238103151226
 20
4.514068855647174
 30
0.0
 41
1.0
  0
SPLINE
  5
BA
330
70
100
AcDbEntity
  8
Eagle (Simone) v13_Sketch1
100
AcDbSpline
210
0.0
220
0.0
230
1.0
 70
    12
 71
     3
 72
     8
 73
     4
 74
     0
 42
0.000000001
 43
0.0000000001
 40
0.0
 40
0.0
 40
0.0
 40
0.0
 40
1.0
 40
1.0
 40
1.0
 40
1.0
 10
-4.073656361231952
 20
10.34919195081696
 30
0.0
 41
1.0
 10
-3.999510855867664
 20
10.94923282144528
 30
0.0
 41
1.0
 10
-3.721534976332618
 20
11.30398788883648
 30
0.0
 41
1.0
 10
-3.455335291828724
 20
11.6727772789631
 30
0.0
 41
1.0
  0
SPLINE
  5
BB
330
70
100
AcDbEntity
  8
Eagle (Simone) v13_Sketch1
100
AcDbSpline
210
0.0
220
0.0
230
1.0
 70
    12
 71
     3
 72
     8
 73
     4
 74
     0
 42
0.000000001
 43
0.0000000001
 40
0.0
 40
0.0
 40
0.0
 40
0.0
 40
1.0
 40
1.0
 40
1.0
 40
1.0
 10
-11.66829412675536
 20
-2.078752348272012
 30
0.0
 41
1.0
 10
-11.69484039425147
 20
-1.391931673079925
 30
0.0
 41
1.0
 10
-11.1650963136607
 20
-0.5609799114622149
 30
0.0
 41
1.0
 10
-10.78363605707151
 20
0.1594503596335101
 30
0.0
 41
1.0
  0
SPLINE
  5
BC
330
70
100
AcDbEntity
  8
Eagle (Simone) v13_Sketch1
100
AcDbSpline
210
0.0
220
0.0
230
1.0
 70
    12
 71
     3
 72
     8
 73
     4
 74
     0
 42
0.000000001
 43
0.0000000001
 40
0.0
 40
0.0
 40
0.0
 40
0.0
 40
1.0
 40
1.0
 40
1.0
 40
1.0
 10
-4.037136661413869
 20
6.866403674335218
 30
0.0
 41
1.0
 10
-3.219287397586873
 20
7.386448966235853
 30
0.0
 41
1.0
 10
-2.746720917903961
 20
8.271212225487747
 30
0.0
 41
1.0
 10
-2.077761911912356
 20
8.896971510460881
 30
0.0
 41
1.0
  0
SPLINE
  5
BD
330
70
100
AcDbEntity
  8
Eagle (Simone) v13_Sketch1
100
AcDbSpline
210
0.0
220
0.0
230
1.0
 70
    12
 71
     3
 72
     8
 73
     4
 74
     0
 42
0.000000001
 43
0.0000000001
 40
0.0
 40
0.0
 40
0.0
 40
0.0
 40
1.0
 40
1.0
 40
1.0
 40
1.0
 10
1.918133877842564
 20
3.082744473193053
 30
0.0
 41
1.0
 10
1.678591893920241
 20
3.335224257522782
 30
0.0
 41
1.0
 10
1.322525933989822
 20
3.100028382672832
 30
0.0
 41
1.0
 10
1.106758540559752
 20
3.39350635088877
 30
0.0
 41
1.0
  0
SPLINE
  5
BE
330
70
100
AcDbEntity
  8
Eagle (Simone) v13_Sketch1
100
AcDbSpline
210
0.0
220
0.0
230
1.0
 70
    12
 71
     3
 72
     8
 73
     4
 74
     0
 42
0.000000001
 43
0.0000000001
 40
0.0
 40
0.0
 40
0.0
 40
0.0
 40
1.0
 40
1.0
 40
1.0
 40
1.0
 10
0.5743501670251874
 20
5.853114693655448
 30
0.0
 41
1.0
 10
0.6498726082534177
 20
4.836741735154274
 30
0.0
 41
1.0
 10
2.065460984298645
 20
4.869111367875224
 30
0.0
 41
1.0
 10
1.821616452921489
 20
5.97826722082881
 30
0.0
 41
1.0
  0
SPLINE
  5
BF
330
70
100
AcDbEntity
  8
Eagle (Simone) v13_Sketch1
100
AcDbSpline
210
0.0
220
0.0
230
1.0
 70
    12
 71
     3
 72
     8
 73
     4
 74
     0
 42
0.000000001
 43
0.0000000001
 40
0.0
 40
0.0
 40
0.0
 40
0.0
 40
1.0
 40
1.0
 40
1.0
 40
1.0
 10
0.6708675919462621
 20
2.95759194601969
 30
0.0
 41
1.0
 10
0.7463900331744924
 20
1.941218987518518
 30
0.0
 41
1.0
 10
2.161978409219713
 20
1.973588620239469
 30
0.0
 41
1.0
 10
1.918133877842564
 20
3.082744473193053
 30
0.0
 41
1.0
  0
SPLINE
  5
C0
330
70
100
AcDbEntity
  8
Eagle (Simone) v13_Sketch1
100
AcDbSpline
210
0.0
220
0.0
230
1.0
 70
    12
 71
     3
 72
     8
 73
     4
 74
     0
 42
0.000000001
 43
0.0000000001
 40
0.0
 40
0.0
 40
0.0
 40
0.0
 40
1.0
 40
1.0
 40
1.0
 40
1.0
 10
-2.138218735261344
 20
10.26941042889245
 30
0.0
 41
1.0
 10
-2.332436531587032
 20
10.32982033973025
 30
0.0
 41
1.0
 10
-2.600002039157921
 20
10.51973558860112
 30
0.0
 41
1.0
 10
-2.673349750403148
 20
10.78730444706567
 30
0.0
 41
1.0
  0
SPLINE
  5
C1
330
70
100
AcDbEntity
  8
Eagle (Simone) v13_Sketch1
100
AcDbSpline
210
0.0
220
0.0
230
1.0
 70
    12
 71
     3
 72
     8
 73
     4
 74
     0
 42
0.000000001
 43
0.0000000001
 40
0.0
 40
0.0
 40
0.0
 40
0.0
 40
1.0
 40
1.0
 40
1.0
 40
1.0
 10
-2.077761911912356
 20
8.896971510460881
 30
0.0
 41
1.0
 10
-2.056195560339683
 20
9.501191251010599
 30
0.0
 41
1.0
 10
-1.810196404341457
 20
9.878823562513694
 30
0.0
 41
1.0
 10
-1.577151803218924
 20
10.26941042889245
 30
0.0
 41
1.0
  0
SPLINE
  5
C2
330
70
100
AcDbEntity
  8
Eagle (Simone) v13_Sketch1
100
AcDbSpline
210
0.0
220
0.0
230
1.0
 70
    12
 71
     3
 72
     8
 73
     4
 74
     0
 42
0.000000001
 43
0.0000000001
 40
0.0
 40
0.0
 40
0.0
 40
0.0
 40
1.0
 40
1.0
 40
1.0
 40
1.0
 10
-1.976370571656621
 20
10.21545433923688
 30
0.0
 41
1.0
 10
-3.197744502269802
 20
9.253037470391291
 30
0.0
 41
1.0
 10
-3.948679770671889
 20
8.273363499215191
 30
0.0
 41
1.0
 10
-5.008225643042283
 20
7.151249740492239
 30
0.0
 41
1.0
  0
SPLINE
  5
C3
330
70
100
AcDbEntity
  8
Eagle (Simone) v13_Sketch1
100
AcDbSpline
210
0.0
220
0.0
230
1.0
 70
    12
 71
     3
 72
     8
 73
     4
 74
     0
 42
0.000000001
 43
0.0000000001
 40
0.0
 40
0.0
 40
0.0
 40
0.0
 40
1.0
 40
1.0
 40
1.0
 40
1.0
 10
-6.178991733382042
 20
3.371907438051284
 30
0.0
 41
1.0
 10
-5.866479934461671
 20
4.665899016621521
 30
0.0
 41
1.0
 10
-5.000643580141703
 20
5.253004324732156
 30
0.0
 41
1.0
 10
-4.372153083600202
 20
6.172790005381148
 30
0.0
 41
1.0
  0
SPLINE
  5
C4
330
70
100
AcDbEntity
  8
Eagle (Simone) v13_Sketch1
100
AcDbSpline
210
0.0
220
0.0
230
1.0
 70
    12
 71
     3
 72
     8
 73
     4
 74
     0
 42
0.000000001
 43
0.0000000001
 40
0.0
 40
0.0
 40
0.0
 40
0.0
 40
1.0
 40
1.0
 40
1.0
 40
1.0
 10
-1.577151803218924
 20
10.26941042889245
 30
0.0
 41
1.0
 10
-1.728196685675386
 20
10.243521424503
 30
0.0
 41
1.0
 10
-1.900828025066456
 20
10.20900051805464
 30
0.0
 41
1.0
 10
-1.976370571656621
 20
10.21545433923688
 30
0.0
 41
1.0
  0
SPLINE
  5
C5
330
70
100
AcDbEntity
  8
Eagle (Simone) v13_Sketch1
100
AcDbSpline
210
0.0
220
0.0
230
1.0
 70
    12
 71
     3
 72
     8
 73
     4
 74
     0
 42
0.000000001
 43
0.0000000001
 40
0.0
 40
0.0
 40
0.0
 40
0.0
 40
1.0
 40
1.0
 40
1.0
 40
1.0
 10
-0.3665006888218443
 20
0.2137256594439689
 30
0.0
 41
1.0
 10
-0.5866342966862277
 20
0.1209427649915566
 30
0.0
 41
1.0
 10
-0.7549362814732135
 20
-0.1401655705034384
 30
0.0
 41
1.0
 10
-1.05274360429324
 20
0.0260085968117241
 30
0.0
 41
1.0
  0
SPLINE
  5
C6
330
70
100
AcDbEntity
  8
Eagle (Simone) v13_Sketch1
100
AcDbSpline
210
0.0
220
0.0
230
1.0
 70
    12
 71
     3
 72
     8
 73
     4
 74
     0
 42
0.000000001
 43
0.0000000001
 40
0.0
 40
0.0
 40
0.0
 40
0.0
 40
1.0
 40
1.0
 40
1.0
 40
1.0
 10
-12.0999414651893
 20
-13.17078796232909
 30
0.0
 41
1.0
 10
-12.2029511594331
 20
-11.72197320593957
 30
0.0
 41
1.0
 10
-12.17764951947033
 20
-10.13734833235617
 30
0.0
 41
1.0
 10
-12.11238885362022
 20
-8.691015612759372
 30
0.0
 41
1.0
  0
SPLINE
  5
C7
330
70
100
AcDbEntity
  8
Eagle (Simone) v13_Sketch1
100
AcDbSpline
210
0.0
220
0.0
230
1.0
 70
    12
 71
     3
 72
     8
 73
     4
 74
     0
 42
0.000000001
 43
0.0000000001
 40
0.0
 40
0.0
 40
0.0
 40
0.0
 40
1.0
 40
1.0
 40
1.0
 40
1.0
 10
-12.46719877456753
 20
-11.76625619909524
 30
0.0
 41
1.0
 10
-12.97162537721668
 20
-11.29937168796948
 30
0.0
 41
1.0
 10
-13.18461137101629
 20
-10.33721443081153
 30
0.0
 41
1.0
 10
-13.42429936689276
 20
-9.558060166560313
 30
0.0
 41
1.0
  0
SPLINE
  5
C8
330
70
100
AcDbEntity
  8
Eagle (Simone) v13_Sketch1
100
AcDbSpline
210
0.0
220
0.0
230
1.0
 70
    12
 71
     3
 72
     8
 73
     4
 74
     0
 42
0.000000001
 43
0.0000000001
 40
0.0
 40
0.0
 40
0.0
 40
0.0
 40
1.0
 40
1.0
 40
1.0
 40
1.0
 10
-13.14273606102991
 20
-0.7723820077680012
 30
0.0
 41
1.0
 10
-13.22405339986686
 20
-1.316668358553154
 30
0.0
 41
1.0
 10
-13.48360105733955
 20
-2.182329461841005
 30
0.0
 41
1.0
 10
-13.73197753819417
 20
-2.430189341421041
 30
0.0
 41
1.0
  0
SPLINE
  5
C9
330
70
100
AcDbEntity
  8
Eagle (Simone) v13_Sketch1
100
AcDbSpline
210
0.0
220
0.0
230
1.0
 70
    12
 71
     3
 72
     8
 73
     4
 74
     0
 42
0.000000001
 43
0.0000000001
 40
0.0
 40
0.0
 40
0.0
 40
0.0
 40
1.0
 40
1.0
 40
1.0
 40
1.0
 10
-15.07297237249839
 20
-1.090580254554693
 30
0.0
 41
1.0
 10
-15.98361774574218
 20
-4.023759676131998
 30
0.0
 41
1.0
 10
-14.79343258140644
 20
-9.940656538270259
 30
0.0
 41
1.0
 10
-12.0999414651893
 20
-13.17078796232909
 30
0.0
 41
1.0
  0
SPLINE
  5
CA
330
70
100
AcDbEntity
  8
Eagle (Simone) v13_Sketch1
100
AcDbSpline
210
0.0
220
0.0
230
1.0
 70
    12
 71
     3
 72
     8
 73
     4
 74
     0
 42
0.000000001
 43
0.0000000001
 40
0.0
 40
0.0
 40
0.0
 40
0.0
 40
1.0
 40
1.0
 40
1.0
 40
1.0
 10
-0.4916967776127379
 20
-0.8479513812919051
 30
0.0
 41
1.0
 10
-0.004001013071111
 20
-0.7335820299048868
 30
0.0
 41
1.0
 10
-0.0946292829024529
 20
-0.0603204764584331
 30
0.0
 41
1.0
 10
-0.3665207941837849
 20
0.2137457648059096
 30
0.0
 41
1.0
  0
SPLINE
  5
CB
330
70
100
AcDbEntity
  8
Eagle (Simone) v13_Sketch1
100
AcDbSpline
210
0.0
220
0.0
230
1.0
 70
    12
 71
     3
 72
     8
 73
     4
 74
     0
 42
0.000000001
 43
0.0000000001
 40
0.0
 40
0.0
 40
0.0
 40
0.0
 40
1.0
 40
1.0
 40
1.0
 40
1.0
 10
-6.306622281482838
 20
5.527542652410433
 30
0.0
 41
1.0
 10
-6.554785855302664
 20
6.058302075241014
 30
0.0
 41
1.0
 10
-6.208020046078687
 20
6.926931274968117
 30
0.0
 41
1.0
 10
-5.962011453954401
 20
7.312650687196507
 30
0.0
 41
1.0
  0
SPLINE
  5
CC
330
70
100
AcDbEntity
  8
Eagle (Simone) v13_Sketch1
100
AcDbSpline
210
0.0
220
0.0
230
1.0
 70
    12
 71
     3
 72
     8
 73
     4
 74
     0
 42
0.000000001
 43
0.0000000001
 40
0.0
 40
0.0
 40
0.0
 40
0.0
 40
1.0
 40
1.0
 40
1.0
 40
1.0
 10
1.106758540559752
 20
3.39350635088877
 30
0.0
 41
1.0
 10
0.9664968338896215
 20
3.24246146843231
 30
0.0
 41
1.0
 10
0.888803013572037
 20
3.028808488899437
 30
0.0
 41
1.0
 10
0.6708675919462621
 20
2.95759194601969
 30
0.0
 41
1.0
  0
SPLINE
  5
CD
330
70
100
AcDbEntity
  8
Eagle (Simone) v13_Sketch1
100
AcDbSpline
210
0.0
220
0.0
230
1.0
 70
    12
 71
     3
 72
     8
 73
     4
 74
     0
 42
0.000000001
 43
0.0000000001
 40
0.0
 40
0.0
 40
0.0
 40
0.0
 40
1.0
 40
1.0
 40
1.0
 40
1.0
 10
-2.232115393768673
 20
1.345430824611594
 30
0.0
 41
1.0
 10
-2.471657377690995
 20
1.597910608941322
 30
0.0
 41
1.0
 10
-2.827723337621414
 20
1.362714734091373
 30
0.0
 41
1.0
 10
-3.043490731051477
 20
1.656192702307311
 30
0.0
 41
1.0
  0
SPLINE
  5
CE
330
70
100
AcDbEntity
  8
Eagle (Simone) v13_Sketch1
100
AcDbSpline
210
0.0
220
0.0
230
1.0
 70
    12
 71
     3
 72
     8
 73
     4
 74
     0
 42
0.000000001
 43
0.0000000001
 40
0.0
 40
0.0
 40
0.0
 40
0.0
 40
1.0
 40
1.0
 40
1.0
 40
1.0
 10
-2.803759705216691
 20
2.66803967125612
 30
0.0
 41
1.0
 10
-2.728237263988468
 20
1.651666712754949
 30
0.0
 41
1.0
 10
-1.312648887943247
 20
1.6840363454759
 30
0.0
 41
1.0
 10
-1.556493419320396
 20
2.793192198429482
 30
0.0
 41
1.0
  0
SPLINE
  5
CF
330
70
100
AcDbEntity
  8
Eagle (Simone) v13_Sketch1
100
AcDbSpline
210
0.0
220
0.0
230
1.0
 70
    12
 71
     3
 72
     8
 73
     4
 74
     0
 42
0.000000001
 43
0.0000000001
 40
0.0
 40
0.0
 40
0.0
 40
0.0
 40
1.0
 40
1.0
 40
1.0
 40
1.0
 10
-6.202550746217248
 20
8.497121799966759
 30
0.0
 41
1.0
 10
-5.342488712076528
 20
8.943907902481274
 30
0.0
 41
1.0
 10
-4.794608291504595
 20
9.78411748787998
 30
0.0
 41
1.0
 10
-4.073656361231952
 20
10.34919195081696
 30
0.0
 41
1.0
  0
SPLINE
  5
D0
330
70
100
AcDbEntity
  8
Eagle (Simone) v13_Sketch1
100
AcDbSpline
210
0.0
220
0.0
230
1.0
 70
    12
 71
     3
 72
     8
 73
     4
 74
     0
 42
0.000000001
 43
0.0000000001
 40
0.0
 40
0.0
 40
0.0
 40
0.0
 40
1.0
 40
1.0
 40
1.0
 40
1.0
 10
-2.673349750403148
 20
10.78730444706567
 30
0.0
 41
1.0
 10
-3.495525017940583
 20
9.965149284890179
 30
0.0
 41
1.0
 10
-4.481703073703799
 20
9.071780930728616
 30
0.0
 41
1.0
 10
-5.144137889746378
 20
8.055407972227451
 30
0.0
 41
1.0
  0
SPLINE
  5
D1
330
70
100
AcDbEntity
  8
Eagle (Simone) v13_Sketch1
100
AcDbSpline
210
0.0
220
0.0
230
1.0
 70
    12
 71
     3
 72
     8
 73
     4
 74
     0
 42
0.000000001
 43
0.0000000001
 40
0.0
 40
0.0
 40
0.0
 40
0.0
 40
1.0
 40
1.0
 40
1.0
 40
1.0
 10
-7.145118470626115
 20
8.865519922312559
 30
0.0
 41
1.0
 10
-7.163404932927545
 20
9.597115276817246
 30
0.0
 41
1.0
 10
-4.550268905384751
 20
11.41332515681541
 30
0.0
 41
1.0
 10
-4.014267194803991
 20
11.72167748415641
 30
0.0
 41
1.0
  0
SPLINE
  5
D2
330
70
100
AcDbEntity
  8
Eagle (Simone) v13_Sketch1
100
AcDbSpline
210
0.0
220
0.0
230
1.0
 70
    12
 71
     3
 72
     8
 73
     4
 74
     0
 42
0.000000001
 43
0.0000000001
 40
0.0
 40
0.0
 40
0.0
 40
0.0
 40
1.0
 40
1.0
 40
1.0
 40
1.0
 10
-5.96103158254407
 20
5.417177476861557
 30
0.0
 41
1.0
 10
-8.630566795301993
 20
3.525724887320711
 30
0.0
 41
1.0
 10
-9.988975643598859
 20
1.56724732386139
 30
0.0
 41
1.0
 10
-11.66829412675536
 20
-2.078752348272012
 30
0.0
 41
1.0
  0
SPLINE
  5
D3
330
70
100
AcDbEntity
  8
Eagle (Simone) v13_Sketch1
100
AcDbSpline
210
0.0
220
0.0
230
1.0
 70
    12
 71
     3
 72
     8
 73
     4
 74
     0
 42
0.000000001
 43
0.0000000001
 40
0.0
 40
0.0
 40
0.0
 40
0.0
 40
1.0
 40
1.0
 40
1.0
 40
1.0
 10
-14.05438702896623
 20
-2.596518904118185
 30
0.0
 41
1.0
 10
-14.60516876191988
 20
-2.396693462947523
 30
0.0
 41
1.0
 10
-14.97418190419764
 20
-1.537279410297917
 30
0.0
 41
1.0
 10
-15.07297237249839
 20
-1.090580254554693
 30
0.0
 41
1.0
  0
SPLINE
  5
D4
330
70
100
AcDbEntity
  8
Eagle (Simone) v13_Sketch1
100
AcDbSpline
210
0.0
220
0.0
230
1.0
 70
    12
 71
     3
 72
     8
 73
     4
 74
     0
 42
0.000000001
 43
0.0000000001
 40
0.0
 40
0.0
 40
0.0
 40
0.0
 40
1.0
 40
1.0
 40
1.0
 40
1.0
 10
-13.42429936689276
 20
-9.558060166560313
 30
0.0
 41
1.0
 10
-14.1199308917552
 20
-7.302269796699891
 30
0.0
 41
1.0
 10
-14.38011392968771
 20
-4.796619523398168
 30
0.0
 41
1.0
 10
-14.05438702896623
 20
-2.596518904118185
 30
0.0
 41
1.0
  0
SPLINE
  5
D5
330
70
100
AcDbEntity
  8
Eagle (Simone) v13_Sketch1
100
AcDbSpline
210
0.0
220
0.0
230
1.0
 70
    12
 71
     3
 72
     8
 73
     4
 74
     0
 42
0.000000001
 43
0.0000000001
 40
0.0
 40
0.0
 40
0.0
 40
0.0
 40
1.0
 40
1.0
 40
1.0
 40
1.0
 10
-10.88019689977217
 20
-12.70697104787154
 30
0.0
 41
1.0
 10
-10.36125981387598
 20
-11.35036517425833
 30
0.0
 41
1.0
 10
-9.668637330968042
 20
-9.924900246897994
 30
0.0
 41
1.0
 10
-8.998244461466191
 20
-8.641657989643118
 30
0.0
 41
1.0
  0
SPLINE
  5
D6
330
70
100
AcDbEntity
  8
Eagle (Simone) v13_Sketch1
100
AcDbSpline
210
0.0
220
0.0
230
1.0
 70
    12
 71
     3
 72
     8
 73
     4
 74
     0
 42
0.000000001
 43
0.0000000001
 40
0.0
 40
0.0
 40
0.0
 40
0.0
 40
1.0
 40
1.0
 40
1.0
 40
1.0
 10
-10.6194642867703
 20
-11.27882332801137
 30
0.0
 41
1.0
 10
-10.87931612421404
 20
-10.64250236594395
 30
0.0
 41
1.0
 10
-10.66572176138309
 20
-9.680479980953158
 30
0.0
 41
1.0
 10
-10.55366803771945
 20
-8.873029879782039
 30
0.0
 41
1.0
  0
SPLINE
  5
D7
330
70
100
AcDbEntity
  8
Eagle (Simone) v13_Sketch1
100
AcDbSpline
210
0.0
220
0.0
230
1.0
 70
    12
 71
     3
 72
     8
 73
     4
 74
     0
 42
0.000000001
 43
0.0000000001
 40
0.0
 40
0.0
 40
0.0
 40
0.0
 40
1.0
 40
1.0
 40
1.0
 40
1.0
 10
-9.242882153243064
 20
-0.1551173770279323
 30
0.0
 41
1.0
 10
-8.351713422669009
 20
1.315701236166869
 30
0.0
 41
1.0
 10
-7.551314787797714
 20
2.76413414289418
 30
0.0
 41
1.0
 10
-6.178991733382042
 20
3.371907438051284
 30
0.0
 41
1.0
  0
SPLINE
  5
D8
330
70
100
AcDbEntity
  8
Eagle (Simone) v13_Sketch1
100
AcDbSpline
210
0.0
220
0.0
230
1.0
 70
    12
 71
     3
 72
     8
 73
     4
 74
     0
 42
0.000000001
 43
0.0000000001
 40
0.0
 40
0.0
 40
0.0
 40
0.0
 40
1.0
 40
1.0
 40
1.0
 40
1.0
 10
-7.325442775792756
 20
-4.279426557049379
 30
0.0
 41
1.0
 10
-7.474348929603543
 20
-2.956586889050092
 30
0.0
 41
1.0
 10
-6.861530738268165
 20
-2.108754889393206
 30
0.0
 41
1.0
 10
-6.585528086758513
 20
-1.029482662876853
 30
0.0
 41
1.0
  0
SPLINE
  5
D9
330
70
100
AcDbEntity
  8
Eagle (Simone) v13_Sketch1
100
AcDbSpline
210
0.0
220
0.0
230
1.0
 70
    12
 71
     3
 72
     8
 73
     4
 74
     0
 42
0.000000001
 43
0.0000000001
 40
0.0
 40
0.0
 40
0.0
 40
0.0
 40
1.0
 40
1.0
 40
1.0
 40
1.0
 10
-3.857737495394762
 20
11.65382071680045
 30
0.0
 41
1.0
 10
-5.158343886496206
 20
10.80151588679763
 30
0.0
 41
1.0
 10
-5.991805832096869
 20
9.89101819192651
 30
0.0
 41
1.0
 10
-7.145118470626115
 20
8.865519922312559
 30
0.0
 41
1.0
  0
SPLINE
  5
DA
330
70
100
AcDbEntity
  8
Eagle (Simone) v13_Sketch1
100
AcDbSpline
210
0.0
220
0.0
230
1.0
 70
    12
 71
     3
 72
     8
 73
     4
 74
     0
 42
0.000000001
 43
0.0000000001
 40
0.0
 40
0.0
 40
0.0
 40
0.0
 40
1.0
 40
1.0
 40
1.0
 40
1.0
 10
-1.556493419320396
 20
2.793192198429482
 30
0.0
 41
1.0
 10
-1.796035403242719
 20
3.04567198275921
 30
0.0
 41
1.0
 10
-2.152101363173137
 20
2.810476107909261
 30
0.0
 41
1.0
 10
-2.367868756603208
 20
3.103954076125198
 30
0.0
 41
1.0
  0
SPLINE
  5
DB
330
70
100
AcDbEntity
  8
Eagle (Simone) v13_Sketch1
100
AcDbSpline
210
0.0
220
0.0
230
1.0
 70
    12
 71
     3
 72
     8
 73
     4
 74
     0
 42
0.000000001
 43
0.0000000001
 40
0.0
 40
0.0
 40
0.0
 40
0.0
 40
1.0
 40
1.0
 40
1.0
 40
1.0
 10
-6.596721835641593
 20
7.835321690610136
 30
0.0
 41
1.0
 10
-7.065939147983133
 20
7.547753863749205
 30
0.0
 41
1.0
 10
-7.895908044127651
 20
7.190142673099693
 30
0.0
 41
1.0
 10
-8.245433051982971
 20
7.221088836527371
 30
0.0
 41
1.0
  0
SPLINE
  5
DC
330
70
100
AcDbEntity
  8
Eagle (Simone) v13_Sketch1
100
AcDbSpline
210
0.0
220
0.0
230
1.0
 70
    12
 71
     3
 72
     8
 73
     4
 74
     0
 42
0.000000001
 43
0.0000000001
 40
0.0
 40
0.0
 40
0.0
 40
0.0
 40
1.0
 40
1.0
 40
1.0
 40
1.0
 10
-12.11238885362022
 20
-8.691015612759372
 30
0.0
 41
1.0
 10
-12.52226321633533
 20
-7.020838344903619
 30
0.0
 41
1.0
 10
-12.98049264440601
 20
-5.430674312093072
 30
0.0
 41
1.0
 10
-12.43987432507974
 20
-4.030534755907433
 30
0.0
 41
1.0
  0
SPLINE
  5
DD
330
70
100
AcDbEntity
  8
Eagle (Simone) v13_Sketch1
100
AcDbSpline
210
0.0
220
0.0
230
1.0
 70
    12
 71
     3
 72
     8
 73
     4
 74
     0
 42
0.000000001
 43
0.0000000001
 40
0.0
 40
0.0
 40
0.0
 40
0.0
 40
1.0
 40
1.0
 40
1.0
 40
1.0
 10
-13.73197753819417
 20
-2.430189341421041
 30
0.0
 41
1.0
 10
-14.28216503739438
 20
-5.655294745335627
 30
0.0
 41
1.0
 10
-13.85785237972511
 20
-8.00068761951392
 30
0.0
 41
1.0
 10
-12.46719877456753
 20
-11.76625619909524
 30
0.0
 41
1.0
  0
SPLINE
  5
DE
330
70
100
AcDbEntity
  8
Eagle (Simone) v13_Sketch1
100
AcDbSpline
210
0.0
220
0.0
230
1.0
 70
    12
 71
     3
 72
     8
 73
     4
 74
     0
 42
0.000000001
 43
0.0000000001
 40
0.0
 40
0.0
 40
0.0
 40
0.0
 40
1.0
 40
1.0
 40
1.0
 40
1.0
 10
-12.40175792702825
 20
-3.331596416348243
 30
0.0
 41
1.0
 10
-11.45013004142983
 20
-2.234290824094319
 30
0.0
 41
1.0
 10
-10.31174008648931
 20
-1.131682791539453
 30
0.0
 41
1.0
 10
-9.242882153243064
 20
-0.1551173770279323
 30
0.0
 41
1.0
  0
SPLINE
  5
DF
330
70
100
AcDbEntity
  8
Eagle (Simone) v13_Sketch1
100
AcDbSpline
210
0.0
220
0.0
230
1.0
 70
    12
 71
     3
 72
     8
 73
     4
 74
     0
 42
0.000000001
 43
0.0000000001
 40
0.0
 40
0.0
 40
0.0
 40
0.0
 40
1.0
 40
1.0
 40
1.0
 40
1.0
 10
1.821616452921489
 20
5.97826722082881
 30
0.0
 41
1.0
 10
1.582074468999167
 20
6.230747005158539
 30
0.0
 41
1.0
 10
1.226008509068748
 20
5.995551130308589
 30
0.0
 41
1.0
 10
1.010241115638677
 20
6.289029098524528
 30
0.0
 41
1.0
  0
SPLINE
  5
E0
330
70
100
AcDbEntity
  8
Eagle (Simone) v13_Sketch1
100
AcDbSpline
210
0.0
220
0.0
230
1.0
 70
    12
 71
     3
 72
     8
 73
     4
 74
     0
 42
0.000000001
 43
0.0000000001
 40
0.0
 40
0.0
 40
0.0
 40
0.0
 40
1.0
 40
1.0
 40
1.0
 40
1.0
 10
-3.455335291828724
 20
11.6727772789631
 30
0.0
 41
1.0
 10
-3.608061778312304
 20
11.66015121897018
 30
0.0
 41
1.0
 10
-3.783044898579986
 20
11.64080748759916
 30
0.0
 41
1.0
 10
-3.857737495394762
 20
11.65382071680045
 30
0.0
 41
1.0
  0
SPLINE
  5
E1
330
70
100
AcDbEntity
  8
Eagle (Simone) v13_Sketch1
100
AcDbSpline
210
0.0
220
0.0
230
1.0
 70
    12
 71
     3
 72
     8
 73
     4
 74
     0
 42
0.000000001
 43
0.0000000001
 40
0.0
 40
0.0
 40
0.0
 40
0.0
 40
1.0
 40
1.0
 40
1.0
 40
1.0
 10
-8.182646925002911
 20
-2.297444271363994
 30
0.0
 41
1.0
 10
-8.597374817937227
 20
-1.883570499403581
 30
0.0
 41
1.0
 10
-8.568610229256126
 20
-0.9487251584496235
 30
0.0
 41
1.0
 10
-8.46936157924086
 20
-0.5021275791470208
 30
0.0
 41
1.0
  0
SPLINE
  5
E2
330
70
100
AcDbEntity
  8
Eagle (Simone) v13_Sketch1
100
AcDbSpline
210
0.0
220
0.0
230
1.0
 70
    12
 71
     3
 72
     8
 73
     4
 74
     0
 42
0.000000001
 43
0.0000000001
 40
0.0
 40
0.0
 40
0.0
 40
0.0
 40
1.0
 40
1.0
 40
1.0
 40
1.0
 10
-12.00045268724237
 20
1.956030370954833
 30
0.0
 41
1.0
 10
-10.98448483405928
 20
3.34358160264748
 30
0.0
 41
1.0
 10
-10.06089271183466
 20
4.716743447354426
 30
0.0
 41
1.0
 10
-8.640820827995081
 20
5.202598146534358
 30
0.0
 41
1.0
  0
SPLINE
  5
E3
330
70
100
AcDbEntity
  8
Eagle (Simone) v13_Sketch1
100
AcDbSpline
210
0.0
220
0.0
230
1.0
 70
    12
 71
     3
 72
     8
 73
     4
 74
     0
 42
0.000000001
 43
0.0000000001
 40
0.0
 40
0.0
 40
0.0
 40
0.0
 40
1.0
 40
1.0
 40
1.0
 40
1.0
 10
-6.585496989390144
 20
-1.029495144964414
 30
0.0
 41
1.0
 10
-6.889220878257174
 20
-1.488419910670111
 30
0.0
 41
1.0
 10
-7.490295132059847
 20
-2.163285729674651
 30
0.0
 41
1.0
 10
-7.820150782238515
 20
-2.282954632035964
 30
0.0
 41
1.0
  0
SPLINE
  5
E4
330
70
100
AcDbEntity
  8
Eagle (Simone) v13_Sketch1
100
AcDbSpline
210
0.0
220
0.0
230
1.0
 70
    12
 71
     3
 72
     8
 73
     4
 74
     0
 42
0.000000001
 43
0.0000000001
 40
0.0
 40
0.0
 40
0.0
 40
0.0
 40
1.0
 40
1.0
 40
1.0
 40
1.0
 10
-8.46936157924086
 20
-0.5021275791470208
 30
0.0
 41
1.0
 10
-10.53430176076119
 20
-2.775635564995704
 30
0.0
 41
1.0
 10
-11.95621634508407
 20
-8.641159251545502
 30
0.0
 41
1.0
 10
-10.88019689977217
 20
-12.70697104787154
 30
0.0
 41
1.0
  0
SPLINE
  5
E5
330
70
100
AcDbEntity
  8
Eagle (Simone) v13_Sketch1
100
AcDbSpline
210
0.0
220
0.0
230
1.0
 70
    12
 71
     3
 72
     8
 73
     4
 74
     0
 42
0.000000001
 43
0.0000000001
 40
0.0
 40
0.0
 40
0.0
 40
0.0
 40
1.0
 40
1.0
 40
1.0
 40
1.0
 10
-3.043490731051477
 20
1.656192702307311
 30
0.0
 41
1.0
 10
-3.183752437721608
 20
1.505147819850851
 30
0.0
 41
1.0
 10
-3.261446258039192
 20
1.291494840317978
 30
0.0
 41
1.0
 10
-3.479381679664967
 20
1.220278297438232
 30
0.0
 41
1.0
  0
SPLINE
  5
E6
330
70
100
AcDbEntity
  8
Eagle (Simone) v13_Sketch1
100
AcDbSpline
210
0.0
220
0.0
230
1.0
 70
    12
 71
     3
 72
     8
 73
     4
 74
     0
 42
0.000000001
 43
0.0000000001
 40
0.0
 40
0.0
 40
0.0
 40
0.0
 40
1.0
 40
1.0
 40
1.0
 40
1.0
 10
-10.78363605707151
 20
0.1594503596335101
 30
0.0
 41
1.0
 10
-9.680437158045261
 20
2.24642079553449
 30
0.0
 41
1.0
 10
-8.092652048983474
 20
4.202160285539864
 30
0.0
 41
1.0
 10
-6.306622281482838
 20
5.527542652410433
 30
0.0
 41
1.0
  0
SPLINE
  5
E7
330
70
100
AcDbEntity
  8
Eagle (Simone) v13_Sketch1
100
AcDbSpline
210
0.0
220
0.0
230
1.0
 70
    12
 71
     3
 72
     8
 73
     4
 74
     0
 42
0.000000001
 43
0.0000000001
 40
0.0
 40
0.0
 40
0.0
 40
0.0
 40
1.0
 40
1.0
 40
1.0
 40
1.0
 10
-10.55366803771945
 20
-8.873029879782039
 30
0.0
 41
1.0
 10
-10.23078610064864
 20
-6.534602915805852
 30
0.0
 41
1.0
 10
-9.407658450948837
 20
-4.153754458296518
 30
0.0
 41
1.0
 10
-8.182646925002911
 20
-2.297444271363994
 30
0.0
 41
1.0
  0
SPLINE
  5
E8
330
70
100
AcDbEntity
  8
Eagle (Simone) v13_Sketch1
100
AcDbSpline
210
0.0
220
0.0
230
1.0
 70
    12
 71
     3
 72
     8
 73
     4
 74
     0
 42
0.000000001
 43
0.0000000001
 40
0.0
 40
0.0
 40
0.0
 40
0.0
 40
1.0
 40
1.0
 40
1.0
 40
1.0
 10
1.583427858192763
 20
3.640108877543545
 30
0.0
 41
1.0
 10
2.07112362273439
 20
3.754478228930564
 30
0.0
 41
1.0
 10
1.980495352903048
 20
4.427739782377017
 30
0.0
 41
1.0
 10
1.708603841621716
 20
4.701806023641358
 30
0.0
 41
1.0
  0
SPLINE
  5
E9
330
70
100
AcDbEntity
  8
Eagle (Simone) v13_Sketch1
100
AcDbSpline
210
0.0
220
0.0
230
1.0
 70
    12
 71
     3
 72
     8
 73
     4
 74
     0
 42
0.000000001
 43
0.0000000001
 40
0.0
 40
0.0
 40
0.0
 40
0.0
 40
1.0
 40
1.0
 40
1.0
 40
1.0
 10
-2.367868756603208
 20
3.103954076125198
 30
0.0
 41
1.0
 10
-2.508130463273339
 20
2.952909193668739
 30
0.0
 41
1.0
 10
-2.585824283590923
 20
2.739256214135866
 30
0.0
 41
1.0
 10
-2.803759705216691
 20
2.66803967125612
 30
0.0
 41
1.0
  0
SPLINE
  5
EA
330
70
100
AcDbEntity
  8
Eagle (Simone) v13_Sketch1
100
AcDbSpline
210
0.0
220
0.0
230
1.0
 70
    12
 71
     3
 72
     8
 73
     4
 74
     0
 42
0.000000001
 43
0.0000000001
 40
0.0
 40
0.0
 40
0.0
 40
0.0
 40
1.0
 40
1.0
 40
1.0
 40
1.0
 10
1.02238103151226
 20
4.514068855647174
 30
0.0
 41
1.0
 10
0.9662937734912233
 20
3.981069008870851
 30
0.0
 41
1.0
 10
1.415145978767711
 20
3.948699376149908
 30
0.0
 41
1.0
 10
1.583427858192763
 20
3.640108877543545
 30
0.0
 41
1.0
  0
SPLINE
  5
EB
330
70
100
AcDbEntity
  8
Eagle (Simone) v13_Sketch1
100
AcDbSpline
210
0.0
220
0.0
230
1.0
 70
    12
 71
     3
 72
     8
 73
     4
 74
     0
 42
0.000000001
 43
0.0000000001
 40
0.0
 40
0.0
 40
0.0
 40
0.0
 40
1.0
 40
1.0
 40
1.0
 40
1.0
 10
-4.014267194803991
 20
11.72167748415641
 30
0.0
 41
1.0
 10
-4.202480863130308
 20
11.79878471333879
 30
0.0
 41
1.0
 10
-4.452475998590215
 20
12.01129714789673
 30
0.0
 41
1.0
 10
-4.502224437054251
 20
12.284240500326
 30
0.0
 41
1.0
  0
SPLINE
  5
EC
330
70
100
AcDbEntity
  8
Eagle (Simone) v13_Sketch1
100
AcDbSpline
210
0.0
220
0.0
230
1.0
 70
    12
 71
     3
 72
     8
 73
     4
 74
     0
 42
0.000000001
 43
0.0000000001
 40
0.0
 40
0.0
 40
0.0
 40
0.0
 40
1.0
 40
1.0
 40
1.0
 40
1.0
 10
-12.43987432507974
 20
-4.030534755907433
 30
0.0
 41
1.0
 10
-13.13388533286763
 20
-2.89456532368472
 30
0.0
 41
1.0
 10
-12.93679271996579
 20
-1.8671804215116
 30
0.0
 41
1.0
 10
-13.14276951997517
 20
-0.7723838374706133
 30
0.0
 41
1.0
  0
SPLINE
  5
ED
330
70
100
AcDbEntity
  8
Eagle (Simone) v13_Sketch1
100
AcDbSpline
210
0.0
220
0.0
230
1.0
 70
    12
 71
     3
 72
     8
 73
     4
 74
     0
 42
0.000000001
 43
0.0000000001
 40
0.0
 40
0.0
 40
0.0
 40
0.0
 40
1.0
 40
1.0
 40
1.0
 40
1.0
 10
-1.05274360429324
 20
0.0260085968117241
 30
0.0
 41
1.0
 10
-1.108830862314277
 20
-0.506991249964599
 30
0.0
 41
1.0
 10
-0.6599786570377902
 20
-0.5393608826855423
 30
0.0
 41
1.0
 10
-0.4916967776127379
 20
-0.8479513812919051
 30
0.0
 41
1.0
  0
SPLINE
  5
EE
330
70
100
AcDbEntity
  8
Eagle (Simone) v13_Sketch1
100
AcDbSpline
210
0.0
220
0.0
230
1.0
 70
    12
 71
     3
 72
     8
 73
     4
 74
     0
 42
0.000000001
 43
0.0000000001
 40
0.0
 40
0.0
 40
0.0
 40
0.0
 40
1.0
 40
1.0
 40
1.0
 40
1.0
 10
-4.372128130757998
 20
6.172767640129189
 30
0.0
 41
1.0
 10
-4.814496742025101
 20
5.845399112301379
 30
0.0
 41
1.0
 10
-5.6101394870094
 20
5.416812184597134
 30
0.0
 41
1.0
 10
-5.96103158254407
 20
5.417177476861557
 30
0.0
 41
1.0
  0
SPLINE
  5
EF
330
70
100
AcDbEntity
  8
Eagle (Simone) v13_Sketch1
100
AcDbSpline
210
0.0
220
0.0
230
1.0
 70
    12
 71
     3
 72
     8
 73
     4
 74
     0
 42
0.000000001
 43
0.0000000001
 40
0.0
 40
0.0
 40
0.0
 40
0.0
 40
1.0
 40
1.0
 40
1.0
 40
1.0
 10
-5.962011453954401
 20
7.312650687196507
 30
0.0
 41
1.0
 10
-8.680006032065387
 20
5.882503146439207
 30
0.0
 41
1.0
 10
-12.02229592629534
 20
0.8570372510703951
 30
0.0
 41
1.0
 10
-12.40175792702825
 20
-3.331596416348243
 30
0.0
 41
1.0
  0
SPLINE
  5
F0
330
70
100
AcDbEntity
  8
Eagle (Simone) v13_Sketch1
100
AcDbSpline
210
0.0
220
0.0
230
1.0
 70
    12
 71
     3
 72
     8
 73
     4
 74
     0
 42
0.000000001
 43
0.0000000001
 40
0.0
 40
0.0
 40
0.0
 40
0.0
 40
1.0
 40
1.0
 40
1.0
 40
1.0
 10
-8.08120781918172
 20
9.109434600458566
 30
0.0
 41
1.0
 10
-10.91350517849145
 20
7.921618039106565
 30
0.0
 41
1.0
 10
-14.68107486337285
 20
3.206575316908856
 30
0.0
 41
1.0
 10
-15.42415637501198
 20
-0.9330470423038013
 30
0.0
 41
1.0
  0
SPLINE
  5
F1
330
70
100
AcDbEntity
  8
Eagle (Simone) v13_Sketch1
100
AcDbSpline
210
0.0
220
0.0
230
1.0
 70
    12
 71
     3
 72
     8
 73
     4
 74
     0
 42
0.000000001
 43
0.0000000001
 40
0.0
 40
0.0
 40
0.0
 40
0.0
 40
1.0
 40
1.0
 40
1.0
 40
1.0
 10
-5.144137889746378
 20
8.055407972227451
 30
0.0
 41
1.0
 10
-6.151902402444203
 20
6.506035166949962
 30
0.0
 41
1.0
 10
-6.08498840701931
 20
5.565184649677053
 30
0.0
 41
1.0
 10
-4.037136661413869
 20
6.866403674335218
 30
0.0
 41
1.0
  0
SPLINE
  5
F2
330
70
100
AcDbEntity
  8
Eagle (Simone) v13_Sketch1
100
AcDbSpline
210
0.0
220
0.0
230
1.0
 70
    12
 71
     3
 72
     8
 73
     4
 74
     0
 42
0.000000001
 43
0.0000000001
 40
0.0
 40
0.0
 40
0.0
 40
0.0
 40
1.0
 40
1.0
 40
1.0
 40
1.0
 10
-3.479381679664967
 20
1.220278297438232
 30
0.0
 41
1.0
 10
-3.403859238436737
 20
0.2039053389370604
 30
0.0
 41
1.0
 10
-1.988270862391516
 20
0.2362749716580108
 30
0.0
 41
1.0
 10
-2.232115393768673
 20
1.345430824611594
 30
0.0
 41
1.0
  0
SPLINE
  5
F3
330
70
100
AcDbEntity
  8
Eagle (Simone) v13_Sketch1
100
AcDbSpline
210
0.0
220
0.0
230
1.0
 70
    12
 71
     3
 72
     8
 73
     4
 74
     0
 42
0.000000001
 43
0.0000000001
 40
0.0
 40
0.0
 40
0.0
 40
0.0
 40
1.0
 40
1.0
 40
1.0
 40
1.0
 10
-8.640820827995081
 20
5.202598146534358
 30
0.0
 41
1.0
 10
-8.216719433679973
 20
6.464428498529089
 30
0.0
 41
1.0
 10
-7.303008248891873
 20
6.973837083131737
 30
0.0
 41
1.0
 10
-6.596744744270552
 20
7.835346145539055
 30
0.0
 41
1.0
  0
SPLINE
  5
F4
330
70
100
AcDbEntity
  8
Eagle (Simone) v13_Sketch1
100
AcDbSpline
210
0.0
220
0.0
230
1.0
 70
    12
 71
     3
 72
     8
 73
     4
 74
     0
 42
0.000000001
 43
0.0000000001
 40
0.0
 40
0.0
 40
0.0
 40
0.0
 40
1.0
 40
1.0
 40
1.0
 40
1.0
 10
-4.502224437054251
 20
12.284240500326
 30
0.0
 41
1.0
 10
-5.392926623290435
 20
11.53687118286898
 30
0.0
 41
1.0
 10
-6.453214156270385
 20
10.73285344594177
 30
0.0
 41
1.0
 10
-7.20171094795018
 20
9.778083091813183
 30
0.0
 41
1.0
  0
SPLINE
  5
F5
330
70
100
AcDbEntity
  8
Eagle (Simone) v13_Sketch1
100
AcDbSpline
210
0.0
220
0.0
230
1.0
 70
    12
 71
     3
 72
     8
 73
     4
 74
     0
 42
0.000000001
 43
0.0000000001
 40
0.0
 40
0.0
 40
0.0
 40
0.0
 40
1.0
 40
1.0
 40
1.0
 40
1.0
 10
-5.008225643042283
 20
7.151249740492239
 30
0.0
 41
1.0
 10
-5.090205256346415
 20
7.87846738359425
 30
0.0
 41
1.0
 10
-2.645306121392628
 20
9.915515848051413
 30
0.0
 41
1.0
 10
-2.138218735261344
 20
10.26941042889245
 30
0.0
 41
1.0
  0
SPLINE
  5
F6
330
70
100
AcDbEntity
  8
Eagle (Simone) v13_Sketch1
100
AcDbSpline
210
0.0
220
0.0
230
1.0
 70
    12
 71
     3
 72
     8
 73
     4
 74
     0
 42
0.000000001
 43
0.0000000001
 40
0.0
 40
0.0
 40
0.0
 40
0.0
 40
1.0
 40
1.0
 40
1.0
 40
1.0
 10
-7.605947180791488
 20
-9.182688708814124
 30
0.0
 41
1.0
 10
-7.692252797806055
 20
-8.500795253308771
 30
0.0
 41
1.0
 10
-7.236946771347319
 20
-7.626835275205161
 30
0.0
 41
1.0
 10
-6.919727721575696
 20
-6.875900006803066
 30
0.0
 41
1.0
  0
SPLINE
  5
F7
330
70
100
AcDbEntity
  8
Eagle (Simone) v13_Sketch1
100
AcDbSpline
210
0.0
220
0.0
230
1.0
 70
    12
 71
     3
 72
     8
 73
     4
 74
     0
 42
0.000000001
 43
0.0000000001
 40
0.0
 40
0.0
 40
0.0
 40
0.0
 40
1.0
 40
1.0
 40
1.0
 40
1.0
 10
-7.605947180791488
 20
-9.182688708814124
 30
0.0
 41
1.0
 10
-7.692252797806055
 20
-8.500795253308771
 30
0.0
 41
1.0
 10
-7.236946771347319
 20
-7.626835275205161
 30
0.0
 41
1.0
 10
-6.919727721575696
 20
-6.875900006803066
 30
0.0
 41
1.0
  0
SPLINE
  5
F8
330
70
100
AcDbEntity
  8
Eagle (Simone) v13_Sketch1
100
AcDbSpline
210
0.0
220
0.0
230
1.0
 70
    12
 71
     3
 72
     8
 73
     4
 74
     0
 42
0.000000001
 43
0.0000000001
 40
0.0
 40
0.0
 40
0.0
 40
0.0
 40
1.0
 40
1.0
 40
1.0
 40
1.0
 10
1.766660682685266
 20
-0.5470769933538744
 30
0.0
 41
1.0
 10
-0.7278651873199671
 20
-2.663997359005294
 30
0.0
 41
1.0
 10
-1.910412313136287
 20
-4.733415456183397
 30
0.0
 41
1.0
 10
-3.265570672981745
 20
-8.511903248516285
 30
0.0
 41
1.0
  0
ARC
  5
F9
330
70
100
AcDbEntity
  8
Eagle (Simone) v13_Sketch1
100
AcDbCircle
 10
-3.585993766076424
 20
-0.4273645978396147
 30
0.0
 40
0.9687747792672595
100
AcDbArc
 50
208.2076470232546
 51
312.8127176439531
  0
SPLINE
  5
FA
330
70
100
AcDbEntity
  8
Eagle (Simone) v13_Sketch1
100
AcDbSpline
210
0.0
220
0.0
230
1.0
 70
    12
 71
     3
 72
     8
 73
     4
 74
     0
 42
0.000000001
 43
0.0000000001
 40
0.2179434640272521
 40
0.2179434640272521
 40
0.2179434640272521
 40
0.2179434640272521
 40
1.0
 40
1.0
 40
1.0
 40
1.0
 10
-4.439717215741081
 20
-0.8852738076819711
 30
0.0
 41
1.0
 10
-6.446566018129469
 20
-3.248591357116494
 30
0.0
 41
1.0
 10
-8.217296180254228
 20
-7.205543381730283
 30
0.0
 41
1.0
 10
-8.22742737456538
 20
-10.49469090925865
 30
0.0
 41
1.0
  0
ARC
  5
FB
330
70
100
AcDbEntity
  8
Eagle (Simone) v13_Sketch1
100
AcDbCircle
 10
-0.5922021469815528
 20
2.471526158681423
 30
0.0
 40
3.557571471129634
100
AcDbArc
 50
267.0688398836936
 51
304.3035883231276
  0
SPLINE
  5
FC
330
70
100
AcDbEntity
  8
Eagle (Simone) v13_Sketch1
100
AcDbSpline
210
0.0
220
0.0
230
1.0
 70
    12
 71
     3
 72
     8
 73
     4
 74
     0
 42
0.000000001
 43
0.0000000001
 40
0.0
 40
0.0
 40
0.0
 40
0.0
 40
1.0
 40
1.0
 40
1.0
 40
1.0
 10
-1.303511320552339
 20
9.619213917768401
 30
0.0
 41
1.0
 10
-1.443773027222469
 20
9.468169035311943
 30
0.0
 41
1.0
 10
-1.521466847540053
 20
9.254516055779072
 30
0.0
 41
1.0
 10
-1.739402269165827
 20
9.183299512899326
 30
0.0
 41
1.0
  0
SPLINE
  5
FD
330
70
100
AcDbEntity
  8
Eagle (Simone) v13_Sketch1
100
AcDbSpline
210
0.0
220
0.0
230
1.0
 70
    12
 71
     3
 72
     8
 73
     4
 74
     0
 42
0.000000001
 43
0.0000000001
 40
0.0
 40
0.0
 40
0.0
 40
0.0
 40
1.0
 40
1.0
 40
1.0
 40
1.0
 10
-0.1814210180850105
 20
9.243756336248326
 30
0.0
 41
1.0
 10
-0.2375082761060475
 20
8.710756489472007
 30
0.0
 41
1.0
 10
0.2113439291704381
 20
8.678386856751064
 30
0.0
 41
1.0
 10
0.3796258085954895
 20
8.369796358144704
 30
0.0
 41
1.0
  0
SPLINE
  5
FE
330
70
100
AcDbEntity
  8
Eagle (Simone) v13_Sketch1
100
AcDbSpline
210
0.0
220
0.0
230
1.0
 70
    12
 71
     3
 72
     8
 73
     4
 74
     0
 42
0.000000001
 43
0.0000000001
 40
0.0
 40
0.0
 40
0.0
 40
0.0
 40
0.7322099281057487
 40
0.7322099281057487
 40
0.7322099281057487
 40
0.7322099281057487
 10
-8.245433051982971
 20
7.221088836527371
 30
0.0
 41
1.0
 10
-10.31336067219385
 20
6.011778448484821
 30
0.0
 41
1.0
 10
-11.68415906163678
 20
4.705405701280989
 30
0.0
 41
1.0
 10
-13.05150705043411
 20
2.724086144496349
 30
0.0
 41
1.0
  0
SPLINE
  5
FF
330
70
100
AcDbEntity
  8
Eagle (Simone) v13_Sketch1
100
AcDbSpline
210
0.0
220
0.0
230
1.0
 70
    12
 71
     3
 72
     8
 73
     4
 74
     0
 42
0.000000001
 43
0.0000000001
 40
0.0
 40
0.0
 40
0.0
 40
0.0
 40
1.0
 40
1.0
 40
1.0
 40
1.0
 10
0.3796258085954895
 20
8.369796358144704
 30
0.0
 41
1.0
 10
0.8673215731371067
 20
8.484165709531723
 30
0.0
 41
1.0
 10
0.7766933033057653
 20
9.157427262978171
 30
0.0
 41
1.0
 10
0.5048017920244418
 20
9.43149350424251
 30
0.0
 41
1.0
  0
SPLINE
  5
100
330
70
100
AcDbEntity
  8
Eagle (Simone) v13_Sketch1
100
AcDbSpline
210
0.0
220
0.0
230
1.0
 70
    12
 71
     3
 72
     8
 73
     4
 74
     0
 42
0.000000001
 43
0.0000000001
 40
0.0
 40
0.0
 40
0.0
 40
0.0
 40
0.9103781976502961
 40
0.9103781976502961
 40
0.9103781976502961
 40
0.9103781976502961
 10
-2.612589542432502
 20
-3.274346101316062
 30
0.0
 41
1.0
 10
-2.43183959560101
 20
-2.076010957364932
 30
0.0
 41
1.0
 10
-1.743184718267796
 20
-1.421336962195874
 30
0.0
 41
1.0
 10
-1.209286128555737
 20
-0.5809389032889805
 30
0.0
 41
1.0
  0
SPLINE
  5
101
330
70
100
AcDbEntity
  8
Eagle (Simone) v13_Sketch1
100
AcDbSpline
210
0.0
220
0.0
230
1.0
 70
    12
 71
     3
 72
     8
 73
     4
 74
     0
 42
0.000000001
 43
0.0000000001
 40
0.0
 40
0.0
 40
0.0
 40
0.0
 40
1.0
 40
1.0
 40
1.0
 40
1.0
 10
0.6495326451272972
 20
8.205064257232962
 30
0.0
 41
1.0
 10
0.59344538710626
 20
7.672064410456641
 30
0.0
 41
1.0
 10
1.042297592382747
 20
7.639694777735698
 30
0.0
 41
1.0
 10
1.210579471807799
 20
7.331104279129336
 30
0.0
 41
1.0
  0
SPLINE
  5
102
330
70
100
AcDbEntity
  8
Eagle (Simone) v13_Sketch1
100
AcDbSpline
210
0.0
220
0.0
230
1.0
 70
    12
 71
     3
 72
     8
 73
     4
 74
     0
 42
0.000000001
 43
0.0000000001
 40
0.0
 40
0.0
 40
0.0
 40
0.0
 40
1.0
 40
1.0
 40
1.0
 40
1.0
 10
-8.998244461466191
 20
-8.641657989643118
 30
0.0
 41
1.0
 10
-8.663869374361564
 20
-6.954742935351102
 30
0.0
 41
1.0
 10
-8.407133913842393
 20
-5.319908765379615
 30
0.0
 41
1.0
 10
-7.325442775792756
 20
-4.279426557049379
 30
0.0
 41
1.0
  0
SPLINE
  5
103
330
70
100
AcDbEntity
  8
Eagle (Simone) v13_Sketch1
100
AcDbSpline
210
0.0
220
0.0
230
1.0
 70
    12
 71
     3
 72
     8
 73
     4
 74
     0
 42
0.000000001
 43
0.0000000001
 40
0.0367241226077381
 40
0.0367241226077381
 40
0.0367241226077381
 40
0.0367241226077381
 40
1.0
 40
1.0
 40
1.0
 40
1.0
 10
-2.843308931774414
 20
-1.450983389628523
 30
0.0
 41
1.0
 10
-5.155330500476313
 20
-3.489082903112023
 30
0.0
 41
1.0
 10
-6.300555822705893
 20
-5.542962565438711
 30
0.0
 41
1.0
 10
-7.605947180791488
 20
-9.182688708814124
 30
0.0
 41
1.0
  0
SPLINE
  5
104
330
70
100
AcDbEntity
  8
Eagle (Simone) v13_Sketch1
100
AcDbSpline
210
0.0
220
0.0
230
1.0
 70
    12
 71
     3
 72
     8
 73
     4
 74
     0
 42
0.000000001
 43
0.0000000001
 40
0.0
 40
0.0
 40
0.0
 40
0.0
 40
1.0
 40
1.0
 40
1.0
 40
1.0
 10
-0.4921359832695396
 20
9.308452040072687
 30
0.0
 41
1.0
 10
-0.7316779671918536
 20
9.560931824402414
 30
0.0
 41
1.0
 10
-1.08774392712227
 20
9.325735949552466
 30
0.0
 41
1.0
 10
-1.303511320552339
 20
9.619213917768401
 30
0.0
 41
1.0
  0
SPLINE
  5
105
330
70
100
AcDbEntity
  8
Eagle (Simone) v13_Sketch1
100
AcDbSpline
210
0.0
220
0.0
230
1.0
 70
    13
 71
     5
 72
    15
 73
     9
 74
     0
 42
0.000000001
 43
0.0000000001
 40
0.0
 40
0.0
 40
0.0
 40
0.0
 40
0.0
 40
0.0
 40
0.25
 40
0.5
 40
0.75
 40
1.0
 40
1.0
 40
1.0
 40
1.0
 40
1.0
 40
1.0
 10
1.552558686012539
 20
15.5023654081101
 30
0.0
 41
1.0
 10
1.937144842393323
 20
15.63046979850525
 30
0.0
 41
1.0
 10
2.540000081062316
 20
15.49400049448013
 30
0.0
 41
1.0
 10
2.540000081062316
 20
15.2400004863739
 30
0.0
 41
1.0
 10
2.406860940508851
 20
14.8760772772894
 30
0.0
 41
1.0
 10
2.032000064849853
 20
14.73200047016144
 30
0.0
 41
1.0
 10
1.778000056743621
 20
14.73200047016144
 30
0.0
 41
1.0
 10
1.52400004863739
 20
14.98600047826767
 30
0.0
 41
1.0
 10
1.552558686012539
 20
15.5023654081101
 30
0.0
 41
1.0
  0
SPLINE
  5
106
330
70
100
AcDbEntity
  8
Eagle (Simone) v13_Sketch1
100
AcDbSpline
210
0.0
220
0.0
230
1.0
 70
    12
 71
     5
 72
    14
 73
     8
 74
     0
 42
0.000000001
 43
0.0000000001
 40
0.0
 40
0.0
 40
0.0
 40
0.0
 40
0.0
 40
0.0
 40
0.3333333333333333
 40
0.6666666666666666
 40
1.0
 40
1.0
 40
1.0
 40
1.0
 40
1.0
 40
1.0
 10
-1.574799980968236
 20
-12.92859984375536
 30
0.0
 41
1.0
 10
-1.451597384509973
 20
-12.77802473839825
 30
0.0
 41
1.0
 10
-1.238678706619594
 20
-12.6654012592228
 30
0.0
 41
1.0
 10
-0.9960987774169792
 20
-12.57576483990416
 30
0.0
 41
1.0
 10
-0.7378307281914421
 20
-12.51398643522659
 30
0.0
 41
1.0
 10
-0.4366854403218648
 20
-12.48275382102429
 30
0.0
 41
1.0
 10
-0.1219406494700068
 20
-12.5440546688118
 30
0.0
 41
1.0
 10
0.0712667580284841
 20
-12.5447196845265
 30
0.0
 41
1.0
  0
SPLINE
  5
107
330
70
100
AcDbEntity
  8
Eagle (Simone) v13_Sketch1
100
AcDbSpline
210
0.0
220
0.0
230
1.0
 70
    13
 71
     5
 72
    20
 73
    14
 74
     0
 42
0.000000001
 43
0.0000000001
 40
0.0
 40
0.0
 40
0.0
 40
0.0
 40
0.0
 40
0.0
 40
0.1111111111111111
 40
0.2222222222222222
 40
0.3333333333333333
 40
0.4444444444444445
 40
0.5555555555555556
 40
0.6666666666666666
 40
0.7777777777777777
 40
0.8888888888888889
 40
1.0
 40
1.0
 40
1.0
 40
1.0
 40
1.0
 40
1.0
 10
0.2540000081062317
 20
16.00200051069259
 30
0.0
 41
1.0
 10
0.2540000081062317
 20
15.2400004863739
 30
0.0
 41
1.0
 10
0.2540000081062317
 20
14.4780004620552
 30
0.0
 41
1.0
 10
-1.270000040531158
 20
13.46200042963028
 30
0.0
 41
1.0
 10
0.2540000081062317
 20
13.71600043773651
 30
0.0
 41
1.0
 10
0.5080000162124634
 20
11.17600035667419
 30
0.0
 41
1.0
 10
0.7620000243186951
 20
13.46200042963028
 30
0.0
 41
1.0
 10
2.286000072956084
 20
13.46200042963028
 30
0.0
 41
1.0
 10
0.7620000243186951
 20
14.4780004620552
 30
0.0
 41
1.0
 10
0.7620000243186951
 20
15.2400004863739
 30
0.0
 41
1.0
 10
0.6703347595969014
 20
15.87244475814052
 30
0.0
 41
1.0
 10
0.6276332961318527
 20
16.1286535389308
 30
0.0
 41
1.0
 10
0.3429568730315342
 20
16.35639467741106
 30
0.0
 41
1.0
 10
0.2540000081062317
 20
16.00200051069259
 30
0.0
 41
1.0
  0
SPLINE
  5
108
330
70
100
AcDbEntity
  8
Eagle (Simone) v13_Sketch1
100
AcDbSpline
210
0.0
220
0.0
230
1.0
 70
    12
 71
     3
 72
     8
 73
     4
 74
     0
 42
0.000000001
 43
0.0000000001
 40
0.3070849363843125
 40
0.3070849363843125
 40
0.3070849363843125
 40
0.3070849363843125
 40
1.0
 40
1.0
 40
1.0
 40
1.0
 10
-0.7741224160101357
 20
-1.081390922804161
 30
0.0
 41
1.0
 10
-2.486983155608229
 20
-3.471183420940807
 30
0.0
 41
1.0
 10
-3.878074460539832
 20
-6.909666179233489
 30
0.0
 41
1.0
 10
-3.887050866755632
 20
-9.823905448960813
 30
0.0
 41
1.0
  0
SPLINE
  5
109
330
70
100
AcDbEntity
  8
Eagle (Simone) v13_Sketch1
100
AcDbSpline
210
0.0
220
0.0
230
1.0
 70
    12
 71
     3
 72
     8
 73
     4
 74
     0
 42
0.000000001
 43
0.0000000001
 40
0.3070849363843125
 40
0.3070849363843125
 40
0.3070849363843125
 40
0.3070849363843125
 40
1.0
 40
1.0
 40
1.0
 40
1.0
 10
-0.7741224160101357
 20
-1.081390922804161
 30
0.0
 41
1.0
 10
-2.486983155608229
 20
-3.471183420940807
 30
0.0
 41
1.0
 10
-3.878074460539832
 20
-6.909666179233488
 30
0.0
 41
1.0
 10
-3.887050866755632
 20
-9.823905448960813
 30
0.0
 41
1.0
  0
SPLINE
  5
10A
330
70
100
AcDbEntity
  8
Eagle (Simone) v13_Sketch1
100
AcDbSpline
210
0.0
220
0.0
230
1.0
 70
    12
 71
     3
 72
     8
 73
     4
 74
     0
 42
0.000000001
 43
0.0000000001
 40
0.9910960932080698
 40
0.9910960932080698
 40
0.9910960932080698
 40
0.9910960932080698
 40
1.0
 40
1.0
 40
1.0
 40
1.0
 10
1.6928367096054
 20
-2.623115201582904
 30
0.0
 41
1.0
 10
1.704436161047017
 20
-2.616534929460235
 30
0.0
 41
1.0
 10
1.716086074185233
 20
-2.610016564389094
 30
0.0
 41
1.0
 10
1.727786965377237
 20
-2.603560641018219
 30
0.0
 41
1.0
  0
SPLINE
  5
10B
330
70
100
AcDbEntity
  8
Eagle (Simone) v13_Sketch1
100
AcDbSpline
210
0.0
220
0.0
230
1.0
 70
    12
 71
     3
 72
     8
 73
     4
 74
     0
 42
0.000000001
 43
0.0000000001
 40
0.0
 40
0.0
 40
0.0
 40
0.0
 40
1.0
 40
1.0
 40
1.0
 40
1.0
 10
-0.4725576573400369
 20
8.580521838753039
 30
0.0
 41
1.0
 10
-0.6128193640101677
 20
8.429476956296579
 30
0.0
 41
1.0
 10
-0.6905131843277523
 20
8.215823976763708
 30
0.0
 41
1.0
 10
-0.908448605953527
 20
8.144607433883962
 30
0.0
 41
1.0
  0
LINE
  5
10C
330
70
100
AcDbEntity
  8
Eagle (Simone) v13_Sketch1
100
AcDbLine
 10
-3.936999952420592
 20
-14.19859982840717
 30
0.0
 11
-3.934319916430773
 21
-14.1992821722996
 31
0.0
  0
SPLINE
  5
10D
330
70
100
AcDbEntity
  8
Eagle (Simone) v13_Sketch1
100
AcDbSpline
210
0.0
220
0.0
230
1.0
 70
     8
 71
     3
 72
     8
 73
     4
 74
     0
 42
0.000000001
 43
0.0000000001
 40
0.0
 40
0.0
 40
0.0
 40
0.0
 40
1.0
 40
1.0
 40
1.0
 40
1.0
 10
-3.218740859837073
 20
-14.04872103498283
 30
0.0
 10
-2.997199963778257
 20
-13.91919983178377
 30
0.0
 10
-2.743199966847896
 20
-13.79219983331859
 30
0.0
 10
-2.550769446970113
 20
-13.63414231372179
 30
0.0
  0
SPLINE
  5
10E
330
70
100
AcDbEntity
  8
Eagle (Simone) v13_Sketch1
100
AcDbSpline
210
0.0
220
0.0
230
1.0
 70
    12
 71
     3
 72
     8
 73
     4
 74
     0
 42
0.000000001
 43
0.0000000001
 40
0.0
 40
0.0
 40
0.0
 40
0.0
 40
1.0
 40
1.0
 40
1.0
 40
1.0
 10
-1.739402269165827
 20
9.183299512899326
 30
0.0
 41
1.0
 10
-1.663879827937597
 20
8.166926554398163
 30
0.0
 41
1.0
 10
-0.2482914518923839
 20
8.199296187119113
 30
0.0
 41
1.0
 10
-0.4921359832695396
 20
9.308452040072687
 30
0.0
 41
1.0
  0
SPLINE
  5
10F
330
70
100
AcDbEntity
  8
Eagle (Simone) v13_Sketch1
100
AcDbSpline
210
0.0
220
0.0
230
1.0
 70
    12
 71
     5
 72
    16
 73
    10
 74
     0
 42
0.000000001
 43
0.0000000001
 40
0.0003365117019789
 40
0.0003365117019789
 40
0.0003365117019789
 40
0.0003365117019789
 40
0.0003365117019789
 40
0.0003365117019789
 40
0.0131578947368421
 40
0.0263157894736842
 40
0.0394736842105263
 40
0.0526315789473684
 40
0.0653860796237043
 40
0.0653860796237043
 40
0.0653860796237043
 40
0.0653860796237043
 40
0.0653860796237043
 40
0.0653860796237043
 10
-5.634291161126783
 20
-10.11707869325826
 30
0.0
 41
1.0
 10
-5.969001084286452
 20
-11.67060418231267
 30
0.0
 41
1.0
 10
-5.969062119270442
 20
-12.74683821354902
 30
0.0
 41
1.0
 10
-5.973869242377067
 20
-13.62004065222838
 30
0.0
 41
1.0
 10
-6.352000849501043
 20
-13.69127329139207
 30
0.0
 41
1.0
 10
-6.738737092299639
 20
-13.79746455018378
 30
0.0
 41
1.0
 10
-6.825724285430296
 20
-14.19295207068613
 30
0.0
 41
1.0
 10
-6.7957924096902
 20
-14.59992521374174
 30
0.0
 41
1.0
 10
-6.725645120646292
 20
-14.83318089432247
 30
0.0
 41
1.0
 10
-6.680474002461681
 20
-14.93057698748276
 30
0.0
 41
1.0
  0
SPLINE
  5
110
330
70
100
AcDbEntity
  8
Eagle (Simone) v13_Sketch1
100
AcDbSpline
210
0.0
220
0.0
230
1.0
 70
    12
 71
     3
 72
     8
 73
     4
 74
     0
 42
0.000000001
 43
0.0000000001
 40
0.0
 40
0.0
 40
0.0
 40
0.0
 40
1.0
 40
1.0
 40
1.0
 40
1.0
 10
-8.22742737456538
 20
-10.49469090925865
 30
0.0
 41
1.0
 10
-7.37505720429003
 20
-9.31862106088017
 30
0.0
 41
1.0
 10
-6.337097788854251
 20
-8.120991562716328
 30
0.0
 41
1.0
 10
-5.357420466784464
 20
-7.054985167376388
 30
0.0
 41
1.0
  0
SPLINE
  5
111
330
70
100
AcDbEntity
  8
Eagle (Simone) v13_Sketch1
100
AcDbSpline
210
0.0
220
0.0
230
1.0
 70
    12
 71
     3
 72
     8
 73
     4
 74
     0
 42
0.000000001
 43
0.0000000001
 40
0.0
 40
0.0
 40
0.0
 40
0.0
 40
0.7905036280272146
 40
0.7905036280272146
 40
0.7905036280272146
 40
0.7905036280272146
 10
-1.017043958974721
 20
-6.384199707078549
 30
0.0
 41
1.0
 10
-0.4165874616333804
 20
-5.16453784354795
 30
0.0
 41
1.0
 10
0.1285822099559876
 20
-3.963755123333626
 30
0.0
 41
1.0
 10
0.9798083629745562
 20
-3.15599515684782
 30
0.0
 41
1.0
  0
SPLINE
  5
112
330
70
100
AcDbEntity
  8
Eagle (Simone) v13_Sketch1
100
AcDbSpline
210
0.0
220
0.0
230
1.0
 70
    12
 71
     3
 72
     8
 73
     4
 74
     0
 42
0.000000001
 43
0.0000000001
 40
0.0
 40
0.0
 40
0.0
 40
0.0
 40
1.0
 40
1.0
 40
1.0
 40
1.0
 10
-5.086222093230585
 20
2.701990418351714
 30
0.0
 41
1.0
 10
-5.325764077152908
 20
2.954470202681442
 30
0.0
 41
1.0
 10
-5.681830037083319
 20
2.719274327831493
 30
0.0
 41
1.0
 10
-5.89759743051339
 20
3.01275229604743
 30
0.0
 41
1.0
  0
SPLINE
  5
113
330
70
100
AcDbEntity
  8
Eagle (Simone) v13_Sketch1
100
AcDbSpline
210
0.0
220
0.0
230
1.0
 70
    12
 71
     5
 72
    22
 73
    16
 74
     0
 42
0.000000001
 43
0.0000000001
 40
0.0218395412375485
 40
0.0218395412375485
 40
0.0218395412375485
 40
0.0218395412375485
 40
0.0218395412375485
 40
0.0218395412375485
 40
0.0909090909090909
 40
0.1818181818181818
 40
0.2727272727272727
 40
0.3636363636363637
 40
0.4545454545454546
 40
0.5454545454545455
 40
0.6363636363636364
 40
0.7272727272727274
 40
0.8181818181818181
 40
0.9090909090909091
 40
0.9945869934305264
 40
0.9945869934305264
 40
0.9945869934305264
 40
0.9945869934305264
 40
0.9945869934305264
 40
0.9945869934305264
 10
-3.934319916430773
 20
-14.1992821722996
 30
0.0
 41
1.0
 10
-3.977285239347754
 20
-14.15524272468718
 30
0.0
 41
1.0
 10
-4.035928087350685
 20
-14.08512380484673
 30
0.0
 41
1.0
 10
-4.015805357823172
 20
-14.04095490242096
 30
0.0
 41
1.0
 10
-3.838903731908592
 20
-14.0020545256037
 30
0.0
 41
1.0
 10
-3.673210594016204
 20
-14.03769208786776
 30
0.0
 41
1.0
 10
-3.598338070022376
 20
-13.97643275005462
 30
0.0
 41
1.0
 10
-3.683000117540359
 20
-13.84300044178963
 30
0.0
 41
1.0
 10
-4.006733655443254
 20
-13.64971628171792
 30
0.0
 41
1.0
 10
-4.370886385776871
 20
-13.52719760609166
 30
0.0
 41
1.0
 10
-4.872532296535517
 20
-13.46763991655111
 30
0.0
 41
1.0
 10
-5.397796657940083
 20
-13.4972322749401
 30
0.0
 41
1.0
 10
-5.705719666558293
 20
-13.7095410794535
 30
0.0
 41
1.0
 10
-6.049468683144715
 20
-14.10236512839855
 30
0.0
 41
1.0
 10
-5.953156297902634
 20
-14.21478017390434
 30
0.0
 41
1.0
 10
-5.602264748974898
 20
-14.27613594490473
 30
0.0
 41
1.0
  0
SPLINE
  5
114
330
70
100
AcDbEntity
  8
Eagle (Simone) v13_Sketch1
100
AcDbSpline
210
0.0
220
0.0
230
1.0
 70
    12
 71
     3
 72
     8
 73
     4
 74
     0
 42
0.000000001
 43
0.0000000001
 40
0.0
 40
0.0
 40
0.0
 40
0.0
 40
1.0
 40
1.0
 40
1.0
 40
1.0
 10
1.335775560598693
 20
8.392781319865207
 30
0.0
 41
1.0
 10
1.115641952734309
 20
8.299998425412795
 30
0.0
 41
1.0
 10
0.9473399679473242
 20
8.038890089917801
 30
0.0
 41
1.0
 10
0.6495326451272972
 20
8.205064257232962
 30
0.0
 41
1.0
  0
SPLINE
  5
115
330
70
100
AcDbEntity
  8
Eagle (Simone) v13_Sketch1
100
AcDbSpline
210
0.0
220
0.0
230
1.0
 70
    12
 71
     3
 72
     8
 73
     4
 74
     0
 42
0.000000001
 43
0.0000000001
 40
0.0
 40
0.0
 40
0.0
 40
0.0
 40
1.0
 40
1.0
 40
1.0
 40
1.0
 10
-5.89759743051339
 20
3.01275229604743
 30
0.0
 41
1.0
 10
-6.037859137183521
 20
2.86170741359097
 30
0.0
 41
1.0
 10
-6.115552957501105
 20
2.648054434058098
 30
0.0
 41
1.0
 10
-6.33348837912688
 20
2.576837891178352
 30
0.0
 41
1.0
  0
SPLINE
  5
116
330
70
100
AcDbEntity
  8
Eagle (Simone) v13_Sketch1
100
AcDbSpline
210
0.0
220
0.0
230
1.0
 70
    12
 71
     5
 72
    24
 73
    18
 74
     0
 42
0.000000001
 43
0.0000000001
 40
0.1637990991284755
 40
0.1637990991284755
 40
0.1637990991284755
 40
0.1637990991284755
 40
0.1637990991284755
 40
0.1637990991284755
 40
0.1710526315789473
 40
0.1842105263157895
 40
0.1973684210526316
 40
0.2105263157894737
 40
0.2236842105263157
 40
0.2368421052631579
 40
0.25
 40
0.2631578947368421
 40
0.2763157894736842
 40
0.2894736842105263
 40
0.3026315789473684
 40
0.3157894736842105
 40
0.3226577582053066
 40
0.3226577582053066
 40
0.3226577582053066
 40
0.3226577582053066
 40
0.3226577582053066
 40
0.3226577582053066
 10
-3.218740859850101
 20
-14.04872103494972
 30
0.0
 41
1.0
 10
-3.23753070957606
 20
-14.00097102254214
 30
0.0
 41
1.0
 10
-3.314312907758243
 20
-13.85769954253181
 30
0.0
 41
1.0
 10
-3.530723524903785
 20
-13.59641119918379
 30
0.0
 41
1.0
 10
-3.889552251021523
 20
-13.26846900335935
 30
0.0
 41
1.0
 10
-4.378354522509727
 20
-12.61673264137509
 30
0.0
 41
1.0
 10
-4.199355973308758
 20
-12.07973699377218
 30
0.0
 41
1.0
 10
-4.020357424107789
 20
-11.17600035667419
 30
0.0
 41
1.0
 10
-3.877158584747011
 20
-10.54100033640861
 30
0.0
 41
1.0
 10
-3.4117623568245
 20
-10.54100033640861
 30
0.0
 41
1.0
 10
-3.304363227303912
 20
-11.17600035667419
 30
0.0
 41
1.0
 10
-3.12536467810295
 20
-11.82913902489082
 30
0.0
 41
1.0
 10
-3.12536467810295
 20
-12.43773409217412
 30
0.0
 41
1.0
 10
-2.595962043521821
 20
-12.67492666243661
 30
0.0
 41
1.0
 10
-2.598890781485863
 20
-13.11163752172711
 30
0.0
 41
1.0
 10
-2.589910038707222
 20
-13.42701247175674
 30
0.0
 41
1.0
 10
-2.562932723468033
 20
-13.58487829233999
 30
0.0
 41
1.0
 10
-2.550769431850188
 20
-13.63414237496092
 30
0.0
 41
1.0
  0
SPLINE
  5
117
330
70
100
AcDbEntity
  8
Eagle (Simone) v13_Sketch1
100
AcDbSpline
210
0.0
220
0.0
230
1.0
 70
    12
 71
     5
 72
    14
 73
     8
 74
     0
 42
0.000000001
 43
0.0000000001
 40
0.0
 40
0.0
 40
0.0
 40
0.0
 40
0.0
 40
0.0
 40
0.3333333333333333
 40
0.6666666666666666
 40
1.0
 40
1.0
 40
1.0
 40
1.0
 40
1.0
 40
1.0
 10
-9.322619998553903
 20
-16.43086588154478
 30
0.0
 41
1.0
 10
-9.132939646339703
 20
-16.43086588154478
 30
0.0
 41
1.0
 10
-8.888325124193377
 20
-16.31810055178284
 30
0.0
 41
1.0
 10
-8.434893327044086
 20
-16.07292964656399
 30
0.0
 41
1.0
 10
-7.635421474175602
 20
-15.58435504831384
 30
0.0
 41
1.0
 10
-7.313246249885318
 20
-15.38140591819812
 30
0.0
 41
1.0
 10
-6.949307570594441
 20
-15.14872381176625
 30
0.0
 41
1.0
 10
-6.680474038026896
 20
-14.93057691079851
 30
0.0
 41
1.0
  0
SPLINE
  5
118
330
70
100
AcDbEntity
  8
Eagle (Simone) v13_Sketch1
100
AcDbSpline
210
0.0
220
0.0
230
1.0
 70
    12
 71
     3
 72
     8
 73
     4
 74
     0
 42
0.000000001
 43
0.0000000001
 40
0.0
 40
0.0
 40
0.0
 40
0.0
 40
0.9103781976502961
 40
0.9103781976502961
 40
0.9103781976502961
 40
0.9103781976502961
 10
-2.612589542432502
 20
-3.274346101316062
 30
0.0
 41
1.0
 10
-2.43183959560101
 20
-2.076010957364932
 30
0.0
 41
1.0
 10
-1.743184718267796
 20
-1.421336962195874
 30
0.0
 41
1.0
 10
-1.209286128555737
 20
-0.5809389032889805
 30
0.0
 41
1.0
  0
SPLINE
  5
119
330
70
100
AcDbEntity
  8
Eagle (Simone) v13_Sketch1
100
AcDbSpline
210
0.0
220
0.0
230
1.0
 70
    12
 71
     3
 72
     8
 73
     4
 74
     0
 42
0.000000001
 43
0.0000000001
 40
0.0
 40
0.0
 40
0.0
 40
0.0
 40
1.0
 40
1.0
 40
1.0
 40
1.0
 10
-5.357420466784464
 20
-7.054985167376388
 30
0.0
 41
1.0
 10
-4.597833190961523
 20
-5.512092990430417
 30
0.0
 41
1.0
 10
-3.926719560348846
 20
-3.999412470690648
 30
0.0
 41
1.0
 10
-2.612589542432502
 20
-3.274346101316062
 30
0.0
 41
1.0
  0
SPLINE
  5
11A
330
70
100
AcDbEntity
  8
Eagle (Simone) v13_Sketch1
100
AcDbSpline
210
0.0
220
0.0
230
1.0
 70
    12
 71
     3
 72
     8
 73
     4
 74
     0
 42
0.000000001
 43
0.0000000001
 40
0.0
 40
0.0
 40
0.0
 40
0.0
 40
1.0
 40
1.0
 40
1.0
 40
1.0
 10
-8.22742737456538
 20
-10.49469090925865
 30
0.0
 41
1.0
 10
-7.37505720429003
 20
-9.31862106088017
 30
0.0
 41
1.0
 10
-6.337097788854251
 20
-8.120991562716328
 30
0.0
 41
1.0
 10
-5.357420466784464
 20
-7.054985167376388
 30
0.0
 41
1.0
  0
ARC
  5
11B
330
70
100
AcDbEntity
  8
Eagle (Simone) v13_Sketch1
100
AcDbCircle
 10
5.675935328005785
 20
-3.149234928574934
 30
0.0
 40
4.696131830813504
100
AcDbArc
 50
146.3507940671455
 51
180.0824790905175
  0
SPLINE
  5
11C
330
70
100
AcDbEntity
  8
Eagle (Simone) v13_Sketch1
100
AcDbSpline
210
0.0
220
0.0
230
1.0
 70
    12
 71
     3
 72
     8
 73
     4
 74
     0
 42
0.000000001
 43
0.0000000001
 40
0.0
 40
0.0
 40
0.0
 40
0.0
 40
1.0
 40
1.0
 40
1.0
 40
1.0
 10
0.5048218973863824
 20
9.431473398880569
 30
0.0
 41
1.0
 10
0.2846882895220001
 20
9.338690504428157
 30
0.0
 41
1.0
 10
0.1163863047350152
 20
9.077582168933165
 30
0.0
 41
1.0
 10
-0.1814210180850105
 20
9.243756336248326
 30
0.0
 41
1.0
  0
SPLINE
  5
11D
330
70
100
AcDbEntity
  8
Eagle (Simone) v13_Sketch1
100
AcDbSpline
210
0.0
220
0.0
230
1.0
 70
    12
 71
     3
 72
     8
 73
     4
 74
     0
 42
0.000000001
 43
0.0000000001
 40
0.0
 40
0.0
 40
0.0
 40
0.0
 40
1.0
 40
1.0
 40
1.0
 40
1.0
 10
-5.357420466784464
 20
-7.054985167376388
 30
0.0
 41
1.0
 10
-4.597833190961523
 20
-5.512092990430417
 30
0.0
 41
1.0
 10
-3.926719560348846
 20
-3.999412470690648
 30
0.0
 41
1.0
 10
-2.612589542432502
 20
-3.274346101316062
 30
0.0
 41
1.0
  0
SPLINE
  5
11E
330
70
100
AcDbEntity
  8
Eagle (Simone) v13_Sketch1
100
AcDbSpline
210
0.0
220
0.0
230
1.0
 70
    12
 71
     3
 72
     8
 73
     4
 74
     0
 42
0.000000001
 43
0.0000000001
 40
0.0
 40
0.0
 40
0.0
 40
0.0
 40
1.0
 40
1.0
 40
1.0
 40
1.0
 10
-6.919727721575696
 20
-6.875900006803066
 30
0.0
 41
1.0
 10
-6.002618285858456
 20
-4.700721004041273
 30
0.0
 41
1.0
 10
-4.591329106374431
 20
-2.614039102745325
 30
0.0
 41
1.0
 10
-2.927610405965531
 20
-1.138037464968645
 30
0.0
 41
1.0
  0
SPLINE
  5
11F
330
70
100
AcDbEntity
  8
Eagle (Simone) v13_Sketch1
100
AcDbSpline
210
0.0
220
0.0
230
1.0
 70
    12
 71
     3
 72
     8
 73
     4
 74
     0
 42
0.000000001
 43
0.0000000001
 40
0.9910960932080698
 40
0.9910960932080698
 40
0.9910960932080698
 40
0.9910960932080698
 40
1.0
 40
1.0
 40
1.0
 40
1.0
 10
1.6928367096054
 20
-2.623115201582904
 30
0.0
 41
1.0
 10
1.704436161047017
 20
-2.616534929460235
 30
0.0
 41
1.0
 10
1.716086074185233
 20
-2.610016564389094
 30
0.0
 41
1.0
 10
1.727786965377237
 20
-2.603560641018219
 30
0.0
 41
1.0
  0
SPLINE
  5
120
330
70
100
AcDbEntity
  8
Eagle (Simone) v13_Sketch1
100
AcDbSpline
210
0.0
220
0.0
230
1.0
 70
    12
 71
     3
 72
     8
 73
     4
 74
     0
 42
0.000000001
 43
0.0000000001
 40
0.0367241226077381
 40
0.0367241226077381
 40
0.0367241226077381
 40
0.0367241226077381
 40
1.0
 40
1.0
 40
1.0
 40
1.0
 10
-2.843308931774414
 20
-1.450983389628523
 30
0.0
 41
1.0
 10
-5.155330500476313
 20
-3.489082903112023
 30
0.0
 41
1.0
 10
-6.300555822705893
 20
-5.542962565438711
 30
0.0
 41
1.0
 10
-7.605947180791488
 20
-9.182688708814124
 30
0.0
 41
1.0
  0
SPLINE
  5
121
330
70
100
AcDbEntity
  8
Eagle (Simone) v13_Sketch1
100
AcDbSpline
210
0.0
220
0.0
230
1.0
 70
    12
 71
     3
 72
     8
 73
     4
 74
     0
 42
0.000000001
 43
0.0000000001
 40
0.0
 40
0.0
 40
0.0
 40
0.0
 40
1.0
 40
1.0
 40
1.0
 40
1.0
 10
-0.908448605953527
 20
8.144607433883962
 30
0.0
 41
1.0
 10
-0.8329261647252971
 20
7.128234475382792
 30
0.0
 41
1.0
 10
0.5826622113199233
 20
7.160604108103743
 30
0.0
 41
1.0
 10
0.3388176799427668
 20
8.269759961057324
 30
0.0
 41
1.0
  0
SPLINE
  5
122
330
70
100
AcDbEntity
  8
Eagle (Simone) v13_Sketch1
100
AcDbSpline
210
0.0
220
0.0
230
1.0
 70
    12
 71
     3
 72
     8
 73
     4
 74
     0
 42
0.000000001
 43
0.0000000001
 40
0.0
 40
0.0
 40
0.0
 40
0.0
 40
1.0
 40
1.0
 40
1.0
 40
1.0
 10
1.766660682685266
 20
-0.5470769933538744
 30
0.0
 41
1.0
 10
-0.7278651873199671
 20
-2.663997359005294
 30
0.0
 41
1.0
 10
-1.910412313136287
 20
-4.733415456183397
 30
0.0
 41
1.0
 10
-3.265570672981745
 20
-8.511903248516285
 30
0.0
 41
1.0
  0
SPLINE
  5
123
330
70
100
AcDbEntity
  8
Eagle (Simone) v13_Sketch1
100
AcDbSpline
210
0.0
220
0.0
230
1.0
 70
    12
 71
     3
 72
     8
 73
     4
 74
     0
 42
0.000000001
 43
0.0000000001
 40
0.0
 40
0.0
 40
0.0
 40
0.0
 40
1.0
 40
1.0
 40
1.0
 40
1.0
 10
-3.265570672981745
 20
-8.511903248516285
 30
0.0
 41
1.0
 10
-3.351876289996312
 20
-7.830009793010932
 30
0.0
 41
1.0
 10
-2.896570263537576
 20
-6.956049814907322
 30
0.0
 41
1.0
 10
-2.579351213765953
 20
-6.205114546505226
 30
0.0
 41
1.0
  0
SPLINE
  5
124
330
70
100
AcDbEntity
  8
Eagle (Simone) v13_Sketch1
100
AcDbSpline
210
0.0
220
0.0
230
1.0
 70
    12
 71
     3
 72
     8
 73
     4
 74
     0
 42
0.000000001
 43
0.0000000001
 40
0.0
 40
0.0
 40
0.0
 40
0.0
 40
1.0
 40
1.0
 40
1.0
 40
1.0
 10
1.210579471807799
 20
7.331104279129336
 30
0.0
 41
1.0
 10
1.698275236349418
 20
7.445473630516355
 30
0.0
 41
1.0
 10
1.607646966518077
 20
8.118735183962806
 30
0.0
 41
1.0
 10
1.335755455236752
 20
8.392801425227148
 30
0.0
 41
1.0
  0
SPLINE
  5
125
330
70
100
AcDbEntity
  8
Eagle (Simone) v13_Sketch1
100
AcDbSpline
210
0.0
220
0.0
230
1.0
 70
    13
 71
     5
 72
    15
 73
     9
 74
     0
 42
0.000000001
 43
0.0000000001
 40
0.0
 40
0.0
 40
0.0
 40
0.0
 40
0.0
 40
0.0
 40
0.25
 40
0.5
 40
0.75
 40
1.0
 40
1.0
 40
1.0
 40
1.0
 40
1.0
 40
1.0
 10
-1.465011398850853
 20
15.53083305042011
 30
0.0
 41
1.0
 10
-1.08042524247007
 20
15.65893744081525
 30
0.0
 41
1.0
 10
-0.4775700038010782
 20
15.52246813679014
 30
0.0
 41
1.0
 10
-0.4775700038010782
 20
15.26846812868391
 30
0.0
 41
1.0
 10
-0.6107091443545439
 20
14.90454491959941
 30
0.0
 41
1.0
 10
-0.9855700200135405
 20
14.76046811247144
 30
0.0
 41
1.0
 10
-1.239570028119771
 20
14.76046811247144
 30
0.0
 41
1.0
 10
-1.493570036226003
 20
15.01446812057767
 30
0.0
 41
1.0
 10
-1.465011398850853
 20
15.53083305042011
 30
0.0
 41
1.0
  0
SPLINE
  5
126
330
70
100
AcDbEntity
  8
Eagle (Simone) v13_Sketch1
100
AcDbSpline
210
0.0
220
0.0
230
1.0
 70
    12
 71
     3
 72
     8
 73
     4
 74
     0
 42
0.000000001
 43
0.0000000001
 40
0.4158125026627005
 40
0.4158125026627005
 40
0.4158125026627005
 40
0.4158125026627005
 40
1.0
 40
1.0
 40
1.0
 40
1.0
 10
-14.3006996584632
 20
1.142999997476325
 30
0.0
 41
1.0
 10
-14.0789820152114
 20
1.570837159179933
 30
0.0
 41
1.0
 10
-13.76660441525823
 20
2.00384396134587
 30
0.0
 41
1.0
 10
-13.50792717256726
 20
2.4036866332872
 30
0.0
 41
1.0
  0
SPLINE
  5
127
330
70
100
AcDbEntity
  8
Eagle (Simone) v13_Sketch1
100
AcDbSpline
210
0.0
220
0.0
230
1.0
 70
    12
 71
     3
 72
     8
 73
     4
 74
     0
 42
0.000000001
 43
0.0000000001
 40
0.0
 40
0.0
 40
0.0
 40
0.0
 40
1.0
 40
1.0
 40
1.0
 40
1.0
 10
-7.820150782238515
 20
-2.282954632035964
 30
0.0
 41
1.0
 10
-9.681778436826807
 20
-4.973373489074289
 30
0.0
 41
1.0
 10
-10.28842643062718
 20
-7.278343592421135
 30
0.0
 41
1.0
 10
-10.6194642867703
 20
-11.27882332801137
 30
0.0
 41
1.0
  0
SPLINE
  5
128
330
70
100
AcDbEntity
  8
Eagle (Simone) v13_Sketch1
100
AcDbSpline
210
0.0
220
0.0
230
1.0
 70
    12
 71
     3
 72
     8
 73
     4
 74
     0
 42
0.000000001
 43
0.0000000001
 40
0.2179434640272521
 40
0.2179434640272521
 40
0.2179434640272521
 40
0.2179434640272521
 40
1.0
 40
1.0
 40
1.0
 40
1.0
 10
-4.439717215741081
 20
-0.8852738076819711
 30
0.0
 41
1.0
 10
-6.446566018129469
 20
-3.248591357116494
 30
0.0
 41
1.0
 10
-8.217296180254228
 20
-7.205543381730283
 30
0.0
 41
1.0
 10
-8.22742737456538
 20
-10.49469090925865
 30
0.0
 41
1.0
  0
SPLINE
  5
129
330
70
100
AcDbEntity
  8
Eagle (Simone) v13_Sketch1
100
AcDbSpline
210
0.0
220
0.0
230
1.0
 70
    12
 71
     3
 72
     8
 73
     4
 74
     0
 42
0.000000001
 43
0.0000000001
 40
0.0
 40
0.0
 40
0.0
 40
0.0
 40
1.0
 40
1.0
 40
1.0
 40
1.0
 10
-6.919727721575696
 20
-6.875900006803066
 30
0.0
 41
1.0
 10
-6.002618285858456
 20
-4.700721004041273
 30
0.0
 41
1.0
 10
-4.591329106374431
 20
-2.614039102745325
 30
0.0
 41
1.0
 10
-2.927610405965531
 20
-1.138037464968645
 30
0.0
 41
1.0
  0
SPLINE
  5
12A
330
70
100
AcDbEntity
  8
Eagle (Simone) v13_Sketch1
100
AcDbSpline
210
0.0
220
0.0
230
1.0
 70
    12
 71
     3
 72
     8
 73
     4
 74
     0
 42
0.000000001
 43
0.0000000001
 40
0.0
 40
0.0
 40
0.0
 40
0.0
 40
0.7905036280272146
 40
0.7905036280272146
 40
0.7905036280272146
 40
0.7905036280272146
 10
-1.017043958974721
 20
-6.384199707078549
 30
0.0
 41
1.0
 10
-0.4165874616333804
 20
-5.16453784354795
 30
0.0
 41
1.0
 10
0.1285822099559876
 20
-3.963755123333626
 30
0.0
 41
1.0
 10
0.9798083629745562
 20
-3.15599515684782
 30
0.0
 41
1.0
  0
SPLINE
  5
12B
330
70
100
AcDbEntity
  8
Eagle (Simone) v13_Sketch1
100
AcDbSpline
210
0.0
220
0.0
230
1.0
 70
    12
 71
     5
 72
    17
 73
    11
 74
     0
 42
0.000000001
 43
0.0000000001
 40
0.0
 40
0.0
 40
0.0
 40
0.0
 40
0.0
 40
0.0
 40
0.1666666666666666
 40
0.3333333333333333
 40
0.5
 40
0.6666666666666666
 40
0.8333333333333332
 40
1.0
 40
1.0
 40
1.0
 40
1.0
 40
1.0
 40
1.0
 10
-5.602264748974898
 20
-14.27613594490473
 30
0.0
 41
1.0
 10
-5.511799933388829
 20
-14.19859982840717
 30
0.0
 41
1.0
 10
-5.410199934616684
 20
-14.12239982932806
 30
0.0
 41
1.0
 10
-5.257799936458468
 20
-14.04619983024895
 30
0.0
 41
1.0
 10
-5.112512999537315
 20
-13.9933681628241
 30
0.0
 41
1.0
 10
-4.953000038862228
 20
-13.96999979019165
 30
0.0
 41
1.0
 10
-4.767579328443016
 20
-14.00936041258724
 30
0.0
 41
1.0
 10
-4.495799945667386
 20
-14.07159982994199
 30
0.0
 41
1.0
 10
-4.267199948430061
 20
-14.12239982932806
 30
0.0
 41
1.0
 10
-4.117833088650382
 20
-14.15255925194801
 30
0.0
 41
1.0
 10
-3.936999952420592
 20
-14.19859982840717
 30
0.0
 41
1.0
  0
SPLINE
  5
12C
330
70
100
AcDbEntity
  8
Eagle (Simone) v13_Sketch1
100
AcDbSpline
210
0.0
220
0.0
230
1.0
 70
    12
 71
     5
 72
    12
 73
     6
 74
     0
 42
0.000000001
 43
0.0000000001
 40
0.0
 40
0.0
 40
0.0
 40
0.0
 40
0.0
 40
0.0
 40
0.0001278144801876
 40
0.0001278144801876
 40
0.0001278144801876
 40
0.0001278144801876
 40
0.0001278144801876
 40
0.0001278144801876
 10
0.2031999975442886
 20
-12.64919984713197
 30
0.0
 41
1.0
 10
0.2027670712701495
 20
-12.64889688725959
 30
0.0
 41
1.0
 10
0.2023347986370224
 20
-12.64859416486123
 30
0.0
 41
1.0
 10
0.2019031789265342
 20
-12.64829167968173
 30
0.0
 41
1.0
 10
0.2014722114210291
 20
-12.64798943146625
 30
0.0
 41
1.0
 10
0.2010418954035677
 20
-12.64768741996018
 30
0.0
 41
1.0
  0
SPLINE
  5
12D
330
70
100
AcDbEntity
  8
Eagle (Simone) v13_Sketch1
100
AcDbSpline
210
0.0
220
0.0
230
1.0
 70
    12
 71
     3
 72
     8
 73
     4
 74
     0
 42
0.000000001
 43
0.0000000001
 40
0.0
 40
0.0
 40
0.0
 40
0.0
 40
1.0
 40
1.0
 40
1.0
 40
1.0
 10
-3.887050866755632
 20
-9.823905448960813
 30
0.0
 41
1.0
 10
-3.034680696480286
 20
-8.647835600582331
 30
0.0
 41
1.0
 10
-1.996721281044507
 20
-7.450206102418489
 30
0.0
 41
1.0
 10
-1.017043958974721
 20
-6.384199707078549
 30
0.0
 41
1.0
  0
ARC
  5
12E
330
70
100
AcDbEntity
  8
Eagle (Simone) v13_Sketch1
100
AcDbCircle
 10
-2.866533220085099
 20
0.5620780216261485
 30
0.0
 40
2.013195373783916
100
AcDbArc
 50
270.6609806657704
 51
325.4056520140895
  0
LINE
  5
12F
330
70
100
AcDbEntity
  8
Eagle (Simone) v13_Sketch1
100
AcDbLine
 10
-1.574799980968236
 20
-12.92859984375536
 30
0.0
 11
-1.581887546389711
 21
-12.93726208660938
 31
0.0
  0
SPLINE
  5
130
330
70
100
AcDbEntity
  8
Eagle (Simone) v13_Sketch1
100
AcDbSpline
210
0.0
220
0.0
230
1.0
 70
    12
 71
     3
 72
     8
 73
     4
 74
     0
 42
0.000000001
 43
0.0000000001
 40
0.0
 40
0.0
 40
0.0
 40
0.0
 40
1.0
 40
1.0
 40
1.0
 40
1.0
 10
-3.887050866755632
 20
-9.823905448960813
 30
0.0
 41
1.0
 10
-3.034680696480286
 20
-8.647835600582331
 30
0.0
 41
1.0
 10
-1.996721281044507
 20
-7.450206102418489
 30
0.0
 41
1.0
 10
-1.017043958974721
 20
-6.384199707078549
 30
0.0
 41
1.0
  0
SPLINE
  5
131
330
70
100
AcDbEntity
  8
Eagle (Simone) v13_Sketch1
100
AcDbSpline
210
0.0
220
0.0
230
1.0
 70
    12
 71
     3
 72
     8
 73
     4
 74
     0
 42
0.000000001
 43
0.0000000001
 40
0.0
 40
0.0
 40
0.0
 40
0.0
 40
1.0
 40
1.0
 40
1.0
 40
1.0
 10
-6.33348837912688
 20
2.576837891178352
 30
0.0
 41
1.0
 10
-6.257965937898649
 20
1.560464932677183
 30
0.0
 41
1.0
 10
-4.842377561853428
 20
1.592834565398134
 30
0.0
 41
1.0
 10
-5.086222093230585
 20
2.701990418351714
 30
0.0
 41
1.0
  0
SPLINE
  5
132
330
70
100
AcDbEntity
  8
Eagle (Simone) v13_Sketch1
100
AcDbSpline
210
0.0
220
0.0
230
1.0
 70
    12
 71
     5
 72
    15
 73
     9
 74
     0
 42
0.000000001
 43
0.0000000001
 40
0.8386369379088344
 40
0.8386369379088344
 40
0.8386369379088344
 40
0.8386369379088344
 40
0.8386369379088344
 40
0.8386369379088344
 40
0.85
 40
0.9
 40
0.95
 40
0.9843106605043029
 40
0.9843106605043029
 40
0.9843106605043029
 40
0.9843106605043029
 40
0.9843106605043029
 40
0.9843106605043029
 10
-9.322619998538129
 20
-16.43086588152363
 30
0.0
 41
1.0
 10
-9.286774473864346
 20
-16.38280687138941
 30
0.0
 41
1.0
 10
-9.094039115850932
 20
-16.11619205200444
 30
0.0
 41
1.0
 10
-8.750381888350631
 20
-15.56205239566987
 30
0.0
 41
1.0
 10
-8.284924214174635
 20
-14.64332858181235
 30
0.0
 41
1.0
 10
-7.738615161955453
 20
-13.05084328426161
 30
0.0
 41
1.0
 10
-6.726285366302296
 20
-11.65942833723209
 30
0.0
 41
1.0
 10
-6.072961675174769
 20
-10.67036878961481
 30
0.0
 41
1.0
 10
-5.634291161126783
 20
-10.11707869325826
 30
0.0
 41
1.0
  0
SPLINE
  5
133
330
70
100
AcDbEntity
  8
Eagle (Simone) v13_Sketch1
100
AcDbSpline
210
0.0
220
0.0
230
1.0
 70
    12
 71
     3
 72
     8
 73
     4
 74
     0
 42
0.000000001
 43
0.0000000001
 40
0.0
 40
0.0
 40
0.0
 40
0.0
 40
1.0
 40
1.0
 40
1.0
 40
1.0
 10
-2.579351213765953
 20
-6.205114546505226
 30
0.0
 41
1.0
 10
-1.662241778048716
 20
-4.029935543743432
 30
0.0
 41
1.0
 10
-0.250952598564691
 20
-1.943253642447483
 30
0.0
 41
1.0
 10
1.412766101844209
 20
-0.4672520046708027
 30
0.0
 41
1.0
  0
SPLINE
  5
134
330
70
100
AcDbEntity
  8
Eagle (Simone) v13_Sketch1
100
AcDbSpline
210
0.0
220
0.0
230
1.0
 70
    12
 71
     3
 72
     8
 73
     4
 74
     0
 42
0.000000001
 43
0.0000000001
 40
0.0
 40
0.0
 40
0.0
 40
0.0
 40
1.0
 40
1.0
 40
1.0
 40
1.0
 10
-2.579351213765953
 20
-6.205114546505226
 30
0.0
 41
1.0
 10
-1.662241778048716
 20
-4.029935543743432
 30
0.0
 41
1.0
 10
-0.250952598564691
 20
-1.943253642447483
 30
0.0
 41
1.0
 10
1.412766101844209
 20
-0.4672520046708027
 30
0.0
 41
1.0
  0
SPLINE
  5
135
330
70
100
AcDbEntity
  8
Eagle (Simone) v13_Sketch1
100
AcDbSpline
210
0.0
220
0.0
230
1.0
 70
    12
 71
     3
 72
     8
 73
     4
 74
     0
 42
0.000000001
 43
0.0000000001
 40
0.0
 40
0.0
 40
0.0
 40
0.0
 40
1.0
 40
1.0
 40
1.0
 40
1.0
 10
0.3388176799427668
 20
8.269759961057324
 30
0.0
 41
1.0
 10
0.099275696020452
 20
8.52223974538705
 30
0.0
 41
1.0
 10
-0.2567902639099667
 20
8.287043870537104
 30
0.0
 41
1.0
 10
-0.4725576573400369
 20
8.580521838753039
 30
0.0
 41
1.0
  0
SPLINE
  5
136
330
70
100
AcDbEntity
  8
Eagle (Simone) v13_Sketch1
100
AcDbSpline
210
0.0
220
0.0
230
1.0
 70
    12
 71
     5
 72
    54
 73
    48
 74
     0
 42
0.000000001
 43
0.0000000001
 40
0.4351739821785056
 40
0.4351739821785056
 40
0.4351739821785056
 40
0.4351739821785056
 40
0.4351739821785056
 40
0.4351739821785056
 40
0.4473684210526315
 40
0.4605263157894737
 40
0.4736842105263158
 40
0.4868421052631579
 40
0.5
 40
0.5131578947368421
 40
0.5263157894736842
 40
0.5394736842105264
 40
0.5526315789473684
 40
0.5657894736842106
 40
0.5789473684210527
 40
0.5921052631578947
 40
0.6052631578947369
 40
0.6184210526315789
 40
0.6315789473684211
 40
0.6447368421052632
 40
0.6578947368421053
 40
0.6710526315789474
 40
0.6842105263157894
 40
0.6973684210526315
 40
0.7105263157894737
 40
0.7236842105263158
 40
0.7368421052631579
 40
0.75
 40
0.7631578947368421
 40
0.7763157894736842
 40
0.7894736842105264
 40
0.8026315789473683
 40
0.8157894736842104
 40
0.8289473684210525
 40
0.8421052631578946
 40
0.8552631578947368
 40
0.8684210526315789
 40
0.881578947368421
 40
0.894736842105263
 40
0.9078947368421051
 40
0.9210526315789472
 40
0.9342105263157893
 40
0.9473684210526315
 40
0.9605263157894736
 40
0.9736842105263157
 40
0.9868421052631578
 40
1.0
 40
1.0
 40
1.0
 40
1.0
 40
1.0
 40
1.0
 10
1.161440395614805
 20
-11.93800023786274
 30
0.0
 41
1.0
 10
1.196506907344315
 20
-11.83036336166184
 30
0.0
 41
1.0
 10
1.222921304523594
 20
-11.61088634930383
 30
0.0
 41
1.0
 10
1.095213478600273
 20
-11.31372447484439
 30
0.0
 41
1.0
 10
0.4931195522955307
 20
-10.92571780455192
 30
0.0
 41
1.0
 10
-0.5079993667904559
 20
-11.17599544282525
 30
0.0
 41
1.0
 10
-1.371146439046768
 20
-11.17598541702778
 30
0.0
 41
1.0
 10
-1.800734106673329
 20
-10.5410028404782
 30
0.0
 41
1.0
 10
-1.979699497453855
 20
-9.906127250499904
 30
0.0
 41
1.0
 10
-1.47875293673663
 20
-9.144490396496847
 30
0.0
 41
1.0
 10
-0.8688750135864619
 20
-9.144573345802504
 30
0.0
 41
1.0
 10
-0.0828749252070894
 20
-8.573021085822201
 30
0.0
 41
1.0
 10
0.969226187592006
 20
-8.321255535933257
 30
0.0
 41
1.0
 10
1.292777350589611
 20
-7.59738307037439
 30
0.0
 41
1.0
 10
1.022927618727419
 20
-6.894017118666521
 30
0.0
 41
1.0
 10
0.8760464053737923
 20
-5.944696834380309
 30
0.0
 41
1.0
 10
0.6579529718548555
 20
-4.995016321541579
 30
0.0
 41
1.0
 10
1.031481807980702
 20
-4.051228151425772
 30
0.0
 41
1.0
 10
1.270000040531158
 20
-3.302000105381011
 30
0.0
 41
1.0
 10
1.668034173906072
 20
-2.6243744548129
 30
0.0
 41
1.0
 10
2.126027230703549
 20
-2.029772019423049
 30
0.0
 41
1.0
 10
2.589960681836904
 20
-0.6861490741436283
 30
0.0
 41
1.0
 10
2.852134372146174
 20
0.6654206626653889
 30
0.0
 41
1.0
 10
2.852972475106687
 20
1.917855775063171
 30
0.0
 41
1.0
 10
3.032036153678994
 20
2.777281215454974
 30
0.0
 41
1.0
 10
2.646228114370629
 20
3.817719530556904
 30
0.0
 41
1.0
 10
2.817368557203016
 20
5.569539123609502
 30
0.0
 41
1.0
 10
2.539992629405281
 20
6.349988477447633
 30
0.0
 41
1.0
 10
2.539992813783007
 20
7.620003190106561
 30
0.0
 41
1.0
 10
2.280386129696331
 20
8.684089233386787
 30
0.0
 41
1.0
 10
2.566787032320059
 20
9.364291755125941
 30
0.0
 41
1.0
 10
2.53999781471454
 20
10.15999842220853
 30
0.0
 41
1.0
 10
2.888986215988308
 20
10.47408040363861
 30
0.0
 41
1.0
 10
3.282783188330201
 20
10.76047821786802
 30
0.0
 41
1.0
 10
3.64078039665423
 20
11.04687600349664
 30
0.0
 41
1.0
 10
3.809999758571476
 20
11.4300000642515
 30
0.0
 41
1.0
 10
3.676580089482268
 20
11.90606852505586
 30
0.0
 41
1.0
 10
3.809999848744018
 20
12.69999981248125
 30
0.0
 41
1.0
 10
4.177776126605722
 20
12.72946193667325
 30
0.0
 41
1.0
 10
3.998777580507231
 20
13.3738567026715
 30
0.0
 41
1.0
 10
3.809999943103035
 20
13.96999979058551
 30
0.0
 41
1.0
 10
3.819779031219876
 20
14.3762485782794
 30
0.0
 41
1.0
 10
3.998777580284244
 20
14.9132442254458
 30
0.0
 41
1.0
 10
3.60498077185348
 20
15.84403668157889
 30
0.0
 41
1.0
 10
2.99638570457019
 20
16.77482913742393
 30
0.0
 41
1.0
 10
2.137192668405536
 20
17.45502362438761
 30
0.0
 41
1.0
 10
1.269999980926513
 20
17.77999973297119
 30
0.0
 41
1.0
 10
0.601368460754884
 20
18.04671900124588
 30
0.0
 41
1.0
  0
SPLINE
  5
137
330
70
100
AcDbEntity
  8
Eagle (Simone) v13_Sketch1
100
AcDbSpline
210
0.0
220
0.0
230
1.0
 70
    12
 71
     5
 72
    19
 73
    13
 74
     0
 42
0.000000001
 43
0.0000000001
 40
0.0
 40
0.0
 40
0.0
 40
0.0
 40
0.0
 40
0.0
 40
0.05
 40
0.1
 40
0.15
 40
0.2
 40
0.25
 40
0.3
 40
0.35
 40
0.3950515000816641
 40
0.3950515000816641
 40
0.3950515000816641
 40
0.3950515000816641
 40
0.3950515000816641
 40
0.3950515000816641
 10
-13.46200042963028
 20
-12.19200038909912
 30
0.0
 41
1.0
 10
-13.02251851400247
 20
-12.9244702484788
 30
0.0
 41
1.0
 10
-12.70000040531158
 20
-13.46200042963028
 30
0.0
 41
1.0
 10
-12.19200038909912
 20
-13.71600043773651
 30
0.0
 41
1.0
 10
-12.35682143019722
 20
-14.03396538815422
 30
0.0
 41
1.0
 10
-12.95400041341781
 20
-14.73200047016144
 30
0.0
 41
1.0
 10
-13.46200042963028
 20
-15.2400004863739
 30
0.0
 41
1.0
 10
-13.84300044178963
 20
-15.71414720597829
 30
0.0
 41
1.0
 10
-13.84300044178963
 20
-16.49717153711333
 30
0.0
 41
1.0
 10
-13.55309686438466
 20
-17.09012972213956
 30
0.0
 41
1.0
 10
-13.38389722152994
 20
-17.32503497267415
 30
0.0
 41
1.0
 10
-13.30964231386136
 20
-17.49810322832634
 30
0.0
 41
1.0
 10
-13.28236004601718
 20
-17.58790882687281
 30
0.0
 41
1.0
  0
SPLINE
  5
138
330
70
100
AcDbEntity
  8
Eagle (Simone) v13_Sketch1
100
AcDbSpline
210
0.0
220
0.0
230
1.0
 70
    12
 71
     5
 72
    16
 73
    10
 74
     0
 42
0.000000001
 43
0.0000000001
 40
0.0
 40
0.0
 40
0.0
 40
0.0
 40
0.0
 40
0.0
 40
0.2
 40
0.4
 40
0.6000000000000001
 40
0.8
 40
0.9980190493869729
 40
0.9980190493869729
 40
0.9980190493869729
 40
0.9980190493869729
 40
0.9980190493869729
 40
0.9980190493869729
 10
1.161440395673476
 20
-11.93800023768265
 30
0.0
 41
1.0
 10
3.04800009727478
 20
-13.46200042963028
 30
0.0
 41
1.0
 10
6.350000202655792
 20
-14.73200047016144
 30
0.0
 41
1.0
 10
7.112000226974487
 20
-16.51000052690506
 30
0.0
 41
1.0
 10
6.604000210762023
 20
-19.81200063228607
 30
0.0
 41
1.0
 10
3.308541204513982
 20
-20.06549747892054
 30
0.0
 41
1.0
 10
-13.8845527020647
 20
-20.06599939446977
 30
0.0
 41
1.0
 10
-15.47853258109255
 20
-19.31152314300939
 30
0.0
 41
1.0
 10
-14.74683207180065
 20
-18.80606366507491
 30
0.0
 41
1.0
 10
-13.28236004599978
 20
-17.58790882689374
 30
0.0
 41
1.0
  0
SPLINE
  5
139
330
70
100
AcDbEntity
  8
Eagle (Simone) v13_Sketch1
100
AcDbSpline
210
0.0
220
0.0
230
1.0
 70
    12
 71
     5
 72
    19
 73
    13
 74
     0
 42
0.000000001
 43
0.0000000001
 40
0.0098835245767403
 40
0.0098835245767403
 40
0.0098835245767403
 40
0.0098835245767403
 40
0.0098835245767403
 40
0.0098835245767403
 40
0.125
 40
0.25
 40
0.375
 40
0.5
 40
0.625
 40
0.75
 40
0.875
 40
0.9921781021513664
 40
0.9921781021513664
 40
0.9921781021513664
 40
0.9921781021513664
 40
0.9921781021513664
 40
0.9921781021513664
 10
0.0712667580284841
 20
-12.5447196845265
 30
0.0
 41
1.0
 10
-0.1581614713677903
 20
-12.33063207129605
 30
0.0
 41
1.0
 10
0.2075758880811147
 20
-12.1930035275599
 30
0.0
 41
1.0
 10
0.487977527820817
 20
-11.93053287861083
 30
0.0
 41
1.0
 10
-0.0069641091492552
 20
-11.74668587299205
 30
0.0
 41
1.0
 10
-0.4403864472873654
 20
-11.67862160796772
 30
0.0
 41
1.0
 10
-1.016000032424926
 20
-11.68400037288666
 30
0.0
 41
1.0
 10
-1.736707430706069
 20
-11.74777951112896
 30
0.0
 41
1.0
 10
-2.111568911821422
 20
-11.95317034575751
 30
0.0
 41
1.0
 10
-2.166326488553841
 20
-12.52679708924192
 30
0.0
 41
1.0
 10
-2.135493759162074
 20
-12.68993898207854
 30
0.0
 41
1.0
 10
-1.705605627340199
 20
-12.61577514514888
 30
0.0
 41
1.0
 10
-1.581887546389712
 20
-12.93726208660938
 30
0.0
 41
1.0
  0
ENDSEC
  0
SECTION
  2
OBJECTS
  0
DICTIONARY
  5
C
330
0
100
AcDbDictionary
281
     1
  3
ACAD_COLOR
350
63
  3
ACAD_DETAILVIEWSTYLE
350
6A
  3
ACAD_GROUP
350
D
  3
ACAD_LAYOUT
350
62
  3
ACAD_MATERIAL
350
10
  3
ACAD_MLEADERSTYLE
350
66
  3
ACAD_MLINESTYLE
350
5F
  3
ACAD_PLOTSETTINGS
350
61
  3
ACAD_PLOTSTYLENAME
350
E
  3
ACAD_SCALELIST
350
42
  3
ACAD_SECTIONVIEWSTYLE
350
68
  3
ACAD_TABLESTYLE
350
64
  3
ACAD_VISUALSTYLE
350
29
  3
ACDB_RECOMPOSE_DATA
350
142
  3
AcDbVariableDictionary
350
13A
  0
DICTIONARY
  5
63
102
{ACAD_REACTORS
330
C
102
}
330
C
100
AcDbDictionary
281
     1
  0
DICTIONARY
  5
6A
102
{ACAD_REACTORS
330
C
102
}
330
C
100
AcDbDictionary
281
     1
  3
Imperial24
350
6B
  0
DICTIONARY
  5
D
102
{ACAD_REACTORS
330
C
102
}
330
C
100
AcDbDictionary
281
     1
  0
DICTIONARY
  5
62
102
{ACAD_REACTORS
330
C
102
}
330
C
100
AcDbDictionary
281
     1
  3
Layout1
350
6F
  3
Layout2
350
77
  3
Model
350
73
  0
DICTIONARY
  5
10
102
{ACAD_REACTORS
330
C
102
}
330
C
100
AcDbDictionary
281
     1
  3
ByBlock
350
19
  3
ByLayer
350
11
  3
Global
350
21
  0
DICTIONARY
  5
66
102
{ACAD_REACTORS
330
C
102
}
330
C
100
AcDbDictionary
281
     1
  3
Standard
350
67
  0
DICTIONARY
  5
5F
102
{ACAD_REACTORS
330
C
102
}
330
C
100
AcDbDictionary
281
     1
  3
Standard
350
60
  0
DICTIONARY
  5
61
102
{ACAD_REACTORS
330
C
102
}
330
C
100
AcDbDictionary
281
     1
  0
ACDBDICTIONARYWDFLT
  5
E
102
{ACAD_REACTORS
330
C
102
}
330
C
100
AcDbDictionary
281
     1
  3
Normal
350
F
100
AcDbDictionaryWithDefault
340
F
  0
DICTIONARY
  5
42
102
{ACAD_REACTORS
330
C
102
}
330
C
100
AcDbDictionary
281
     1
  3
A0
350
43
  3
A1
350
44
  3
A2
350
45
  3
A3
350
46
  3
A4
350
47
  3
A5
350
48
  3
A6
350
49
  3
A7
350
4A
  3
A8
350
4B
  3
A9
350
4C
  3
B0
350
4D
  3
B1
350
4E
  3
B2
350
4F
  3
B3
350
50
  3
B4
350
51
  3
B5
350
52
  3
B6
350
53
  0
DICTIONARY
  5
68
102
{ACAD_REACTORS
330
C
102
}
330
C
100
AcDbDictionary
281
     1
  3
Imperial24
350
69
  0
DICTIONARY
  5
64
102
{ACAD_REACTORS
330
C
102
}
330
C
100
AcDbDictionary
281
     1
  3
Standard
350
65
  0
DICTIONARY
  5
29
102
{ACAD_REACTORS
330
C
102
}
330
C
100
AcDbDictionary
281
     1
  3
2dWireframe
350
2F
  3
Basic
350
2E
  3
Brighten
350
35
  3
ColorChange
350
39
  3
Conceptual
350
32
  3
Dim
350
34
  3
EdgeColorOff
350
41
  3
Facepattern
350
38
  3
Flat
350
2A
  3
FlatWithEdges
350
2B
  3
Gouraud
350
2C
  3
GouraudWithEdges
350
2D
  3
Hidden
350
31
  3
JitterOff
350
3F
  3
Linepattern
350
37
  3
OverhangOff
350
40
  3
Realistic
350
33
  3
Shaded
350
3E
  3
Shaded with edges
350
3D
  3
Shades of Gray
350
3A
  3
Sketchy
350
3B
  3
Thicken
350
36
  3
Wireframe
350
30
  3
X-Ray
350
3C
  0
XRECORD
  5
142
102
{ACAD_REACTORS
330
C
102
}
330
C
100
AcDbXrecord
280
     1
 90
        1
330
65
  0
DICTIONARY
  5
13A
102
{ACAD_REACTORS
330
C
102
}
330
C
100
AcDbDictionary
281
     1
  3
CANNOSCALE
350
13F
  3
CMLEADERSTYLE
350
13C
  3
CTABLESTYLE
350
13B
  3
CVIEWDETAILSTYLE
350
13D
  3
CVIEWSECTIONSTYLE
350
13E
  0
ACDBDETAILVIEWSTYLE
  5
6B
102
{ACAD_XDICTIONARY
360
145
102
}
102
{ACAD_REACTORS
330
6A
102
}
330
6A
100
AcDbModelDocViewStyle
 70
     0
  3
Imperial24
290
     0
100
AcDbDetailViewStyle
 70
     0
 71
     0
 90
        3
 71
     1
340
55
 62
   256
 40
0.24
340
0
 62
   256
 40
0.24
300

 40
0.36
280
     3
 71
     2
340
5D
 90
       25
 62
   256
 71
     3
340
55
 62
   256
 40
0.24
 90
        1
 40
0.75
 90
        1
300
%<\AcVar ViewType \f "%tc1">% %<\AcVar ViewDetailId>%\PSCALE %<\AcVar ViewScale \f "%sn">%
 71
     4
340
5D
 90
       25
 62
   256
340
5D
 90
       25
 62
   256
280
     0
  0
LAYOUT
  5
6F
102
{ACAD_REACTORS
330
62
102
}
330
62
100
AcDbPlotSettings
  1

  2

  4

  6

 40
0.0
 41
0.0
 42
0.0
 43
0.0
 44
0.0
 45
0.0
 46
0.0
 47
0.0
 48
0.0
 49
0.0
140
0.0
141
0.0
142
1.0
143
1.0
 70
   688
 72
     0
 73
     0
 74
     5
  7

 75
    16
147
1.0
 76
     0
 77
     2
 78
   300
148
0.0
149
0.0
100
AcDbLayout
  1
Layout1
 70
     1
 71
     1
 10
0.0
 20
0.0
 11
12.0
 21
9.0
 12
0.0
 22
0.0
 32
0.0
 14
0.0
 24
0.0
 34
0.0
 15
0.0
 25
0.0
 35
0.0
146
0.0
 13
0.0
 23
0.0
 33
0.0
 16
1.0
 26
0.0
 36
0.0
 17
0.0
 27
1.0
 37
0.0
 76
     0
330
6C
  0
LAYOUT
  5
77
102
{ACAD_REACTORS
330
62
102
}
330
62
100
AcDbPlotSettings
  1

  2

  4

  6

 40
0.0
 41
0.0
 42
0.0
 43
0.0
 44
0.0
 45
0.0
 46
0.0
 47
0.0
 48
0.0
 49
0.0
140
0.0
141
0.0
142
1.0
143
1.0
 70
   688
 72
     0
 73
     0
 74
     5
  7

 75
    16
147
1.0
 76
     0
 77
     2
 78
   300
148
0.0
149
0.0
100
AcDbLayout
  1
Layout2
 70
     1
 71
     2
 10
0.0
 20
0.0
 11
12.0
 21
9.0
 12
0.0
 22
0.0
 32
0.0
 14
0.0
 24
0.0
 34
0.0
 15
0.0
 25
0.0
 35
0.0
146
0.0
 13
0.0
 23
0.0
 33
0.0
 16
1.0
 26
0.0
 36
0.0
 17
0.0
 27
1.0
 37
0.0
 76
     0
330
74
  0
LAYOUT
  5
73
102
{ACAD_REACTORS
330
62
102
}
330
62
100
AcDbPlotSettings
  1

  2

  4

  6

 40
0.0
 41
0.0
 42
0.0
 43
0.0
 44
0.0
 45
0.0
 46
0.0
 47
0.0
 48
0.0
 49
0.0
140
0.0
141
0.0
142
1.0
143
1.0
 70
  1712
 72
     0
 73
     0
 74
     0
  7

 75
     0
147
1.0
 76
     0
 77
     2
 78
   300
148
0.0
149
0.0
100
AcDbLayout
  1
Model
 70
     1
 71
     0
 10
0.0
 20
0.0
 11
12.0
 21
9.0
 12
0.0
 22
0.0
 32
0.0
 14
0.0
 24
0.0
 34
0.0
 15
0.0
 25
0.0
 35
0.0
146
0.0
 13
0.0
 23
0.0
 33
0.0
 16
1.0
 26
0.0
 36
0.0
 17
0.0
 27
1.0
 37
0.0
 76
     0
330
70
  0
MATERIAL
  5
19
102
{ACAD_XDICTIONARY
360
1A
102
}
102
{ACAD_REACTORS
330
10
102
}
330
10
100
AcDbMaterial
  1
ByBlock
 72
     0
 43
0.0208333333333333
 43
0.0
 43
0.0
 43
0.0
 43
0.0
 43
0.0208333333333333
 43
0.0
 43
0.0
 43
0.0
 43
0.0
 43
1.0
 43
0.0
 43
0.0
 43
0.0
 43
0.0
 43
1.0
 77
     0
 47
0.0208333333333333
 47
0.0
 47
0.0
 47
0.0
 47
0.0
 47
0.0208333333333333
 47
0.0
 47
0.0
 47
0.0
 47
0.0
 47
1.0
 47
0.0
 47
0.0
 47
0.0
 47
0.0
 47
1.0
171
     0
 49
0.0208333333333333
 49
0.0
 49
0.0
 49
0.0
 49
0.0
 49
0.0208333333333333
 49
0.0
 49
0.0
 49
0.0
 49
0.0
 49
1.0
 49
0.0
 49
0.0
 49
0.0
 49
0.0
 49
1.0
175
     0
142
0.0208333333333333
142
0.0
142
0.0
142
0.0
142
0.0
142
0.0208333333333333
142
0.0
142
0.0
142
0.0
142
0.0
142
1.0
142
0.0
142
0.0
142
0.0
142
0.0
142
1.0
179
     0
144
0.0208333333333333
144
0.0
144
0.0
144
0.0
144
0.0
144
0.0208333333333333
144
0.0
144
0.0
144
0.0
144
0.0
144
1.0
144
0.0
144
0.0
144
0.0
144
0.0
144
1.0
147
0.0208333333333333
147
0.0
147
0.0
147
0.0
147
0.0
147
0.0208333333333333
147
0.0
147
0.0
147
0.0
147
0.0
147
1.0
147
0.0
147
0.0
147
0.0
147
0.0
147
1.0
  0
MATERIAL
  5
11
102
{ACAD_XDICTIONARY
360
12
102
}
102
{ACAD_REACTORS
330
10
102
}
330
10
100
AcDbMaterial
  1
ByLayer
 72
     0
 43
0.0208333333333333
 43
0.0
 43
0.0
 43
0.0
 43
0.0
 43
0.0208333333333333
 43
0.0
 43
0.0
 43
0.0
 43
0.0
 43
1.0
 43
0.0
 43
0.0
 43
0.0
 43
0.0
 43
1.0
 77
     0
 47
0.0208333333333333
 47
0.0
 47
0.0
 47
0.0
 47
0.0
 47
0.0208333333333333
 47
0.0
 47
0.0
 47
0.0
 47
0.0
 47
1.0
 47
0.0
 47
0.0
 47
0.0
 47
0.0
 47
1.0
171
     0
 49
0.0208333333333333
 49
0.0
 49
0.0
 49
0.0
 49
0.0
 49
0.0208333333333333
 49
0.0
 49
0.0
 49
0.0
 49
0.0
 49
1.0
 49
0.0
 49
0.0
 49
0.0
 49
0.0
 49
1.0
175
     0
142
0.0208333333333333
142
0.0
142
0.0
142
0.0
142
0.0
142
0.0208333333333333
142
0.0
142
0.0
142
0.0
142
0.0
142
1.0
142
0.0
142
0.0
142
0.0
142
0.0
142
1.0
179
     0
144
0.0208333333333333
144
0.0
144
0.0
144
0.0
144
0.0
144
0.0208333333333333
144
0.0
144
0.0
144
0.0
144
0.0
144
1.0
144
0.0
144
0.0
144
0.0
144
0.0
144
1.0
147
0.0208333333333333
147
0.0
147
0.0
147
0.0
147
0.0
147
0.0208333333333333
147
0.0
147
0.0
147
0.0
147
0.0
147
1.0
147
0.0
147
0.0
147
0.0
147
0.0
147
1.0
  0
MATERIAL
  5
21
102
{ACAD_XDICTIONARY
360
22
102
}
102
{ACAD_REACTORS
330
10
102
}
330
10
100
AcDbMaterial
  1
Global
 72
     0
 43
0.0208333333333333
 43
0.0
 43
0.0
 43
0.0
 43
0.0
 43
0.0208333333333333
 43
0.0
 43
0.0
 43
0.0
 43
0.0
 43
1.0
 43
0.0
 43
0.0
 43
0.0
 43
0.0
 43
1.0
 77
     0
 47
0.0208333333333333
 47
0.0
 47
0.0
 47
0.0
 47
0.0
 47
0.0208333333333333
 47
0.0
 47
0.0
 47
0.0
 47
0.0
 47
1.0
 47
0.0
 47
0.0
 47
0.0
 47
0.0
 47
1.0
171
     0
 49
0.0208333333333333
 49
0.0
 49
0.0
 49
0.0
 49
0.0
 49
0.0208333333333333
 49
0.0
 49
0.0
 49
0.0
 49
0.0
 49
1.0
 49
0.0
 49
0.0
 49
0.0
 49
0.0
 49
1.0
175
     0
142
0.0208333333333333
142
0.0
142
0.0
142
0.0
142
0.0
142
0.0208333333333333
142
0.0
142
0.0
142
0.0
142
0.0
142
1.0
142
0.0
142
0.0
142
0.0
142
0.0
142
1.0
179
     0
144
0.0208333333333333
144
0.0
144
0.0
144
0.0
144
0.0
144
0.0208333333333333
144
0.0
144
0.0
144
0.0
144
0.0
144
1.0
144
0.0
144
0.0
144
0.0
144
0.0
144
1.0
147
0.0208333333333333
147
0.0
147
0.0
147
0.0
147
0.0
147
0.0208333333333333
147
0.0
147
0.0
147
0.0
147
0.0
147
1.0
147
0.0
147
0.0
147
0.0
147
0.0
147
1.0
  0
MLEADERSTYLE
  5
67
102
{ACAD_REACTORS
330
66
102
}
330
66
100
AcDbMLeaderStyle
179
     2
170
     2
171
     1
172
     0
 90
        2
 40
0.0
 41
0.0
173
     1
 91
-1056964608
340
5B
 92
       -2
290
     1
 42
0.09
291
     1
 43
0.36
  3
Standard
 44
0.18
300

342
55
174
     1
178
     6
175
     1
176
     0
 93
-1056964608
 45
0.18
292
     0
297
     0
 46
0.18
 94
-1056964608
 47
1.0
 49
1.0
140
1.0
293
     1
141
0.0
294
     1
177
     0
142
1.0
295
     0
296
     0
143
0.125
271
     0
272
     9
273
     9
298
     1
  0
MLINESTYLE
  5
60
102
{ACAD_REACTORS
330
5F
102
}
330
5F
100
AcDbMlineStyle
  2
STANDARD
 70
     0
  3

 62
   256
 51
90.0
 52
90.0
 71
     2
 49
0.5
 62
   256
  6
BYLAYER
 49
-0.5
 62
   256
  6
BYLAYER
  0
ACDBPLACEHOLDER
  5
F
102
{ACAD_REACTORS
330
E
102
}
330
E
  0
SCALE
  5
43
102
{ACAD_REACTORS
330
42
102
}
330
42
100
AcDbScale
 70
     0
300
1:1
140
1.0
141
1.0
290
     1
  0
SCALE
  5
44
102
{ACAD_REACTORS
330
42
102
}
330
42
100
AcDbScale
 70
     0
300
1/128" = 1'-0"
140
0.0078125
141
12.0
290
     0
  0
SCALE
  5
45
102
{ACAD_REACTORS
330
42
102
}
330
42
100
AcDbScale
 70
     0
300
1/64" = 1'-0"
140
0.015625
141
12.0
290
     0
  0
SCALE
  5
46
102
{ACAD_REACTORS
330
42
102
}
330
42
100
AcDbScale
 70
     0
300
1/32" = 1'-0"
140
0.03125
141
12.0
290
     0
  0
SCALE
  5
47
102
{ACAD_REACTORS
330
42
102
}
330
42
100
AcDbScale
 70
     0
300
1/16" = 1'-0"
140
0.0625
141
12.0
290
     0
  0
SCALE
  5
48
102
{ACAD_REACTORS
330
42
102
}
330
42
100
AcDbScale
 70
     0
300
3/32" = 1'-0"
140
0.09375
141
12.0
290
     0
  0
SCALE
  5
49
102
{ACAD_REACTORS
330
42
102
}
330
42
100
AcDbScale
 70
     0
300
1/8" = 1'-0"
140
0.125
141
12.0
290
     0
  0
SCALE
  5
4A
102
{ACAD_REACTORS
330
42
102
}
330
42
100
AcDbScale
 70
     0
300
3/16" = 1'-0"
140
0.1875
141
12.0
290
     0
  0
SCALE
  5
4B
102
{ACAD_REACTORS
330
42
102
}
330
42
100
AcDbScale
 70
     0
300
1/4" = 1'-0"
140
0.25
141
12.0
290
     0
  0
SCALE
  5
4C
102
{ACAD_REACTORS
330
42
102
}
330
42
100
AcDbScale
 70
     0
300
3/8" = 1'-0"
140
0.375
141
12.0
290
     0
  0
SCALE
  5
4D
102
{ACAD_REACTORS
330
42
102
}
330
42
100
AcDbScale
 70
     0
300
1/2" = 1'-0"
140
0.5
141
12.0
290
     0
  0
SCALE
  5
4E
102
{ACAD_REACTORS
330
42
102
}
330
42
100
AcDbScale
 70
     0
300
3/4" = 1'-0"
140
0.75
141
12.0
290
     0
  0
SCALE
  5
4F
102
{ACAD_REACTORS
330
42
102
}
330
42
100
AcDbScale
 70
     0
300
1" = 1'-0"
140
1.0
141
12.0
290
     0
  0
SCALE
  5
50
102
{ACAD_REACTORS
330
42
102
}
330
42
100
AcDbScale
 70
     0
300
1-1/2" = 1'-0"
140
1.5
141
12.0
290
     0
  0
SCALE
  5
51
102
{ACAD_REACTORS
330
42
102
}
330
42
100
AcDbScale
 70
     0
300
3" = 1'-0"
140
3.0
141
12.0
290
     0
  0
SCALE
  5
52
102
{ACAD_REACTORS
330
42
102
}
330
42
100
AcDbScale
 70
     0
300
6" = 1'-0"
140
6.0
141
12.0
290
     0
  0
SCALE
  5
53
102
{ACAD_REACTORS
330
42
102
}
330
42
100
AcDbScale
 70
     0
300
1'-0" = 1'-0"
140
12.0
141
12.0
290
     0
  0
ACDBSECTIONVIEWSTYLE
  5
69
102
{ACAD_XDICTIONARY
360
143
102
}
102
{ACAD_REACTORS
330
68
102
}
330
68
100
AcDbModelDocViewStyle
 70
     0
  3
Imperial24
290
     0
100
AcDbSectionViewStyle
 70
     0
 71
     0
 90
       78
 71
     1
340
55
 62
   256
 40
0.24
340
0
340
0
 62
   256
 40
0.24
300
I, O, Q, S, X, Z
 40
0.48
 90
        3
 40
0.18
 90
        1
 71
     2
340
5D
 90
       25
 62
   256
340
5D
 90
       50
 62
   256
 40
0.24
 40
0.0
 40
0.24
 71
     3
340
55
 62
   256
 40
0.24
 90
        1
 40
0.75
 90
        1
300
%<\AcVar ViewType \f "%tc1">% %<\AcVar ViewSectionStartId>%-%<\AcVar ViewSectionEndId>%\PSCALE %<\AcVar ViewScale \f "%sn">%
 71
     4
 62
   256
 62
   257
300
ANSI31
 40
1.0
 90
        0
290
     0
290
     0
 90
        6
 40
0.0
 40
1.570796326794896
 40
0.2617993877991494
 40
1.308996938995747
 40
-0.2617993877991494
 40
1.832595714594046
  0
TABLESTYLE
  5
65
102
{ACAD_XDICTIONARY
360
140
102
}
102
{ACAD_REACTORS
330
64
102
}
330
64
100
AcDbTableStyle
280
     0
  3
Standard
 70
     0
 71
     0
 40
0.06
 41
0.06
280
     0
281
     0
  7
Standard
140
0.18
170
     2
 62
     0
 63
     7
283
     0
 90
      512
 91
        0
  1

274
    -2
284
     1
 64
     0
275
    -2
285
     1
 65
     0
276
    -2
286
     1
 66
     0
277
    -2
287
     1
 67
     0
278
    -2
288
     1
 68
     0
279
    -2
289
     1
 69
     0
  7
Standard
140
0.25
170
     5
 62
     0
 63
     7
283
     0
 90
      512
 91
        0
  1

274
    -2
284
     1
 64
     0
275
    -2
285
     1
 65
     0
276
    -2
286
     1
 66
     0
277
    -2
287
     1
 67
     0
278
    -2
288
     1
 68
     0
279
    -2
289
     1
 69
     0
  7
Standard
140
0.18
170
     5
 62
     0
 63
     7
283
     0
 90
      512
 91
        0
  1

274
    -2
284
     1
 64
     0
275
    -2
285
     1
 65
     0
276
    -2
286
     1
 66
     0
277
    -2
287
     1
 67
     0
278
    -2
288
     1
 68
     0
279
    -2
289
     1
 69
     0
  0
VISUALSTYLE
  5
2F
102
{ACAD_REACTORS
330
29
102
}
330
29
100
AcDbVisualStyle
  2
2dWireframe
 70
     4
177
     3
291
     0
 70
    58
 90
        0
176
     1
 90
        2
176
     1
 90
        0
176
     1
 90
        0
176
     1
 40
0.6
176
     1
 40
30.0
176
     1
 62
     7
420
 16777215
176
     1
 90
        1
176
     1
 90
        4
176
     1
 62
     7
176
     1
 62
   257
176
     1
 90
        1
176
     1
 90
        1
176
     1
 40
1.0
176
     1
 90
        0
176
     1
 62
   257
176
     1
 40
1.0
176
     1
 90
        1
176
     1
 90
        6
176
     1
 90
        2
176
     1
 62
     7
176
     1
 90
        5
176
     1
 90
        0
176
     1
 90
        0
176
     1
290
     0
176
     1
 90
        1
176
     1
 40
0.0
176
     1
 90
        0
176
     1
290
     1
176
     1
290
     1
176
     1
290
     0
176
     1
290
     0
176
     1
290
     0
176
     1
290
     0
176
     1
290
     0
176
     1
290
     0
176
     1
290
     0
176
     1
 90
       50
176
     1
 40
0.0
176
     1
 40
1.0
176
     1
 90
        0
176
     1
 62
    18
420
        0
176
     1
 90
       50
176
     1
 90
        3
176
     1
 62
     5
420
      255
176
     1
290
     0
176
     1
 90
       50
176
     1
 90
       50
176
     1
 90
       50
176
     1
290
     0
176
     1
 90
       50
176
     1
 62
   256
176
     0
 40
1.0
176
     0
 90
        2
176
     1
  1
strokes_ogs.tif
176
     1
290
     0
176
     1
 40
1.0
176
     1
 40
1.0
176
     1
1001
ACAD
1000
AcDbSavedByObjectVersion
1070
     0
  0
VISUALSTYLE
  5
2E
102
{ACAD_REACTORS
330
29
102
}
330
29
100
AcDbVisualStyle
  2
Basic
 70
     7
177
     3
291
     1
 70
    58
 90
        1
176
     1
 90
        0
176
     1
 90
        1
176
     1
 90
        0
176
     1
 40
0.6
176
     1
 40
30.0
176
     1
 62
     7
420
 16777215
176
     1
 90
        0
176
     1
 90
        4
176
     1
 62
     7
176
     1
 62
   257
176
     1
 90
        1
176
     1
 90
        1
176
     1
 40
1.0
176
     1
 90
        8
176
     1
 62
     7
176
     1
 40
1.0
176
     1
 90
        1
176
     1
 90
        6
176
     1
 90
        2
176
     1
 62
     7
176
     1
 90
        5
176
     1
 90
        0
176
     1
 90
        0
176
     1
290
     0
176
     1
 90
        1
176
     1
 40
0.0
176
     1
 90
        0
176
     1
290
     0
176
     1
290
     1
176
     1
290
     1
176
     1
290
     0
176
     1
290
     0
176
     1
290
     0
176
     1
290
     0
176
     1
290
     0
176
     1
290
     0
176
     1
 90
       50
176
     1
 40
0.0
176
     1
 40
1.0
176
     1
 90
        0
176
     1
 62
    18
420
        0
176
     1
 90
       50
176
     1
 90
        3
176
     1
 62
     5
420
      255
176
     1
290
     0
176
     1
 90
       50
176
     1
 90
       50
176
     1
 90
       50
176
     1
290
     0
176
     1
 90
       50
176
     1
 62
   256
176
     0
 40
1.0
176
     0
 90
        2
176
     1
  1
strokes_ogs.tif
176
     1
290
     0
176
     1
 40
1.0
176
     1
 40
1.0
176
     1
1001
ACAD
1000
AcDbSavedByObjectVersion
1070
     0
  0
VISUALSTYLE
  5
35
102
{ACAD_REACTORS
330
29
102
}
330
29
100
AcDbVisualStyle
  2
Brighten
 70
    12
177
     3
291
     1
 70
    58
 90
        2
176
     1
 90
        2
176
     1
 90
        0
176
     1
 90
        0
176
     1
 40
0.6
176
     1
 40
30.0
176
     1
 62
     7
420
 16777215
176
     1
 90
        1
176
     1
 90
        4
176
     1
 62
     7
176
     1
 62
   257
176
     1
 90
        1
176
     1
 90
        1
176
     1
 40
1.0
176
     1
 90
        8
176
     1
 62
     7
176
     1
 40
1.0
176
     1
 90
        1
176
     1
 90
        6
176
     1
 90
        2
176
     1
 62
     7
176
     1
 90
        5
176
     1
 90
        0
176
     1
 90
        0
176
     1
290
     0
176
     1
 90
        1
176
     1
 40
50.0
176
     1
 90
        0
176
     1
290
     0
176
     1
290
     1
176
     1
290
     1
176
     1
290
     0
176
     1
290
     0
176
     1
290
     0
176
     1
290
     0
176
     1
290
     0
176
     1
290
     0
176
     1
 90
       50
176
     1
 40
0.0
176
     1
 40
1.0
176
     1
 90
        0
176
     1
 62
    18
420
        0
176
     1
 90
       50
176
     1
 90
        3
176
     1
 62
     5
420
      255
176
     1
290
     0
176
     1
 90
       50
176
     1
 90
       50
176
     1
 90
       50
176
     1
290
     0
176
     1
 90
       50
176
     1
 62
   256
176
     0
 40
1.0
176
     0
 90
        2
176
     1
  1
strokes_ogs.tif
176
     1
290
     0
176
     1
 40
1.0
176
     1
 40
1.0
176
     1
1001
ACAD
1000
AcDbSavedByObjectVersion
1070
     0
  0
VISUALSTYLE
  5
39
102
{ACAD_REACTORS
330
29
102
}
330
29
100
AcDbVisualStyle
  2
ColorChange
 70
    16
177
     3
291
     1
 70
    58
 90
        2
176
     1
 90
        2
176
     1
 90
        3
176
     1
 90
        0
176
     1
 40
0.6
176
     1
 40
30.0
176
     1
 62
     8
420
  8421504
176
     1
 90
        1
176
     1
 90
        4
176
     1
 62
     7
176
     1
 62
   257
176
     1
 90
        1
176
     1
 90
        1
176
     1
 40
1.0
176
     1
 90
        8
176
     1
 62
     8
420
  8421504
176
     1
 40
1.0
176
     1
 90
        1
176
     1
 90
        6
176
     1
 90
        2
176
     1
 62
     7
176
     1
 90
        5
176
     1
 90
        0
176
     1
 90
        0
176
     1
290
     0
176
     1
 90
        1
176
     1
 40
0.0
176
     1
 90
        0
176
     1
290
     0
176
     1
290
     1
176
     1
290
     1
176
     1
290
     0
176
     1
290
     0
176
     1
290
     0
176
     1
290
     0
176
     1
290
     0
176
     1
290
     0
176
     1
 90
       50
176
     1
 40
0.0
176
     1
 40
1.0
176
     1
 90
        0
176
     1
 62
    18
420
        0
176
     1
 90
       50
176
     1
 90
        3
176
     1
 62
     5
420
      255
176
     1
290
     0
176
     1
 90
       50
176
     1
 90
       50
176
     1
 90
       50
176
     1
290
     0
176
     1
 90
       50
176
     1
 62
   256
176
     0
 40
1.0
176
     0
 90
        2
176
     1
  1
strokes_ogs.tif
176
     1
290
     0
176
     1
 40
1.0
176
     1
 40
1.0
176
     1
1001
ACAD
1000
AcDbSavedByObjectVersion
1070
     0
  0
VISUALSTYLE
  5
32
102
{ACAD_REACTORS
330
29
102
}
330
29
100
AcDbVisualStyle
  2
Conceptual
 70
     9
177
     3
291
     0
 70
    58
 90
        3
176
     1
 90
        2
176
     1
 90
        0
176
     1
 90
        0
176
     1
 40
0.6
176
     1
 40
30.0
176
     1
 62
     7
420
 16777215
176
     1
 90
        2
176
     1
 90
        2
176
     1
 62
     7
176
     1
 62
   257
176
     1
 90
        1
176
     1
 90
        1
176
     1
 40
179.0
176
     1
 90
        8
176
     1
 62
     7
176
     1
 40
1.0
176
     1
 90
        1
176
     1
 90
        6
176
     1
 90
        2
176
     1
 62
     7
176
     1
 90
        3
176
     1
 90
        0
176
     1
 90
        0
176
     1
290
     0
176
     1
 90
        1
176
     1
 40
0.0
176
     1
 90
        0
176
     1
290
     0
176
     1
290
     1
176
     1
290
     1
176
     1
290
     0
176
     1
290
     0
176
     1
290
     0
176
     1
290
     0
176
     1
290
     0
176
     1
290
     0
176
     1
 90
       50
176
     1
 40
0.0
176
     1
 40
1.0
176
     1
 90
        0
176
     1
 62
    18
420
        0
176
     1
 90
       50
176
     1
 90
        3
176
     1
 62
     5
420
      255
176
     1
290
     0
176
     1
 90
       50
176
     1
 90
       50
176
     1
 90
       50
176
     1
290
     0
176
     1
 90
       50
176
     1
 62
   256
176
     0
 40
1.0
176
     0
 90
        2
176
     1
  1
strokes_ogs.tif
176
     1
290
     0
176
     1
 40
1.0
176
     1
 40
1.0
176
     1
1001
ACAD
1000
AcDbSavedByObjectVersion
1070
     0
  0
VISUALSTYLE
  5
34
102
{ACAD_REACTORS
330
29
102
}
330
29
100
AcDbVisualStyle
  2
Dim
 70
    11
177
     3
291
     1
 70
    58
 90
        2
176
     1
 90
        2
176
     1
 90
        0
176
     1
 90
        0
176
     1
 40
0.6
176
     1
 40
30.0
176
     1
 62
     7
420
 16777215
176
     1
 90
        1
176
     1
 90
        4
176
     1
 62
     7
176
     1
 62
   257
176
     1
 90
        1
176
     1
 90
        1
176
     1
 40
1.0
176
     1
 90
        8
176
     1
 62
     7
176
     1
 40
1.0
176
     1
 90
        1
176
     1
 90
        6
176
     1
 90
        2
176
     1
 62
     7
176
     1
 90
        5
176
     1
 90
        0
176
     1
 90
        0
176
     1
290
     0
176
     1
 90
        1
176
     1
 40
-50.0
176
     1
 90
        0
176
     1
290
     0
176
     1
290
     1
176
     1
290
     1
176
     1
290
     0
176
     1
290
     0
176
     1
290
     0
176
     1
290
     0
176
     1
290
     0
176
     1
290
     0
176
     1
 90
       50
176
     1
 40
0.0
176
     1
 40
1.0
176
     1
 90
        0
176
     1
 62
    18
420
        0
176
     1
 90
       50
176
     1
 90
        3
176
     1
 62
     5
420
      255
176
     1
290
     0
176
     1
 90
       50
176
     1
 90
       50
176
     1
 90
       50
176
     1
290
     0
176
     1
 90
       50
176
     1
 62
   256
176
     0
 40
1.0
176
     0
 90
        2
176
     1
  1
strokes_ogs.tif
176
     1
290
     0
176
     1
 40
1.0
176
     1
 40
1.0
176
     1
1001
ACAD
1000
AcDbSavedByObjectVersion
1070
     0
  0
VISUALSTYLE
  5
41
102
{ACAD_REACTORS
330
29
102
}
330
29
100
AcDbVisualStyle
  2
EdgeColorOff
 70
    22
177
     3
291
     1
 70
    58
 90
        2
176
     0
 90
        2
176
     0
 90
        0
176
     0
 90
        0
176
     0
 40
0.6
176
     0
 40
30.0
176
     0
 62
     7
420
 16777215
176
     0
 90
        1
176
     0
 90
        4
176
     0
 62
     7
176
     0
 62
   257
176
     0
 90
        1
176
     0
 90
        1
176
     0
 40
1.0
176
     0
 90
        8
176
     2
 62
     7
176
     0
 40
1.0
176
     0
 90
        1
176
     0
 90
        6
176
     0
 90
        2
176
     0
 62
     7
176
     0
 90
        5
176
     0
 90
        0
176
     0
 90
        0
176
     0
290
     0
176
     0
 90
        1
176
     0
 40
0.0
176
     0
 90
        0
176
     0
290
     0
176
     0
290
     1
176
     0
290
     1
176
     0
290
     0
176
     0
290
     0
176
     0
290
     0
176
     0
290
     0
176
     0
290
     0
176
     0
290
     0
176
     0
 90
       50
176
     0
 40
0.0
176
     0
 40
1.0
176
     0
 90
        0
176
     0
 62
    18
420
        0
176
     0
 90
       50
176
     0
 90
        3
176
     0
 62
     5
420
      255
176
     0
290
     0
176
     0
 90
       50
176
     0
 90
       50
176
     0
 90
       50
176
     0
290
     0
176
     0
 90
       50
176
     0
 62
   256
176
     0
 40
1.0
176
     0
 90
        2
176
     0
  1
strokes_ogs.tif
176
     0
290
     0
176
     0
 40
1.0
176
     0
 40
1.0
176
     0
1001
ACAD
1000
AcDbSavedByObjectVersion
1070
     0
  0
VISUALSTYLE
  5
38
102
{ACAD_REACTORS
330
29
102
}
330
29
100
AcDbVisualStyle
  2
Facepattern
 70
    15
177
     3
291
     1
 70
    58
 90
        2
176
     1
 90
        2
176
     1
 90
        0
176
     1
 90
        0
176
     1
 40
0.6
176
     1
 40
30.0
176
     1
 62
     7
420
 16777215
176
     1
 90
        1
176
     1
 90
        4
176
     1
 62
     7
176
     1
 62
   257
176
     1
 90
        1
176
     1
 90
        1
176
     1
 40
1.0
176
     1
 90
        8
176
     1
 62
     7
176
     1
 40
1.0
176
     1
 90
        1
176
     1
 90
        6
176
     1
 90
        2
176
     1
 62
     7
176
     1
 90
        5
176
     1
 90
        0
176
     1
 90
        0
176
     1
290
     0
176
     1
 90
        1
176
     1
 40
0.0
176
     1
 90
        0
176
     1
290
     0
176
     1
290
     1
176
     1
290
     1
176
     1
290
     0
176
     1
290
     0
176
     1
290
     0
176
     1
290
     0
176
     1
290
     0
176
     1
290
     0
176
     1
 90
       50
176
     1
 40
0.0
176
     1
 40
1.0
176
     1
 90
        0
176
     1
 62
    18
420
        0
176
     1
 90
       50
176
     1
 90
        3
176
     1
 62
     5
420
      255
176
     1
290
     0
176
     1
 90
       50
176
     1
 90
       50
176
     1
 90
       50
176
     1
290
     0
176
     1
 90
       50
176
     1
 62
   256
176
     0
 40
1.0
176
     0
 90
        2
176
     1
  1
strokes_ogs.tif
176
     1
290
     0
176
     1
 40
1.0
176
     1
 40
1.0
176
     1
1001
ACAD
1000
AcDbSavedByObjectVersion
1070
     0
  0
VISUALSTYLE
  5
2A
102
{ACAD_REACTORS
330
29
102
}
330
29
100
AcDbVisualStyle
  2
Flat
 70
     0
177
     3
291
     1
 70
    58
 90
        2
176
     1
 90
        1
176
     1
 90
        1
176
     1
 90
        2
176
     1
 40
0.6
176
     1
 40
30.0
176
     1
 62
     7
420
 16777215
176
     1
 90
        0
176
     1
 90
        0
176
     1
 62
     7
176
     1
 62
   257
176
     1
 90
        1
176
     1
 90
        1
176
     1
 40
1.0
176
     1
 90
        8
176
     1
 62
     7
176
     1
 40
1.0
176
     1
 90
        1
176
     1
 90
        6
176
     1
 90
        2
176
     1
 62
     7
176
     1
 90
        5
176
     1
 90
        0
176
     1
 90
        0
176
     1
290
     0
176
     1
 90
       13
176
     1
 40
0.0
176
     1
 90
        0
176
     1
290
     0
176
     1
290
     1
176
     1
290
     1
176
     1
290
     0
176
     1
290
     0
176
     1
290
     0
176
     1
290
     0
176
     1
290
     0
176
     1
290
     0
176
     1
 90
       50
176
     1
 40
0.0
176
     1
 40
1.0
176
     1
 90
        0
176
     1
 62
    18
420
        0
176
     1
 90
       50
176
     1
 90
        3
176
     1
 62
     5
420
      255
176
     1
290
     0
176
     1
 90
       50
176
     1
 90
       50
176
     1
 90
       50
176
     1
290
     0
176
     1
 90
       50
176
     1
 62
   256
176
     0
 40
1.0
176
     0
 90
        2
176
     1
  1
strokes_ogs.tif
176
     1
290
     0
176
     1
 40
1.0
176
     1
 40
1.0
176
     1
1001
ACAD
1000
AcDbSavedByObjectVersion
1070
     0
  0
VISUALSTYLE
  5
2B
102
{ACAD_REACTORS
330
29
102
}
330
29
100
AcDbVisualStyle
  2
FlatWithEdges
 70
     1
177
     3
291
     1
 70
    58
 90
        2
176
     1
 90
        1
176
     1
 90
        1
176
     1
 90
        2
176
     1
 40
0.6
176
     1
 40
30.0
176
     1
 62
     7
420
 16777215
176
     1
 90
        1
176
     1
 90
        0
176
     1
 62
     7
176
     1
 62
   257
176
     1
 90
        1
176
     1
 90
        1
176
     1
 40
1.0
176
     1
 90
        0
176
     1
 62
   257
176
     1
 40
1.0
176
     1
 90
        1
176
     1
 90
        6
176
     1
 90
        2
176
     1
 62
     7
176
     1
 90
        5
176
     1
 90
        0
176
     1
 90
        0
176
     1
290
     0
176
     1
 90
       13
176
     1
 40
0.0
176
     1
 90
        0
176
     1
290
     0
176
     1
290
     1
176
     1
290
     1
176
     1
290
     0
176
     1
290
     0
176
     1
290
     0
176
     1
290
     0
176
     1
290
     0
176
     1
290
     0
176
     1
 90
       50
176
     1
 40
0.0
176
     1
 40
1.0
176
     1
 90
        0
176
     1
 62
    18
420
        0
176
     1
 90
       50
176
     1
 90
        3
176
     1
 62
     5
420
      255
176
     1
290
     0
176
     1
 90
       50
176
     1
 90
       50
176
     1
 90
       50
176
     1
290
     0
176
     1
 90
       50
176
     1
 62
   256
176
     0
 40
1.0
176
     0
 90
        2
176
     1
  1
strokes_ogs.tif
176
     1
290
     0
176
     1
 40
1.0
176
     1
 40
1.0
176
     1
1001
ACAD
1000
AcDbSavedByObjectVersion
1070
     0
  0
VISUALSTYLE
  5
2C
102
{ACAD_REACTORS
330
29
102
}
330
29
100
AcDbVisualStyle
  2
Gouraud
 70
     2
177
     3
291
     1
 70
    58
 90
        2
176
     1
 90
        2
176
     1
 90
        1
176
     1
 90
        2
176
     1
 40
0.6
176
     1
 40
30.0
176
     1
 62
     7
420
 16777215
176
     1
 90
        0
176
     1
 90
        0
176
     1
 62
     7
176
     1
 62
   257
176
     1
 90
        1
176
     1
 90
        1
176
     1
 40
1.0
176
     1
 90
        0
176
     1
 62
     7
176
     1
 40
1.0
176
     1
 90
        1
176
     1
 90
        6
176
     1
 90
        2
176
     1
 62
     7
176
     1
 90
        5
176
     1
 90
        0
176
     1
 90
        0
176
     1
290
     0
176
     1
 90
       13
176
     1
 40
0.0
176
     1
 90
        0
176
     1
290
     0
176
     1
290
     1
176
     1
290
     1
176
     1
290
     0
176
     1
290
     0
176
     1
290
     0
176
     1
290
     0
176
     1
290
     0
176
     1
290
     0
176
     1
 90
       50
176
     1
 40
0.0
176
     1
 40
1.0
176
     1
 90
        0
176
     1
 62
    18
420
        0
176
     1
 90
       50
176
     1
 90
        3
176
     1
 62
     5
420
      255
176
     1
290
     0
176
     1
 90
       50
176
     1
 90
       50
176
     1
 90
       50
176
     1
290
     0
176
     1
 90
       50
176
     1
 62
   256
176
     0
 40
1.0
176
     0
 90
        2
176
     1
  1
strokes_ogs.tif
176
     1
290
     0
176
     1
 40
1.0
176
     1
 40
1.0
176
     1
1001
ACAD
1000
AcDbSavedByObjectVersion
1070
     0
  0
VISUALSTYLE
  5
2D
102
{ACAD_REACTORS
330
29
102
}
330
29
100
AcDbVisualStyle
  2
GouraudWithEdges
 70
     3
177
     3
291
     1
 70
    58
 90
        2
176
     1
 90
        2
176
     1
 90
        1
176
     1
 90
        2
176
     1
 40
0.6
176
     1
 40
30.0
176
     1
 62
     7
420
 16777215
176
     1
 90
        1
176
     1
 90
        0
176
     1
 62
     7
176
     1
 62
   257
176
     1
 90
        1
176
     1
 90
        1
176
     1
 40
1.0
176
     1
 90
        0
176
     1
 62
   257
176
     1
 40
1.0
176
     1
 90
        1
176
     1
 90
        6
176
     1
 90
        2
176
     1
 62
     7
176
     1
 90
        5
176
     1
 90
        0
176
     1
 90
        0
176
     1
290
     0
176
     1
 90
       13
176
     1
 40
0.0
176
     1
 90
        0
176
     1
290
     0
176
     1
290
     1
176
     1
290
     1
176
     1
290
     0
176
     1
290
     0
176
     1
290
     0
176
     1
290
     0
176
     1
290
     0
176
     1
290
     0
176
     1
 90
       50
176
     1
 40
0.0
176
     1
 40
1.0
176
     1
 90
        0
176
     1
 62
    18
420
        0
176
     1
 90
       50
176
     1
 90
        3
176
     1
 62
     5
420
      255
176
     1
290
     0
176
     1
 90
       50
176
     1
 90
       50
176
     1
 90
       50
176
     1
290
     0
176
     1
 90
       50
176
     1
 62
   256
176
     0
 40
1.0
176
     0
 90
        2
176
     1
  1
strokes_ogs.tif
176
     1
290
     0
176
     1
 40
1.0
176
     1
 40
1.0
176
     1
1001
ACAD
1000
AcDbSavedByObjectVersion
1070
     0
  0
VISUALSTYLE
  5
31
102
{ACAD_REACTORS
330
29
102
}
330
29
100
AcDbVisualStyle
  2
Hidden
 70
     6
177
     3
291
     0
 70
    58
 90
        1
176
     1
 90
        2
176
     1
 90
        2
176
     1
 90
        0
176
     1
 40
0.6
176
     1
 40
30.0
176
     1
 62
     7
420
 16777215
176
     1
 90
        2
176
     1
 90
        2
176
     1
 62
     7
176
     1
 62
   257
176
     1
 90
        2
176
     1
 90
        1
176
     1
 40
40.0
176
     1
 90
        0
176
     1
 62
   257
176
     1
 40
1.0
176
     1
 90
        1
176
     1
 90
        6
176
     1
 90
        2
176
     1
 62
     7
176
     1
 90
        3
176
     1
 90
        0
176
     1
 90
        0
176
     1
290
     0
176
     1
 90
        1
176
     1
 40
0.0
176
     1
 90
        0
176
     1
290
     0
176
     1
290
     1
176
     1
290
     1
176
     1
290
     0
176
     1
290
     0
176
     1
290
     0
176
     1
290
     0
176
     1
290
     0
176
     1
290
     0
176
     1
 90
       50
176
     1
 40
0.0
176
     1
 40
1.0
176
     1
 90
        0
176
     1
 62
    18
420
        0
176
     1
 90
       50
176
     1
 90
        3
176
     1
 62
     5
420
      255
176
     1
290
     0
176
     1
 90
       50
176
     1
 90
       50
176
     1
 90
       50
176
     1
290
     0
176
     1
 90
       50
176
     1
 62
   256
176
     0
 40
1.0
176
     0
 90
        2
176
     1
  1
strokes_ogs.tif
176
     1
290
     0
176
     1
 40
1.0
176
     1
 40
1.0
176
     1
1001
ACAD
1000
AcDbSavedByObjectVersion
1070
     0
  0
VISUALSTYLE
  5
3F
102
{ACAD_REACTORS
330
29
102
}
330
29
100
AcDbVisualStyle
  2
JitterOff
 70
    20
177
     3
291
     1
 70
    58
 90
        2
176
     0
 90
        2
176
     0
 90
        0
176
     0
 90
        0
176
     0
 40
0.6
176
     0
 40
30.0
176
     0
 62
     7
420
 16777215
176
     0
 90
        1
176
     0
 90
        4
176
     0
 62
     7
176
     0
 62
   257
176
     0
 90
        1
176
     0
 90
        1
176
     0
 40
1.0
176
     0
 90
       10
176
     2
 62
     7
176
     0
 40
1.0
176
     0
 90
        1
176
     0
 90
        6
176
     0
 90
        2
176
     0
 62
     7
176
     0
 90
        5
176
     0
 90
        0
176
     0
 90
        0
176
     0
290
     0
176
     0
 90
        1
176
     0
 40
0.0
176
     0
 90
        0
176
     0
290
     0
176
     0
290
     1
176
     0
290
     1
176
     0
290
     0
176
     0
290
     0
176
     0
290
     0
176
     0
290
     0
176
     0
290
     0
176
     0
290
     0
176
     0
 90
       50
176
     0
 40
0.0
176
     0
 40
1.0
176
     0
 90
        0
176
     0
 62
    18
420
        0
176
     0
 90
       50
176
     0
 90
        3
176
     0
 62
     5
420
      255
176
     0
290
     0
176
     0
 90
       50
176
     0
 90
       50
176
     0
 90
       50
176
     0
290
     0
176
     0
 90
       50
176
     0
 62
   256
176
     0
 40
1.0
176
     0
 90
        2
176
     0
  1
strokes_ogs.tif
176
     0
290
     0
176
     0
 40
1.0
176
     0
 40
1.0
176
     0
1001
ACAD
1000
AcDbSavedByObjectVersion
1070
     0
  0
VISUALSTYLE
  5
37
102
{ACAD_REACTORS
330
29
102
}
330
29
100
AcDbVisualStyle
  2
Linepattern
 70
    14
177
     3
291
     1
 70
    58
 90
        2
176
     1
 90
        2
176
     1
 90
        0
176
     1
 90
        0
176
     1
 40
0.6
176
     1
 40
30.0
176
     1
 62
     7
420
 16777215
176
     1
 90
        1
176
     1
 90
        4
176
     1
 62
     7
176
     1
 62
   257
176
     1
 90
        7
176
     1
 90
        7
176
     1
 40
1.0
176
     1
 90
        8
176
     1
 62
     7
176
     1
 40
1.0
176
     1
 90
        1
176
     1
 90
        6
176
     1
 90
        2
176
     1
 62
     7
176
     1
 90
        5
176
     1
 90
        0
176
     1
 90
        0
176
     1
290
     0
176
     1
 90
        1
176
     1
 40
0.0
176
     1
 90
        0
176
     1
290
     0
176
     1
290
     1
176
     1
290
     1
176
     1
290
     0
176
     1
290
     0
176
     1
290
     0
176
     1
290
     0
176
     1
290
     0
176
     1
290
     0
176
     1
 90
       50
176
     1
 40
0.0
176
     1
 40
1.0
176
     1
 90
        0
176
     1
 62
    18
420
        0
176
     1
 90
       50
176
     1
 90
        3
176
     1
 62
     5
420
      255
176
     1
290
     0
176
     1
 90
       50
176
     1
 90
       50
176
     1
 90
       50
176
     1
290
     0
176
     1
 90
       50
176
     1
 62
   256
176
     0
 40
1.0
176
     0
 90
        2
176
     1
  1
strokes_ogs.tif
176
     1
290
     0
176
     1
 40
1.0
176
     1
 40
1.0
176
     1
1001
ACAD
1000
AcDbSavedByObjectVersion
1070
     0
  0
VISUALSTYLE
  5
40
102
{ACAD_REACTORS
330
29
102
}
330
29
100
AcDbVisualStyle
  2
OverhangOff
 70
    21
177
     3
291
     1
 70
    58
 90
        2
176
     0
 90
        2
176
     0
 90
        0
176
     0
 90
        0
176
     0
 40
0.6
176
     0
 40
30.0
176
     0
 62
     7
420
 16777215
176
     0
 90
        1
176
     0
 90
        4
176
     0
 62
     7
176
     0
 62
   257
176
     0
 90
        1
176
     0
 90
        1
176
     0
 40
1.0
176
     0
 90
        9
176
     2
 62
     7
176
     0
 40
1.0
176
     0
 90
        1
176
     0
 90
        6
176
     0
 90
        2
176
     0
 62
     7
176
     0
 90
        5
176
     0
 90
        0
176
     0
 90
        0
176
     0
290
     0
176
     0
 90
        1
176
     0
 40
0.0
176
     0
 90
        0
176
     0
290
     0
176
     0
290
     1
176
     0
290
     1
176
     0
290
     0
176
     0
290
     0
176
     0
290
     0
176
     0
290
     0
176
     0
290
     0
176
     0
290
     0
176
     0
 90
       50
176
     0
 40
0.0
176
     0
 40
1.0
176
     0
 90
        0
176
     0
 62
    18
420
        0
176
     0
 90
       50
176
     0
 90
        3
176
     0
 62
     5
420
      255
176
     0
290
     0
176
     0
 90
       50
176
     0
 90
       50
176
     0
 90
       50
176
     0
290
     0
176
     0
 90
       50
176
     0
 62
   256
176
     0
 40
1.0
176
     0
 90
        2
176
     0
  1
strokes_ogs.tif
176
     0
290
     0
176
     0
 40
1.0
176
     0
 40
1.0
176
     0
1001
ACAD
1000
AcDbSavedByObjectVersion
1070
     0
  0
VISUALSTYLE
  5
33
102
{ACAD_REACTORS
330
29
102
}
330
29
100
AcDbVisualStyle
  2
Realistic
 70
     8
177
     3
291
     0
 70
    58
 90
        2
176
     1
 90
        3
176
     1
 90
        0
176
     1
 90
        2
176
     1
 40
0.6
176
     1
 40
30.0
176
     1
 62
     7
420
 16777215
176
     1
 90
        0
176
     1
 90
        0
176
     1
 62
     7
176
     1
 62
   257
176
     1
 90
        1
176
     1
 90
        1
176
     1
 40
1.0
176
     1
 90
        8
176
     1
 62
   257
176
     1
 40
1.0
176
     1
 90
        1
176
     1
 90
        6
176
     1
 90
        2
176
     1
 62
     7
176
     1
 90
        3
176
     1
 90
        0
176
     1
 90
        0
176
     1
290
     0
176
     1
 90
       13
176
     1
 40
0.0
176
     1
 90
        0
176
     1
290
     0
176
     1
290
     1
176
     1
290
     1
176
     1
290
     0
176
     1
290
     0
176
     1
290
     0
176
     1
290
     0
176
     1
290
     0
176
     1
290
     0
176
     1
 90
       50
176
     1
 40
0.0
176
     1
 40
1.0
176
     1
 90
        0
176
     1
 62
    18
420
        0
176
     1
 90
       50
176
     1
 90
        3
176
     1
 62
     5
420
      255
176
     1
290
     0
176
     1
 90
       50
176
     1
 90
       50
176
     1
 90
       50
176
     1
290
     0
176
     1
 90
       50
176
     1
 62
   256
176
     0
 40
1.0
176
     0
 90
        2
176
     1
  1
strokes_ogs.tif
176
     1
290
     0
176
     1
 40
1.0
176
     1
 40
1.0
176
     1
1001
ACAD
1000
AcDbSavedByObjectVersion
1070
     0
  0
VISUALSTYLE
  5
3E
102
{ACAD_REACTORS
330
29
102
}
330
29
100
AcDbVisualStyle
  2
Shaded
 70
    27
177
     3
291
     0
 70
    58
 90
        2
176
     1
 90
        2
176
     1
 90
        1
176
     1
 90
        2
176
     1
 40
0.6
176
     1
 40
30.0
176
     1
 62
     7
420
 16777215
176
     1
 90
        0
176
     1
 90
        4
176
     1
 62
     7
176
     1
 62
   257
176
     1
 90
        1
176
     1
 90
        1
176
     1
 40
1.0
176
     1
 90
        8
176
     1
 62
   257
176
     1
 40
1.0
176
     1
 90
        1
176
     1
 90
        6
176
     1
 90
        2
176
     1
 62
     8
420
  7895160
176
     1
 90
        3
176
     1
 90
        0
176
     1
 90
        0
176
     1
290
     0
176
     1
 90
        5
176
     1
 40
0.0
176
     1
 90
        0
176
     1
290
     0
176
     1
290
     1
176
     1
290
     1
176
     1
290
     0
176
     1
290
     0
176
     1
290
     0
176
     1
290
     0
176
     1
290
     0
176
     1
290
     0
176
     1
 90
       50
176
     1
 40
0.0
176
     1
 40
1.0
176
     1
 90
        0
176
     1
 62
    18
420
        0
176
     1
 90
       50
176
     1
 90
        3
176
     1
 62
     5
420
      255
176
     1
290
     0
176
     1
 90
       50
176
     1
 90
       50
176
     1
 90
       50
176
     1
290
     0
176
     1
 90
       50
176
     1
 62
   256
176
     0
 40
1.0
176
     0
 90
        2
176
     1
  1
strokes_ogs.tif
176
     1
290
     0
176
     1
 40
1.0
176
     1
 40
1.0
176
     1
1001
ACAD
1000
AcDbSavedByObjectVersion
1070
     0
  0
VISUALSTYLE
  5
3D
102
{ACAD_REACTORS
330
29
102
}
330
29
100
AcDbVisualStyle
  2
Shaded with edges
 70
    26
177
     3
291
     0
 70
    58
 90
        2
176
     1
 90
        2
176
     1
 90
        1
176
     1
 90
        2
176
     1
 40
0.6
176
     1
 40
30.0
176
     1
 62
     7
420
 16777215
176
     1
 90
        1
176
     1
 90
        2
176
     1
 62
     7
176
     1
 62
   257
176
     1
 90
        2
176
     1
 90
        1
176
     1
 40
1.0
176
     1
 90
        8
176
     1
 62
   257
176
     1
 40
1.0
176
     1
 90
        1
176
     1
 90
        6
176
     1
 90
        2
176
     1
 62
     7
176
     1
 90
        3
176
     1
 90
        0
176
     1
 90
        0
176
     1
290
     0
176
     1
 90
        5
176
     1
 40
0.0
176
     1
 90
        0
176
     1
290
     0
176
     1
290
     1
176
     1
290
     1
176
     1
290
     0
176
     1
290
     0
176
     1
290
     0
176
     1
290
     0
176
     1
290
     0
176
     1
290
     0
176
     1
 90
       50
176
     1
 40
0.0
176
     1
 40
1.0
176
     1
 90
        0
176
     1
 62
    18
420
        0
176
     1
 90
       50
176
     1
 90
        3
176
     1
 62
     5
420
      255
176
     1
290
     0
176
     1
 90
       50
176
     1
 90
       50
176
     1
 90
       50
176
     1
290
     0
176
     1
 90
       50
176
     1
 62
   256
176
     0
 40
1.0
176
     0
 90
        2
176
     1
  1
strokes_ogs.tif
176
     1
290
     0
176
     1
 40
1.0
176
     1
 40
1.0
176
     1
1001
ACAD
1000
AcDbSavedByObjectVersion
1070
     0
  0
VISUALSTYLE
  5
3A
102
{ACAD_REACTORS
330
29
102
}
330
29
100
AcDbVisualStyle
  2
Shades of Gray
 70
    23
177
     3
291
     0
 70
    58
 90
        2
176
     1
 90
        2
176
     1
 90
        3
176
     1
 90
        0
176
     1
 40
0.6
176
     1
 40
30.0
176
     1
 62
     7
420
 16777215
176
     1
 90
        2
176
     1
 90
        2
176
     1
 62
     7
176
     1
 62
     7
176
     1
 90
        1
176
     1
 90
        1
176
     1
 40
40.0
176
     1
 90
        8
176
     1
 62
     7
176
     1
 40
1.0
176
     1
 90
        1
176
     1
 90
        6
176
     1
 90
        2
176
     1
 62
     7
176
     1
 90
        3
176
     1
 90
        0
176
     1
 90
        0
176
     1
290
     0
176
     1
 90
        1
176
     1
 40
0.0
176
     1
 90
        0
176
     1
290
     0
176
     1
290
     1
176
     1
290
     1
176
     1
290
     0
176
     1
290
     0
176
     1
290
     0
176
     1
290
     0
176
     1
290
     0
176
     1
290
     0
176
     1
 90
       50
176
     1
 40
0.0
176
     1
 40
1.0
176
     1
 90
        0
176
     1
 62
    18
420
        0
176
     1
 90
       50
176
     1
 90
        3
176
     1
 62
     5
420
      255
176
     1
290
     0
176
     1
 90
       50
176
     1
 90
       50
176
     1
 90
       50
176
     1
290
     0
176
     1
 90
       50
176
     1
 62
   256
176
     0
 40
1.0
176
     0
 90
        2
176
     1
  1
strokes_ogs.tif
176
     1
290
     0
176
     1
 40
1.0
176
     1
 40
1.0
176
     1
1001
ACAD
1000
AcDbSavedByObjectVersion
1070
     0
  0
VISUALSTYLE
  5
3B
102
{ACAD_REACTORS
330
29
102
}
330
29
100
AcDbVisualStyle
  2
Sketchy
 70
    24
177
     3
291
     0
 70
    58
 90
        1
176
     1
 90
        2
176
     1
 90
        2
176
     1
 90
        0
176
     1
 40
0.6
176
     1
 40
30.0
176
     1
 62
     7
420
 16777215
176
     1
 90
        2
176
     1
 90
        2
176
     1
 62
     7
176
     1
 62
     7
176
     1
 90
        1
176
     1
 90
        1
176
     1
 40
40.0
176
     1
 90
       11
176
     1
 62
     7
176
     1
 40
1.0
176
     1
 90
        1
176
     1
 90
        6
176
     1
 90
        2
176
     1
 62
     7
176
     1
 90
        6
176
     1
 90
        0
176
     1
 90
        0
176
     1
290
     0
176
     1
 90
        1
176
     1
 40
0.0
176
     1
 90
        0
176
     1
290
     0
176
     1
290
     1
176
     1
290
     1
176
     1
290
     0
176
     1
290
     0
176
     1
290
     0
176
     1
290
     0
176
     1
290
     0
176
     1
290
     0
176
     1
 90
       50
176
     1
 40
0.0
176
     1
 40
1.0
176
     1
 90
        0
176
     1
 62
    18
420
        0
176
     1
 90
       50
176
     1
 90
        3
176
     1
 62
     5
420
      255
176
     1
290
     0
176
     1
 90
       50
176
     1
 90
       50
176
     1
 90
       50
176
     1
290
     0
176
     1
 90
       50
176
     1
 62
   256
176
     0
 40
1.0
176
     0
 90
        2
176
     1
  1
strokes_ogs.tif
176
     1
290
     0
176
     1
 40
1.0
176
     1
 40
1.0
176
     1
1001
ACAD
1000
AcDbSavedByObjectVersion
1070
     0
  0
VISUALSTYLE
  5
36
102
{ACAD_REACTORS
330
29
102
}
330
29
100
AcDbVisualStyle
  2
Thicken
 70
    13
177
     3
291
     1
 70
    58
 90
        2
176
     1
 90
        2
176
     1
 90
        0
176
     1
 90
        0
176
     1
 40
0.6
176
     1
 40
30.0
176
     1
 62
     7
420
 16777215
176
     1
 90
        1
176
     1
 90
        4
176
     1
 62
     7
176
     1
 62
   257
176
     1
 90
        1
176
     1
 90
        1
176
     1
 40
1.0
176
     1
 90
       12
176
     1
 62
     7
176
     1
 40
1.0
176
     1
 90
        1
176
     1
 90
        6
176
     1
 90
        2
176
     1
 62
     7
176
     1
 90
        5
176
     1
 90
        0
176
     1
 90
        0
176
     1
290
     0
176
     1
 90
        1
176
     1
 40
0.0
176
     1
 90
        0
176
     1
290
     0
176
     1
290
     1
176
     1
290
     1
176
     1
290
     0
176
     1
290
     0
176
     1
290
     0
176
     1
290
     0
176
     1
290
     0
176
     1
290
     0
176
     1
 90
       50
176
     1
 40
0.0
176
     1
 40
1.0
176
     1
 90
        0
176
     1
 62
    18
420
        0
176
     1
 90
       50
176
     1
 90
        3
176
     1
 62
     5
420
      255
176
     1
290
     0
176
     1
 90
       50
176
     1
 90
       50
176
     1
 90
       50
176
     1
290
     0
176
     1
 90
       50
176
     1
 62
   256
176
     0
 40
1.0
176
     0
 90
        2
176
     1
  1
strokes_ogs.tif
176
     1
290
     0
176
     1
 40
1.0
176
     1
 40
1.0
176
     1
1001
ACAD
1000
AcDbSavedByObjectVersion
1070
     0
  0
VISUALSTYLE
  5
30
102
{ACAD_REACTORS
330
29
102
}
330
29
100
AcDbVisualStyle
  2
Wireframe
 70
     5
177
     3
291
     0
 70
    58
 90
        0
176
     1
 90
        2
176
     1
 90
        0
176
     1
 90
        0
176
     1
 40
0.6
176
     1
 40
30.0
176
     1
 62
     7
420
 16777215
176
     1
 90
        1
176
     1
 90
        4
176
     1
 62
     7
176
     1
 62
   257
176
     1
 90
        1
176
     1
 90
        1
176
     1
 40
1.0
176
     1
 90
        0
176
     1
 62
   257
176
     1
 40
1.0
176
     1
 90
        1
176
     1
 90
        6
176
     1
 90
        2
176
     1
 62
     7
176
     1
 90
        3
176
     1
 90
        0
176
     1
 90
        0
176
     1
290
     0
176
     1
 90
        1
176
     1
 40
0.0
176
     1
 90
        0
176
     1
290
     0
176
     1
290
     1
176
     1
290
     1
176
     1
290
     0
176
     1
290
     0
176
     1
290
     0
176
     1
290
     0
176
     1
290
     0
176
     1
290
     0
176
     1
 90
       50
176
     1
 40
0.0
176
     1
 40
1.0
176
     1
 90
        0
176
     1
 62
    18
420
        0
176
     1
 90
       50
176
     1
 90
        3
176
     1
 62
     5
420
      255
176
     1
290
     0
176
     1
 90
       50
176
     1
 90
       50
176
     1
 90
       50
176
     1
290
     0
176
     1
 90
       50
176
     1
 62
   256
176
     0
 40
1.0
176
     0
 90
        2
176
     1
  1
strokes_ogs.tif
176
     1
290
     0
176
     1
 40
1.0
176
     1
 40
1.0
176
     1
1001
ACAD
1000
AcDbSavedByObjectVersion
1070
     0
  0
VISUALSTYLE
  5
3C
102
{ACAD_REACTORS
330
29
102
}
330
29
100
AcDbVisualStyle
  2
X-Ray
 70
    25
177
     3
291
     0
 70
    58
 90
        2
176
     1
 90
        2
176
     1
 90
        1
176
     1
 90
        1
176
     1
 40
0.5
176
     1
 40
30.0
176
     1
 62
     7
420
 16777215
176
     1
 90
        1
176
     1
 90
        0
176
     1
 62
     7
176
     1
 62
   257
176
     1
 90
        1
176
     1
 90
        1
176
     1
 40
1.0
176
     1
 90
        8
176
     1
 62
     7
176
     1
 40
1.0
176
     1
 90
        1
176
     1
 90
        6
176
     1
 90
        2
176
     1
 62
     7
176
     1
 90
        3
176
     1
 90
        0
176
     1
 90
        0
176
     1
290
     0
176
     1
 90
       13
176
     1
 40
0.0
176
     1
 90
        0
176
     1
290
     0
176
     1
290
     1
176
     1
290
     1
176
     1
290
     0
176
     1
290
     0
176
     1
290
     0
176
     1
290
     0
176
     1
290
     0
176
     1
290
     0
176
     1
 90
       50
176
     1
 40
0.0
176
     1
 40
1.0
176
     1
 90
        0
176
     1
 62
    18
420
        0
176
     1
 90
       50
176
     1
 90
        3
176
     1
 62
     5
420
      255
176
     1
290
     0
176
     1
 90
       50
176
     1
 90
       50
176
     1
 90
       50
176
     1
290
     0
176
     1
 90
       50
176
     1
 62
   256
176
     0
 40
1.0
176
     0
 90
        2
176
     1
  1
strokes_ogs.tif
176
     1
290
     0
176
     1
 40
1.0
176
     1
 40
1.0
176
     1
1001
ACAD
1000
AcDbSavedByObjectVersion
1070
     0
  0
DICTIONARYVAR
  5
13F
102
{ACAD_REACTORS
330
13A
102
}
330
13A
100
DictionaryVariables
280
     0
  1
1:1
  0
DICTIONARYVAR
  5
13C
102
{ACAD_REACTORS
330
13A
102
}
330
13A
100
DictionaryVariables
280
     0
  1
STANDARD
  0
DICTIONARYVAR
  5
13B
102
{ACAD_REACTORS
330
13A
102
}
330
13A
100
DictionaryVariables
280
     0
  1
STANDARD
  0
DICTIONARYVAR
  5
13D
102
{ACAD_REACTORS
330
13A
102
}
330
13A
100
DictionaryVariables
280
     0
  1
Imperial24
  0
DICTIONARYVAR
  5
13E
102
{ACAD_REACTORS
330
13A
102
}
330
13A
100
DictionaryVariables
280
     0
  1
Imperial24
  0
DICTIONARY
  5
145
330
6B
100
AcDbDictionary
280
     1
281
     1
  3
ACAD_XREC_ROUNDTRIP
360
146
  0
DICTIONARY
  5
1A
330
19
100
AcDbDictionary
280
     1
281
     1
  3
BUMPTILE
360
1C
  3
DIFFUSETILE
360
1B
  3
OPACITYTILE
360
1F
  3
REFLECTIONTILE
360
1E
  3
REFRACTIONTILE
360
20
  3
SPECULARTILE
360
1D
  0
DICTIONARY
  5
12
330
11
100
AcDbDictionary
280
     1
281
     1
  3
BUMPTILE
360
14
  3
DIFFUSETILE
360
13
  3
OPACITYTILE
360
17
  3
REFLECTIONTILE
360
16
  3
REFRACTIONTILE
360
18
  3
SPECULARTILE
360
15
  0
DICTIONARY
  5
22
330
21
100
AcDbDictionary
280
     1
281
     1
  3
BUMPTILE
360
24
  3
DIFFUSETILE
360
23
  3
OPACITYTILE
360
27
  3
REFLECTIONTILE
360
26
  3
REFRACTIONTILE
360
28
  3
SPECULARTILE
360
25
  0
DICTIONARY
  5
143
330
69
100
AcDbDictionary
280
     1
281
     1
  3
ACAD_XREC_ROUNDTRIP
360
144
  0
DICTIONARY
  5
140
330
65
100
AcDbDictionary
280
     1
281
     1
  3
ACAD_ROUNDTRIP_2008_TABLESTYLE_CELLSTYLEMAP
360
141
  0
XRECORD
  5
146
102
{ACAD_REACTORS
330
145
102
}
330
145
100
AcDbXrecord
280
     1
102
DISPLAYNAME
  1
Imperial24
102
FLAGS
 90
        0
  0
XRECORD
  5
1C
102
{ACAD_REACTORS
330
1A
102
}
330
1A
100
AcDbXrecord
280
     1
270
     1
271
     1
  0
XRECORD
  5
1B
102
{ACAD_REACTORS
330
1A
102
}
330
1A
100
AcDbXrecord
280
     1
270
     1
271
     1
  0
XRECORD
  5
1F
102
{ACAD_REACTORS
330
1A
102
}
330
1A
100
AcDbXrecord
280
     1
270
     1
271
     1
  0
XRECORD
  5
1E
102
{ACAD_REACTORS
330
1A
102
}
330
1A
100
AcDbXrecord
280
     1
270
     1
271
     1
  0
XRECORD
  5
20
102
{ACAD_REACTORS
330
1A
102
}
330
1A
100
AcDbXrecord
280
     1
270
     1
271
     1
  0
XRECORD
  5
1D
102
{ACAD_REACTORS
330
1A
102
}
330
1A
100
AcDbXrecord
280
     1
270
     1
271
     1
  0
XRECORD
  5
14
102
{ACAD_REACTORS
330
12
102
}
330
12
100
AcDbXrecord
280
     1
270
     1
271
     1
  0
XRECORD
  5
13
102
{ACAD_REACTORS
330
12
102
}
330
12
100
AcDbXrecord
280
     1
270
     1
271
     1
  0
XRECORD
  5
17
102
{ACAD_REACTORS
330
12
102
}
330
12
100
AcDbXrecord
280
     1
270
     1
271
     1
  0
XRECORD
  5
16
102
{ACAD_REACTORS
330
12
102
}
330
12
100
AcDbXrecord
280
     1
270
     1
271
     1
  0
XRECORD
  5
18
102
{ACAD_REACTORS
330
12
102
}
330
12
100
AcDbXrecord
280
     1
270
     1
271
     1
  0
XRECORD
  5
15
102
{ACAD_REACTORS
330
12
102
}
330
12
100
AcDbXrecord
280
     1
270
     1
271
     1
  0
XRECORD
  5
24
102
{ACAD_REACTORS
330
22
102
}
330
22
100
AcDbXrecord
280
     1
270
     1
271
     1
  0
XRECORD
  5
23
102
{ACAD_REACTORS
330
22
102
}
330
22
100
AcDbXrecord
280
     1
270
     1
271
     1
  0
XRECORD
  5
27
102
{ACAD_REACTORS
330
22
102
}
330
22
100
AcDbXrecord
280
     1
270
     1
271
     1
  0
XRECORD
  5
26
102
{ACAD_REACTORS
330
22
102
}
330
22
100
AcDbXrecord
280
     1
270
     1
271
     1
  0
XRECORD
  5
28
102
{ACAD_REACTORS
330
22
102
}
330
22
100
AcDbXrecord
280
     1
270
     1
271
     1
  0
XRECORD
  5
25
102
{ACAD_REACTORS
330
22
102
}
330
22
100
AcDbXrecord
280
     1
270
     1
271
     1
  0
XRECORD
  5
144
102
{ACAD_REACTORS
330
143
102
}
330
143
100
AcDbXrecord
280
     1
102
DISPLAYNAME
  1
Imperial24
102
FLAGS
 90
        0
  0
CELLSTYLEMAP
  5
141
102
{ACAD_REACTORS
330
140
102
}
330
140
100
AcDbCellStyleMap
 90
        3
300
CELLSTYLE
  1
TABLEFORMAT_BEGIN
 90
        5
170
     1
 91
        0
 92
    32768
 62
   257
 93
        1
300
CONTENTFORMAT
  1
CONTENTFORMAT_BEGIN
 90
        0
 91
        0
 92
      512
 93
        0
300

 40
0.0
140
1.0
 94
        5
 62
     0
340
55
144
0.25
309
CONTENTFORMAT_END
171
     0
 94
        0
309
TABLEFORMAT_END
  1
CELLSTYLE_BEGIN
 90
        1
 91
        1
300
_TITLE
309
CELLSTYLE_END
300
CELLSTYLE
  1
TABLEFORMAT_BEGIN
 90
        5
170
     1
 91
        0
 92
        0
 62
   257
 93
        1
300
CONTENTFORMAT
  1
CONTENTFORMAT_BEGIN
 90
        0
 91
        0
 92
      512
 93
        0
300

 40
0.0
140
1.0
 94
        5
 62
     0
340
55
144
0.18
309
CONTENTFORMAT_END
171
     0
 94
        0
309
TABLEFORMAT_END
  1
CELLSTYLE_BEGIN
 90
        2
 91
        1
300
_HEADER
309
CELLSTYLE_END
300
CELLSTYLE
  1
TABLEFORMAT_BEGIN
 90
        5
170
     1
 91
        0
 92
        0
 62
   257
 93
        1
300
CONTENTFORMAT
  1
CONTENTFORMAT_BEGIN
 90
        0
 91
        0
 92
      512
 93
        0
300

 40
0.0
140
1.0
 94
        2
 62
     0
340
55
144
0.18
309
CONTENTFORMAT_END
171
     0
 94
        0
309
TABLEFORMAT_END
  1
CELLSTYLE_BEGIN
 90
        3
 91
        2
300
_DATA
309
CELLSTYLE_END
  0
ENDSEC
  0
EOF
