0
SECTION
2
HEADER
9
$INSUNITS
70
1
9
$ACADVER
1
AC1014
9
$HANDSEED
5
FFFF
0
ENDSEC
0
SECTION
2
TABLES
0
TABLE
2
VPORT
5
8
100
AcDbSymbolTable
0
ENDTAB
0
TABLE
2
LTYPE
5
5
100
AcDbSymbolTable
0
LTYPE
5
14
100
AcDbSymbolTableRecord
100
AcDbLinetypeTableRecord
2
BYBLOCK
70
0
0
LTYPE
5
15
100
AcDbSymbolTableRecord
100
AcDbLinetypeTableRecord
2
BYLAYER
70
0
0
ENDTAB
0
TABLE
2
LAYER
5
2
100
AcDbSymbolTable
70
2
0
LAYER
5
50
100
AcDbSymbolTableRecord
100
AcDbLayerTableRecord
2
0
70
0
6
CONTINUOUS
0
ENDTAB
0
TABLE
2
STYLE
5
3
100
AcDbSymbolTable
70
1
0
STYLE
5
11
100
AcDbSymbolTableRecord
100
AcDbTextStyleTableRecord
2
STANDARD
70
0
0
ENDTAB
0
TABLE
2
VIEW
5
6
100
AcDbSymbolTable
70
0
0
ENDTAB
0
TABLE
2
UCS
5
7
100
AcDbSymbolTable
70
0
0
ENDTAB
0
TABLE
2
APPID
5
9
100
AcDbSymbolTable
70
2
0
APPID
5
12
100
AcDbSymbolTableRecord
100
AcDbRegAppTableRecord
2
ACAD
70
0
0
ENDTAB
0
TABLE
2
DIMSTYLE
5
A
100
AcDbSymbolTable
70
1
0
ENDTAB
0
TABLE
2
BLOCK_RECORD
5
1
100
AcDbSymbolTable
70
1
0
BLOCK_RECORD
5
1F
100
AcDbSymbolTableRecord
100
AcDbBlockTableRecord
2
*MODEL_SPACE
0
BLOCK_RECORD
5
1B
100
AcDbSymbolTableRecord
100
AcDbBlockTableRecord
2
*PAPER_SPACE
0
ENDTAB
0
ENDSEC
0
SECTION
2
BLOCKS
0
BLOCK
5
20
100
AcDbEntity
100
AcDbBlockBegin
2
*MODEL_SPACE
0
ENDBLK
5
21
100
AcDbEntity
100
AcDbBlockEnd
0
BLOCK
5
1C
100
AcDbEntity
100
AcDbBlockBegin
2
*PAPER_SPACE
0
ENDBLK
5
1D
100
AcDbEntity
100
AcDbBlockEnd
0
ENDSEC
0
SECTION
2
ENTITIES
0
SPLINE
5
100
100
AcDbEntity
8
0
100
AcDbSpline
70
4
71
3
72
8
73
4
74
0
42
0.000000001
43
0.0000000001
44
0.0000000001
40
0
40
0
40
0
40
0
40
1
40
1
40
1
40
1
41
1
41
1
41
1
41
1
10
3.5796155157740608
20
-12.798586597483785
30
0
10
3.5796155157740608
20
-13.149824264272354
30
0
10
3.5349811397991711
20
-13.155908274678866
30
0
10
3.6381885927229289
20
-13.598833256762989
30
0
0
LINE
5
101
100
AcDbEntity
8
0
100
AcDbLine
10
3.6381885927229289
20
-13.598833256762989
30
0
11
3.6840397707791213
21
-13.508055158844623
31
0
0
SPLINE
5
102
100
AcDbEntity
8
0
100
AcDbSpline
70
4
71
3
72
8
73
4
74
0
42
0.000000001
43
0.0000000001
44
0.0000000001
40
0
40
0
40
0
40
0
40
1
40
1
40
1
40
1
41
1
41
1
41
1
41
1
10
3.6840397707791213
20
-13.508055158844623
30
0
10
3.7030765566166024
20
-13.467625443213715
30
0
10
3.7171536331053892
20
-13.437499439150125
30
0
10
3.7363442112949263
20
-13.404216367634552
30
0
0
SPLINE
5
103
100
AcDbEntity
8
0
100
AcDbSpline
70
4
71
3
72
8
73
4
74
0
42
0.000000001
43
0.0000000001
44
0.0000000001
40
0
40
0
40
0
40
0
40
1
40
1
40
1
40
1
41
1
41
1
41
1
41
1
10
3.7363442112949263
20
-13.404216367634552
30
0
10
3.7627122672742965
20
-13.358365189578361
30
0
10
3.832543771638576
20
-13.257190879069189
30
0
10
3.8724190451591998
20
-13.227973340341951
30
0
0
SPLINE
5
104
100
AcDbEntity
8
0
100
AcDbSpline
70
4
71
3
72
8
73
4
74
0
42
0.000000001
43
0.0000000001
44
0.0000000001
40
0
40
0
40
0
40
0
40
1
40
1
40
1
40
1
41
1
41
1
41
1
41
1
10
3.8724190451591998
20
-13.227973340341951
30
0
10
3.856924747704892
20
-13.29450940173944
30
0
10
3.8351313561634468
20
-13.344380238092642
30
0
10
3.8333601119718597
20
-13.423176069285798
30
0
0
SPLINE
5
105
100
AcDbEntity
8
0
100
AcDbSpline
70
4
71
3
72
8
73
4
74
0
42
0.000000001
43
0.0000000001
44
0.0000000001
40
0
40
0
40
0
40
0
40
1
40
1
40
1
40
1
41
1
41
1
41
1
41
1
10
3.8333601119718597
20
-13.423176069285798
30
0
10
3.936382750858856
20
-13.373751945192355
30
0
10
4.0044125533774748
20
-13.385919213964538
30
0
10
4.1733856018567597
20
-13.275180448035092
30
0
0
SPLINE
5
106
100
AcDbEntity
8
0
100
AcDbSpline
70
4
71
3
72
8
73
4
74
0
42
0.000000001
43
0.0000000001
44
0.0000000001
40
0
40
0
40
0
40
0
40
1
40
1
40
1
40
1
41
1
41
1
41
1
41
1
10
4.1733856018567597
20
-13.275180448035092
30
0
10
4.3515074151812625
20
-13.158435131905794
30
0
10
4.3473796510133091
20
-13.113292376322155
30
0
10
4.4384504808291707
20
-13.052316152864757
30
0
0
SPLINE
5
107
100
AcDbEntity
8
0
100
AcDbSpline
70
4
71
3
72
8
73
4
74
0
42
0.000000001
43
0.0000000001
44
0.0000000001
40
0
40
0
40
0
40
0
40
1
40
1
40
1
40
1
41
1
41
1
41
1
41
1
10
4.4384504808291707
20
-13.052316152864757
30
0
10
4.4277617243510807
20
-13.098274872761262
30
0
10
4.4202608689994687
20
-13.109965347640028
30
0
10
4.4189363370676435
20
-13.169431473087997
30
0
0
SPLINE
5
108
100
AcDbEntity
8
0
100
AcDbSpline
70
4
71
3
72
8
73
4
74
0
42
0.000000001
43
0.0000000001
44
0.0000000001
40
0
40
0
40
0
40
0
40
1
40
1
40
1
40
1
41
1
41
1
41
1
41
1
10
4.4189363370676435
20
-13.169431473087997
30
0
10
4.7276037919806138
20
-12.962754857027692
30
0
10
4.8187823516469983
20
-12.720715776525486
30
0
10
4.9072349512737041
20
-12.408536854914049
30
0
0
SPLINE
5
109
100
AcDbEntity
8
0
100
AcDbSpline
70
4
71
3
72
8
73
4
74
0
42
0.000000001
43
0.0000000001
44
0.0000000001
40
0
40
0
40
0
40
0
40
1
40
1
40
1
40
1
41
1
41
1
41
1
41
1
10
4.9072349512737041
20
-12.408536854914049
30
0
10
4.933833883791368
20
-12.314693438526344
30
0
10
4.9418735764058068
20
-12.350518408085675
30
0
10
5.0790112319891172
20
-12.267995462482792
30
0
0
LINE
5
110
100
AcDbEntity
8
0
100
AcDbLine
10
5.0790112319891172
20
-12.267995462482792
30
0
11
5.5375534702051112
21
-11.945789580333653
31
0
0
SPLINE
5
111
100
AcDbEntity
8
0
100
AcDbSpline
70
4
71
3
72
8
73
4
74
0
42
0.000000001
43
0.0000000001
44
0.0000000001
40
0
40
0
40
0
40
0
40
1
40
1
40
1
40
1
41
1
41
1
41
1
41
1
10
5.5375534702051112
20
-11.945789580333653
30
0
10
5.5802010482822624
20
-11.909857068934009
30
0
10
5.591659988586998
20
-11.908055179078138
30
0
10
5.6343845568452826
20
-11.866932081791505
30
0
0
SPLINE
5
112
100
AcDbEntity
8
0
100
AcDbSpline
70
4
71
3
72
8
73
4
74
0
42
0.000000001
43
0.0000000001
44
0.0000000001
40
0
40
0
40
0
40
0
40
1
40
1
40
1
40
1
41
1
41
1
41
1
41
1
10
5.6343845568452826
20
-11.866932081791505
30
0
10
6.1098071977912962
20
-11.409282892074613
30
0
10
6.4026877643601212
20
-10.973397012265512
30
0
10
7.2095262966265112
20
-10.90467401610138
30
0
0
SPLINE
5
113
100
AcDbEntity
8
0
100
AcDbSpline
70
4
71
3
72
8
73
4
74
0
42
0.000000001
43
0.0000000001
44
0.0000000001
40
0
40
0
40
0
40
0
40
1
40
1
40
1
40
1
41
1
41
1
41
1
41
1
10
7.2095262966265112
20
-10.90467401610138
30
0
10
8.0745528139284453
20
-10.831007103446222
30
0
10
7.5924457519692092
20
-11.266570357734386
30
0
10
7.5199649017259631
20
-11.722616948418363
30
0
0
SPLINE
5
114
100
AcDbEntity
8
0
100
AcDbSpline
70
4
71
3
72
8
73
4
74
0
42
0.000000001
43
0.0000000001
44
0.0000000001
40
0
40
0
40
0
40
0
40
1
40
1
40
1
40
1
41
1
41
1
41
1
41
1
10
7.5199649017259631
20
-11.722616948418363
30
0
10
7.4975398898828889
20
-11.863851722505341
30
0
10
7.4976477137385178
20
-11.838669634932778
30
0
10
7.409934464263964
20
-11.924858027596391
30
0
0
SPLINE
5
115
100
AcDbEntity
8
0
100
AcDbSpline
70
4
71
3
72
8
73
4
74
0
42
0.000000001
43
0.0000000001
44
0.0000000001
40
0
40
0
40
0
40
0
40
1
40
1
40
1
40
1
41
1
41
1
41
1
41
1
10
7.409934464263964
20
-11.924858027596391
30
0
10
7.1056257675636223
20
-12.22389954775031
30
0
10
6.8899852241961366
20
-12.792379252379291
30
0
10
6.7586694927861286
20
-13.186434364470051
30
0
0
SPLINE
5
116
100
AcDbEntity
8
0
100
AcDbSpline
70
4
71
3
72
8
73
4
74
0
42
0.000000001
43
0.0000000001
44
0.0000000001
40
0
40
0
40
0
40
0
40
1
40
1
40
1
40
1
41
1
41
1
41
1
41
1
10
6.7586694927861286
20
-13.186434364470051
30
0
10
6.4836550194775677
20
-14.011878152138644
30
0
10
6.5995073341103154
20
-13.817230429335714
30
0
10
6.1522237113199436
20
-14.473254456265261
30
0
0
SPLINE
5
117
100
AcDbEntity
8
0
100
AcDbSpline
70
4
71
3
72
8
73
4
74
0
42
0.000000001
43
0.0000000001
44
0.0000000001
40
0
40
0
40
0
40
0
40
1
40
1
40
1
40
1
41
1
41
1
41
1
41
1
10
6.1522237113199436
20
-14.473254456265261
30
0
10
5.0236108273396889
20
-16.128561775627059
30
0
10
6.137792235584671
20
-16.263050743367138
30
0
10
4.7619496852152219
20
-17.338019426072727
30
0
0
SPLINE
5
118
100
AcDbEntity
8
0
100
AcDbSpline
70
4
71
3
72
8
73
4
74
0
42
0.000000001
43
0.0000000001
44
0.0000000001
40
0
40
0
40
0
40
0
40
1
40
1
40
1
40
1
41
1
41
1
41
1
41
1
10
4.7619496852152219
20
-17.338019426072727
30
0
10
4.7145120770042039
20
-17.375122113021508
30
0
10
4.7094910763269393
20
-17.377294006971322
30
0
10
4.6675211810529484
20
-17.419248861428485
30
0
0
SPLINE
5
119
100
AcDbEntity
8
0
100
AcDbSpline
70
4
71
3
72
8
73
4
74
0
42
0.000000001
43
0.0000000001
44
0.0000000001
40
0
40
0
40
0
40
0
40
1
40
1
40
1
40
1
41
1
41
1
41
1
41
1
10
4.6675211810529484
20
-17.419248861428485
30
0
10
4.4957449003375363
20
-17.590917224283164
30
0
10
4.3688957274945075
20
-17.778480722360591
30
0
10
4.3436984110949082
20
-18.032332108357863
30
0
0
SPLINE
5
120
100
AcDbEntity
8
0
100
AcDbSpline
70
4
71
3
72
8
73
4
74
0
42
0.000000001
43
0.0000000001
44
0.0000000001
40
0
40
0
40
0
40
0
40
1
40
1
40
1
40
1
41
1
41
1
41
1
41
1
10
4.3436984110949082
20
-18.032332108357863
30
0
10
4.2869274120121217
20
-18.604247135550125
30
0
10
4.3106462161176298
20
-18.235867449823854
30
0
10
4.1064182450367577
20
-18.751472666979286
30
0
0
SPLINE
5
121
100
AcDbEntity
8
0
100
AcDbSpline
70
4
71
3
72
8
73
4
74
0
42
0.000000001
43
0.0000000001
44
0.0000000001
40
0
40
0
40
0
40
0
40
1
40
1
40
1
40
1
41
1
41
1
41
1
41
1
10
4.1064182450367577
20
-18.751472666979286
30
0
10
4.0781251525137447
20
-18.822844350986649
30
0
10
4.0477220214001175
20
-18.905845594564628
30
0
10
4.0283003786620757
20
-18.985626599259952
30
0
0
SPLINE
5
122
100
AcDbEntity
8
0
100
AcDbSpline
70
4
71
3
72
8
73
4
74
0
42
0.000000001
43
0.0000000001
44
0.0000000001
40
0
40
0
40
0
40
0
40
1
40
1
40
1
40
1
41
1
41
1
41
1
41
1
10
4.0283003786620757
20
-18.985626599259952
30
0
10
3.9887178370389464
20
-19.14788392302599
30
0
10
4.0290396348091218
20
-19.096827870306825
30
0
10
3.9164987910135953
20
-19.205640659641574
30
0
0
SPLINE
5
123
100
AcDbEntity
8
0
100
AcDbSpline
70
4
71
3
72
8
73
4
74
0
42
0.000000001
43
0.0000000001
44
0.0000000001
40
0
40
0
40
0
40
0
40
1
40
1
40
1
40
1
41
1
41
1
41
1
41
1
10
3.9164987910135953
20
-19.205640659641574
30
0
10
3.6283774679066929
20
-19.484274799524652
30
0
10
3.4336218272430279
20
-19.975977150578657
30
0
10
3.7694268639262787
20
-20.299106538880977
30
0
0
LINE
5
124
100
AcDbEntity
8
0
100
AcDbLine
10
3.7694268639262787
20
-20.299106538880977
30
0
11
4.1419038561664285
21
-20.551480916665835
31
0
0
SPLINE
5
125
100
AcDbEntity
8
0
100
AcDbSpline
70
4
71
3
72
8
73
4
74
0
42
0.000000001
43
0.0000000001
44
0.0000000001
40
0
40
0
40
0
40
0
40
1
40
1
40
1
40
1
41
1
41
1
41
1
41
1
10
4.1419038561664285
20
-20.551480916665838
30
0
10
4.2664581763820815
20
-20.59228063639069
30
0
10
4.3139726807691261
20
-20.552359300368533
30
0
10
4.4189513778844711
20
-20.527916468943015
30
0
0
SPLINE
5
126
100
AcDbEntity
8
0
100
AcDbSpline
70
4
71
3
72
8
73
4
74
0
42
0.000000001
43
0.0000000001
44
0.0000000001
40
0
40
0
40
0
40
0
40
1
40
1
40
1
40
1
41
1
41
1
41
1
41
1
10
4.4189513778844711
20
-20.527916468943015
30
0
10
4.4942816168704818
20
-20.640379664521674
30
0
10
4.6868963852690371
20
-20.725659591848938
30
0
10
4.8408220365639858
20
-20.696966225588117
30
0
0
SPLINE
5
127
100
AcDbEntity
8
0
100
AcDbSpline
70
4
71
3
72
8
73
4
74
0
42
0.000000001
43
0.0000000001
44
0.0000000001
40
0
40
0
40
0
40
0
40
1
40
1
40
1
40
1
41
1
41
1
41
1
41
1
10
4.8408220365639858
20
-20.696966225588117
30
0
10
4.9312305064088289
20
-20.680115998496859
30
0
10
4.9355430846135437
20
-20.659525120260728
30
0
10
4.9992911426019431
20
-20.63794606035907
30
0
0
SPLINE
5
128
100
AcDbEntity
8
0
100
AcDbSpline
70
4
71
3
72
8
73
4
74
0
42
0.000000001
43
0.0000000001
44
0.0000000001
40
0
40
0
40
0
40
0
40
1
40
1
40
1
40
1
41
1
41
1
41
1
41
1
10
4.9992911426019431
20
-20.63794606035907
30
0
10
5.1224438466995306
20
-20.596269461013204
30
0
10
5.291540229876798
20
-20.746066972119777
30
0
10
5.4924258494434017
20
-20.644953576918756
30
0
0
SPLINE
5
129
100
AcDbEntity
8
0
100
AcDbSpline
70
4
71
3
72
8
73
4
74
0
42
0.000000001
43
0.0000000001
44
0.0000000001
40
0
40
0
40
0
40
0
40
1
40
1
40
1
40
1
41
1
41
1
41
1
41
1
10
5.4924258494434017
20
-20.644953576918756
30
0
10
5.5133722549872788
20
-20.634403947996315
30
0
10
5.5310381643760858
20
-20.620680706723384
30
0
10
5.5495203200930732
20
-20.604493779654195
30
0
0
LINE
5
130
100
AcDbEntity
8
0
100
AcDbLine
10
5.5495203200930732
20
-20.604493779654195
30
0
11
5.6096027430105275
21
-20.547430424694337
31
0
0
SPLINE
5
131
100
AcDbEntity
8
0
100
AcDbSpline
70
4
71
3
72
8
73
4
74
0
42
0.000000001
43
0.0000000001
44
0.0000000001
40
0
40
0
40
0
40
0
40
1
40
1
40
1
40
1
41
1
41
1
41
1
41
1
10
5.6096027430105275
20
-20.547430424694333
30
0
10
6.0406528121995455
20
-20.547430424694333
30
0
10
6.2830000884390467
20
-20.367137657471066
30
0
10
6.3931845532658658
20
-20.042789963005763
30
0
0
SPLINE
5
132
100
AcDbEntity
8
0
100
AcDbSpline
70
4
71
3
72
8
73
4
74
0
42
0.000000001
43
0.0000000001
44
0.0000000001
40
0
40
0
40
0
40
0
40
1
40
1
40
1
40
1
41
1
41
1
41
1
41
1
10
6.3931845532658658
20
-20.042789963005763
30
0
10
6.4212928317521172
20
-19.960097056172739
30
0
10
6.422956205085522
20
-19.863590663165819
30
0
10
6.4455968646398523
20
-19.782931274767797
30
0
0
SPLINE
5
133
100
AcDbEntity
8
0
100
AcDbSpline
70
4
71
3
72
8
73
4
74
0
42
0.000000001
43
0.0000000001
44
0.0000000001
40
0
40
0
40
0
40
0
40
1
40
1
40
1
40
1
41
1
41
1
41
1
41
1
10
6.4455968646398523
20
-19.782931274767797
30
0
10
6.5090830714078036
20
-19.556818163162834
30
0
10
6.6002617015780167
20
-19.494624385583293
30
0
10
6.6648414462331198
20
-19.026209731222494
30
0
0
SPLINE
5
134
100
AcDbEntity
8
0
100
AcDbSpline
70
4
71
3
72
8
73
4
74
0
42
0.000000001
43
0.0000000001
44
0.0000000001
40
0
40
0
40
0
40
0
40
1
40
1
40
1
40
1
41
1
41
1
41
1
41
1
10
6.6648414462331198
20
-19.026209731222494
30
0
10
6.7289899189669837
20
-18.560998770845842
30
0
10
6.6815524047610717
20
-18.332343761197119
30
0
10
6.9709983538049052
20
-18.044145165893767
30
0
0
SPLINE
5
135
100
AcDbEntity
8
0
100
AcDbSpline
70
4
71
3
72
8
73
4
74
0
42
0.000000001
43
0.0000000001
44
0.0000000001
40
0
40
0
40
0
40
0
40
1
40
1
40
1
40
1
41
1
41
1
41
1
41
1
10
6.9709983538049052
20
-18.044145165893767
30
0
10
7.0834930763457091
20
-17.932127178493189
30
0
10
7.1890261803194226
20
-17.845000238859569
30
0
10
7.3161372043828976
20
-17.745180353905671
30
0
0
SPLINE
5
136
100
AcDbEntity
8
0
100
AcDbSpline
70
4
71
3
72
8
73
4
74
0
42
0.000000001
43
0.0000000001
44
0.0000000001
40
0
40
0
40
0
40
0
40
1
40
1
40
1
40
1
41
1
41
1
41
1
41
1
10
7.3161372043828976
20
-17.745180353905671
30
0
10
7.4415848551129669
20
-17.646655483280568
30
0
10
7.5511070069713195
20
-17.548837531046338
30
0
10
7.6785414555991274
20
-17.463480895553253
30
0
0
SPLINE
5
137
100
AcDbEntity
8
0
100
AcDbSpline
70
4
71
3
72
8
73
4
74
0
42
0.000000001
43
0.0000000001
44
0.0000000001
40
0
40
0
40
0
40
0
40
1
40
1
40
1
40
1
41
1
41
1
41
1
41
1
10
7.6785414555991274
20
-17.463480895553253
30
0
10
7.6785414555991274
20
-17.580564630061158
30
0
10
7.645797221346383
20
-17.727144910448445
30
0
10
7.6240960958156601
20
-17.818954056360297
30
0
0
SPLINE
5
138
100
AcDbEntity
8
0
100
AcDbSpline
70
4
71
3
72
8
73
4
74
0
42
0.000000001
43
0.0000000001
44
0.0000000001
40
0
40
0
40
0
40
0
40
1
40
1
40
1
40
1
41
1
41
1
41
1
41
1
10
7.6240960958156601
20
-17.818954056360297
30
0
10
7.5775518651216132
20
-18.015927089444681
30
0
10
7.5375533979106653
20
-18.062040729754504
30
0
10
7.5223980358630413
20
-18.1270982788579
30
0
0
SPLINE
5
139
100
AcDbEntity
8
0
100
AcDbSpline
70
4
71
3
72
8
73
4
74
0
42
0.000000001
43
0.0000000001
44
0.0000000001
40
0
40
0
40
0
40
0
40
1
40
1
40
1
40
1
41
1
41
1
41
1
41
1
10
7.5223980358630413
20
-18.1270982788579
30
0
10
7.5806476412450259
20
-18.111573147729096
30
0
10
7.6325825006898596
20
-18.052137855955621
30
0
10
7.6814523706832256
20
-18.012893356690679
30
0
0
SPLINE
5
140
100
AcDbEntity
8
0
100
AcDbSpline
70
4
71
3
72
8
73
4
74
0
42
0.000000001
43
0.0000000001
44
0.0000000001
40
0
40
0
40
0
40
0
40
1
40
1
40
1
40
1
41
1
41
1
41
1
41
1
10
7.6814523706832256
20
-18.012893356690679
30
0
10
7.8293712367655584
20
-17.894222816007527
30
0
10
7.9620423337818877
20
-17.74174503134239
30
0
10
8.0937276932654196
20
-17.60537746558062
30
0
0
SPLINE
5
141
100
AcDbEntity
8
0
100
AcDbSpline
70
4
71
3
72
8
73
4
74
0
42
0.000000001
43
0.0000000001
44
0.0000000001
40
0
40
0
40
0
40
0
40
1
40
1
40
1
40
1
41
1
41
1
41
1
41
1
10
8.0937276932654196
20
-17.60537746558062
30
0
10
8.3596397462456107
20
-17.330023727847507
30
0
10
8.4662046855055699
20
-17.005677537463885
30
0
10
8.8467215583703691
20
-16.699305123188502
30
0
0
LINE
5
142
100
AcDbEntity
8
0
100
AcDbLine
10
8.8467215583703691
20
-16.699305123188502
30
0
11
9.3221749389857731
21
-16.35501330561063
31
0
0
SPLINE
5
143
100
AcDbEntity
8
0
100
AcDbSpline
70
4
71
3
72
8
73
4
74
0
42
0.000000001
43
0.0000000001
44
0.0000000001
40
0
40
0
40
0
40
0
40
1
40
1
40
1
40
1
41
1
41
1
41
1
41
1
10
9.3221749389857731
20
-16.35501330561063
30
0
10
9.4251667441982736
20
-16.286105307399527
30
0
10
9.5458860321434678
20
-16.20872632115147
30
0
10
9.6356785805392473
20
-16.121969385611795
30
0
0
SPLINE
5
144
100
AcDbEntity
8
0
100
AcDbSpline
70
4
71
3
72
8
73
4
74
0
42
0.000000001
43
0.0000000001
44
0.0000000001
40
0
40
0
40
0
40
0
40
1
40
1
40
1
40
1
41
1
41
1
41
1
41
1
10
9.6356785805392473
20
-16.121969385611795
30
0
10
9.6898621831073726
20
-16.069633359380653
30
0
10
9.727011308578108
20
-16.019947525074425
30
0
10
9.7865391013750678
20
-15.98007281558443
30
0
0
SPLINE
5
145
100
AcDbEntity
8
0
100
AcDbSpline
70
4
71
3
72
8
73
4
74
0
42
0.000000001
43
0.0000000001
44
0.0000000001
40
0
40
0
40
0
40
0
40
1
40
1
40
1
40
1
41
1
41
1
41
1
41
1
10
9.7865391013750678
20
-15.98007281558443
30
0
10
9.8059761609503582
20
-16.020610825096494
30
0
10
9.8311734773499566
20
-16.184378246871962
30
0
10
9.8489472105943943
20
-16.249495959242669
30
0
0
SPLINE
5
146
100
AcDbEntity
8
0
100
AcDbSpline
70
4
71
3
72
8
73
4
74
0
42
0.000000001
43
0.0000000001
44
0.0000000001
40
0
40
0
40
0
40
0
40
1
40
1
40
1
40
1
41
1
41
1
41
1
41
1
10
9.8489472105943943
20
-16.249495959242669
30
0
10
9.892149324786935
20
-16.407626082871388
30
0
10
9.963151568730984
20
-16.577077429325769
30
0
10
10.046428999307949
20
-16.715662011487836
30
0
0
LINE
5
147
100
AcDbEntity
8
0
100
AcDbLine
10
10.046428999307949
20
-16.715662011487833
30
0
11
10.176897556710179
21
-16.916993873288675
31
0
0
SPLINE
5
148
100
AcDbEntity
8
0
100
AcDbSpline
70
4
71
3
72
8
73
4
74
0
42
0.000000001
43
0.0000000001
44
0.0000000001
40
0
40
0
40
0
40
0
40
1
40
1
40
1
40
1
41
1
41
1
41
1
41
1
10
10.176897556710177
20
-16.916993873288675
30
0
10
10.129721846722159
20
-17.015288619416324
30
0
10
10.127103616533004
20
-17.04177850601199
30
0
10
10.064063981017155
20
-17.135946052002314
30
0
0
SPLINE
5
149
100
AcDbEntity
8
0
100
AcDbSpline
70
4
71
3
72
8
73
4
74
0
42
0.000000001
43
0.0000000001
44
0.0000000001
40
0
40
0
40
0
40
0
40
1
40
1
40
1
40
1
41
1
41
1
41
1
41
1
10
10.064063981017155
20
-17.135946052002314
30
0
10
9.9227524987643605
20
-17.347042412087227
30
0
10
9.672226825377745
20
-17.476187377608682
30
0
10
9.6501561187760512
20
-17.757038533892057
30
0
0
SPLINE
5
150
100
AcDbEntity
8
0
100
AcDbSpline
70
4
71
3
72
8
73
4
74
0
42
0.000000001
43
0.0000000001
44
0.0000000001
40
0
40
0
40
0
40
0
40
1
40
1
40
1
40
1
41
1
41
1
41
1
41
1
10
9.6501561187760512
20
-17.757038533892057
30
0
10
9.6329061819776136
20
-17.976699135078245
30
0
10
9.7249933949905589
20
-18.136184436303076
30
0
10
9.6784183776245687
20
-18.38989895086722
30
0
0
SPLINE
5
151
100
AcDbEntity
8
0
100
AcDbSpline
70
4
71
3
72
8
73
4
74
0
42
0.000000001
43
0.0000000001
44
0.0000000001
40
0
40
0
40
0
40
0
40
1
40
1
40
1
40
1
41
1
41
1
41
1
41
1
10
9.6784183776245687
20
-18.38989895086722
30
0
10
9.652189073180427
20
-18.532720531129446
30
0
10
9.567725674196657
20
-18.835442539160923
30
0
10
9.4973395397118825
20
-18.911464843731185
30
0
0
SPLINE
5
152
100
AcDbEntity
8
0
100
AcDbSpline
70
4
71
3
72
8
73
4
74
0
42
0.000000001
43
0.0000000001
44
0.0000000001
40
0
40
0
40
0
40
0
40
1
40
1
40
1
40
1
41
1
41
1
41
1
41
1
10
9.4973395397118825
20
-18.911464843731185
30
0
10
9.4446346374480576
20
-18.968421408891572
30
0
10
9.4657966907031916
20
-18.926434968719075
30
0
10
9.402171779402563
20
-18.972440315147743
30
0
0
SPLINE
5
153
100
AcDbEntity
8
0
100
AcDbSpline
70
4
71
3
72
8
73
4
74
0
42
0.000000001
43
0.0000000001
44
0.0000000001
40
0
40
0
40
0
40
0
40
1
40
1
40
1
40
1
41
1
41
1
41
1
41
1
10
9.402171779402563
20
-18.972440315147743
30
0
10
9.375896224446679
20
-18.991399264758144
30
0
10
9.3372531698446046
20
-19.033230784517325
30
0
10
9.3127488590803083
20
-19.058675334343519
30
0
0
SPLINE
5
154
100
AcDbEntity
8
0
100
AcDbSpline
70
4
71
3
72
8
73
4
74
0
42
0.000000001
43
0.0000000001
44
0.0000000001
40
0
40
0
40
0
40
0
40
1
40
1
40
1
40
1
41
1
41
1
41
1
41
1
10
9.3127488590803083
20
-19.058675334343519
30
0
10
9.2560547561735493
20
-19.11754057915925
30
0
10
9.2106811240516144
20
-19.192640881658022
30
0
10
9.1655385564781824
20
-19.262810804400907
30
0
0
SPLINE
5
155
100
AcDbEntity
8
0
100
AcDbSpline
70
4
71
3
72
8
73
4
74
0
42
0.000000001
43
0.0000000001
44
0.0000000001
40
0
40
0
40
0
40
0
40
1
40
1
40
1
40
1
41
1
41
1
41
1
41
1
10
9.1655385564781824
20
-19.262810804400907
30
0
10
8.9610488751845203
20
-19.580549563952438
30
0
10
8.8514189934756438
20
-19.885813470027674
30
0
10
9.1478264905827373
20
-20.21019124612663
30
0
0
SPLINE
5
156
100
AcDbEntity
8
0
100
AcDbSpline
70
4
71
3
72
8
73
4
74
0
42
0.000000001
43
0.0000000001
44
0.0000000001
40
0
40
0
40
0
40
0
40
1
40
1
40
1
40
1
41
1
41
1
41
1
41
1
10
9.1478264905827373
20
-20.21019124612663
30
0
10
9.1797698013394449
20
-20.245153624840935
30
0
10
9.2085096061222185
20
-20.26021700289315
30
0
10
9.2441493856243682
20
-20.289540579379018
30
0
0
SPLINE
5
157
100
AcDbEntity
8
0
100
AcDbSpline
70
4
71
3
72
8
73
4
74
0
42
0.000000001
43
0.0000000001
44
0.0000000001
40
0
40
0
40
0
40
0
40
1
40
1
40
1
40
1
41
1
41
1
41
1
41
1
10
9.2441493856243682
20
-20.289540579379018
30
0
10
9.3581997633986909
20
-20.383414829441218
30
0
10
9.4736978197926121
20
-20.427786743162478
30
0
10
9.6303802648017349
20
-20.391300729703602
30
0
0
SPLINE
5
158
100
AcDbEntity
8
0
100
AcDbSpline
70
4
71
3
72
8
73
4
74
0
42
0.000000001
43
0.0000000001
44
0.0000000001
40
0
40
0
40
0
40
0
40
1
40
1
40
1
40
1
41
1
41
1
41
1
41
1
10
9.6303802648017349
20
-20.391300729703602
30
0
10
9.7922376908503885
20
-20.633017184684867
30
0
10
10.092002862303893
20
-20.552757882014447
30
0
10
10.169920497804565
20
-20.593249264994348
30
0
0
SPLINE
5
159
100
AcDbEntity
8
0
100
AcDbSpline
70
4
71
3
72
8
73
4
74
0
42
0.000000001
43
0.0000000001
44
0.0000000001
40
0
40
0
40
0
40
0
40
1
40
1
40
1
40
1
41
1
41
1
41
1
41
1
10
10.169920497804565
20
-20.593249264994348
30
0
10
10.257341109386729
20
-20.638699605282099
30
0
10
10.324030963136275
20
-20.696271339850711
30
0
10
10.438420135309626
20
-20.716633597671073
30
0
0
SPLINE
5
160
100
AcDbEntity
8
0
100
AcDbSpline
70
4
71
3
72
8
73
4
74
0
42
0.000000001
43
0.0000000001
44
0.0000000001
40
0
40
0
40
0
40
0
40
1
40
1
40
1
40
1
41
1
41
1
41
1
41
1
10
10.438420135309626
20
-20.716633597671073
30
0
10
10.541473419860907
20
-20.735007459506903
30
0
10
10.543953274535253
20
-20.708485987195896
30
0
10
10.608902529757499
20
-20.706684097340027
30
0
0
SPLINE
5
161
100
AcDbEntity
8
0
100
AcDbSpline
70
4
71
3
72
8
73
4
74
0
42
0.000000001
43
0.0000000001
44
0.0000000001
40
0
40
0
40
0
40
0
40
1
40
1
40
1
40
1
41
1
41
1
41
1
41
1
10
10.608902529757499
20
-20.706684097340027
30
0
10
10.684956420043099
20
-20.704543789105546
30
0
10
10.691410058523132
20
-20.73659426568215
30
0
10
10.769990053994821
20
-20.75470641730519
30
0
0
SPLINE
5
162
100
AcDbEntity
8
0
100
AcDbSpline
70
4
71
3
72
8
73
4
74
0
42
0.000000001
43
0.0000000001
44
0.0000000001
40
0
40
0
40
0
40
0
40
1
40
1
40
1
40
1
41
1
41
1
41
1
41
1
10
10.769990053994821
20
-20.75470641730519
30
0
10
11.183482037650659
20
-20.850059179661482
30
0
10
11.532656104370567
20
-20.318865659946574
30
0
10
11.554080243858911
20
-19.974820511764662
30
0
0
SPLINE
5
163
100
AcDbEntity
8
0
100
AcDbSpline
70
4
71
3
72
8
73
4
74
0
42
0.000000001
43
0.0000000001
44
0.0000000001
40
0
40
0
40
0
40
0
40
1
40
1
40
1
40
1
41
1
41
1
41
1
41
1
10
11.554080243858911
20
-19.974820511764662
30
0
10
11.566401681003569
20
-19.777139056207734
30
0
10
11.508937488275269
20
-19.944310214831145
30
0
10
11.599715586193636
20
-19.667046293361004
30
0
0
SPLINE
5
164
100
AcDbEntity
8
0
100
AcDbSpline
70
4
71
3
72
8
73
4
74
0
42
0.000000001
43
0.0000000001
44
0.0000000001
40
0
40
0
40
0
40
0
40
1
40
1
40
1
40
1
41
1
41
1
41
1
41
1
10
11.599715586193636
20
-19.667046293361004
30
0
10
11.796981915206143
20
-19.064404381472915
30
0
10
11.523430443349321
20
-18.651267737114612
30
0
10
11.679712426610426
20
-18.283194884051611
30
0
0
SPLINE
5
165
100
AcDbEntity
8
0
100
AcDbSpline
70
4
71
3
72
8
73
4
74
0
42
0.000000001
43
0.0000000001
44
0.0000000001
40
0
40
0
40
0
40
0
40
1
40
1
40
1
40
1
41
1
41
1
41
1
41
1
10
11.679712426610426
20
-18.283194884051611
30
0
10
11.763698467670149
20
-18.085343467264536
30
0
10
12.011205261109382
20
-17.718057248921586
30
0
10
12.187309536866758
20
-17.60012521234464
30
0
0
SPLINE
5
166
100
AcDbEntity
8
0
100
AcDbSpline
70
4
71
3
72
8
73
4
74
0
42
0.000000001
43
0.0000000001
44
0.0000000001
40
0
40
0
40
0
40
0
40
1
40
1
40
1
40
1
41
1
41
1
41
1
41
1
10
12.187309536866758
20
-17.60012521234464
30
0
10
12.215079020953981
20
-17.719380840802359
30
0
10
12.273328720341068
20
-17.91435194116707
30
0
10
12.323938812841316
20
-18.010013040268312
30
0
0
SPLINE
5
167
100
AcDbEntity
8
0
100
AcDbSpline
70
4
71
3
72
8
73
4
74
0
42
0.000000001
43
0.0000000001
44
0.0000000001
40
0
40
0
40
0
40
0
40
1
40
1
40
1
40
1
41
1
41
1
41
1
41
1
10
12.323938812841316
20
-18.010013040268312
30
0
10
12.364445612658463
20
-17.980349541322152
30
0
10
12.624073800378552
20
-17.449449317535372
30
0
10
12.668708176353443
20
-17.359348808415056
30
0
0
LINE
5
168
100
AcDbEntity
8
0
100
AcDbLine
10
12.668708176353443
20
-17.359348808415053
30
0
11
13.284225779486265
21
-16.315800392061025
31
0
0
SPLINE
5
169
100
AcDbEntity
8
0
100
AcDbSpline
70
4
71
3
72
8
73
4
74
0
42
0.000000001
43
0.0000000001
44
0.0000000001
40
0
40
0
40
0
40
0
40
1
40
1
40
1
40
1
41
1
41
1
41
1
41
1
10
13.284225779486265
20
-16.315800392061025
30
0
10
13.372201021188927
20
-16.183853322364701
30
0
10
13.45430808820654
20
-16.046562250449757
30
0
10
13.559872061106665
20
-15.927829290376772
30
0
0
SPLINE
5
170
100
AcDbEntity
8
0
100
AcDbSpline
70
4
71
3
72
8
73
4
74
0
42
0.000000001
43
0.0000000001
44
0.0000000001
40
0
40
0
40
0
40
0
40
1
40
1
40
1
40
1
41
1
41
1
41
1
41
1
10
13.559872061106665
20
-15.927829290376772
30
0
10
13.706928383346524
20
-15.762429187934735
30
0
10
13.60070186246517
20
-15.657157758921896
30
0
10
13.634416605423676
20
-15.338710576897817
30
0
0
SPLINE
5
171
100
AcDbEntity
8
0
100
AcDbSpline
70
4
71
3
72
8
73
4
74
0
42
0.000000001
43
0.0000000001
44
0.0000000001
40
0
40
0
40
0
40
0
40
1
40
1
40
1
40
1
41
1
41
1
41
1
41
1
10
13.634416605423676
20
-15.338710576897817
30
0
10
13.66152391755009
20
-15.08223983265013
30
0
10
13.795196168936465
20
-14.511942445307607
30
0
10
14.002550373794827
20
-14.360049748417033
30
0
0
SPLINE
5
172
100
AcDbEntity
8
0
100
AcDbSpline
70
4
71
3
72
8
73
4
74
0
42
0.000000001
43
0.0000000001
44
0.0000000001
40
0
40
0
40
0
40
0
40
1
40
1
40
1
40
1
41
1
41
1
41
1
41
1
10
14.002550373794827
20
-14.360049748417033
30
0
10
14.002550373794827
20
-14.420979345342269
30
0
10
14.012130622072771
20
-14.587226245771667
30
0
10
14.032460542136947
20
-14.622897046958519
30
0
0
SPLINE
5
173
100
AcDbEntity
8
0
100
AcDbSpline
70
4
71
3
72
8
73
4
74
0
42
0.000000001
43
0.0000000001
44
0.0000000001
40
0
40
0
40
0
40
0
40
1
40
1
40
1
40
1
41
1
41
1
41
1
41
1
10
14.032460542136947
20
-14.622897046958519
30
0
10
14.085458364308479
20
-14.715769578620042
30
0
10
14.673576111427602
20
-14.713675144876884
30
0
10
14.783128908950237
20
-14.722238633937323
30
0
0
SPLINE
5
174
100
AcDbEntity
8
0
100
AcDbSpline
70
4
71
3
72
8
73
4
74
0
42
0.000000001
43
0.0000000001
44
0.0000000001
40
0
40
0
40
0
40
0
40
1
40
1
40
1
40
1
41
1
41
1
41
1
41
1
10
14.783128908950237
20
-14.722238633937323
30
0
10
14.863249084065009
20
-14.728476060675471
30
0
10
15.104287198207379
20
-14.84987350144935
30
0
10
15.195989554319763
20
-14.884250040348245
30
0
0
SPLINE
5
175
100
AcDbEntity
8
0
100
AcDbSpline
70
4
71
3
72
8
73
4
74
0
42
0.000000001
43
0.0000000001
44
0.0000000001
40
0
40
0
40
0
40
0
40
1
40
1
40
1
40
1
41
1
41
1
41
1
41
1
10
15.195989554319763
20
-14.884250040348245
30
0
10
15.332433828247352
20
-14.935445972663901
30
0
10
15.494691904054232
20
-14.981373858885913
30
0
10
15.650250048005539
20
-15.015535314104179
30
0
0
SPLINE
5
176
100
AcDbEntity
8
0
100
AcDbSpline
70
4
71
3
72
8
73
4
74
0
42
0.000000001
43
0.0000000001
44
0.0000000001
40
0
40
0
40
0
40
0
40
1
40
1
40
1
40
1
41
1
41
1
41
1
41
1
10
15.650250048005539
20
-15.015535314104179
30
0
10
16.431460297467684
20
-15.187096135118543
30
0
10
17.01532675771066
20
-15.129554482183588
30
0
10
17.689278686257122
20
-14.904319002240479
30
0
0
SPLINE
5
177
100
AcDbEntity
8
0
100
AcDbSpline
70
4
71
3
72
8
73
4
74
0
42
0.000000001
43
0.0000000001
44
0.0000000001
40
0
40
0
40
0
40
0
40
1
40
1
40
1
40
1
41
1
41
1
41
1
41
1
10
17.689278686257122
20
-14.904319002240479
30
0
10
17.984484798120157
20
-14.805655004059728
30
0
10
18.228803314412492
20
-14.67698833651337
30
0
10
18.49830391827739
20
-14.542238410601342
30
0
0
SPLINE
5
178
100
AcDbEntity
8
0
100
AcDbSpline
70
4
71
3
72
8
73
4
74
0
42
0.000000001
43
0.0000000001
44
0.0000000001
40
0
40
0
40
0
40
0
40
1
40
1
40
1
40
1
41
1
41
1
41
1
41
1
10
18.49830391827739
20
-14.542238410601342
30
0
10
19.723440116183493
20
-13.929677832056704
30
0
10
19.456095613410746
20
-14.247448177323568
30
0
10
20.393556636439076
20
-14.075779814468889
30
0
0
SPLINE
5
179
100
AcDbEntity
8
0
100
AcDbSpline
70
4
71
3
72
8
73
4
74
0
42
0.000000001
43
0.0000000001
44
0.0000000001
40
0
40
0
40
0
40
0
40
1
40
1
40
1
40
1
41
1
41
1
41
1
41
1
10
20.393556636439076
20
-14.075779814468889
30
0
10
20.664196582178619
20
-14.026201522002975
30
0
10
20.795496896751381
20
-13.921191803202923
30
0
10
20.894253395955612
20
-13.698096631494293
30
0
0
SPLINE
5
180
100
AcDbEntity
8
0
100
AcDbSpline
70
4
71
3
72
8
73
4
74
0
42
0.000000001
43
0.0000000001
44
0.0000000001
40
0
40
0
40
0
40
0
40
1
40
1
40
1
40
1
41
1
41
1
41
1
41
1
10
20.894253395955612
20
-13.698096631494293
30
0
10
20.936746711655186
20
-13.602127947688938
30
0
10
20.97905502530778
20
-13.619532428880273
30
0
10
21.068247069091743
20
-13.559803841178672
30
0
0
SPLINE
5
181
100
AcDbEntity
8
0
100
AcDbSpline
70
4
71
3
72
8
73
4
74
0
42
0.000000001
43
0.0000000001
44
0.0000000001
40
0
40
0
40
0
40
0
40
1
40
1
40
1
40
1
41
1
41
1
41
1
41
1
10
21.068247069091743
20
-13.559803841178672
30
0
10
21.068247069091743
20
-13.269325810085192
30
0
10
21.081015218496162
20
-13.096810649243155
30
0
10
21.012430597846837
20
-12.873915520398322
30
0
0
SPLINE
5
182
100
AcDbEntity
8
0
100
AcDbSpline
70
4
71
3
72
8
73
4
74
0
42
0.000000001
43
0.0000000001
44
0.0000000001
40
0
40
0
40
0
40
0
40
1
40
1
40
1
40
1
41
1
41
1
41
1
41
1
10
21.012430597846837
20
-12.873915520398322
30
0
10
20.913982435387556
20
-12.553958240364816
30
0
10
20.683772205278927
20
-12.30822287912738
30
0
10
20.342205783710103
20
-12.387603798095105
30
0
0
SPLINE
5
183
100
AcDbEntity
8
0
100
AcDbSpline
70
4
71
3
72
8
73
4
74
0
42
0.000000001
43
0.0000000001
44
0.0000000001
40
0
40
0
40
0
40
0
40
1
40
1
40
1
40
1
41
1
41
1
41
1
41
1
10
20.342205783710103
20
-12.387603798095105
30
0
10
20.233653200506456
20
-12.412831760158991
30
0
10
20.144231032225044
20
-12.22485313553714
30
0
10
19.897247283190968
20
-12.211992485109235
30
0
0
SPLINE
5
184
100
AcDbEntity
8
0
100
AcDbSpline
70
4
71
3
72
8
73
4
74
0
42
0.000000001
43
0.0000000001
44
0.0000000001
40
0
40
0
40
0
40
0
40
1
40
1
40
1
40
1
41
1
41
1
41
1
41
1
10
19.897247283190968
20
-12.211992485109235
30
0
10
19.726825804051245
20
-12.203105618487017
30
0
10
19.699134156191104
20
-12.244967971920696
30
0
10
19.584821692183571
20
-12.271597738112854
30
0
0
SPLINE
5
185
100
AcDbEntity
8
0
100
AcDbSpline
70
4
71
3
72
8
73
4
74
0
42
0.000000001
43
0.0000000001
44
0.0000000001
40
0
40
0
40
0
40
0
40
1
40
1
40
1
40
1
41
1
41
1
41
1
41
1
10
19.584821692183571
20
-12.271597738112854
30
0
10
19.487990417533187
20
-12.206756024730923
30
0
10
19.393238535809132
20
-12.132904862069635
30
0
10
19.250526001468906
20
-12.117009726846888
30
0
0
SPLINE
5
186
100
AcDbEntity
8
0
100
AcDbSpline
70
4
71
3
72
8
73
4
74
0
42
0.000000001
43
0.0000000001
44
0.0000000001
40
0
40
0
40
0
40
0
40
1
40
1
40
1
40
1
41
1
41
1
41
1
41
1
10
19.250526001468906
20
-12.117009726846888
30
0
10
19.050086812146748
20
-12.094738789371185
30
0
10
18.972739411614029
20
-12.182852406588653
30
0
10
18.843117652199158
20
-12.213024285143565
30
0
0
SPLINE
5
187
100
AcDbEntity
8
0
100
AcDbSpline
70
4
71
3
72
8
73
4
74
0
42
0.000000001
43
0.0000000001
44
0.0000000001
40
0
40
0
40
0
40
0
40
1
40
1
40
1
40
1
41
1
41
1
41
1
41
1
10
18.843117652199158
20
-12.213024285143565
30
0
10
18.781556340967192
20
-12.096679054741866
30
0
10
18.657618506231234
20
-12.031113878070558
30
0
10
18.550345144498724
20
-11.959294729762593
30
0
0
SPLINE
5
188
100
AcDbEntity
8
0
100
AcDbSpline
70
4
71
3
72
8
73
4
74
0
42
0.000000001
43
0.0000000001
44
0.0000000001
40
0
40
0
40
0
40
0
40
1
40
1
40
1
40
1
41
1
41
1
41
1
41
1
10
18.550345144498724
20
-11.959294729762593
30
0
10
18.550345144498724
20
-11.864681223553349
30
0
10
18.546956448467608
20
-11.843612047342122
30
0
10
18.52744249271629
20
-11.767527323382028
30
0
0
SPLINE
5
189
100
AcDbEntity
8
0
100
AcDbSpline
70
4
71
3
72
8
73
4
74
0
42
0.000000001
43
0.0000000001
44
0.0000000001
40
0
40
0
40
0
40
0
40
1
40
1
40
1
40
1
41
1
41
1
41
1
41
1
10
18.52744249271629
20
-11.767527323382028
30
0
10
18.455885806661954
20
-11.488369763073372
30
0
10
18.480821224838554
20
-11.534144232963746
30
0
10
18.525193890600658
20
-11.231452306565922
30
0
0
SPLINE
5
190
100
AcDbEntity
8
0
100
AcDbSpline
70
4
71
3
72
8
73
4
74
0
42
0.000000001
43
0.0000000001
44
0.0000000001
40
0
40
0
40
0
40
0
40
1
40
1
40
1
40
1
41
1
41
1
41
1
41
1
10
18.525193890600658
20
-11.231452306565922
30
0
10
18.545817106592963
20
-11.090510828407071
30
0
10
18.556875115124157
20
-10.996004864038138
30
0
10
18.573401212612794
20
-10.850272885719894
30
0
0
SPLINE
5
191
100
AcDbEntity
8
0
100
AcDbSpline
70
4
71
3
72
8
73
4
74
0
42
0.000000001
43
0.0000000001
44
0.0000000001
40
0
40
0
40
0
40
0
40
1
40
1
40
1
40
1
41
1
41
1
41
1
41
1
10
18.573401212612794
20
-10.850272885719894
30
0
10
18.585090935450719
20
-10.747142516982375
30
0
10
18.607855211718345
20
-10.569205141674212
30
0
10
18.609811269946693
20
-10.45703448998284
30
0
0
SPLINE
5
192
100
AcDbEntity
8
0
100
AcDbSpline
70
4
71
3
72
8
73
4
74
0
42
0.000000001
43
0.0000000001
44
0.0000000001
40
0
40
0
40
0
40
0
40
1
40
1
40
1
40
1
41
1
41
1
41
1
41
1
10
18.609811269946693
20
-10.45703448998284
30
0
10
18.614601018065244
20
-10.184222650293485
30
0
10
18.541349983995353
20
-10.009781512856753
30
0
10
18.409927086765453
20
-9.7965132588220261
30
0
0
SPLINE
5
193
100
AcDbEntity
8
0
100
AcDbSpline
70
4
71
3
72
8
73
4
74
0
42
0.000000001
43
0.0000000001
44
0.0000000001
40
0
40
0
40
0
40
0
40
1
40
1
40
1
40
1
41
1
41
1
41
1
41
1
10
18.409927086765453
20
-9.7965132588220261
30
0
10
18.270048242315426
20
-9.5695522211684416
30
0
10
18.413715868524168
20
-9.4934983308828436
30
0
10
18.413715868524168
20
-9.0900637654187815
30
0
0
SPLINE
5
194
100
AcDbEntity
8
0
100
AcDbSpline
70
4
71
3
72
8
73
4
74
0
42
0.000000001
43
0.0000000001
44
0.0000000001
40
0
40
0
40
0
40
0
40
1
40
1
40
1
40
1
41
1
41
1
41
1
41
1
10
18.413715868524168
20
-9.0900637654187815
30
0
10
18.578407548493651
20
-9.1037866306712925
30
0
10
18.75067603993973
20
-9.2943071533369022
30
0
10
18.873906204243973
20
-9.3910918014551221
30
0
0
SPLINE
5
195
100
AcDbEntity
8
0
100
AcDbSpline
70
4
71
3
72
8
73
4
74
0
42
0.000000001
43
0.0000000001
44
0.0000000001
40
0
40
0
40
0
40
0
40
1
40
1
40
1
40
1
41
1
41
1
41
1
41
1
10
18.873906204243973
20
-9.3910918014551221
30
0
10
18.935651765482074
20
-9.4395612097004697
30
0
10
18.947357281177666
20
-9.4808843498509017
30
0
10
19.018790632534017
20
-9.4999515933424572
30
0
0
SPLINE
5
196
100
AcDbEntity
8
0
100
AcDbSpline
70
4
71
3
72
8
73
4
74
0
42
0.000000001
43
0.0000000001
44
0.0000000001
40
0
40
0
40
0
40
0
40
1
40
1
40
1
40
1
41
1
41
1
41
1
41
1
10
19.018790632534017
20
-9.4999515933424572
30
0
10
19.024104553118988
20
-9.4362495978555891
30
0
10
19.110000401895316
20
-9.2162505782907918
30
0
10
19.133395640428837
20
-9.1461415708560541
30
0
0
SPLINE
5
197
100
AcDbEntity
8
0
100
AcDbSpline
70
4
71
3
72
8
73
4
74
0
42
0.000000001
43
0.0000000001
44
0.0000000001
40
0
40
0
40
0
40
0
40
1
40
1
40
1
40
1
41
1
41
1
41
1
41
1
10
19.133395640428837
20
-9.1461415708560541
30
0
10
19.17374864789393
20
-9.0253453867348323
30
0
10
19.207863476580034
20
-8.9186262791023978
30
0
10
19.241578219538539
20
-8.7858782859100391
30
0
0
SPLINE
5
198
100
AcDbEntity
8
0
100
AcDbSpline
70
4
71
3
72
8
73
4
74
0
42
0.000000001
43
0.0000000001
44
0.0000000001
40
0
40
0
40
0
40
0
40
1
40
1
40
1
40
1
41
1
41
1
41
1
41
1
10
19.241578219538539
20
-8.7858782859100391
30
0
10
19.417420409062704
20
-8.0936754542053055
30
0
10
19.387125195809809
20
-7.5180641462778137
30
0
10
18.759702034117595
20
-7.1032011921681963
30
0
0
SPLINE
5
199
100
AcDbEntity
8
0
100
AcDbSpline
70
4
71
3
72
8
73
4
74
0
42
0.000000001
43
0.0000000001
44
0.0000000001
40
0
40
0
40
0
40
0
40
1
40
1
40
1
40
1
41
1
41
1
41
1
41
1
10
18.759702034117595
20
-7.1032011921681963
30
0
10
18.678888477347098
20
-7.0497878674318235
30
0
10
18.70163696075706
20
-7.0698564533036361
30
0
10
18.688145348063262
20
-6.981111121779433
30
0
0
SPLINE
5
200
100
AcDbEntity
8
0
100
AcDbSpline
70
4
71
3
72
8
73
4
74
0
42
0.000000001
43
0.0000000001
44
0.0000000001
40
0
40
0
40
0
40
0
40
1
40
1
40
1
40
1
41
1
41
1
41
1
41
1
10
18.688145348063262
20
-6.981111121779433
30
0
10
18.673282764915687
20
-6.8836947593544817
30
0
10
18.646606372191361
20
-6.8649971439364492
30
0
10
18.6284175124025
20
-6.7869097352158425
30
0
0
SPLINE
5
201
100
AcDbEntity
8
0
100
AcDbSpline
70
4
71
3
72
8
73
4
74
0
42
0.000000001
43
0.0000000001
44
0.0000000001
40
0
40
0
40
0
40
0
40
1
40
1
40
1
40
1
41
1
41
1
41
1
41
1
10
18.6284175124025
20
-6.7869097352158425
30
0
10
18.907898450272942
20
-6.8101511813973055
30
0
10
19.161319668908959
20
-6.9198118967806765
30
0
10
19.42866417168171
20
-6.982065837627526
30
0
0
SPLINE
5
202
100
AcDbEntity
8
0
100
AcDbSpline
70
4
71
3
72
8
73
4
74
0
42
0.000000001
43
0.0000000001
44
0.0000000001
40
0
40
0
40
0
40
0
40
1
40
1
40
1
40
1
41
1
41
1
41
1
41
1
10
19.42866417168171
20
-6.982065837627526
30
0
10
19.410336184337197
20
-6.7615584384539771
30
0
10
19.07794992531872
20
-6.4125073304116293
30
0
10
18.902046068445564
20
-6.2790200810722263
30
0
0
SPLINE
5
203
100
AcDbEntity
8
0
100
AcDbSpline
70
4
71
3
72
8
73
4
74
0
42
0.000000001
43
0.0000000001
44
0.0000000001
40
0
40
0
40
0
40
0
40
1
40
1
40
1
40
1
41
1
41
1
41
1
41
1
10
18.902046068445564
20
-6.2790200810722263
30
0
10
18.643773434342005
20
-6.0830476383272591
30
0
10
18.38577755126806
20
-5.9547968493661676
30
0
10
18.06498926610486
20
-5.8473693192611815
30
0
0
SPLINE
5
204
100
AcDbEntity
8
0
100
AcDbSpline
70
4
71
3
72
8
73
4
74
0
42
0.000000001
43
0.0000000001
44
0.0000000001
40
0
40
0
40
0
40
0
40
1
40
1
40
1
40
1
41
1
41
1
41
1
41
1
10
18.06498926610486
20
-5.8473693192611815
30
0
10
17.898218945249887
20
-5.7915223903622017
30
0
10
17.581049480615256
20
-5.7106321254258896
30
0
10
17.379240072880162
20
-5.6938441297142512
30
0
0
SPLINE
5
205
100
AcDbEntity
8
0
100
AcDbSpline
70
4
71
3
72
8
73
4
74
0
42
0.000000001
43
0.0000000001
44
0.0000000001
40
0
40
0
40
0
40
0
40
1
40
1
40
1
40
1
41
1
41
1
41
1
41
1
10
17.379240072880162
20
-5.6938441297142512
30
0
10
17.451027635472791
20
-5.544200222949522
30
0
10
17.498742370733844
20
-5.2173125105425635
30
0
10
17.502285235137435
20
-4.9882878728203197
30
0
0
SPLINE
5
206
100
AcDbEntity
8
0
100
AcDbSpline
70
4
71
3
72
8
73
4
74
0
42
0.000000001
43
0.0000000001
44
0.0000000001
40
0
40
0
40
0
40
0
40
1
40
1
40
1
40
1
41
1
41
1
41
1
41
1
10
17.502285235137435
20
-4.9882878728203197
30
0
10
17.512543072213436
20
-4.3237466073420752
30
0
10
16.954520495483408
20
-4.0726973255196697
30
0
10
16.364277480946637
20
-4.0542613263093212
30
0
0
SPLINE
5
207
100
AcDbEntity
8
0
100
AcDbSpline
70
4
71
3
72
8
73
4
74
0
42
0.000000001
43
0.0000000001
44
0.0000000001
40
0
40
0
40
0
40
0
40
1
40
1
40
1
40
1
41
1
41
1
41
1
41
1
10
16.364277480946637
20
-4.0542613263093212
30
0
10
16.265721024606197
20
-4.0511963838604039
30
0
10
16.262625624503205
20
-4.0334996877996527
30
0
10
16.169074752002789
20
-4.0334996877996527
30
0
0
SPLINE
5
208
100
AcDbEntity
8
0
100
AcDbSpline
70
4
71
3
72
8
73
4
74
0
42
0.000000001
43
0.0000000001
44
0.0000000001
40
0
40
0
40
0
40
0
40
1
40
1
40
1
40
1
41
1
41
1
41
1
41
1
10
16.169074752002789
20
-4.0334996877996527
30
0
10
16.073830283527649
20
-4.0334996877996527
30
0
10
16.073213610037744
20
-4.052305268080973
30
0
10
15.97427286082738
20
-4.0546771578920344
30
0
0
SPLINE
5
209
100
AcDbEntity
8
0
100
AcDbSpline
70
4
71
3
72
8
73
4
74
0
42
0.000000001
43
0.0000000001
44
0.0000000001
40
0
40
0
40
0
40
0
40
1
40
1
40
1
40
1
41
1
41
1
41
1
41
1
10
15.97427286082738
20
-4.0546771578920344
30
0
10
15.145394502636345
20
-4.0744838455408461
30
0
10
14.721351761996804
20
-4.3786077987082557
30
0
10
14.09380601764745
20
-4.6921420859260152
30
0
0
SPLINE
5
210
100
AcDbEntity
8
0
100
AcDbSpline
70
4
71
3
72
8
73
4
74
0
42
0.000000001
43
0.0000000001
44
0.0000000001
40
0
40
0
40
0
40
0
40
1
40
1
40
1
40
1
41
1
41
1
41
1
41
1
10
14.09380601764745
20
-4.6921420859260152
30
0
10
13.990090561135363
20
-4.7439691685177747
30
0
10
13.907752617579453
20
-4.7825813894453537
30
0
10
13.811337221514334
20
-4.8390598446408557
30
0
0
SPLINE
5
211
100
AcDbEntity
8
0
100
AcDbSpline
70
4
71
3
72
8
73
4
74
0
42
0.000000001
43
0.0000000001
44
0.0000000001
40
0
40
0
40
0
40
0
40
1
40
1
40
1
40
1
41
1
41
1
41
1
41
1
10
13.811337221514334
20
-4.8390598446408557
30
0
10
13.722776892037107
20
-4.8909946570831382
30
0
10
13.606832499403843
20
-4.9274045264068276
30
0
10
13.51454430347605
20
-4.9716692743081943
30
0
0
SPLINE
5
212
100
AcDbEntity
8
0
100
AcDbSpline
70
4
71
3
72
8
73
4
74
0
42
0.000000001
43
0.0000000001
44
0.0000000001
40
0
40
0
40
0
40
0
40
1
40
1
40
1
40
1
41
1
41
1
41
1
41
1
10
13.51454430347605
20
-4.9716692743081943
30
0
10
13.51454430347605
20
-4.0198536717206172
30
0
10
12.876416968468499
20
-3.6691393313525227
30
0
10
11.972916981774214
20
-3.6245511118842706
30
0
0
SPLINE
5
213
100
AcDbEntity
8
0
100
AcDbSpline
70
4
71
3
72
8
73
4
74
0
42
0.000000001
43
0.0000000001
44
0.0000000001
40
0
40
0
40
0
40
0
40
1
40
1
40
1
40
1
41
1
41
1
41
1
41
1
10
11.972916981774214
20
-3.6245511118842706
30
0
10
11.39940010758988
20
-3.5962272091880396
30
0
10
11.241824614081654
20
-3.6097961880833895
30
0
10
10.67588567943517
20
-3.7335958353147487
30
0
0
SPLINE
5
214
100
AcDbEntity
8
0
100
AcDbSpline
70
4
71
3
72
8
73
4
74
0
42
0.000000001
43
0.0000000001
44
0.0000000001
40
0
40
0
40
0
40
0
40
1
40
1
40
1
40
1
41
1
41
1
41
1
41
1
10
10.67588567943517
20
-3.7335958353147487
30
0
10
10.126318673904848
20
-3.8537760744856295
30
0
10
9.5855001594819331
20
-4.0801362315069758
30
0
10
9.084094601472426
20
-4.3278741834998176
30
0
0
SPLINE
5
215
100
AcDbEntity
8
0
100
AcDbSpline
70
4
71
3
72
8
73
4
74
0
42
0.000000001
43
0.0000000001
44
0.0000000001
40
0
40
0
40
0
40
0
40
1
40
1
40
1
40
1
41
1
41
1
41
1
41
1
10
9.084094601472426
20
-4.3278741834998176
30
0
10
7.8168348099453802
20
-4.9540188757617392
30
0
10
6.8687772494471293
20
-5.4142861076575768
30
0
10
5.2961306871723908
20
-5.6342698983953374
30
0
0
SPLINE
5
216
100
AcDbEntity
8
0
100
AcDbSpline
70
4
71
3
72
8
73
4
74
0
42
0.000000001
43
0.0000000001
44
0.0000000001
40
0
40
0
40
0
40
0
40
1
40
1
40
1
40
1
41
1
41
1
41
1
41
1
10
5.2961306871723908
20
-5.6342698983953374
30
0
10
4.742805733557848
20
-5.7116639254602193
30
0
10
4.1064806644265888
20
-5.752093641091129
30
0
10
3.4819991104853103
20
-5.7524478523274043
30
0
0
SPLINE
5
217
100
AcDbEntity
8
0
100
AcDbSpline
70
4
71
3
72
8
73
4
74
0
42
0.000000001
43
0.0000000001
44
0.0000000001
40
0
40
0
40
0
40
0
40
1
40
1
40
1
40
1
41
1
41
1
41
1
41
1
10
3.4819991104853103
20
-5.7524478523274043
30
0
10
3.1677562127847905
20
-5.7526326663641658
30
0
10
2.8440105270129878
20
-5.7109555029876695
30
0
10
2.5450923415570519
20
-5.7133889191400637
30
0
0
SPLINE
5
218
100
AcDbEntity
8
0
100
AcDbSpline
70
4
71
3
72
8
73
4
74
0
42
0.000000001
43
0.0000000001
44
0.0000000001
40
0
40
0
40
0
40
0
40
1
40
1
40
1
40
1
41
1
41
1
41
1
41
1
10
2.5450923415570519
20
-5.7133889191400637
30
0
10
2.2434021335599046
20
-5.7158685858042011
30
0
10
1.9339644008151826
20
-5.6591746709076531
30
0
10
1.6472446938263439
20
-5.6353479489414111
30
0
0
SPLINE
5
219
100
AcDbEntity
8
0
100
AcDbSpline
70
4
71
3
72
8
73
4
74
0
42
0.000000001
43
0.0000000001
44
0.0000000001
40
0
40
0
40
0
40
0
40
1
40
1
40
1
40
1
41
1
41
1
41
1
41
1
10
1.6472446938263439
20
-5.6353479489414111
30
0
10
1.6851640971288306
20
-5.6919341339874361
30
0
10
1.8555077400414741
20
-5.8037973889849068
30
0
10
1.9205649131244513
20
-5.8499411109283832
30
0
0
SPLINE
5
220
100
AcDbEntity
8
0
100
AcDbSpline
70
4
71
3
72
8
73
4
74
0
42
0.000000001
43
0.0000000001
44
0.0000000001
40
0
40
0
40
0
40
0
40
1
40
1
40
1
40
1
41
1
41
1
41
1
41
1
10
1.9205649131244513
20
-5.8499411109283832
30
0
10
2.2183892551766453
20
-6.061299933266926
30
0
10
2.5289358721419362
20
-6.2539917858517198
30
0
10
2.8570712203046913
20
-6.4164038420208671
30
0
0
SPLINE
5
221
100
AcDbEntity
8
0
100
AcDbSpline
70
4
71
3
72
8
73
4
74
0
42
0.000000001
43
0.0000000001
44
0.0000000001
40
0
40
0
40
0
40
0
40
1
40
1
40
1
40
1
41
1
41
1
41
1
41
1
10
2.8570712203046913
20
-6.4164038420208671
30
0
10
3.0889453407748069
20
-6.5311472254304945
30
0
10
3.0191597109018495
20
-6.3921614294795699
30
0
10
3.0769164475174335
20
-6.6845336634421955
30
0
0
SPLINE
5
222
100
AcDbEntity
8
0
100
AcDbSpline
70
4
71
3
72
8
73
4
74
0
42
0.000000001
43
0.0000000001
44
0.0000000001
40
0
40
0
40
0
40
0
40
1
40
1
40
1
40
1
41
1
41
1
41
1
41
1
10
3.0769164475174335
20
-6.6845336634421955
30
0
10
3.2272227142531809
20
-7.4456132836631159
30
0
10
3.512540993134166
20
-7.5360221295283809
30
0
10
3.5991144307085507
20
-7.6652584680120599
30
0
0
SPLINE
5
223
100
AcDbEntity
8
0
100
AcDbSpline
70
4
71
3
72
8
73
4
74
0
42
0.000000001
43
0.0000000001
44
0.0000000001
40
0
40
0
40
0
40
0
40
1
40
1
40
1
40
1
41
1
41
1
41
1
41
1
10
3.5991144307085507
20
-7.6652584680120599
30
0
10
3.5526010806915518
20
-7.6761013928626269
30
0
10
3.5009588121365534
20
-7.685835433492624
30
0
10
3.4624851547339932
20
-7.7042867555351151
30
0
0
SPLINE
5
224
100
AcDbEntity
8
0
100
AcDbSpline
70
4
71
3
72
8
73
4
74
0
42
0.000000001
43
0.0000000001
44
0.0000000001
40
0
40
0
40
0
40
0
40
1
40
1
40
1
40
1
41
1
41
1
41
1
41
1
10
3.4624851547339932
20
-7.7042867555351151
30
0
10
3.4666435645662306
20
-7.8918961281038644
30
0
10
3.6947905706266222
20
-8.2844261013683695
30
0
10
3.7860924649909879
20
-8.4151567450038076
30
0
0
SPLINE
5
225
100
AcDbEntity
8
0
100
AcDbSpline
70
4
71
3
72
8
73
4
74
0
42
0.000000001
43
0.0000000001
44
0.0000000001
40
0
40
0
40
0
40
0
40
1
40
1
40
1
40
1
41
1
41
1
41
1
41
1
10
3.7860924649909879
20
-8.4151567450038076
30
0
10
3.8904858863215521
20
-8.5646158377317754
30
0
10
4.0299029776949906
20
-8.7076675424914516
30
0
10
4.1851992234232966
20
-8.7967825020891759
30
0
0
LINE
5
226
100
AcDbEntity
8
0
100
AcDbLine
10
4.1851992234232966
20
-8.7967825020891759
30
0
11
4.3146359807911958
21
-8.8625480976447033
31
0
0
SPLINE
5
227
100
AcDbEntity
8
0
100
AcDbSpline
70
4
71
3
72
8
73
4
74
0
42
0.000000001
43
0.0000000001
44
0.0000000001
40
0
40
0
40
0
40
0
40
1
40
1
40
1
40
1
41
1
41
1
41
1
41
1
10
4.3146359807911958
20
-8.8625480976447033
30
0
10
4.3538028318392694
20
-8.8859741698527159
30
0
10
4.3345505863007414
20
-8.8725130148129949
30
0
10
4.3603331784851216
20
-8.8949381206611715
30
0
0
SPLINE
5
228
100
AcDbEntity
8
0
100
AcDbSpline
70
4
71
3
72
8
73
4
74
0
42
0.000000001
43
0.0000000001
44
0.0000000001
40
0
40
0
40
0
40
0
40
1
40
1
40
1
40
1
41
1
41
1
41
1
41
1
10
4.3603331784851216
20
-8.8949381206611715
30
0
10
4.2858655303441378
20
-8.9122805584830971
30
0
10
4.2786265732155249
20
-8.9361379261136236
30
0
10
4.2041589250745401
20
-8.9534803639355474
30
0
0
SPLINE
5
229
100
AcDbEntity
8
0
100
AcDbSpline
70
4
71
3
72
8
73
4
74
0
42
0.000000001
43
0.0000000001
44
0.0000000001
40
0
40
0
40
0
40
0
40
1
40
1
40
1
40
1
41
1
41
1
41
1
41
1
10
4.2041589250745401
20
-8.9534803639355474
30
0
10
4.2609607578318212
20
-9.1661947398906189
30
0
10
5.063502269738402
20
-9.7188417286866855
30
0
10
5.2972091137388846
20
-9.7732721886609841
30
0
0
SPLINE
5
230
100
AcDbEntity
8
0
100
AcDbSpline
70
4
71
3
72
8
73
4
74
0
42
0.000000001
43
0.0000000001
44
0.0000000001
40
0
40
0
40
0
40
0
40
1
40
1
40
1
40
1
41
1
41
1
41
1
41
1
10
5.2972091137388846
20
-9.7732721886609841
30
0
10
5.263895020538607
20
-9.8230354831738715
30
0
10
5.2637564570135886
20
-9.8342168264030452
30
0
10
5.1996079372771717
20
-9.8513287637070945
30
0
0
SPLINE
5
231
100
AcDbEntity
8
0
100
AcDbSpline
70
4
71
3
72
8
73
4
74
0
42
0.000000001
43
0.0000000001
44
0.0000000001
40
0
40
0
40
0
40
0
40
1
40
1
40
1
40
1
41
1
41
1
41
1
41
1
10
5.1996079372771717
20
-9.8513287637070945
30
0
10
5.305587600752351
20
-9.9959672746420178
30
0
10
6.1668099194583226
20
-10.241702635879452
30
0
10
6.3707451586417019
20
-10.241702635879452
30
0
0
LINE
5
232
100
AcDbEntity
8
0
100
AcDbLine
10
6.3707451586417001
20
-10.241702635879451
30
0
11
6.3707451586417019
21
-10.280761381056582
31
0
0
SPLINE
5
233
100
AcDbEntity
8
0
100
AcDbSpline
70
4
71
3
72
8
73
4
74
0
42
0.000000001
43
0.0000000001
44
0.0000000001
40
0
40
0
40
0
40
0
40
1
40
1
40
1
40
1
41
1
41
1
41
1
41
1
10
6.3707451586417019
20
-10.280761381056582
30
0
10
6.2587278762794112
20
-10.306836893148668
30
0
10
6.0823311036373049
20
-10.437859704650972
30
0
10
5.9912294401469479
20
-10.506320990602314
30
0
0
SPLINE
5
234
100
AcDbEntity
8
0
100
AcDbSpline
70
4
71
3
72
8
73
4
74
0
42
0.000000001
43
0.0000000001
44
0.0000000001
40
0
40
0
40
0
40
0
40
1
40
1
40
1
40
1
41
1
41
1
41
1
41
1
10
5.9912294401469479
20
-10.506320990602314
30
0
10
5.8820152490131266
20
-10.588320515779616
30
0
10
5.7617580901649417
20
-10.685813586370385
30
0
10
5.6762935368111247
20
-10.796475644134011
30
0
0
SPLINE
5
235
100
AcDbEntity
8
0
100
AcDbSpline
70
4
71
3
72
8
73
4
74
0
42
0.000000001
43
0.0000000001
44
0.0000000001
40
0
40
0
40
0
40
0
40
1
40
1
40
1
40
1
41
1
41
1
41
1
41
1
10
5.6762935368111247
20
-10.796475644134011
30
0
10
5.5224449697024145
20
-10.995774739540686
30
0
10
5.2632480774048362
20
-11.257081858439088
30
0
10
5.0742835272399773
20
-11.404584892938708
30
0
0
SPLINE
5
236
100
AcDbEntity
8
0
100
AcDbSpline
70
4
71
3
72
8
73
4
74
0
42
0.000000001
43
0.0000000001
44
0.0000000001
40
0
40
0
40
0
40
0
40
1
40
1
40
1
40
1
41
1
41
1
41
1
41
1
10
5.0742835272399773
20
-11.404584892938708
30
0
10
4.9531791943840133
20
-11.499167565473456
30
0
10
4.6869437638420424
20
-11.73817216118082
30
0
10
4.5170772908432344
20
-11.745226304272672
30
0
0
SPLINE
5
237
100
AcDbEntity
8
0
100
AcDbSpline
70
4
71
3
72
8
73
4
74
0
42
0.000000001
43
0.0000000001
44
0.0000000001
40
0
40
0
40
0
40
0
40
1
40
1
40
1
40
1
41
1
41
1
41
1
41
1
10
4.5170772908432344
20
-11.745226304272672
30
0
10
4.1194798783795123
20
-11.761783235435805
30
0
10
3.7225138042021024
20
-11.922100293831168
30
0
10
3.5015288590942957
20
-12.252114616036032
30
0
0
SPLINE
5
238
100
AcDbEntity
8
0
100
AcDbSpline
70
4
71
3
72
8
73
4
74
0
42
0.000000001
43
0.0000000001
44
0.0000000001
40
0
40
0
40
0
40
0
40
1
40
1
40
1
40
1
41
1
41
1
41
1
41
1
10
3.5015288590942957
20
-12.252114616036032
30
0
10
3.55520427006388
20
-12.239608176844403
30
0
10
3.6039970558710075
20
-12.225592391684184
30
0
10
3.6576570500033445
20
-12.213086704533398
30
0
0
SPLINE
5
239
100
AcDbEntity
8
0
100
AcDbSpline
70
4
71
3
72
8
73
4
74
0
42
0.000000001
43
0.0000000001
44
0.0000000001
40
0
40
0
40
0
40
0
40
1
40
1
40
1
40
1
41
1
41
1
41
1
41
1
10
3.6576570500033445
20
-12.213086704533398
30
0
10
3.5510921107433857
20
-12.414526860215391
30
0
10
3.5019601545168095
20
-12.608466160545772
30
0
10
3.5210431908660342
20
-12.837691217152239
30
0
0
LINE
5
240
100
AcDbEntity
8
0
100
AcDbLine
10
3.5210431908660342
20
-12.837691217152241
30
0
11
3.5795700173031593
21
-12.798663305649605
31
0
0
LINE
5
241
100
AcDbEntity
8
0
100
AcDbLine
10
3.5795700173031593
20
-12.798663305649605
30
0
11
3.5796155157740608
21
-12.798586597483785
31
0
0
SPLINE
5
242
100
AcDbEntity
8
0
100
AcDbSpline
70
4
71
3
72
8
73
4
74
0
42
0.000000001
43
0.0000000001
44
0.0000000001
40
0
40
0
40
0
40
0
40
1
40
1
40
1
40
1
41
1
41
1
41
1
41
1
10
8.6739755209900373
20
-14.016606984949046
30
0
10
8.9750343907008716
20
-14.017346241096092
30
0
10
9.1002356540502944
20
-13.958326827907884
30
0
10
9.3202502784625505
20
-13.85508816528921
30
0
0
SPLINE
5
243
100
AcDbEntity
8
0
100
AcDbSpline
70
4
71
3
72
8
73
4
74
0
42
0.000000001
43
0.0000000001
44
0.0000000001
40
0
40
0
40
0
40
0
40
1
40
1
40
1
40
1
41
1
41
1
41
1
41
1
10
9.3202502784625505
20
-13.85508816528921
30
0
10
9.5025767521310343
20
-13.769546527749156
30
0
10
10.190328630116246
20
-13.827873311322483
30
0
10
11.15323345092993
20
-13.267232128382878
30
0
0
SPLINE
5
244
100
AcDbEntity
8
0
100
AcDbSpline
70
4
71
3
72
8
73
4
74
0
42
0.000000001
43
0.0000000001
44
0.0000000001
40
0
40
0
40
0
40
0
40
1
40
1
40
1
40
1
41
1
41
1
41
1
41
1
10
11.15323345092993
20
-13.267232128382878
30
0
10
11.517747646731669
20
-13.054995674382482
30
0
10
11.813539222389696
20
-12.613765040313915
30
0
10
12.18353654796571
20
-12.306714285199634
30
0
0
SPLINE
5
245
100
AcDbEntity
8
0
100
AcDbSpline
70
4
71
3
72
8
73
4
74
0
42
0.000000001
43
0.0000000001
44
0.0000000001
40
0
40
0
40
0
40
0
40
1
40
1
40
1
40
1
41
1
41
1
41
1
41
1
10
12.18353654796571
20
-12.306714285199634
30
0
10
12.262594089371657
20
-12.241133315670657
30
0
10
12.317023797305113
20
-12.174520546107351
30
0
10
12.397113138745391
20
-12.110510589895952
30
0
0
LINE
5
246
100
AcDbEntity
8
0
100
AcDbLine
10
12.397113138745393
20
-12.11051058989595
30
0
11
12.714328477871343
21
-11.823205419112123
31
0
0
SPLINE
5
247
100
AcDbEntity
8
0
100
AcDbSpline
70
4
71
3
72
8
73
4
74
0
42
0.000000001
43
0.0000000001
44
0.0000000001
40
0
40
0
40
0
40
0
40
1
40
1
40
1
40
1
41
1
41
1
41
1
41
1
10
12.714328477871341
20
-11.823205419112123
30
0
10
12.756375457331568
20
-11.785841021950551
30
0
10
12.77080674505663
20
-11.795389684513157
30
0
10
12.810158410141469
20
-11.762337489535881
30
0
0
SPLINE
5
248
100
AcDbEntity
8
0
100
AcDbSpline
70
4
71
3
72
8
73
4
74
0
42
0.000000001
43
0.0000000001
44
0.0000000001
40
0
40
0
40
0
40
0
40
1
40
1
40
1
40
1
41
1
41
1
41
1
41
1
10
12.170213768440798
20
-11.675871593801807
30
0
10
12.170290852627035
20
-11.675840760127311
30
0
10
12.270186693705913
20
-11.697773279224407
30
0
10
12.660760984762492
20
-11.646068967299998
30
0
0
SPLINE
5
249
100
AcDbEntity
8
0
100
AcDbSpline
70
4
71
3
72
8
73
4
74
0
42
0.000000001
43
0.0000000001
44
0.0000000001
40
0
40
0
40
0
40
0
40
1
40
1
40
1
40
1
41
1
41
1
41
1
41
1
10
12.660760984762492
20
-11.646068967299998
30
0
10
13.043634377603658
20
-11.595381414593092
30
0
10
13.442340862298158
20
-11.502539716606064
30
0
10
13.542482620732155
20
-11.481593123051978
30
0
0
SPLINE
5
250
100
AcDbEntity
8
0
100
AcDbSpline
70
4
71
3
72
8
73
4
74
0
42
0.000000001
43
0.0000000001
44
0.0000000001
40
0
40
0
40
0
40
0
40
1
40
1
40
1
40
1
41
1
41
1
41
1
41
1
10
13.542482620732155
20
-11.481593123051978
30
0
10
13.671180121953011
20
-11.454670812972534
30
0
10
14.014732683383835
20
-11.343316125594024
30
0
10
13.90340807763898
20
-11.142121887267152
30
0
0
SPLINE
5
251
100
AcDbEntity
8
0
100
AcDbSpline
70
4
71
3
72
8
73
4
74
0
42
0.000000001
43
0.0000000001
44
0.0000000001
40
0
40
0
40
0
40
0
40
1
40
1
40
1
40
1
41
1
41
1
41
1
41
1
10
13.90340807763898
20
-11.142121887267152
30
0
10
13.851919601436038
20
-11.049141061724475
30
0
10
13.560779774402173
20
-11.034740231653489
30
0
10
13.456525104606834
20
-11.06096991211805
30
0
0
SPLINE
5
252
100
AcDbEntity
8
0
100
AcDbSpline
70
4
71
3
72
8
73
4
74
0
42
0.000000001
43
0.0000000001
44
0.0000000001
40
0
40
0
40
0
40
0
40
1
40
1
40
1
40
1
41
1
41
1
41
1
41
1
10
13.456525104606834
20
-11.06096991211805
30
0
10
13.394440372949289
20
-11.076571751412672
30
0
10
13.34800410711853
20
-11.081885671997641
30
0
10
13.280359537520891
20
-11.086352042554411
30
0
0
LINE
5
253
100
AcDbEntity
8
0
100
AcDbLine
10
13.280359537520889
20
-11.086352042554411
30
0
11
12.857980687242835
21
-11.088446476297568
31
0
0
SPLINE
5
254
100
AcDbEntity
8
0
100
AcDbSpline
70
4
71
3
72
8
73
4
74
0
42
0.000000001
43
0.0000000001
44
0.0000000001
40
0
40
0
40
0
40
0
40
1
40
1
40
1
40
1
41
1
41
1
41
1
41
1
10
12.857980687242835
20
-11.088446476297568
30
0
10
12.772146505815495
20
-11.097256634753968
30
0
10
12.694136557301547
20
-11.187818896950867
30
0
10
12.347072341162045
20
-11.202974023985727
30
0
0
SPLINE
5
255
100
AcDbEntity
8
0
100
AcDbSpline
70
4
71
3
72
8
73
4
74
0
42
0.000000001
43
0.0000000001
44
0.0000000001
40
0
40
0
40
0
40
0
40
1
40
1
40
1
40
1
41
1
41
1
41
1
41
1
10
12.347072341162045
20
-11.202974023985727
30
0
10
12.163929715170486
20
-11.198060941169196
30
0
10
12.110377638898884
20
-11.181211466118778
30
0
10
11.973409192504876
20
-11.141151002540971
30
0
0
SPLINE
5
256
100
AcDbEntity
8
0
100
AcDbSpline
70
4
71
3
72
8
73
4
74
0
42
0.000000001
43
0.0000000001
44
0.0000000001
40
0
40
0
40
0
40
0
40
1
40
1
40
1
40
1
41
1
41
1
41
1
41
1
10
11.973409192504876
20
-11.141151002540971
30
0
10
11.761973285980098
20
-11.079251272930396
30
0
10
11.385553531618966
20
-11.48260913022864
30
0
10
11.833822891942136
20
-11.642880314132679
30
0
0
LINE
5
257
100
AcDbEntity
8
0
100
AcDbLine
10
11.833822891942136
20
-11.642880314132679
30
0
11
12.170182558745882
21
-11.67585580094414
31
0
0
SPLINE
5
258
100
AcDbEntity
8
0
100
AcDbSpline
70
4
71
3
72
8
73
4
74
0
42
0.000000001
43
0.0000000001
44
0.0000000001
40
0
40
0
40
0
40
0
40
1
40
1
40
1
40
1
41
1
41
1
41
1
41
1
10
12.36387556570072
20
-11.836126984848178
30
0
10
11.8492709388847
20
-11.865682941954026
30
0
10
11.450795330728493
20
-11.669987626259095
30
0
10
11.400154404553751
20
-11.550670330452384
30
0
0
SPLINE
5
259
100
AcDbEntity
8
0
100
AcDbSpline
70
4
71
3
72
8
73
4
74
0
42
0.000000001
43
0.0000000001
44
0.0000000001
40
0
40
0
40
0
40
0
40
1
40
1
40
1
40
1
41
1
41
1
41
1
41
1
10
11.400154404553751
20
-11.550670330452384
30
0
10
11.320527192210484
20
-11.363060957883636
30
0
10
11.575765717539623
20
-11.080145449490759
30
0
10
11.880675036358163
20
-11.000918698895511
30
0
0
LINE
5
260
100
AcDbEntity
8
0
100
AcDbLine
10
11.880675036358165
20
-11.000918698895511
30
0
11
11.881075498106181
21
-10.85569510018602
31
0
0
SPLINE
5
261
100
AcDbEntity
8
0
100
AcDbSpline
70
4
71
3
72
8
73
4
74
0
42
0.000000001
43
0.0000000001
44
0.0000000001
40
0
40
0
40
0
40
0
40
1
40
1
40
1
40
1
41
1
41
1
41
1
41
1
10
11.881075498106181
20
-10.85569510018602
30
0
10
12.028501448419563
20
-11.119465904880679
30
0
10
12.237842545180765
20
-11.113012642421067
30
0
10
12.578561040700968
20
-11.042365173743923
30
0
0
SPLINE
5
262
100
AcDbEntity
8
0
100
AcDbSpline
70
4
71
3
72
8
73
4
74
0
42
0.000000001
43
0.0000000001
44
0.0000000001
40
0
40
0
40
0
40
0
40
1
40
1
40
1
40
1
41
1
41
1
41
1
41
1
10
12.578561040700968
20
-11.042365173743923
30
0
10
12.526179515998924
20
-10.813417620207916
30
0
10
12.365831247908647
20
-10.754320746813049
30
0
10
12.280043316993051
20
-10.576907543971306
30
0
0
SPLINE
5
263
100
AcDbEntity
8
0
100
AcDbSpline
70
4
71
3
72
8
73
4
74
0
42
0.000000001
43
0.0000000001
44
0.0000000001
40
0
40
0
40
0
40
0
40
1
40
1
40
1
40
1
41
1
41
1
41
1
41
1
10
12.280043316993051
20
-10.576907543971306
30
0
10
12.235378107343667
20
-10.484542639877693
30
0
10
12.273405052486465
20
-10.432561576923668
30
0
10
12.31257209154475
20
-10.378239410830524
30
0
0
SPLINE
5
264
100
AcDbEntity
8
0
100
AcDbSpline
70
4
71
3
72
8
73
4
74
0
42
0.000000001
43
0.0000000001
44
0.0000000001
40
0
40
0
40
0
40
0
40
1
40
1
40
1
40
1
41
1
41
1
41
1
41
1
10
12.31257209154475
20
-10.378239410830524
30
0
10
12.308737059274293
20
-10.37477400663359
30
0
10
12.3026534248882
20
-10.364485335883098
30
0
10
12.30065111614811
20
-10.368166575801499
30
0
0
SPLINE
5
265
100
AcDbEntity
8
0
100
AcDbSpline
70
4
71
3
72
8
73
4
74
0
42
0.000000001
43
0.0000000001
44
0.0000000001
40
0
40
0
40
0
40
0
40
1
40
1
40
1
40
1
41
1
41
1
41
1
41
1
10
12.30065111614811
20
-10.368166575801499
30
0
10
12.298741308431504
20
-10.371816982045406
30
0
10
12.291471705638607
20
-10.360358135745775
30
0
10
12.288776391263212
20
-10.358324617310767
30
0
0
SPLINE
5
266
100
AcDbEntity
8
0
100
AcDbSpline
70
4
71
3
72
8
73
4
74
0
42
0.000000001
43
0.0000000001
44
0.0000000001
40
0
40
0
40
0
40
0
40
1
40
1
40
1
40
1
41
1
41
1
41
1
41
1
10
12.288776391263212
20
-10.358324617310767
30
0
10
12.273574637696189
20
-10.346819144478973
30
0
10
12.271002658018777
20
-10.34420129031024
30
0
10
12.252813046189075
20
-10.332095688887048
30
0
0
SPLINE
5
267
100
AcDbEntity
8
0
100
AcDbSpline
70
4
71
3
72
8
73
4
74
0
42
0.000000001
43
0.0000000001
44
0.0000000001
40
0
40
0
40
0
40
0
40
1
40
1
40
1
40
1
41
1
41
1
41
1
41
1
10
12.252813046189075
20
-10.332095688887048
30
0
10
12.066389642027133
20
-10.208003685778614
30
0
10
11.933302854435748
20
-10.251867971931963
30
0
10
11.776728327287358
20
-10.397122404315951
30
0
0
SPLINE
5
268
100
AcDbEntity
8
0
100
AcDbSpline
70
4
71
3
72
8
73
4
74
0
42
0.000000001
43
0.0000000001
44
0.0000000001
40
0
40
0
40
0
40
0
40
1
40
1
40
1
40
1
41
1
41
1
41
1
41
1
10
11.776728327287358
20
-10.397122404315951
30
0
10
11.618967831732164
20
-10.54345451122559
30
0
10
11.46869239867091
20
-10.587042046349323
30
0
10
11.292665207099775
20
-10.713429278105551
30
0
0
SPLINE
5
269
100
AcDbEntity
8
0
100
AcDbSpline
70
4
71
3
72
8
73
4
74
0
42
0.000000001
43
0.0000000001
44
0.0000000001
40
0
40
0
40
0
40
0
40
1
40
1
40
1
40
1
41
1
41
1
41
1
41
1
10
11.292665207099775
20
-10.713429278105551
30
0
10
11.120257588098049
20
-10.837213696509874
30
0
10
11.043017353385222
20
-10.962815045586893
30
0
10
10.886181116024044
20
-11.087307886463766
30
0
0
SPLINE
5
270
100
AcDbEntity
8
0
100
AcDbSpline
70
4
71
3
72
8
73
4
74
0
42
0.000000001
43
0.0000000001
44
0.0000000001
40
0
40
0
40
0
40
0
40
1
40
1
40
1
40
1
41
1
41
1
41
1
41
1
10
10.886181116024044
20
-11.087307886463766
30
0
10
10.74719532007312
20
-11.197599940133449
30
0
10
10.658142027824386
20
-11.587927937814484
30
0
10
10.516399250149078
20
-11.741591690886432
30
0
0
SPLINE
5
271
100
AcDbEntity
8
0
100
AcDbSpline
70
4
71
3
72
8
73
4
74
0
42
0.000000001
43
0.0000000001
44
0.0000000001
40
0
40
0
40
0
40
0
40
1
40
1
40
1
40
1
41
1
41
1
41
1
41
1
10
10.516399250149078
20
-11.741591690886432
30
0
10
9.9233069408746442
20
-12.384740026571251
30
0
10
9.237618850968305
20
-13.03603597273124
30
0
10
8.4080935496434996
20
-13.188559631887705
30
0
0
SPLINE
5
272
100
AcDbEntity
8
0
100
AcDbSpline
70
4
71
3
72
8
73
4
74
0
42
0.000000001
43
0.0000000001
44
0.0000000001
40
0
40
0
40
0
40
0
40
1
40
1
40
1
40
1
41
1
41
1
41
1
41
1
10
10.859676510109175
20
-10.7989930172568
30
0
10
11.10786726847007
20
-10.580573560234495
30
0
10
11.490897462850887
20
-10.418854101456379
30
0
10
11.746956534460045
20
-10.191615963804797
30
0
0
SPLINE
5
273
100
AcDbEntity
8
0
100
AcDbSpline
70
4
71
3
72
8
73
4
74
0
42
0.000000001
43
0.0000000001
44
0.0000000001
40
0
40
0
40
0
40
0
40
1
40
1
40
1
40
1
41
1
41
1
41
1
41
1
10
11.746956534460045
20
-10.191615963804784
30
0
10
11.979446576379226
20
-9.972186239156887
30
0
10
12.056979354979337
20
-10.248895154486112
30
0
10
12.279997442501729
20
-10.100514488324638
30
0
0
SPLINE
5
274
100
AcDbEntity
8
0
100
AcDbSpline
70
4
71
3
72
8
73
4
74
0
42
0.000000001
43
0.0000000001
44
0.0000000001
40
0
40
0
40
0
40
0
40
1
40
1
40
1
40
1
41
1
41
1
41
1
41
1
10
12.279997442501729
20
-10.100514488324638
30
0
10
12.343776146154413
20
-10.058052006299564
30
0
10
12.381279670871633
20
-10.043974553790356
30
0
10
12.445474253109582
20
-10.011060734327888
30
0
0
SPLINE
5
275
100
AcDbEntity
8
0
100
AcDbSpline
70
4
71
3
72
8
73
4
74
0
42
0.000000001
43
0.0000000001
44
0.0000000001
40
0
40
0
40
0
40
0
40
1
40
1
40
1
40
1
41
1
41
1
41
1
41
1
10
12.445474253109582
20
-10.011060734327888
30
0
10
12.833029852228986
20
-9.8121775175064787
30
0
10
12.834585072688895
20
-9.9600964305913653
30
0
10
13.014216419992195
20
-9.9925169112619088
30
0
0
SPLINE
5
276
100
AcDbEntity
8
0
100
AcDbSpline
70
4
71
3
72
8
73
4
74
0
42
0.000000001
43
0.0000000001
44
0.0000000001
40
0
40
0
40
0
40
0
40
1
40
1
40
1
40
1
41
1
41
1
41
1
41
1
10
13.014216419992195
20
-9.9925169112619088
30
0
10
13.1050716020968
20
-10.008888840378072
30
0
10
13.365146126056231
20
-9.8871687740832535
30
0
10
13.654638231606702
20
-9.9636693766286122
30
0
0
SPLINE
5
277
100
AcDbEntity
8
0
100
AcDbSpline
70
4
71
3
72
8
73
4
74
0
42
0.000000001
43
0.0000000001
44
0.0000000001
40
0
40
0
40
0
40
0
40
1
40
1
40
1
40
1
41
1
41
1
41
1
41
1
10
13.654638231606702
20
-9.9636693766286122
30
0
10
13.836856975424663
20
-10.011845864966254
30
0
10
13.798783403749701
20
-10.062856795234941
30
0
10
14.022016950973139
20
-10.07956789477055
30
0
0
SPLINE
5
278
100
AcDbEntity
8
0
100
AcDbSpline
70
4
71
3
72
8
73
4
74
0
42
0.000000001
43
0.0000000001
44
0.0000000001
40
0
40
0
40
0
40
0
40
1
40
1
40
1
40
1
41
1
41
1
41
1
41
1
10
14.022016950973139
20
-10.07956789477055
30
0
10
14.17831435107149
20
-10.091288451282972
30
0
10
14.297678273410364
20
-10.143454516283969
30
0
10
14.399330129853794
20
-10.215596290112872
30
0
0
SPLINE
5
279
100
AcDbEntity
8
0
100
AcDbSpline
70
4
71
3
72
8
73
4
74
0
42
0.000000001
43
0.0000000001
44
0.0000000001
40
0
40
0
40
0
40
0
40
1
40
1
40
1
40
1
41
1
41
1
41
1
41
1
10
14.399330129853794
20
-10.215596290112872
30
0
10
14.709799662632845
20
-10.435949520913946
30
0
10
14.73930974524737
20
-10.768228238092112
30
0
10
14.678734359558412
20
-10.930008767964738
30
0
0
SPLINE
5
280
100
AcDbEntity
8
0
100
AcDbSpline
70
4
71
3
72
8
73
4
74
0
42
0.000000001
43
0.0000000001
44
0.0000000001
40
0
40
0
40
0
40
0
40
1
40
1
40
1
40
1
41
1
41
1
41
1
41
1
10
14.678734359558412
20
-10.930008767964738
30
0
10
14.606068413263088
20
-11.124148111158917
30
0
10
14.412976662960906
20
-11.16254506039566
30
0
10
14.322752819142615
20
-11.229081121793151
30
0
0
SPLINE
5
281
100
AcDbEntity
8
0
100
AcDbSpline
70
4
71
3
72
8
73
4
74
0
42
0.000000001
43
0.0000000001
44
0.0000000001
40
0
40
0
40
0
40
0
40
1
40
1
40
1
40
1
41
1
41
1
41
1
41
1
10
14.322752819142615
20
-11.229081121793151
30
0
10
14.213600107347574
20
-11.366111235536147
30
0
10
14.14050324165016
20
-11.476695833093116
30
0
10
13.967618076714178
20
-11.564778616636087
30
0
0
SPLINE
5
282
100
AcDbEntity
8
0
100
AcDbSpline
70
4
71
3
72
8
73
4
74
0
42
0.000000001
43
0.0000000001
44
0.0000000001
40
0
40
0
40
0
40
0
40
1
40
1
40
1
40
1
41
1
41
1
41
1
41
1
10
13.967618076714178
20
-11.564778616636087
30
0
10
13.710808162047039
20
-11.695586344457766
30
0
10
13.272165300513555
20
-11.714499419576844
30
0
10
13.07442180158721
20
-11.841795116669424
30
0
0
SPLINE
5
283
100
AcDbEntity
8
0
100
AcDbSpline
70
4
71
3
72
8
73
4
74
0
42
0.000000001
43
0.0000000001
44
0.0000000001
40
0
40
0
40
0
40
0
40
1
40
1
40
1
40
1
41
1
41
1
41
1
41
1
10
13.07442180158721
20
-11.841795116669424
30
0
10
12.951037844930907
20
-11.921252743802967
30
0
10
12.873797986238504
20
-12.011029875361498
30
0
10
12.757314380321993
20
-12.110356421523475
30
0
0
SPLINE
5
284
100
AcDbEntity
8
0
100
AcDbSpline
70
4
71
3
72
8
73
4
74
0
42
0.000000001
43
0.0000000001
44
0.0000000001
40
0
40
0
40
0
40
0
40
1
40
1
40
1
40
1
41
1
41
1
41
1
41
1
10
12.757314380321993
20
-12.110356421523475
30
0
10
12.219668350188311
20
-12.568667407180754
30
0
10
12.031689725566462
20
-12.828203469897781
30
0
10
11.5814180565032
20
-13.296356414045793
30
0
0
SPLINE
5
285
100
AcDbEntity
8
0
100
AcDbSpline
70
4
71
3
72
8
73
4
74
0
42
0.000000001
43
0.0000000001
44
0.0000000001
40
0
40
0
40
0
40
0
40
1
40
1
40
1
40
1
41
1
41
1
41
1
41
1
10
11.5814180565032
20
-13.296356414045793
30
0
10
11.494921703115052
20
-13.386318547651294
30
0
10
11.378098926779098
20
-13.483488240680282
30
0
10
11.258519544739176
20
-13.558802874818836
30
0
0
SPLINE
5
286
100
AcDbEntity
8
0
100
AcDbSpline
70
4
71
3
72
8
73
4
74
0
42
0.000000001
43
0.0000000001
44
0.0000000001
40
0
40
0
40
0
40
0
40
1
40
1
40
1
40
1
41
1
41
1
41
1
41
1
10
11.258519544739176
20
-13.558802874818836
30
0
10
10.904108641620537
20
-13.782005588367779
30
0
10
10.421601117913282
20
-13.952118730762548
30
0
10
9.9858381967817422
20
-14.043296914408513
30
0
0
SPLINE
5
287
100
AcDbEntity
8
0
100
AcDbSpline
70
4
71
3
72
8
73
4
74
0
42
0.000000001
43
0.0000000001
44
0.0000000001
40
0
40
0
40
0
40
0
40
1
40
1
40
1
40
1
41
1
41
1
41
1
41
1
10
9.9858381967817422
20
-14.043296914408513
30
0
10
9.8424937601245706
20
-14.073284542957296
30
0
10
9.6166109610272699
20
-14.093167750761713
30
0
10
9.4870202232971046
20
-14.130024520355377
30
0
0
SPLINE
5
288
100
AcDbEntity
8
0
100
AcDbSpline
70
4
71
3
72
8
73
4
74
0
42
0.000000001
43
0.0000000001
44
0.0000000001
40
0
40
0
40
0
40
0
40
1
40
1
40
1
40
1
41
1
41
1
41
1
41
1
10
9.4870202232971046
20
-14.130024520355377
30
0
10
9.4293251540305114
20
-14.146443076003701
30
0
10
9.3636364546510116
20
-14.194973775577619
30
0
10
9.2882753819905055
20
-14.223867936743078
30
0
0
SPLINE
5
289
100
AcDbEntity
8
0
100
AcDbSpline
70
4
71
3
72
8
73
4
74
0
42
0.000000001
43
0.0000000001
44
0.0000000001
40
0
40
0
40
0
40
0
40
1
40
1
40
1
40
1
41
1
41
1
41
1
41
1
10
9.2882753819905055
20
-14.223867936743078
30
0
10
9.2169035099729335
20
-14.251206125407791
30
0
10
9.1410188288766374
20
-14.269980825012061
30
0
10
9.0570790383286557
20
-14.285275079602572
30
0
0
SPLINE
5
290
100
AcDbEntity
8
0
100
AcDbSpline
70
4
71
3
72
8
73
4
74
0
42
0.000000001
43
0.0000000001
44
0.0000000001
40
0
40
0
40
0
40
0
40
1
40
1
40
1
40
1
41
1
41
1
41
1
41
1
10
9.0570790383286557
20
-14.285275079602572
30
0
10
8.8742289562243819
20
-14.318666444999295
30
0
10
8.68457121241401
20
-14.320098330761224
30
0
10
8.4936351871835551
20
-14.308485316089117
30
0
0
SPLINE
5
291
100
AcDbEntity
8
0
100
AcDbSpline
70
4
71
3
72
8
73
4
74
0
42
0.000000001
43
0.0000000001
44
0.0000000001
40
0
40
0
40
0
40
0
40
1
40
1
40
1
40
1
41
1
41
1
41
1
41
1
10
8.4936351871835551
20
-14.308485316089117
30
0
10
8.4097569699794583
20
-14.153034713978123
30
0
10
8.3548342052693929
20
-13.985062631858673
30
0
10
8.2712177922831902
20
-13.82910440217977
30
0
0
SPLINE
5
292
100
AcDbEntity
8
0
100
AcDbSpline
70
4
71
3
72
8
73
4
74
0
42
0.000000001
43
0.0000000001
44
0.0000000001
40
0
40
0
40
0
40
0
40
1
40
1
40
1
40
1
41
1
41
1
41
1
41
1
10
8.2712177922831902
20
-13.82910440217977
30
0
10
8.1431826510333547
20
-13.590238181987216
30
0
10
8.0862268379138076
20
-13.247039831792666
30
0
10
8.1455853275163594
20
-12.821303495178405
30
0
0
SPLINE
5
293
100
AcDbEntity
8
0
100
AcDbSpline
70
4
71
3
72
8
73
4
74
0
42
0.000000001
43
0.0000000001
44
0.0000000001
40
0
40
0
40
0
40
0
40
1
40
1
40
1
40
1
41
1
41
1
41
1
41
1
10
8.1455853275163594
20
-12.821303495178405
30
0
10
8.1984443041475537
20
-12.441926716229091
30
0
10
8.3724383533041049
20
-11.867131372614462
30
0
10
8.419028787507342
20
-11.595027955397658
30
0
0
SPLINE
5
294
100
AcDbEntity
8
0
100
AcDbSpline
70
4
71
3
72
8
73
4
74
0
42
0.000000001
43
0.0000000001
44
0.0000000001
40
0
40
0
40
0
40
0
40
1
40
1
40
1
40
1
41
1
41
1
41
1
41
1
10
8.419028787507342
20
-11.595027955397658
30
0
10
8.0819605102208367
20
-11.729701173143868
30
0
10
7.78045492825024
20
-12.036120213951417
30
0
10
7.6015630251041957
20
-12.311550659850349
30
0
0
SPLINE
5
295
100
AcDbEntity
8
0
100
AcDbSpline
70
4
71
3
72
8
73
4
74
0
42
0.000000001
43
0.0000000001
44
0.0000000001
40
0
40
0
40
0
40
0
40
1
40
1
40
1
40
1
41
1
41
1
41
1
41
1
10
7.6015630251041957
20
-12.311550659850349
30
0
10
6.8604747655611904
20
-13.452700440676306
30
0
10
7.5822645760564775
20
-13.065422720647783
30
0
10
6.638719683629291
20
-14.452692907621948
30
0
0
SPLINE
5
296
100
AcDbEntity
8
0
100
AcDbSpline
70
4
71
3
72
8
73
4
74
0
42
0.000000001
43
0.0000000001
44
0.0000000001
40
0
40
0
40
0
40
0
40
1
40
1
40
1
40
1
41
1
41
1
41
1
41
1
10
6.638719683629291
20
-14.452692907621948
30
0
10
6.3161136217474478
20
-14.927083278508103
30
0
10
6.0035341443828854
20
-15.44980505814522
30
0
10
5.9391700709403166
20
-16.077043969831305
30
0
0
SPLINE
5
297
100
AcDbEntity
8
0
100
AcDbSpline
70
4
71
3
72
8
73
4
74
0
42
0.000000001
43
0.0000000001
44
0.0000000001
40
0
40
0
40
0
40
0
40
1
40
1
40
1
40
1
41
1
41
1
41
1
41
1
10
5.9391700709403166
20
-16.077043969831305
30
0
10
5.9099220745590015
20
-16.362253954831136
30
0
10
5.9389852569035551
20
-16.489180399870609
30
0
10
5.8093945191733898
20
-16.72712311390999
30
0
0
SPLINE
5
298
100
AcDbEntity
8
0
100
AcDbSpline
70
4
71
3
72
8
73
4
74
0
42
0.000000001
43
0.0000000001
44
0.0000000001
40
0
40
0
40
0
40
0
40
1
40
1
40
1
40
1
41
1
41
1
41
1
41
1
10
5.8093945191733898
20
-16.72712311390999
30
0
10
5.441830703754877
20
-17.402136924124438
30
0
10
4.8298864226797233
20
-17.616191812879215
30
0
10
4.7436517795043649
20
-17.982431190371006
30
0
0
SPLINE
5
299
100
AcDbEntity
8
0
100
AcDbSpline
70
4
71
3
72
8
73
4
74
0
42
0.000000001
43
0.0000000001
44
0.0000000001
40
0
40
0
40
0
40
0
40
1
40
1
40
1
40
1
41
1
41
1
41
1
41
1
10
4.7436517795043649
20
-17.982431190371006
30
0
10
4.6773932211773337
20
-18.263975728310104
30
0
10
4.687435222531863
20
-18.33790435117805
30
0
10
4.574093455240301
20
-18.594190845419611
30
0
0
SPLINE
5
300
100
AcDbEntity
8
0
100
AcDbSpline
70
4
71
3
72
8
73
4
74
0
42
0.000000001
43
0.0000000001
44
0.0000000001
40
0
40
0
40
0
40
0
40
1
40
1
40
1
40
1
41
1
41
1
41
1
41
1
10
4.574093455240301
20
-18.594190845419611
30
0
10
4.3123860626040909
20
-19.185928165108141
30
0
10
4.0204297072267305
20
-19.65460452968173
30
0
10
4.0189203612581439
20
-19.659395029841122
30
0
0
SPLINE
5
301
100
AcDbEntity
8
0
100
AcDbSpline
70
4
71
3
72
8
73
4
74
0
42
0.000000001
43
0.0000000001
44
0.0000000001
40
0
40
0
40
0
40
0
40
1
40
1
40
1
40
1
41
1
41
1
41
1
41
1
10
4.0189203612581439
20
-19.659395029841122
30
0
10
3.9815247544016565
20
-19.776725433744989
30
0
10
3.9610865404563209
20
-19.924906057042662
30
0
10
3.9955403515516625
20
-20.053110971512435
30
0
0
SPLINE
5
302
100
AcDbEntity
8
0
100
AcDbSpline
70
4
71
3
72
8
73
4
74
0
42
0.000000001
43
0.0000000001
44
0.0000000001
40
0
40
0
40
0
40
0
40
1
40
1
40
1
40
1
41
1
41
1
41
1
41
1
10
3.9955403515516625
20
-20.053110971512435
30
0
10
4.0245727002217206
20
-20.160923546528192
30
0
10
4.1105456331842891
20
-20.249977214797344
30
0
10
4.2379184144631061
20
-20.192388935330221
30
0
0
SPLINE
5
303
100
AcDbEntity
8
0
100
AcDbSpline
70
4
71
3
72
8
73
4
74
0
42
0.000000001
43
0.0000000001
44
0.0000000001
40
0
40
0
40
0
40
0
40
1
40
1
40
1
40
1
41
1
41
1
41
1
41
1
10
4.2379184144631061
20
-20.192388935330221
30
0
10
4.3399090653055623
20
-20.146275295020402
30
0
10
4.3637049535973089
20
-20.011417827268058
30
0
10
4.4575325771273437
20
-19.986528283582782
30
0
0
SPLINE
5
304
100
AcDbEntity
8
0
100
AcDbSpline
70
4
71
3
72
8
73
4
74
0
42
0.000000001
43
0.0000000001
44
0.0000000001
40
0
40
0
40
0
40
0
40
1
40
1
40
1
40
1
41
1
41
1
41
1
41
1
10
4.4575325771273437
20
-19.986528283582782
30
0
10
4.4992559910155832
20
-20.040496238439651
30
0
10
4.4951592485323353
20
-20.048643848914825
30
0
10
4.5065103649814438
20
-20.127731471954423
30
0
0
SPLINE
5
305
100
AcDbEntity
8
0
100
AcDbSpline
70
4
71
3
72
8
73
4
74
0
42
0.000000001
43
0.0000000001
44
0.0000000001
40
0
40
0
40
0
40
0
40
1
40
1
40
1
40
1
41
1
41
1
41
1
41
1
10
4.5065103649814438
20
-20.127731471954423
30
0
10
4.5400863564047205
20
-20.230800173342953
30
0
10
4.532292957165823
20
-20.246402012637574
30
0
10
4.622593697160144
20
-20.35617139792252
30
0
0
SPLINE
5
306
100
AcDbEntity
8
0
100
AcDbSpline
70
4
71
3
72
8
73
4
74
0
42
0.000000001
43
0.0000000001
44
0.0000000001
40
0
40
0
40
0
40
0
40
1
40
1
40
1
40
1
41
1
41
1
41
1
41
1
10
4.622593697160144
20
-20.35617139792252
30
0
10
4.8104956136161769
20
-20.371773237217138
30
0
10
4.830810680873741
20
-20.200583172337559
30
0
10
4.9592923463731271
20
-20.222422438370327
30
0
0
SPLINE
5
307
100
AcDbEntity
8
0
100
AcDbSpline
70
4
71
3
72
8
73
4
74
0
42
0.000000001
43
0.0000000001
44
0.0000000001
40
0
40
0
40
0
40
0
40
1
40
1
40
1
40
1
41
1
41
1
41
1
41
1
10
4.9592923463731271
20
-20.222422438370327
30
0
10
5.0266752057579742
20
-20.233897077527626
30
0
10
5.0130292366814917
20
-20.259925211046706
30
0
10
5.063007990895426
20
-20.276575395274168
30
0
0
SPLINE
5
308
100
AcDbEntity
8
0
100
AcDbSpline
70
4
71
3
72
8
73
4
74
0
42
0.000000001
43
0.0000000001
44
0.0000000001
40
0
40
0
40
0
40
0
40
1
40
1
40
1
40
1
41
1
41
1
41
1
41
1
10
5.063007990895426
20
-20.276575395274168
30
0
10
5.1980816703896533
20
-20.316296688432523
30
0
10
5.3232060375630486
20
-20.339014338167988
30
0
10
5.4190821263398137
20
-20.2205904668808
30
0
0
SPLINE
5
309
100
AcDbEntity
8
0
100
AcDbSpline
70
4
71
3
72
8
73
4
74
0
42
0.000000001
43
0.0000000001
44
0.0000000001
40
0
40
0
40
0
40
0
40
1
40
1
40
1
40
1
41
1
41
1
41
1
41
1
10
5.4190821263398137
20
-20.2205904668808
30
0
10
5.4462663346422566
20
-20.18698326576261
30
0
10
5.4698310643803945
20
-20.149542160435221
30
0
10
5.5319926922139686
20
-20.152684187070374
30
0
0
SPLINE
5
310
100
AcDbEntity
8
0
100
AcDbSpline
70
4
71
3
72
8
73
4
74
0
42
0.000000001
43
0.0000000001
44
0.0000000001
40
0
40
0
40
0
40
0
40
1
40
1
40
1
40
1
41
1
41
1
41
1
41
1
10
5.5319926922139686
20
-20.152684187070374
30
0
10
5.6082315845465391
20
-20.156549676994906
30
0
10
5.5903808611209698
20
-20.18957179033853
30
0
10
5.629085583072035
20
-20.239257624644761
30
0
0
SPLINE
5
311
100
AcDbEntity
8
0
100
AcDbSpline
70
4
71
3
72
8
73
4
74
0
42
0.000000001
43
0.0000000001
44
0.0000000001
40
0
40
0
40
0
40
0
40
1
40
1
40
1
40
1
41
1
41
1
41
1
41
1
10
5.629085583072035
20
-20.239257624644761
30
0
10
5.8473444741350562
20
-20.095805834157485
30
0
10
5.7821948000285941
20
-20.114873077649044
30
0
10
5.9413724225442062
20
-20.078462268274301
30
0
0
LINE
5
312
100
AcDbEntity
8
0
100
AcDbLine
10
5.9413724225442053
20
-20.078462268274301
30
0
11
5.9713596750725664
21
-20.152760895236192
31
0
0
SPLINE
5
313
100
AcDbEntity
8
0
100
AcDbSpline
70
4
71
3
72
8
73
4
74
0
42
0.000000001
43
0.0000000001
44
0.0000000001
40
0
40
0
40
0
40
0
40
1
40
1
40
1
40
1
41
1
41
1
41
1
41
1
10
5.9713596750725673
20
-20.152760895236192
30
0
10
6.1985823289338349
20
-19.863422206017358
30
0
10
6.0563159428227369
20
-19.836715731659378
30
0
10
6.1643904160614937
20
-19.520978904827519
30
0
0
SPLINE
5
314
100
AcDbEntity
8
0
100
AcDbSpline
70
4
71
3
72
8
73
4
74
0
42
0.000000001
43
0.0000000001
44
0.0000000001
40
0
40
0
40
0
40
0
40
1
40
1
40
1
40
1
41
1
41
1
41
1
41
1
10
6.1643904160614937
20
-19.520978904827519
30
0
10
6.5002728189462982
20
-18.539652843604998
30
0
10
5.7820254028290803
20
-18.364442368387564
30
0
10
7.4767621294976854
20
-17.14465167678177
30
0
0
SPLINE
5
315
100
AcDbEntity
8
0
100
AcDbSpline
70
4
71
3
72
8
73
4
74
0
42
0.000000001
43
0.0000000001
44
0.0000000001
40
0
40
0
40
0
40
0
40
1
40
1
40
1
40
1
41
1
41
1
41
1
41
1
10
7.4767621294976854
20
-17.14465167678177
30
0
10
7.8660886907933598
20
-16.864430730723445
30
0
10
8.1672708952021758
20
-16.539452826033095
30
0
10
8.4086940542553172
20
-16.048845446444091
30
0
0
SPLINE
5
316
100
AcDbEntity
8
0
100
AcDbSpline
70
4
71
3
72
8
73
4
74
0
42
0.000000001
43
0.0000000001
44
0.0000000001
40
0
40
0
40
0
40
0
40
1
40
1
40
1
40
1
41
1
41
1
41
1
41
1
10
8.4086940542553172
20
-16.048845446444091
30
0
10
8.4392665825684574
20
-16.251749073603349
30
0
10
8.429132268200652
20
-16.38978015370618
30
0
10
8.4149625966832744
20
-16.591096974690196
30
0
0
SPLINE
5
317
100
AcDbEntity
8
0
100
AcDbSpline
70
4
71
3
72
8
73
4
74
0
42
0.000000001
43
0.0000000001
44
0.0000000001
40
0
40
0
40
0
40
0
40
1
40
1
40
1
40
1
41
1
41
1
41
1
41
1
10
8.4149625966832744
20
-16.591096974690196
30
0
10
8.5166606096333393
20
-16.536512346343418
30
0
10
8.7315156698433132
20
-16.339539313259039
30
0
10
8.8346614554180807
20
-16.25783308400986
30
0
0
SPLINE
5
318
100
AcDbEntity
8
0
100
AcDbSpline
70
4
71
3
72
8
73
4
74
0
42
0.000000001
43
0.0000000001
44
0.0000000001
40
0
40
0
40
0
40
0
40
1
40
1
40
1
40
1
41
1
41
1
41
1
41
1
10
8.8346614554180807
20
-16.25783308400986
30
0
10
8.9722764689254362
20
-16.148803706912801
30
0
10
9.1245848563910652
20
-16.045703419808937
30
0
10
9.2813906360981679
20
-15.943374726608294
30
0
0
SPLINE
5
319
100
AcDbEntity
8
0
100
AcDbSpline
70
4
71
3
72
8
73
4
74
0
42
0.000000001
43
0.0000000001
44
0.0000000001
40
0
40
0
40
0
40
0
40
1
40
1
40
1
40
1
41
1
41
1
41
1
41
1
10
9.2813906360981679
20
-15.943374726608294
30
0
10
9.5251394814531789
20
-15.784320344785558
30
0
10
9.7069884091874066
20
-15.621353846506125
30
0
10
9.8692462969840804
20
-15.39938297585531
30
0
0
SPLINE
5
320
100
AcDbEntity
8
0
100
AcDbSpline
70
4
71
3
72
8
73
4
74
0
42
0.000000001
43
0.0000000001
44
0.0000000001
40
0
40
0
40
0
40
0
40
1
40
1
40
1
40
1
41
1
41
1
41
1
41
1
10
9.8692462969840804
20
-15.39938297585531
30
0
10
9.9250161416968208
20
-15.32314408352274
30
0
10
9.9684801541123598
20
-15.235831389801309
30
0
10
10.019814273932615
20
-15.166846683424387
30
0
0
SPLINE
5
321
100
AcDbEntity
8
0
100
AcDbSpline
70
4
71
3
72
8
73
4
74
0
42
0.000000001
43
0.0000000001
44
0.0000000001
40
0
40
0
40
0
40
0
40
1
40
1
40
1
40
1
41
1
41
1
41
1
41
1
10
10.019814273932615
20
-15.166846683424387
30
0
10
11.226329188566083
20
-15.153123442151458
30
0
10
11.409872652326081
20
-14.914395597473709
30
0
10
12.179315342723219
20
-14.807723116373436
30
0
0
SPLINE
5
322
100
AcDbEntity
8
0
100
AcDbSpline
70
4
71
3
72
8
73
4
74
0
42
0.000000001
43
0.0000000001
44
0.0000000001
40
0
40
0
40
0
40
0
40
1
40
1
40
1
40
1
41
1
41
1
41
1
41
1
10
12.179315342723219
20
-14.807723116373436
30
0
10
12.175988690061514
20
-14.812066152232227
30
0
10
12.170320558240268
20
-14.812590324698647
30
0
10
12.16836450001192
20
-14.819937011677782
30
0
0
LINE
5
323
100
AcDbEntity
8
0
100
AcDbLine
10
12.16836450001192
20
-14.819937011677782
30
0
11
11.947302470717876
21
-15.03734901074834
31
0
0
SPLINE
5
324
100
AcDbEntity
8
0
100
AcDbSpline
70
4
71
3
72
8
73
4
74
0
42
0.000000001
43
0.0000000001
44
0.0000000001
40
0
40
0
40
0
40
0
40
1
40
1
40
1
40
1
41
1
41
1
41
1
41
1
10
11.947302470717876
20
-15.03734901074834
30
0
10
11.642408568736583
20
-15.455384449147189
30
0
10
11.723622211234677
20
-15.912987764372758
30
0
10
11.445095989212332
20
-16.174771677164575
30
0
0
SPLINE
5
325
100
AcDbEntity
8
0
100
AcDbSpline
70
4
71
3
72
8
73
4
74
0
42
0.000000001
43
0.0000000001
44
0.0000000001
40
0
40
0
40
0
40
0
40
1
40
1
40
1
40
1
41
1
41
1
41
1
41
1
10
11.445095989212332
20
-16.174771677164575
30
0
10
11.321450322343241
20
-16.290993572868292
30
0
10
11.373647221018732
20
-16.421538838436341
30
0
10
11.250555808249713
20
-16.682769249168924
30
0
0
SPLINE
5
326
100
AcDbEntity
8
0
100
AcDbSpline
70
4
71
3
72
8
73
4
74
0
42
0.000000001
43
0.0000000001
44
0.0000000001
40
0
40
0
40
0
40
0
40
1
40
1
40
1
40
1
41
1
41
1
41
1
41
1
10
11.250555808249713
20
-16.682769249168924
30
0
10
11.170882345394704
20
-16.851850591529363
30
0
10
10.977558966513387
20
-17.133040166191343
30
0
10
10.849785723486551
20
-17.204675064493177
30
0
0
SPLINE
5
327
100
AcDbEntity
8
0
100
AcDbSpline
70
4
71
3
72
8
73
4
74
0
42
0.000000001
43
0.0000000001
44
0.0000000001
40
0
40
0
40
0
40
0
40
1
40
1
40
1
40
1
41
1
41
1
41
1
41
1
10
10.849785723486551
20
-17.204675064493177
30
0
10
10.999244816214519
20
-16.945401464029782
30
0
10
11.060959919798542
20
-16.5496835896388
30
0
10
11.007222841479967
20
-16.205730190439539
30
0
0
SPLINE
5
328
100
AcDbEntity
8
0
100
AcDbSpline
70
4
71
3
72
8
73
4
74
0
42
0.000000001
43
0.0000000001
44
0.0000000001
40
0
40
0
40
0
40
0
40
1
40
1
40
1
40
1
41
1
41
1
41
1
41
1
10
11.007222841479967
20
-16.205730190439539
30
0
10
10.937760589168791
20
-16.287759797250491
30
0
10
10.883315464398084
20
-16.537038774932363
30
0
10
10.840051682856553
20
-16.643232958057538
30
0
0
SPLINE
5
329
100
AcDbEntity
8
0
100
AcDbSpline
70
4
71
3
72
8
73
4
74
0
42
0.000000001
43
0.0000000001
44
0.0000000001
40
0
40
0
40
0
40
0
40
1
40
1
40
1
40
1
41
1
41
1
41
1
41
1
10
10.840051682856553
20
-16.643232958057538
30
0
10
10.780400555361611
20
-16.789703440481986
30
0
10
10.718038696654029
20
-16.921650510178306
30
0
10
10.638318983287276
20
-17.04672994291143
30
0
0
SPLINE
5
330
100
AcDbEntity
8
0
100
AcDbSpline
70
4
71
3
72
8
73
4
74
0
42
0.000000001
43
0.0000000001
44
0.0000000001
40
0
40
0
40
0
40
0
40
1
40
1
40
1
40
1
41
1
41
1
41
1
41
1
10
10.638318983287276
20
-17.04672994291143
30
0
10
10.484100976115252
20
-17.288708108105489
30
0
10
10.207268726088047
20
-17.509615593006632
30
0
10
10.124869303193357
20
-17.723747189927231
30
0
0
SPLINE
5
331
100
AcDbEntity
8
0
100
AcDbSpline
70
4
71
3
72
8
73
4
74
0
42
0.000000001
43
0.0000000001
44
0.0000000001
40
0
40
0
40
0
40
0
40
1
40
1
40
1
40
1
41
1
41
1
41
1
41
1
10
10.124869303193357
20
-17.723747189927231
30
0
10
9.9990212847203743
20
-18.050820280401577
30
0
10
10.099795133481528
20
-18.349598586261024
30
0
10
9.9329475404301046
20
-18.723108694606978
30
0
0
SPLINE
5
332
100
AcDbEntity
8
0
100
AcDbSpline
70
4
71
3
72
8
73
4
74
0
42
0.000000001
43
0.0000000001
44
0.0000000001
40
0
40
0
40
0
40
0
40
1
40
1
40
1
40
1
41
1
41
1
41
1
41
1
10
9.9329475404301046
20
-18.723108694606978
30
0
10
9.6512486461083213
20
-19.353457295172038
30
0
10
9.1768578992017424
20
-19.329292718857822
30
0
10
9.2970689955483952
20
-19.924048730483527
30
0
0
SPLINE
5
333
100
AcDbEntity
8
0
100
AcDbSpline
70
4
71
3
72
8
73
4
74
0
42
0.000000001
43
0.0000000001
44
0.0000000001
40
0
40
0
40
0
40
0
40
1
40
1
40
1
40
1
41
1
41
1
41
1
41
1
10
9.2970689955483952
20
-19.924048730483527
30
0
10
9.3609247833873184
20
-20.23987730629803
30
0
10
9.4704315184084251
20
-19.95810264386148
30
0
10
9.8283386593984936
20
-19.92190842224905
30
0
0
SPLINE
5
334
100
AcDbEntity
8
0
100
AcDbSpline
70
4
71
3
72
8
73
4
74
0
42
0.000000001
43
0.0000000001
44
0.0000000001
40
0
40
0
40
0
40
0
40
1
40
1
40
1
40
1
41
1
41
1
41
1
41
1
10
9.8283386593984936
20
-19.92190842224905
30
0
10
10.069684734265396
20
-19.897450550006702
30
0
10
9.8719718810033363
20
-20.213757423796306
30
0
10
9.8679828683706123
20
-20.230684359053384
30
0
0
SPLINE
5
335
100
AcDbEntity
8
0
100
AcDbSpline
70
4
71
3
72
8
73
4
74
0
42
0.000000001
43
0.0000000001
44
0.0000000001
40
0
40
0
40
0
40
0
40
1
40
1
40
1
40
1
41
1
41
1
41
1
41
1
10
9.8679828683706123
20
-20.230684359053384
30
0
10
10.169118822267686
20
-20.407266556765435
30
0
10
10.16573050225699
20
-20.015490880464803
30
0
10
10.391613113344079
20
-20.209291805280376
30
0
0
SPLINE
5
336
100
AcDbEntity
8
0
100
AcDbSpline
70
4
71
3
72
8
73
4
74
0
42
0.000000001
43
0.0000000001
44
0.0000000001
40
0
40
0
40
0
40
0
40
1
40
1
40
1
40
1
41
1
41
1
41
1
41
1
10
10.391613113344079
20
-20.209291805280376
30
0
10
10.414962101365854
20
-20.271268995097611
30
0
10
10.401500946326133
20
-20.310650365795677
30
0
10
10.428685342638788
20
-20.391326299092206
30
0
0
SPLINE
5
337
100
AcDbEntity
8
0
100
AcDbSpline
70
4
71
3
72
8
73
4
74
0
42
0.000000001
43
0.0000000001
44
0.0000000001
40
0
40
0
40
0
40
0
40
1
40
1
40
1
40
1
41
1
41
1
41
1
41
1
10
10.428685342638788
20
-20.391326299092206
30
0
10
10.515875077682658
20
-20.470938846639068
30
0
10
10.57758980524626
20
-20.414197365159307
30
0
10
10.637857230210688
20
-20.364804826781203
30
0
0
SPLINE
5
338
100
AcDbEntity
8
0
100
AcDbSpline
70
4
71
3
72
8
73
4
74
0
42
0.000000001
43
0.0000000001
44
0.0000000001
40
0
40
0
40
0
40
0
40
1
40
1
40
1
40
1
41
1
41
1
41
1
41
1
10
10.637857230210688
20
-20.364804826781203
30
0
10
10.768356621287412
20
-20.257947343633958
30
0
10
10.745931515439233
20
-20.315164114925452
30
0
10
10.860058977399795
20
-20.35875240209003
30
0
0
SPLINE
5
339
100
AcDbEntity
8
0
100
AcDbSpline
70
4
71
3
72
8
73
4
74
0
42
0.000000001
43
0.0000000001
44
0.0000000001
40
0
40
0
40
0
40
0
40
1
40
1
40
1
40
1
41
1
41
1
41
1
41
1
10
10.860058977399795
20
-20.35875240209003
30
0
10
11.028231102383044
20
-20.376232839406338
30
0
10
11.252373490963254
20
-20.295681744889475
30
0
10
11.251125855207455
20
-19.90393765430418
30
0
0
SPLINE
5
340
100
AcDbEntity
8
0
100
AcDbSpline
70
4
71
3
72
8
73
4
74
0
42
0.000000001
43
0.0000000001
44
0.0000000001
40
0
40
0
40
0
40
0
40
1
40
1
40
1
40
1
41
1
41
1
41
1
41
1
10
11.251125855207455
20
-19.90393765430418
30
0
10
11.250432849572153
20
-19.677237950842962
30
0
10
11.326563824043989
20
-19.531060764346641
30
0
10
11.347910879346097
20
-19.298523719874876
30
0
0
SPLINE
5
341
100
AcDbEntity
8
0
100
AcDbSpline
70
4
71
3
72
8
73
4
74
0
42
0.000000001
43
0.0000000001
44
0.0000000001
40
0
40
0
40
0
40
0
40
1
40
1
40
1
40
1
41
1
41
1
41
1
41
1
10
11.347910879346097
20
-19.298523719874876
30
0
10
11.392067709386728
20
-18.818187714097018
30
0
10
11.193954582386862
20
-18.49491995027989
30
0
10
11.42341051553162
20
-18.065409872723745
30
0
0
SPLINE
5
342
100
AcDbEntity
8
0
100
AcDbSpline
70
4
71
3
72
8
73
4
74
0
42
0.000000001
43
0.0000000001
44
0.0000000001
40
0
40
0
40
0
40
0
40
1
40
1
40
1
40
1
41
1
41
1
41
1
41
1
10
11.42341051553162
20
-18.065409872723745
30
0
10
11.66996259312276
20
-17.603849318590999
30
0
10
12.193562004421731
20
-17.07070049268858
30
0
10
12.519633376495406
20
-16.566168324881165
30
0
0
LINE
5
343
100
AcDbEntity
8
0
100
AcDbLine
10
12.519633376495406
20
-16.566168324881165
30
0
11
12.60232553128759
21
-16.461189439755611
31
0
0
LINE
5
344
100
AcDbEntity
8
0
100
AcDbLine
10
12.60232553128759
20
-16.461189439755611
30
0
11
12.57997750962565
21
-16.737358389760747
31
0
0
SPLINE
5
345
100
AcDbEntity
8
0
100
AcDbSpline
70
4
71
3
72
8
73
4
74
0
42
0.000000001
43
0.0000000001
44
0.0000000001
40
0
40
0
40
0
40
0
40
1
40
1
40
1
40
1
41
1
41
1
41
1
41
1
10
12.579977509625648
20
-16.737358389760747
30
0
10
12.785098529205623
20
-16.470413972715594
30
0
10
12.936698682208911
20
-16.159652648090098
30
0
10
13.117007242289846
20
-15.875150333521976
30
0
0
SPLINE
5
346
100
AcDbEntity
8
0
100
AcDbSpline
70
4
71
3
72
8
73
4
74
0
42
0.000000001
43
0.0000000001
44
0.0000000001
40
0
40
0
40
0
40
0
40
1
40
1
40
1
40
1
41
1
41
1
41
1
41
1
10
13.117007242289846
20
-15.875150333521976
30
0
10
13.261645377204349
20
-15.646942036133018
30
0
10
13.178090631567136
20
-15.641843951269514
30
0
10
13.17171445329376
20
-15.297690509206449
30
0
0
SPLINE
5
347
100
AcDbEntity
8
0
100
AcDbSpline
70
4
71
3
72
8
73
4
74
0
42
0.000000001
43
0.0000000001
44
0.0000000001
40
0
40
0
40
0
40
0
40
1
40
1
40
1
40
1
41
1
41
1
41
1
41
1
10
13.17171445329376
20
-15.297690509206449
30
0
10
13.73563603838333
20
-12.970017315432596
30
0
10
15.617119640780762
20
-13.214905878682671
30
0
10
16.687559533539744
20
-12.05247033388318
30
0
0
SPLINE
5
348
100
AcDbEntity
8
0
100
AcDbSpline
70
4
71
3
72
8
73
4
74
0
42
0.000000001
43
0.0000000001
44
0.0000000001
40
0
40
0
40
0
40
0
40
1
40
1
40
1
40
1
41
1
41
1
41
1
41
1
10
18.086104316807411
20
-10.226386572104543
30
0
10
17.97216185689382
20
-10.381051291536327
30
0
10
17.754719024148766
20
-11.101470319588046
30
0
10
17.403296355313223
20
-11.653593887958534
30
0
0
SPLINE
5
349
100
AcDbEntity
8
0
100
AcDbSpline
70
4
71
3
72
8
73
4
74
0
42
0.000000001
43
0.0000000001
44
0.0000000001
40
0
40
0
40
0
40
0
40
1
40
1
40
1
40
1
41
1
41
1
41
1
41
1
10
16.417211379646648
20
-12.656635880515843
30
0
10
15.903869805423673
20
-12.975560608474177
30
0
10
15.00623761739401
20
-13.562045674926733
30
0
10
14.829301208445687
20
-14.118112193428413
30
0
0
SPLINE
5
350
100
AcDbEntity
8
0
100
AcDbSpline
70
4
71
3
72
8
73
4
74
0
42
0.000000001
43
0.0000000001
44
0.0000000001
40
0
40
0
40
0
40
0
40
1
40
1
40
1
40
1
41
1
41
1
41
1
41
1
10
14.829301208445687
20
-14.118112193428413
30
0
10
15.252943111316785
20
-14.116001966827588
30
0
10
15.130806414395861
20
-14.053039603508187
30
0
10
15.40269474793204
20
-14.228465914447087
30
0
0
SPLINE
5
351
100
AcDbEntity
8
0
100
AcDbSpline
70
4
71
3
72
8
73
4
74
0
42
0.000000001
43
0.0000000001
44
0.0000000001
40
0
40
0
40
0
40
0
40
1
40
1
40
1
40
1
41
1
41
1
41
1
41
1
10
15.40269474793204
20
-14.228465914447087
30
0
10
15.564551985970484
20
-14.332889793431724
30
0
10
15.685241004271816
20
-14.362661586259039
30
0
10
15.874621433021938
20
-14.431415416097666
30
0
0
SPLINE
5
352
100
AcDbEntity
8
0
100
AcDbSpline
70
4
71
3
72
8
73
4
74
0
42
0.000000001
43
0.0000000001
44
0.0000000001
40
0
40
0
40
0
40
0
40
1
40
1
40
1
40
1
41
1
41
1
41
1
41
1
10
15.874621433021938
20
-14.431415416097666
30
0
10
15.67230364567809
20
-14.476743173728281
30
0
10
15.461237367226834
20
-14.424592149544107
30
0
10
15.295513887223017
20
-14.36959239465291
30
0
0
SPLINE
5
353
100
AcDbEntity
8
0
100
AcDbSpline
70
4
71
3
72
8
73
4
74
0
42
0.000000001
43
0.0000000001
44
0.0000000001
40
0
40
0
40
0
40
0
40
1
40
1
40
1
40
1
41
1
41
1
41
1
41
1
10
15.295513887223017
20
-14.36959239465291
30
0
10
15.345831435835978
20
-14.389953900432428
30
0
10
15.404435722479763
20
-14.434772526413447
30
0
10
15.462654212171932
20
-14.460663036458559
30
0
0
SPLINE
5
354
100
AcDbEntity
8
0
100
AcDbSpline
70
4
71
3
72
8
73
4
74
0
42
0.000000001
43
0.0000000001
44
0.0000000001
40
0
40
0
40
0
40
0
40
1
40
1
40
1
40
1
41
1
41
1
41
1
41
1
10
15.462654212171932
20
-14.460663036458559
30
0
10
16.404474063916727
20
-14.880131112660177
30
0
10
17.054399039622936
20
-14.793526841411296
30
0
10
17.976519933569435
20
-14.331888827071891
30
0
0
SPLINE
5
355
100
AcDbEntity
8
0
100
AcDbSpline
70
4
71
3
72
8
73
4
74
0
42
0.000000001
43
0.0000000001
44
0.0000000001
40
0
40
0
40
0
40
0
40
1
40
1
40
1
40
1
41
1
41
1
41
1
41
1
10
17.976519933569435
20
-14.331888827071891
30
0
10
18.128089252898228
20
-14.256019938833262
30
0
10
18.632097248239223
20
-14.004493111076602
30
0
10
18.702252882206125
20
-13.920275817458162
30
0
0
SPLINE
5
356
100
AcDbEntity
8
0
100
AcDbSpline
70
4
71
3
72
8
73
4
74
0
42
0.000000001
43
0.0000000001
44
0.0000000001
40
0
40
0
40
0
40
0
40
1
40
1
40
1
40
1
41
1
41
1
41
1
41
1
10
18.5261331896115
20
-13.696303014087675
30
0
10
19.174857156094077
20
-13.793134288738058
30
0
10
20.345654643008526
20
-13.833008998228053
30
0
10
20.421678451660473
20
-13.445484608803566
30
0
0
SPLINE
5
357
100
AcDbEntity
8
0
100
AcDbSpline
70
4
71
3
72
8
73
4
74
0
42
0.000000001
43
0.0000000001
44
0.0000000001
40
0
40
0
40
0
40
0
40
1
40
1
40
1
40
1
41
1
41
1
41
1
41
1
10
20.421678451660473
20
-13.445484608803566
30
0
10
20.262331525950451
20
-13.404577347238401
30
0
10
20.078603436163906
20
-13.424984727509241
30
0
10
19.869230753687361
20
-13.370354976711983
30
0
0
SPLINE
5
358
100
AcDbEntity
8
0
100
AcDbSpline
70
4
71
3
72
8
73
4
74
0
42
0.000000001
43
0.0000000001
44
0.0000000001
40
0
40
0
40
0
40
0
40
1
40
1
40
1
40
1
41
1
41
1
41
1
41
1
10
19.869230753687361
20
-13.370354976711983
30
0
10
19.786754434616647
20
-13.348854129057823
30
0
10
19.631349706996975
20
-13.439586352484866
30
0
10
19.348141654716816
20
-13.410969694389864
30
0
0
SPLINE
5
359
100
AcDbEntity
8
0
100
AcDbSpline
70
4
71
3
72
8
73
4
74
0
42
0.000000001
43
0.0000000001
44
0.0000000001
40
0
40
0
40
0
40
0
40
1
40
1
40
1
40
1
41
1
41
1
41
1
41
1
10
19.348141654716816
20
-13.410969694389864
30
0
10
19.249955202470321
20
-13.401051027733315
30
0
10
19.1635976006174
20
-13.377809957572273
30
0
10
19.074082179271659
20
-13.366967032721709
30
0
0
SPLINE
5
360
100
AcDbEntity
8
0
100
AcDbSpline
70
4
71
3
72
8
73
4
74
0
42
0.000000001
43
0.0000000001
44
0.0000000001
40
0
40
0
40
0
40
0
40
1
40
1
40
1
40
1
41
1
41
1
41
1
41
1
10
19.074082179271659
20
-13.366967032721709
30
0
10
18.857717773093103
20
-13.340707270623492
30
0
10
18.628169338924859
20
-13.528008306447285
30
0
10
18.274975613907941
20
-13.327230698746522
30
0
0
SPLINE
5
361
100
AcDbEntity
8
0
100
AcDbSpline
70
4
71
3
72
8
73
4
74
0
42
0.000000001
43
0.0000000001
44
0.0000000001
40
0
40
0
40
0
40
0
40
1
40
1
40
1
40
1
41
1
41
1
41
1
41
1
10
18.274975613907941
20
-13.327230698746522
30
0
10
18.179546143385831
20
-13.272970200002367
30
0
10
18.188217174286585
20
-13.214690042961209
30
0
10
18.0648335936507
20
-13.226980646431366
30
0
0
SPLINE
5
362
100
AcDbEntity
8
0
100
AcDbSpline
70
4
71
3
72
8
73
4
74
0
42
0.000000001
43
0.0000000001
44
0.0000000001
40
0
40
0
40
0
40
0
40
1
40
1
40
1
40
1
41
1
41
1
41
1
41
1
10
18.0648335936507
20
-13.226980646431366
30
0
10
17.985083422629874
20
-13.234912421185074
30
0
10
17.885094328486666
20
-13.278807541012917
30
0
10
17.843586938330109
20
-13.321886696527899
30
0
0
SPLINE
5
363
100
AcDbEntity
8
0
100
AcDbSpline
70
4
71
3
72
8
73
4
74
0
42
0.000000001
43
0.0000000001
44
0.0000000001
40
0
40
0
40
0
40
0
40
1
40
1
40
1
40
1
41
1
41
1
41
1
41
1
10
17.843586938330109
20
-13.321886696527899
30
0
10
17.681205527825242
20
-13.490536367445403
30
0
10
17.877701767016209
20
-13.613919948081284
30
0
10
18.064864427325197
20
-13.635236545729319
30
0
0
SPLINE
5
364
100
AcDbEntity
8
0
100
AcDbSpline
70
4
71
3
72
8
73
4
74
0
42
0.000000001
43
0.0000000001
44
0.0000000001
40
0
40
0
40
0
40
0
40
1
40
1
40
1
40
1
41
1
41
1
41
1
41
1
10
18.360733087169464
20
-13.905723075137223
30
0
10
18.18961897841486
20
-13.890228777682916
30
0
10
17.259936313808595
20
-13.63412803752917
30
0
10
17.60763111619357
20
-13.300124138660948
30
0
0
SPLINE
5
365
100
AcDbEntity
8
0
100
AcDbSpline
70
4
71
3
72
8
73
4
74
0
42
0.000000001
43
0.0000000001
44
0.0000000001
40
0
40
0
40
0
40
0
40
1
40
1
40
1
40
1
41
1
41
1
41
1
41
1
10
17.60763111619357
20
-13.300124138660948
30
0
10
17.890808334799235
20
-13.028128263284454
30
0
10
18.167671418500937
20
-12.989947149769179
30
0
10
18.303330561790155
20
-13.157118308392594
30
0
0
SPLINE
5
366
100
AcDbEntity
8
0
100
AcDbSpline
70
4
71
3
72
8
73
4
74
0
42
0.000000001
43
0.0000000001
44
0.0000000001
40
0
40
0
40
0
40
0
40
1
40
1
40
1
40
1
41
1
41
1
41
1
41
1
10
18.303330561790155
20
-13.157118308392594
30
0
10
18.427561692454237
20
-13.313184831952654
30
0
10
18.671094326067362
20
-13.361207151917817
30
0
10
18.915059383164262
20
-13.261511353702739
30
0
0
SPLINE
5
367
100
AcDbEntity
8
0
100
AcDbSpline
70
4
71
3
72
8
73
4
74
0
42
0.000000001
43
0.0000000001
44
0.0000000001
40
0
40
0
40
0
40
0
40
1
40
1
40
1
40
1
41
1
41
1
41
1
41
1
10
18.915059383164262
20
-13.261511353702739
30
0
10
18.742990182541142
20
-12.961808037608435
30
0
10
18.679981944730422
20
-13.032409631794255
30
0
10
18.731408001543532
20
-12.576608958465398
30
0
0
SPLINE
5
368
100
AcDbEntity
8
0
100
AcDbSpline
70
4
71
3
72
8
73
4
74
0
42
0.000000001
43
0.0000000001
44
0.0000000001
40
0
40
0
40
0
40
0
40
1
40
1
40
1
40
1
41
1
41
1
41
1
41
1
10
18.731408001543532
20
-12.576608958465398
30
0
10
18.576928284158718
20
-12.513677428820493
30
0
10
18.468144824416783
20
-12.376832317124467
30
0
10
18.247606591568736
20
-12.496088697623028
30
0
0
SPLINE
5
369
100
AcDbEntity
8
0
100
AcDbSpline
70
4
71
3
72
8
73
4
74
0
42
0.000000001
43
0.0000000001
44
0.0000000001
40
0
40
0
40
0
40
0
40
1
40
1
40
1
40
1
41
1
41
1
41
1
41
1
10
18.247606591568736
20
-12.496088697623028
30
0
10
18.097916622302474
20
-12.577055670725159
30
0
10
17.973162071212812
20
-12.66503091242782
30
0
10
17.809948903537418
20
-12.741053969038923
30
0
0
SPLINE
5
370
100
AcDbEntity
8
0
100
AcDbSpline
70
4
71
3
72
8
73
4
74
0
42
0.000000001
43
0.0000000001
44
0.0000000001
40
0
40
0
40
0
40
0
40
1
40
1
40
1
40
1
41
1
41
1
41
1
41
1
10
17.809948903537418
20
-12.741053969038923
30
0
10
17.65827204236831
20
-12.811702189756906
30
0
10
17.502652231068016
20
-12.870305724359847
30
0
10
17.344814651326583
20
-12.940091354232807
30
0
0
SPLINE
5
371
100
AcDbEntity
8
0
100
AcDbSpline
70
4
71
3
72
8
73
4
74
0
42
0.000000001
43
0.0000000001
44
0.0000000001
40
0
40
0
40
0
40
0
40
1
40
1
40
1
40
1
41
1
41
1
41
1
41
1
10
17.344814651326583
20
-12.940091354232807
30
0
10
17.217965666493765
20
-12.996200369364995
30
0
10
17.133748372875324
20
-13.062920680768615
30
0
10
17.063516030742608
20
-13.165204251518777
30
0
0
LINE
5
372
100
AcDbEntity
8
0
100
AcDbLine
10
17.063516030742608
20
-13.165204251518773
30
0
11
16.98180980149343
21
-13.278961709385396
31
0
0
SPLINE
5
373
100
AcDbEntity
8
0
100
AcDbSpline
70
4
71
3
72
8
73
4
74
0
42
0.000000001
43
0.0000000001
44
0.0000000001
40
0
40
0
40
0
40
0
40
1
40
1
40
1
40
1
41
1
41
1
41
1
41
1
10
16.981809801493426
20
-13.278961709385392
30
0
10
16.991065920168747
20
-13.127177306375975
30
0
10
17.012720936195386
20
-13.092307428685158
30
0
10
17.062222520495485
20
-12.980397735165733
30
0
0
LINE
5
374
100
AcDbEntity
8
0
100
AcDbLine
10
17.062222520495485
20
-12.980397735165733
30
0
11
16.779753724362372
21
-13.011016325980405
31
0
0
SPLINE
5
375
100
AcDbEntity
8
0
100
AcDbSpline
70
4
71
3
72
8
73
4
74
0
42
0.000000001
43
0.0000000001
44
0.0000000001
40
0
40
0
40
0
40
0
40
1
40
1
40
1
40
1
41
1
41
1
41
1
41
1
10
17.744984607498345
20
-10.357071717269083
30
0
10
17.718570677027657
20
-10.131958819983112
30
0
10
17.699872685589199
20
-10.043214240499752
30
0
10
17.633953297681618
20
-9.8488124350519417
30
0
0
SPLINE
5
376
100
AcDbEntity
8
0
100
AcDbSpline
70
4
71
3
72
8
73
4
74
0
42
0.000000001
43
0.0000000001
44
0.0000000001
40
0
40
0
40
0
40
0
40
1
40
1
40
1
40
1
41
1
41
1
41
1
41
1
10
17.633953297681618
20
-9.8488124350519417
30
0
10
17.513773411029881
20
-9.9427942269544545
30
0
10
17.223664631989504
20
-10.412656559934851
30
0
10
16.696076396068019
20
-10.771380041258203
30
0
0
SPLINE
5
377
100
AcDbEntity
8
0
100
AcDbSpline
70
4
71
3
72
8
73
4
74
0
42
0.000000001
43
0.0000000001
44
0.0000000001
40
0
40
0
40
0
40
0
40
1
40
1
40
1
40
1
41
1
41
1
41
1
41
1
10
16.696076396068019
20
-10.771380041258203
30
0
10
16.533109897788588
20
-10.727824091849808
30
0
10
16.008478686455284
20
-10.248365717733801
30
0
10
15.672457814050565
20
-10.179427637889045
30
0
0
LINE
5
378
100
AcDbEntity
8
0
100
AcDbLine
10
15.672457814050569
20
-10.179427637889045
30
0
11
15.820191725088479
21
-10.628775048758287
31
0
0
SPLINE
5
379
100
AcDbEntity
8
0
100
AcDbSpline
70
4
71
3
72
8
73
4
74
0
42
0.000000001
43
0.0000000001
44
0.0000000001
40
0
40
0
40
0
40
0
40
1
40
1
40
1
40
1
41
1
41
1
41
1
41
1
10
15.820191725088483
20
-10.628775048758287
30
0
10
15.672935359984825
20
-10.515063465382992
30
0
10
15.600608584108951
20
-10.388676233626763
30
0
10
15.33916308969574
20
-10.212634001238799
30
0
0
SPLINE
5
380
100
AcDbEntity
8
0
100
AcDbSpline
70
4
71
3
72
8
73
4
74
0
42
0.000000001
43
0.0000000001
44
0.0000000001
40
0
40
0
40
0
40
0
40
1
40
1
40
1
40
1
41
1
41
1
41
1
41
1
10
15.33916308969574
20
-10.212634001238799
30
0
10
15.158453691846365
20
-10.090974850252129
30
0
10
14.957306080051657
20
-10.005664841291209
30
0
10
14.753108942645277
20
-9.9002858704380561
30
0
0
SPLINE
5
381
100
AcDbEntity
8
0
100
AcDbSpline
70
4
71
3
72
8
73
4
74
0
42
0.000000001
43
0.0000000001
44
0.0000000001
40
0
40
0
40
0
40
0
40
1
40
1
40
1
40
1
41
1
41
1
41
1
41
1
10
14.753108942645277
20
-9.9002858704380561
30
0
10
14.455099222525691
20
-9.7464679489936312
30
0
10
14.169720028336558
20
-9.5884457432256465
30
0
10
13.924908173252298
20
-9.3818920858429014
30
0
0
LINE
5
382
100
AcDbEntity
8
0
100
AcDbLine
10
13.924908173252298
20
-9.3818920858429031
30
0
11
13.690230820546056
21
-9.1422862334828796
31
0
0
SPLINE
5
383
100
AcDbEntity
8
0
100
AcDbSpline
70
4
71
3
72
8
73
4
74
0
42
0.000000001
43
0.0000000001
44
0.0000000001
40
0
40
0
40
0
40
0
40
1
40
1
40
1
40
1
41
1
41
1
41
1
41
1
10
13.690230820546059
20
-9.1422862334828796
30
0
10
13.597280828677874
20
-9.1880911610273301
30
0
10
13.477255110398614
20
-9.2856308581502631
30
0
10
13.398613447577935
20
-9.3450815667609852
30
0
0
SPLINE
5
384
100
AcDbEntity
8
0
100
AcDbSpline
70
4
71
3
72
8
73
4
74
0
42
0.000000001
43
0.0000000001
44
0.0000000001
40
0
40
0
40
0
40
0
40
1
40
1
40
1
40
1
41
1
41
1
41
1
41
1
10
13.398613447577935
20
-9.3450815667609852
30
0
10
13.29149387819748
20
-9.4261105832325249
30
0
10
13.210049359161092
20
-9.5191527001037723
30
0
10
13.122289953179902
20
-9.5771403132576509
30
0
0
SPLINE
5
385
100
AcDbEntity
8
0
100
AcDbSpline
70
4
71
3
72
8
73
4
74
0
42
0.000000001
43
0.0000000001
44
0.0000000001
40
0
40
0
40
0
40
0
40
1
40
1
40
1
40
1
41
1
41
1
41
1
41
1
10
13.122289953179902
20
-9.5771403132576509
30
0
10
13.177135915719044
20
-9.2071738213561343
30
0
10
13.377281809113077
20
-8.8293368460294808
30
0
10
13.475514887891732
20
-8.496673459960963
30
0
0
SPLINE
5
386
100
AcDbEntity
8
0
100
AcDbSpline
70
4
71
3
72
8
73
4
74
0
42
0.000000001
43
0.0000000001
44
0.0000000001
40
0
40
0
40
0
40
0
40
1
40
1
40
1
40
1
41
1
41
1
41
1
41
1
10
13.475514887891732
20
-8.496673459960963
30
0
10
12.918786197429247
20
-8.5534751047080348
30
0
10
12.457641145861345
20
-8.7864118588869751
30
0
10
11.955727208243085
20
-8.9504409908752347
30
0
0
SPLINE
5
387
100
AcDbEntity
8
0
100
AcDbSpline
70
4
71
3
72
8
73
4
74
0
42
0.000000001
43
0.0000000001
44
0.0000000001
40
0
40
0
40
0
40
0
40
1
40
1
40
1
40
1
41
1
41
1
41
1
41
1
10
11.955727208243085
20
-8.9504409908752347
30
0
10
12.005274667034506
20
-8.8101304749822731
30
0
10
12.222116619147322
20
-8.4864156228849676
30
0
10
12.303083968269872
20
-8.366312444399048
30
0
0
LINE
5
388
100
AcDbEntity
8
0
100
AcDbLine
10
12.303083968269872
20
-8.3663124443990498
30
0
11
12.603003120085642
21
-7.9639559294810605
31
0
0
SPLINE
5
389
100
AcDbEntity
8
0
100
AcDbSpline
70
4
71
3
72
8
73
4
74
0
42
0.000000001
43
0.0000000001
44
0.0000000001
40
0
40
0
40
0
40
0
40
1
40
1
40
1
40
1
41
1
41
1
41
1
41
1
10
12.603003120085642
20
-7.9639559294810605
30
0
10
12.640290809081396
20
-7.9151939773484283
30
0
10
12.687435873405128
20
-7.8745792596705471
30
0
10
12.71406563959729
20
-7.8244155034096403
30
0
0
SPLINE
5
390
100
AcDbEntity
8
0
100
AcDbSpline
70
4
71
3
72
8
73
4
74
0
42
0.000000001
43
0.0000000001
44
0.0000000001
40
0
40
0
40
0
40
0
40
1
40
1
40
1
40
1
41
1
41
1
41
1
41
1
10
12.71406563959729
20
-7.8244155034096403
30
0
10
12.405737167093557
20
-7.8438986254864629
30
0
10
12.087551319261845
20
-7.962446583512472
30
0
10
11.872835010587103
20
-8.1708480052424122
30
0
0
SPLINE
5
391
100
AcDbEntity
8
0
100
AcDbSpline
70
4
71
3
72
8
73
4
74
0
42
0.000000001
43
0.0000000001
44
0.0000000001
40
0
40
0
40
0
40
0
40
1
40
1
40
1
40
1
41
1
41
1
41
1
41
1
10
11.872835010587103
20
-8.1708480052424122
30
0
10
11.571298594942011
20
-8.4635129711025332
30
0
10
11.722482493339612
20
-8.4553191101156173
30
0
10
11.432189464293105
20
-8.5887759018009451
30
0
0
SPLINE
5
392
100
AcDbEntity
8
0
100
AcDbSpline
70
4
71
3
72
8
73
4
74
0
42
0.000000001
43
0.0000000001
44
0.0000000001
40
0
40
0
40
0
40
0
40
1
40
1
40
1
40
1
41
1
41
1
41
1
41
1
10
11.432189464293106
20
-8.5887759018009451
30
0
10
11.143667972956752
20
-8.6998727993398131
30
0
10
9.7567590288792942
20
-9.3491931170485856
30
0
10
9.6570800168495783
20
-9.5179368170427683
30
0
0
LINE
5
393
100
AcDbEntity
8
0
100
AcDbLine
10
8.6739587880813165
20
-14.016615257398302
30
0
11
8.6739755209900373
21
-14.016606984949046
31
0
0
SPLINE
5
394
100
AcDbEntity
8
0
100
AcDbSpline
70
4
71
3
72
8
73
4
74
0
42
0.000000001
43
0.0000000001
44
0.0000000001
40
0
40
0
40
0
40
0
40
1
40
1
40
1
40
1
41
1
41
1
41
1
41
1
10
3.6311498664683253
20
-6.1934032394480374
30
0
10
3.7718300104348081
20
-6.3279224768319802
30
0
10
4.6050824261693384
20
-6.4924445715917427
30
0
10
4.7880558429715911
20
-6.5144998613561889
30
0
0
SPLINE
5
395
100
AcDbEntity
8
0
100
AcDbSpline
70
4
71
3
72
8
73
4
74
0
42
0.000000001
43
0.0000000001
44
0.0000000001
40
0
40
0
40
0
40
0
40
1
40
1
40
1
40
1
41
1
41
1
41
1
41
1
10
4.7880558429715911
20
-6.5144998613561889
30
0
10
4.9408415883612653
20
-6.5329049328869369
30
0
10
5.1190404858720076
20
-6.5264208367528278
30
0
10
5.2634014937364721
20
-6.5486146900422924
30
0
0
LINE
5
396
100
AcDbEntity
8
0
100
AcDbLine
10
5.2634014937364721
20
-6.5486146900422924
30
0
11
3.6048434778379459
21
-6.791839738951305
31
0
0
SPLINE
5
397
100
AcDbEntity
8
0
100
AcDbSpline
70
4
71
3
72
8
73
4
74
0
42
0.000000001
43
0.0000000001
44
0.0000000001
40
0
40
0
40
0
40
0
40
1
40
1
40
1
40
1
41
1
41
1
41
1
41
1
10
3.6048434778379459
20
-6.791839738951305
30
0
10
3.6194135170982369
20
-7.113013445045695
30
0
10
3.8253508770114961
20
-7.3682673872120805
30
0
10
4.0198910579741138
20
-7.4787290260914876
30
0
0
SPLINE
5
398
100
AcDbEntity
8
0
100
AcDbSpline
70
4
71
3
72
8
73
4
74
0
42
0.000000001
43
0.0000000001
44
0.0000000001
40
0
40
0
40
0
40
0
40
1
40
1
40
1
40
1
41
1
41
1
41
1
41
1
10
4.0198910579741138
20
-7.4787290260914876
30
0
10
4.4032572255765734
20
-7.6964335690493311
30
0
10
4.6681987698510037
20
-7.5973845259578106
30
0
10
4.9585997167582452
20
-7.6162825602600641
30
0
0
SPLINE
5
399
100
AcDbEntity
8
0
100
AcDbSpline
70
4
71
3
72
8
73
4
74
0
42
0.000000001
43
0.0000000001
44
0.0000000001
40
0
40
0
40
0
40
0
40
1
40
1
40
1
40
1
41
1
41
1
41
1
41
1
10
4.9585997167582452
20
-7.6162825602600641
30
0
10
4.8524044055718081
20
-7.6346105476045754
30
0
10
4.6167723370174727
20
-7.7261591113649031
30
0
10
4.4987021129359297
20
-7.7643860993715013
30
0
0
SPLINE
5
400
100
AcDbEntity
8
0
100
AcDbSpline
70
4
71
3
72
8
73
4
74
0
42
0.000000001
43
0.0000000001
44
0.0000000001
40
0
40
0
40
0
40
0
40
1
40
1
40
1
40
1
41
1
41
1
41
1
41
1
10
4.4987021129359297
20
-7.7643860993715013
30
0
10
4.350305841926998
20
-7.8123779616825919
30
0
10
4.1559813086756359
20
-7.8869999662062629
30
0
10
4.0055364784148697
20
-7.9195591984120366
30
0
0
SPLINE
5
401
100
AcDbEntity
8
0
100
AcDbSpline
70
4
71
3
72
8
73
4
74
0
42
0.000000001
43
0.0000000001
44
0.0000000001
40
0
40
0
40
0
40
0
40
1
40
1
40
1
40
1
41
1
41
1
41
1
41
1
10
4.0055364784148697
20
-7.9195591984120366
30
0
10
4.0357085449799932
20
-8.2281497571489801
30
0
10
4.3675711955626824
20
-8.4791219547851462
30
0
10
4.641168541910826
20
-8.5748748028690347
30
0
0
SPLINE
5
402
100
AcDbEntity
8
0
100
AcDbSpline
70
4
71
3
72
8
73
4
74
0
42
0.000000001
43
0.0000000001
44
0.0000000001
40
0
40
0
40
0
40
0
40
1
40
1
40
1
40
1
41
1
41
1
41
1
41
1
10
4.641168541910826
20
-8.5748748028690347
30
0
10
5.0903311387433092
20
-8.7321581285103953
30
0
10
5.339085567938338
20
-8.6618487021914383
30
0
10
5.7975046594665613
20
-8.6709972790264462
30
0
0
SPLINE
5
403
100
AcDbEntity
8
0
100
AcDbSpline
70
4
71
3
72
8
73
4
74
0
42
0.000000001
43
0.0000000001
44
0.0000000001
40
0
40
0
40
0
40
0
40
1
40
1
40
1
40
1
41
1
41
1
41
1
41
1
10
5.7975046594665613
20
-8.6709972790264462
30
0
10
5.7094217819184836
20
-8.6937149287619082
30
0
10
5.4789955280781752
20
-8.8048233227648769
30
0
10
5.3679331025716346
20
-8.8484875660544269
30
0
0
SPLINE
5
404
100
AcDbEntity
8
0
100
AcDbSpline
70
4
71
3
72
8
73
4
74
0
42
0.000000001
43
0.0000000001
44
0.0000000001
40
0
40
0
40
0
40
0
40
1
40
1
40
1
40
1
41
1
41
1
41
1
41
1
10
5.3679331025716346
20
-8.8484875660544269
30
0
10
5.2172265620980793
20
-8.9077536486385966
30
0
10
5.0576485718395547
20
-8.9847472139554601
30
0
10
4.9064182349199994
20
-9.0321385716547358
30
0
0
SPLINE
5
405
100
AcDbEntity
8
0
100
AcDbSpline
70
4
71
3
72
8
73
4
74
0
42
0.000000001
43
0.0000000001
44
0.0000000001
40
0
40
0
40
0
40
0
40
1
40
1
40
1
40
1
41
1
41
1
41
1
41
1
10
4.9064182349199994
20
-9.0321385716547358
30
0
10
5.0081625923869133
20
-9.2286039771712076
30
0
10
5.2926645309346148
20
-9.3967915189917033
30
0
10
5.5970039908056224
20
-9.4510982682476001
30
0
0
SPLINE
5
406
100
AcDbEntity
8
0
100
AcDbSpline
70
4
71
3
72
8
73
4
74
0
42
0.000000001
43
0.0000000001
44
0.0000000001
40
0
40
0
40
0
40
0
40
1
40
1
40
1
40
1
41
1
41
1
41
1
41
1
10
5.5970039908056224
20
-9.4510982682476001
30
0
10
6.0199064495194685
20
-9.5265362370841355
30
0
10
6.2313731897187434
20
-9.4150119644959016
30
0
10
6.5880633406173006
20
-9.3465660953818084
30
0
0
SPLINE
5
407
100
AcDbEntity
8
0
100
AcDbSpline
70
4
71
3
72
8
73
4
74
0
42
0.000000001
43
0.0000000001
44
0.0000000001
40
0
40
0
40
0
40
0
40
1
40
1
40
1
40
1
41
1
41
1
41
1
41
1
10
6.5880633406173006
20
-9.3465660953818084
30
0
10
6.485548987333952
20
-9.436420311126577
30
0
10
6.1836737772898323
20
-9.6151270242154379
30
0
10
6.1289049929420321
20
-9.6755948680640849
30
0
0
SPLINE
5
408
100
AcDbEntity
8
0
100
AcDbSpline
70
4
71
3
72
8
73
4
74
0
42
0.000000001
43
0.0000000001
44
0.0000000001
40
0
40
0
40
0
40
0
40
1
40
1
40
1
40
1
41
1
41
1
41
1
41
1
10
6.1289049929420321
20
-9.6755948680640849
30
0
10
7.4423086004176602
20
-10.256073384316785
30
0
10
8.2820607171337564
20
-9.9752673504838931
30
0
10
8.7498902837199868
20
-9.7412525457588792
30
0
0
SPLINE
5
409
100
AcDbEntity
8
0
100
AcDbSpline
70
4
71
3
72
8
73
4
74
0
42
0.000000001
43
0.0000000001
44
0.0000000001
40
0
40
0
40
0
40
0
40
1
40
1
40
1
40
1
41
1
41
1
41
1
41
1
10
8.7498902837199868
20
-9.7412525457588792
30
0
10
9.8551079291667225
20
-9.188435971753087
30
0
10
10.823341711382204
20
-8.6143802603059267
30
0
10
11.954341949013321
20
-7.8224353798743698
30
0
0
LINE
5
410
100
AcDbEntity
8
0
100
AcDbLine
10
11.954341949013321
20
-7.8224353798743698
30
0
11
12.294983360347285
21
-7.5967373948138315
31
0
0
SPLINE
5
411
100
AcDbEntity
8
0
100
AcDbSpline
70
4
71
3
72
8
73
4
74
0
42
0.000000001
43
0.0000000001
44
0.0000000001
40
0
40
0
40
0
40
0
40
1
40
1
40
1
40
1
41
1
41
1
41
1
41
1
10
12.294983360347285
20
-7.5967373948138315
30
0
10
12.347503636584557
20
-7.5549829592408857
30
0
10
12.543337327794296
20
-7.3586717220968927
30
0
10
12.569997927660951
20
-7.3227854612089915
30
0
0
SPLINE
5
412
100
AcDbEntity
8
0
100
AcDbSpline
70
4
71
3
72
8
73
4
74
0
42
0.000000001
43
0.0000000001
44
0.0000000001
40
0
40
0
40
0
40
0
40
1
40
1
40
1
40
1
41
1
41
1
41
1
41
1
10
12.569997927660951
20
-7.3227854612089915
30
0
10
12.392800184520256
20
-7.3071527882398737
30
0
10
12.274314269863657
20
-7.3487530554403424
30
0
10
12.115383222738901
20
-7.3498619396609115
30
0
0
SPLINE
5
413
100
AcDbEntity
8
0
100
AcDbSpline
70
4
71
3
72
8
73
4
74
0
42
0.000000001
43
0.0000000001
44
0.0000000001
40
0
40
0
40
0
40
0
40
1
40
1
40
1
40
1
41
1
41
1
41
1
41
1
10
12.115383222738901
20
-7.3498619396609115
30
0
10
12.172847415467201
20
-7.2822940782290919
30
0
10
12.426437843292524
20
-7.1258583026159323
30
0
10
12.525148091985015
20
-7.0658067133729725
30
0
0
SPLINE
5
414
100
AcDbEntity
8
0
100
AcDbSpline
70
4
71
3
72
8
73
4
74
0
42
0.000000001
43
0.0000000001
44
0.0000000001
40
0
40
0
40
0
40
0
40
1
40
1
40
1
40
1
41
1
41
1
41
1
41
1
10
12.525148091985015
20
-7.0658067133729725
30
0
10
12.669231972799443
20
-6.9781243915780182
30
0
10
12.828578898509464
20
-6.8953859862740901
30
0
10
12.964653544363527
20
-6.8098135150595391
30
0
0
SPLINE
5
415
100
AcDbEntity
8
0
100
AcDbSpline
70
4
71
3
72
8
73
4
74
0
42
0.000000001
43
0.0000000001
44
0.0000000001
40
0
40
0
40
0
40
0
40
1
40
1
40
1
40
1
41
1
41
1
41
1
41
1
10
12.964653544363527
20
-6.8098135150595391
30
0
10
12.855978378502744
20
-5.7086929881164723
30
0
10
12.966640436266372
20
-6.0484565797783718
30
0
10
13.006700523823756
20
-5.1867567151381433
30
0
0
SPLINE
5
416
100
AcDbEntity
8
0
100
AcDbSpline
70
4
71
3
72
8
73
4
74
0
42
0.000000001
43
0.0000000001
44
0.0000000001
40
0
40
0
40
0
40
0
40
1
40
1
40
1
40
1
41
1
41
1
41
1
41
1
10
13.006700523823756
20
-5.1867567151381433
30
0
10
13.035255514569769
20
-4.5718554094748063
30
0
10
12.798622103635179
20
-4.2704576513598393
30
0
10
12.252382126786982
20
-4.1662952945777789
30
0
0
SPLINE
5
417
100
AcDbEntity
8
0
100
AcDbSpline
70
4
71
3
72
8
73
4
74
0
42
0.000000001
43
0.0000000001
44
0.0000000001
40
0
40
0
40
0
40
0
40
1
40
1
40
1
40
1
41
1
41
1
41
1
41
1
10
12.252382126786982
20
-4.1662952945777789
30
0
10
10.90156749561762
20
-3.9086848324350263
30
0
10
9.3607565142490667
20
-4.739396196171743
30
0
10
8.1497131856894178
20
-5.3457648464491374
30
0
0
SPLINE
5
418
100
AcDbEntity
8
0
100
AcDbSpline
70
4
71
3
72
8
73
4
74
0
42
0.000000001
43
0.0000000001
44
0.0000000001
40
0
40
0
40
0
40
0
40
1
40
1
40
1
40
1
41
1
41
1
41
1
41
1
10
8.1497131856894178
20
-5.3457648464491374
30
0
10
7.2902313715056417
20
-5.7761219100028525
30
0
10
6.3408184454010694
20
-6.031006224095715
30
0
10
5.3600165566449673
20
-6.1300088286652814
30
0
0
SPLINE
5
419
100
AcDbEntity
8
0
100
AcDbSpline
70
4
71
3
72
8
73
4
74
0
42
0.000000001
43
0.0000000001
44
0.0000000001
40
0
40
0
40
0
40
0
40
1
40
1
40
1
40
1
41
1
41
1
41
1
41
1
10
5.3600165566449673
20
-6.1300088286652814
30
0
10
4.7586226565330954
20
-6.1907227778792597
30
0
10
4.2302331210951527
20
-6.173580570931346
30
0
10
3.6311649072851524
20
-6.1934180922546531
30
0
0
LINE
5
420
100
AcDbEntity
8
0
100
AcDbLine
10
3.6311649072851533
20
-6.193418092254654
30
0
11
3.6311498664683253
21
-6.1934032394480374
31
0
0
LINE
5
421
100
AcDbEntity
8
0
100
AcDbLine
10
13.186932751759295
20
-6.9568856301570667
30
0
11
13.428279202646618
21
-6.9481066813955819
31
0
0
SPLINE
5
422
100
AcDbEntity
8
0
100
AcDbSpline
70
4
71
3
72
8
73
4
74
0
42
0.000000001
43
0.0000000001
44
0.0000000001
40
0
40
0
40
0
40
0
40
1
40
1
40
1
40
1
41
1
41
1
41
1
41
1
10
13.428279202646618
20
-6.9481066813955819
30
0
10
13.37903932855931
20
-6.9745514455407704
30
0
10
13.26586733448768
20
-7.0600159988945865
30
0
10
13.215996122114058
20
-7.0930377362177888
30
0
0
LINE
5
423
100
AcDbEntity
8
0
100
AcDbLine
10
13.215996122114058
20
-7.093037736217787
30
0
11
12.771361751197547
21
-7.4300291173282673
31
0
0
SPLINE
5
424
100
AcDbEntity
8
0
100
AcDbSpline
70
4
71
3
72
8
73
4
74
0
42
0.000000001
43
0.0000000001
44
0.0000000001
40
0
40
0
40
0
40
0
40
1
40
1
40
1
40
1
41
1
41
1
41
1
41
1
10
12.771361751197547
20
-7.4300291173282673
30
0
10
12.699650896770738
20
-7.4952096251092248
30
0
10
12.651489449249922
20
-7.5647794192607156
30
0
10
12.585646769508157
20
-7.6194712134273832
30
0
0
SPLINE
5
425
100
AcDbEntity
8
0
100
AcDbSpline
70
4
71
3
72
8
73
4
74
0
42
0.000000001
43
0.0000000001
44
0.0000000001
40
0
40
0
40
0
40
0
40
1
40
1
40
1
40
1
41
1
41
1
41
1
41
1
10
12.585646769508157
20
-7.6194712134273832
30
0
10
12.798992483749542
20
-7.626186562120207
30
0
10
13.092565914946011
20
-7.519390370301533
30
0
10
13.333003148456145
20
-7.5353618376696776
30
0
0
SPLINE
5
426
100
AcDbEntity
8
0
100
AcDbSpline
70
4
71
3
72
8
73
4
74
0
42
0.000000001
43
0.0000000001
44
0.0000000001
40
0
40
0
40
0
40
0
40
1
40
1
40
1
40
1
41
1
41
1
41
1
41
1
10
13.333003148456145
20
-7.5353618376696776
30
0
10
13.298626609557251
20
-7.5615911421138176
30
0
10
13.262847890509665
20
-7.6007578051516802
30
0
10
13.226330291335451
20
-7.6305295979789962
30
0
0
SPLINE
5
427
100
AcDbEntity
8
0
100
AcDbSpline
70
4
71
3
72
8
73
4
74
0
42
0.000000001
43
0.0000000001
44
0.0000000001
40
0
40
0
40
0
40
0
40
1
40
1
40
1
40
1
41
1
41
1
41
1
41
1
10
13.226330291335451
20
-7.6305295979789962
30
0
10
13.015125261348965
20
-7.8024596710464635
30
0
10
12.558246537474036
20
-8.3080236388882103
30
0
10
12.485134254939371
20
-8.5072768598035609
30
0
0
SPLINE
5
428
100
AcDbEntity
8
0
100
AcDbSpline
70
4
71
3
72
8
73
4
74
0
42
0.000000001
43
0.0000000001
44
0.0000000001
40
0
40
0
40
0
40
0
40
1
40
1
40
1
40
1
41
1
41
1
41
1
41
1
10
12.485134254939371
20
-8.5072768598035609
30
0
10
12.843087270420765
20
-8.4539710769075
30
0
10
13.33485166484418
20
-8.2645289808083842
30
0
10
13.802819606945217
20
-8.2878783448505793
30
0
0
SPLINE
5
429
100
AcDbEntity
8
0
100
AcDbSpline
70
4
71
3
72
8
73
4
74
0
42
0.000000001
43
0.0000000001
44
0.0000000001
40
0
40
0
40
0
40
0
40
1
40
1
40
1
40
1
41
1
41
1
41
1
41
1
10
13.802819606945217
20
-8.2878783448505793
30
0
10
13.706774214974047
20
-8.5137301222631745
30
0
10
13.553279671091401
20
-8.7242113129398629
30
0
10
13.477595032858904
20
-8.9967306087419328
30
0
0
LINE
5
430
100
AcDbEntity
8
0
100
AcDbLine
10
13.477595032858904
20
-8.9967306087419345
30
0
11
13.785184249215591
21
-8.8575598107440374
31
0
0
LINE
5
431
100
AcDbEntity
8
0
100
AcDbLine
10
13.785184249215591
20
-8.8575598107440374
30
0
11
13.825198086261233
21
-8.9361706398902214
31
0
0
SPLINE
5
432
100
AcDbEntity
8
0
100
AcDbSpline
70
4
71
3
72
8
73
4
74
0
42
0.000000001
43
0.0000000001
44
0.0000000001
40
0
40
0
40
0
40
0
40
1
40
1
40
1
40
1
41
1
41
1
41
1
41
1
10
13.825198086261235
20
-8.9361706398902214
30
0
10
13.846698933915393
20
-8.979804049505276
30
0
10
13.862054855854895
20
-9.0060792284407398
30
0
10
13.891364143564781
20
-9.045277101173518
30
0
0
SPLINE
5
433
100
AcDbEntity
8
0
100
AcDbSpline
70
4
71
3
72
8
73
4
74
0
42
0.000000001
43
0.0000000001
44
0.0000000001
40
0
40
0
40
0
40
0
40
1
40
1
40
1
40
1
41
1
41
1
41
1
41
1
10
13.891364143564781
20
-9.045277101173518
30
0
10
14.048693343697462
20
-9.2553728709190164
30
0
10
14.224998038339056
20
-9.3873665671475006
30
0
10
14.455870816428916
20
-9.5343920557128641
30
0
0
LINE
5
434
100
AcDbEntity
8
0
100
AcDbLine
10
14.455870816428916
20
-9.5343920557128659
30
0
11
15.370645023396282
21
-10.004870686162745
31
0
0
SPLINE
5
435
100
AcDbEntity
8
0
100
AcDbSpline
70
4
71
3
72
8
73
4
74
0
42
0.000000001
43
0.0000000001
44
0.0000000001
40
0
40
0
40
0
40
0
40
1
40
1
40
1
40
1
41
1
41
1
41
1
41
1
10
15.370645023396282
20
-10.004870686162745
30
0
10
15.329630219990804
20
-9.8865385638582026
30
0
10
15.252236192925919
20
-9.8236070342132962
30
0
10
15.216427016224257
20
-9.7287009841167684
30
0
0
SPLINE
5
436
100
AcDbEntity
8
0
100
AcDbSpline
70
4
71
3
72
8
73
4
74
0
42
0.000000001
43
0.0000000001
44
0.0000000001
40
0
40
0
40
0
40
0
40
1
40
1
40
1
40
1
41
1
41
1
41
1
41
1
10
15.216427016224257
20
-9.7287009841167684
30
0
10
15.722761073887543
20
-9.8093754133316136
30
0
10
16.371330871997646
20
-10.268903201070195
30
0
10
16.696077900149703
20
-10.496557244359083
30
0
0
SPLINE
5
437
100
AcDbEntity
8
0
100
AcDbSpline
70
4
71
3
72
8
73
4
74
0
42
0.000000001
43
0.0000000001
44
0.0000000001
40
0
40
0
40
0
40
0
40
1
40
1
40
1
40
1
41
1
41
1
41
1
41
1
10
16.696077900149703
20
-10.496557244359083
30
0
10
16.847015505171761
20
-10.435442645386875
30
0
10
17.07822745368107
20
-10.137063673214186
30
0
10
17.193078378931009
20
-10.015928694693937
30
0
0
SPLINE
5
438
100
AcDbEntity
8
0
100
AcDbSpline
70
4
71
3
72
8
73
4
74
0
42
0.000000001
43
0.0000000001
44
0.0000000001
40
0
40
0
40
0
40
0
40
1
40
1
40
1
40
1
41
1
41
1
41
1
41
1
10
17.193078378931009
20
-10.015928694693937
30
0
10
17.401556884847189
20
-9.7961605516674339
30
0
10
17.530069384021068
20
-9.5762536571056991
30
0
10
17.632984669077963
20
-9.4663308554891206
30
0
0
SPLINE
5
439
100
AcDbEntity
8
0
100
AcDbSpline
70
4
71
3
72
8
73
4
74
0
42
0.000000001
43
0.0000000001
44
0.0000000001
40
0
40
0
40
0
40
0
40
1
40
1
40
1
40
1
41
1
41
1
41
1
41
1
10
17.632984669077963
20
-9.4663308554891206
30
0
10
17.712765673773283
20
-9.5241338426164468
30
0
10
17.746449583057295
20
-9.6830032223922107
30
0
10
17.808641856555152
20
-9.7772008500161895
30
0
0
LINE
5
440
100
AcDbEntity
8
0
100
AcDbLine
10
17.808641856555152
20
-9.7772008500161895
30
0
11
17.8580351469741
21
-9.6857602041165958
31
0
0
SPLINE
5
441
100
AcDbEntity
8
0
100
AcDbSpline
70
4
71
3
72
8
73
4
74
0
42
0.000000001
43
0.0000000001
44
0.0000000001
40
0
40
0
40
0
40
0
40
1
40
1
40
1
40
1
41
1
41
1
41
1
41
1
10
17.8580351469741
20
-9.6857602041165958
30
0
10
17.947442274438686
20
-9.4434590373811798
30
0
10
18.016935360424359
20
-8.9619374392169338
30
0
10
17.978030783619705
20
-8.7257661573793524
30
0
0
SPLINE
5
442
100
AcDbEntity
8
0
100
AcDbSpline
70
4
71
3
72
8
73
4
74
0
42
0.000000001
43
0.0000000001
44
0.0000000001
40
0
40
0
40
0
40
0
40
1
40
1
40
1
40
1
41
1
41
1
41
1
41
1
10
17.978030783619705
20
-8.7257661573793524
30
0
10
17.201502740435799
20
-8.7271367518127096
30
0
10
16.461816426028726
20
-8.9042882444416627
30
0
10
15.760911353728325
20
-9.1696150216370729
30
0
0
LINE
5
443
100
AcDbEntity
8
0
100
AcDbLine
10
15.760911353728325
20
-9.1696150216370729
30
0
11
15.141928346398567
21
-9.4348647146462472
31
0
0
SPLINE
5
444
100
AcDbEntity
8
0
100
AcDbSpline
70
4
71
3
72
8
73
4
74
0
42
0.000000001
43
0.0000000001
44
0.0000000001
40
0
40
0
40
0
40
0
40
1
40
1
40
1
40
1
41
1
41
1
41
1
41
1
10
15.141928346398567
20
-9.4348647146462472
30
0
10
15.192430897058502
20
-9.2645977798994217
30
0
10
15.580987086517318
20
-8.31824989024887
30
0
10
15.757599365863026
20
-8.2296741439343926
30
0
0
SPLINE
5
445
100
AcDbEntity
8
0
100
AcDbSpline
70
4
71
3
72
8
73
4
74
0
42
0.000000001
43
0.0000000001
44
0.0000000001
40
0
40
0
40
0
40
0
40
1
40
1
40
1
40
1
41
1
41
1
41
1
41
1
10
15.757599365863026
20
-8.2296741439343926
30
0
10
15.858003586550657
20
-8.1793257616469361
30
0
10
15.970020821910394
20
-8.1443637589530535
30
0
10
16.08632017782077
20
-8.1099405935219959
30
0
0
SPLINE
5
446
100
AcDbEntity
8
0
100
AcDbSpline
70
4
71
3
72
8
73
4
74
0
42
0.000000001
43
0.0000000001
44
0.0000000001
40
0
40
0
40
0
40
0
40
1
40
1
40
1
40
1
41
1
41
1
41
1
41
1
10
16.08632017782077
20
-8.1099405935219959
30
0
10
16.20745515634102
20
-8.0741159999830874
30
0
10
16.193732667108929
20
-8.0256620085749866
30
0
10
16.306935870875474
20
-7.8618483362877738
30
0
0
SPLINE
5
447
100
AcDbEntity
8
0
100
AcDbSpline
70
4
71
3
72
8
73
4
74
0
42
0.000000001
43
0.0000000001
44
0.0000000001
40
0
40
0
40
0
40
0
40
1
40
1
40
1
40
1
41
1
41
1
41
1
41
1
10
16.306935870875474
20
-7.8618483362877738
30
0
10
16.503986364166515
20
-7.576715059453762
30
0
10
16.632344694967919
20
-7.4647282817480978
30
0
10
16.714682638523829
20
-7.3490610161648755
30
0
0
SPLINE
5
448
100
AcDbEntity
8
0
100
AcDbSpline
70
4
71
3
72
8
73
4
74
0
42
0.000000001
43
0.0000000001
44
0.0000000001
40
0
40
0
40
0
40
0
40
1
40
1
40
1
40
1
41
1
41
1
41
1
41
1
10
16.714682638523829
20
-7.3490610161648755
30
0
10
16.535482586643042
20
-7.3555142786244891
30
0
10
16.37374868330258
20
-7.3635848049134234
30
0
10
16.256849198800808
20
-7.2646590965198836
30
0
0
SPLINE
5
449
100
AcDbEntity
8
0
100
AcDbSpline
70
4
71
3
72
8
73
4
74
0
42
0.000000001
43
0.0000000001
44
0.0000000001
40
0
40
0
40
0
40
0
40
1
40
1
40
1
40
1
41
1
41
1
41
1
41
1
10
16.256849198800808
20
-7.2646590965198836
30
0
10
16.127751611852357
20
-7.1553680092100347
30
0
10
16.130723677257365
20
-7.0464465499737088
30
0
10
16.103370447775831
20
-6.8525993746463936
30
0
0
LINE
5
450
100
AcDbEntity
8
0
100
AcDbLine
10
16.103370447775831
20
-6.8525993746463936
30
0
11
15.81543356268527
21
-6.7641007125181547
31
0
0
LINE
5
451
100
AcDbEntity
8
0
100
AcDbLine
10
15.81543356268527
20
-6.7641007125181547
30
0
11
15.918640639588606
21
-6.7325270298349693
31
0
0
SPLINE
5
452
100
AcDbEntity
8
0
100
AcDbSpline
70
4
71
3
72
8
73
4
74
0
42
0.000000001
43
0.0000000001
44
0.0000000001
40
0
40
0
40
0
40
0
40
1
40
1
40
1
40
1
41
1
41
1
41
1
41
1
10
15.918640639588606
20
-6.7325270298349711
30
0
10
16.249840930200278
20
-6.7010920986870133
30
0
10
16.776058947708822
20
-6.9690833565833215
30
0
10
17.153957214364048
20
-7.0100210758025625
30
0
0
SPLINE
5
453
100
AcDbEntity
8
0
100
AcDbSpline
70
4
71
3
72
8
73
4
74
0
42
0.000000001
43
0.0000000001
44
0.0000000001
40
0
40
0
40
0
40
0
40
1
40
1
40
1
40
1
41
1
41
1
41
1
41
1
10
17.153957214364048
20
-7.0100210758025625
30
0
10
17.266020324215106
20
-7.0221575109002474
30
0
10
17.576228146781371
20
-6.9995786127000139
30
0
10
17.619969098236737
20
-6.9234784719026727
30
0
0
SPLINE
5
454
100
AcDbEntity
8
0
100
AcDbSpline
70
4
71
3
72
8
73
4
74
0
42
0.000000001
43
0.0000000001
44
0.0000000001
40
0
40
0
40
0
40
0
40
1
40
1
40
1
40
1
41
1
41
1
41
1
41
1
10
17.619969098236737
20
-6.9234784719026727
30
0
10
17.66290912619607
20
-6.6909884299834923
30
0
10
17.579693550978305
20
-6.5761525455503804
30
0
10
17.515467759045443
20
-6.3992475343071789
30
0
0
SPLINE
5
455
100
AcDbEntity
8
0
100
AcDbSpline
70
4
71
3
72
8
73
4
74
0
42
0.000000001
43
0.0000000001
44
0.0000000001
40
0
40
0
40
0
40
0
40
1
40
1
40
1
40
1
41
1
41
1
41
1
41
1
10
17.515467759045443
20
-6.3992475343071789
30
0
10
17.650988526819852
20
-6.5092472320997885
30
0
10
17.752393713867313
20
-6.6925594433010698
30
0
10
17.764637690805312
20
-6.9414059974991646
30
0
0
SPLINE
5
456
100
AcDbEntity
8
0
100
AcDbSpline
70
4
71
3
72
8
73
4
74
0
42
0.000000001
43
0.0000000001
44
0.0000000001
40
0
40
0
40
0
40
0
40
1
40
1
40
1
40
1
41
1
41
1
41
1
41
1
10
17.764637690805312
20
-6.9414059974991646
30
0
10
17.971391767072276
20
-6.9475975497459883
30
0
10
18.165623611289945
20
-6.9251724438978117
30
0
10
18.204867358514043
20
-6.7544283392371494
30
0
0
SPLINE
5
457
100
AcDbEntity
8
0
100
AcDbSpline
70
4
71
3
72
8
73
4
74
0
42
0.000000001
43
0.0000000001
44
0.0000000001
40
0
40
0
40
0
40
0
40
1
40
1
40
1
40
1
41
1
41
1
41
1
41
1
10
18.204867358514043
20
-6.7544283392371494
30
0
10
18.253813936673229
20
-6.5413751688830484
30
0
10
18.083178125893721
20
-6.4607007396682015
30
0
10
17.966847936308849
20
-6.3831371273935957
30
0
0
LINE
5
458
100
AcDbEntity
8
0
100
AcDbLine
10
17.966847936308849
20
-6.3831371273935957
30
0
11
18.324908869650976
21
-6.3862791540287516
31
0
0
SPLINE
5
459
100
AcDbEntity
8
0
100
AcDbSpline
70
4
71
3
72
8
73
4
74
0
42
0.000000001
43
0.0000000001
44
0.0000000001
40
0
40
0
40
0
40
0
40
1
40
1
40
1
40
1
41
1
41
1
41
1
41
1
10
18.324908869650976
20
-6.3862791540287507
30
0
10
18.267691346318639
20
-6.3679818123485257
30
0
10
18.15424147315613
20
-6.3070830490977867
30
0
10
18.064048463012334
20
-6.2777889902149386
30
0
0
SPLINE
5
460
100
AcDbEntity
8
0
100
AcDbSpline
70
4
71
3
72
8
73
4
74
0
42
0.000000001
43
0.0000000001
44
0.0000000001
40
0
40
0
40
0
40
0
40
1
40
1
40
1
40
1
41
1
41
1
41
1
41
1
10
18.064048463012334
20
-6.2777889902149386
30
0
10
17.961764892262174
20
-6.2445673980381473
30
0
10
17.863394190009551
20
-6.2205404451978961
30
0
10
17.753317220020488
20
-6.1974531673889102
30
0
0
SPLINE
5
461
100
AcDbEntity
8
0
100
AcDbSpline
70
4
71
3
72
8
73
4
74
0
42
0.000000001
43
0.0000000001
44
0.0000000001
40
0
40
0
40
0
40
0
40
1
40
1
40
1
40
1
41
1
41
1
41
1
41
1
10
17.753317220020488
20
-6.1974531673889102
30
0
10
17.530452924850152
20
-6.1507856489994346
30
0
10
17.295298778250498
20
-6.1247567634395121
30
0
10
17.059373789788456
20
-6.1120348645468363
30
0
0
SPLINE
5
462
100
AcDbEntity
8
0
100
AcDbSpline
70
4
71
3
72
8
73
4
74
0
42
0.000000001
43
0.0000000001
44
0.0000000001
40
0
40
0
40
0
40
0
40
1
40
1
40
1
40
1
41
1
41
1
41
1
41
1
10
17.059373789788456
20
-6.1120348645468363
30
0
10
16.173262115407415
20
-6.0642276282622962
30
0
10
15.116606379229514
20
-6.2038757841842385
30
0
10
14.28293827291993
20
-6.4812006209625279
30
0
0
SPLINE
5
463
100
AcDbEntity
8
0
100
AcDbSpline
70
4
71
3
72
8
73
4
74
0
42
0.000000001
43
0.0000000001
44
0.0000000001
40
0
40
0
40
0
40
0
40
1
40
1
40
1
40
1
41
1
41
1
41
1
41
1
10
14.28293827291993
20
-6.4812006209625279
30
0
10
13.973654708547683
20
-6.5840846963245045
30
0
10
13.404604956960961
20
-6.7943192176052314
30
0
10
13.186900414003118
20
-6.9568852541366466
30
0
0
LINE
5
464
100
AcDbEntity
8
0
100
AcDbLine
10
13.186900414003118
20
-6.9568852541366466
30
0
11
13.186932751759295
21
-6.9568856301570667
31
0
0
LINE
5
465
100
AcDbEntity
8
0
100
AcDbLine
10
15.719834882973856
20
-8.9571322742611361
30
0
11
16.634439880751916
21
-8.6175380797987504
31
0
0
SPLINE
5
466
100
AcDbEntity
8
0
100
AcDbSpline
70
4
71
3
72
8
73
4
74
0
42
0.000000001
43
0.0000000001
44
0.0000000001
40
0
40
0
40
0
40
0
40
1
40
1
40
1
40
1
41
1
41
1
41
1
41
1
10
16.634439880751916
20
-8.6175380797987486
30
0
10
17.088130327479952
20
-8.4760111378449068
30
0
10
18.070904067322068
20
-8.3354697454136524
30
0
10
18.525442064078302
20
-8.4978816135725914
30
0
0
SPLINE
5
467
100
AcDbEntity
8
0
100
AcDbSpline
70
4
71
3
72
8
73
4
74
0
42
0.000000001
43
0.0000000001
44
0.0000000001
40
0
40
0
40
0
40
0
40
1
40
1
40
1
40
1
41
1
41
1
41
1
41
1
10
18.525442064078302
20
-8.4978816135725914
30
0
10
18.645499368072898
20
-8.5407757670405999
30
0
10
18.726188838104573
20
-8.6053708110265674
30
0
10
18.828980788463483
20
-8.6477103343740822
30
0
0
SPLINE
5
468
100
AcDbEntity
8
0
100
AcDbSpline
70
4
71
3
72
8
73
4
74
0
42
0.000000001
43
0.0000000001
44
0.0000000001
40
0
40
0
40
0
40
0
40
1
40
1
40
1
40
1
41
1
41
1
41
1
41
1
10
18.828980788463483
20
-8.6477103343740822
30
0
10
18.944109216783879
20
-8.256781832081229
30
0
10
19.014279891567611
20
-7.7679906311240865
30
0
10
18.640847995469155
20
-7.4804079572697999
30
0
0
SPLINE
5
469
100
AcDbEntity
8
0
100
AcDbSpline
70
4
71
3
72
8
73
4
74
0
42
0.000000001
43
0.0000000001
44
0.0000000001
40
0
40
0
40
0
40
0
40
1
40
1
40
1
40
1
41
1
41
1
41
1
41
1
10
18.640847995469155
20
-7.4804079572697999
30
0
10
18.379048289819671
20
-7.2787831755612542
30
0
10
17.840570502515455
20
-7.0999835854284861
30
0
10
17.458652577563225
20
-7.2771350780574391
30
0
0
SPLINE
5
470
100
AcDbEntity
8
0
100
AcDbSpline
70
4
71
3
72
8
73
4
74
0
42
0.000000001
43
0.0000000001
44
0.0000000001
40
0
40
0
40
0
40
0
40
1
40
1
40
1
40
1
41
1
41
1
41
1
41
1
10
17.458652577563225
20
-7.2771350780574391
30
0
10
17.001250057242295
20
-7.4892639902175224
30
0
10
16.848078890921428
20
-8.0410795978634777
30
0
10
16.788520264449975
20
-8.0955555563086783
30
0
0
SPLINE
5
471
100
AcDbEntity
8
0
100
AcDbSpline
70
4
71
3
72
8
73
4
74
0
42
0.000000001
43
0.0000000001
44
0.0000000001
40
0
40
0
40
0
40
0
40
1
40
1
40
1
40
1
41
1
41
1
41
1
41
1
10
16.788520264449975
20
-8.0955555563086783
30
0
10
16.767019416795812
20
-8.1152236804324733
30
0
10
16.480499376650354
20
-8.2583833030528808
30
0
10
16.431907009727443
20
-8.2792528124207294
30
0
0
SPLINE
5
472
100
AcDbEntity
8
0
100
AcDbSpline
70
4
71
3
72
8
73
4
74
0
42
0.000000001
43
0.0000000001
44
0.0000000001
40
0
40
0
40
0
40
0
40
1
40
1
40
1
40
1
41
1
41
1
41
1
41
1
10
16.431907009727443
20
-8.2792528124207294
30
0
10
16.285482401794319
20
-8.3420922170625698
30
0
10
16.072583399812693
20
-8.3940732800165954
30
0
10
15.997345473839957
20
-8.5211997679198692
30
0
0
SPLINE
5
473
100
AcDbEntity
8
0
100
AcDbSpline
70
4
71
3
72
8
73
4
74
0
42
0.000000001
43
0.0000000001
44
0.0000000001
40
0
40
0
40
0
40
0
40
1
40
1
40
1
40
1
41
1
41
1
41
1
41
1
10
15.997345473839957
20
-8.5211997679198692
30
0
10
15.921337458045683
20
-8.6496047252534396
30
0
10
15.759941973083825
20
-8.8045311548980116
30
0
10
15.719835635014697
20
-8.9571322742611361
30
0
0
LINE
5
474
100
AcDbEntity
8
0
100
AcDbLine
10
15.719835635014697
20
-8.9571322742611361
30
0
11
15.719834882973856
21
-8.9571322742611361
31
0
0
SPLINE
5
475
100
AcDbEntity
8
0
100
AcDbSpline
70
4
71
3
72
8
73
4
74
0
42
0.000000001
43
0.0000000001
44
0.0000000001
40
0
40
0
40
0
40
0
40
1
40
1
40
1
40
1
41
1
41
1
41
1
41
1
10
13.187487381879787
20
-5.6367516331717882
30
0
10
13.164646397446344
20
-5.9390735554756686
30
0
10
13.17220892014695
20
-6.4216117248472075
30
0
10
13.338902156815685
20
-6.6145652876447913
30
0
0
SPLINE
5
476
100
AcDbEntity
8
0
100
AcDbSpline
70
4
71
3
72
8
73
4
74
0
42
0.000000001
43
0.0000000001
44
0.0000000001
40
0
40
0
40
0
40
0
40
1
40
1
40
1
40
1
41
1
41
1
41
1
41
1
10
13.338902156815685
20
-6.6145652876447913
30
0
10
13.616396202783278
20
-6.5253425981965441
30
0
10
13.918194704661579
20
-6.3504553125306815
30
0
10
14.41387083952127
20
-6.2021051040232829
30
0
0
SPLINE
5
477
100
AcDbEntity
8
0
100
AcDbSpline
70
4
71
3
72
8
73
4
74
0
42
0.000000001
43
0.0000000001
44
0.0000000001
40
0
40
0
40
0
40
0
40
1
40
1
40
1
40
1
41
1
41
1
41
1
41
1
10
14.41387083952127
20
-6.2021051040232829
30
0
10
15.067615430660691
20
-6.0063945595013148
30
0
10
15.368304672298002
20
-5.9819364992487607
30
0
10
16.012638976389624
20
-5.9206681079244987
30
0
0
SPLINE
5
478
100
AcDbEntity
8
0
100
AcDbSpline
70
4
71
3
72
8
73
4
74
0
42
0.000000001
43
0.0000000001
44
0.0000000001
40
0
40
0
40
0
40
0
40
1
40
1
40
1
40
1
41
1
41
1
41
1
41
1
10
16.012638976389624
20
-5.9206681079244987
30
0
10
16.122006771865294
20
-5.9102564784964464
30
0
10
16.096440391422799
20
-5.9099793514464096
30
0
10
16.194965262047898
20
-5.7391117240775564
30
0
0
SPLINE
5
479
100
AcDbEntity
8
0
100
AcDbSpline
70
4
71
3
72
8
73
4
74
0
42
0.000000001
43
0.0000000001
44
0.0000000001
40
0
40
0
40
0
40
0
40
1
40
1
40
1
40
1
41
1
41
1
41
1
41
1
10
16.194965262047898
20
-5.7391117240775564
30
0
10
16.491680719879525
20
-5.2245531597630697
30
0
10
16.309939521995823
20
-4.9498928976907841
30
0
10
15.699874214962779
20
-4.9866262385813593
30
0
0
SPLINE
5
480
100
AcDbEntity
8
0
100
AcDbSpline
70
4
71
3
72
8
73
4
74
0
42
0.000000001
43
0.0000000001
44
0.0000000001
40
0
40
0
40
0
40
0
40
1
40
1
40
1
40
1
41
1
41
1
41
1
41
1
10
15.699874214962779
20
-4.9866262385813593
30
0
10
15.437843632774999
20
-5.0023668294112085
30
0
10
15.296963069924296
20
-5.0804232164471088
30
0
10
15.080814499467206
20
-5.1252115727842655
30
0
0
SPLINE
5
481
100
AcDbEntity
8
0
100
AcDbSpline
70
4
71
3
72
8
73
4
74
0
42
0.000000001
43
0.0000000001
44
0.0000000001
40
0
40
0
40
0
40
0
40
1
40
1
40
1
40
1
41
1
41
1
41
1
41
1
10
15.080814499467206
20
-5.1252115727842655
30
0
10
15.469370688926022
20
-4.74333942831825
30
0
10
16.72258433164388
20
-4.5632924844449994
30
0
10
16.658435999917675
20
-5.3037030141822905
30
0
0
SPLINE
5
482
100
AcDbEntity
8
0
100
AcDbSpline
70
4
71
3
72
8
73
4
74
0
42
0.000000001
43
0.0000000001
44
0.0000000001
40
0
40
0
40
0
40
0
40
1
40
1
40
1
40
1
41
1
41
1
41
1
41
1
10
16.658435999917675
20
-5.3037030141822905
30
0
10
16.635302471596944
20
-5.5709858496060507
30
0
10
16.491665679062699
20
-5.7095249332972138
30
0
10
16.42383610741809
20
-5.8961023178214216
30
0
0
LINE
5
483
100
AcDbEntity
8
0
100
AcDbLine
10
16.42383610741809
20
-5.8961023178214216
30
0
11
16.715638482433185
21
-5.8943002399553395
31
0
0
SPLINE
5
484
100
AcDbEntity
8
0
100
AcDbSpline
70
4
71
3
72
8
73
4
74
0
42
0.000000001
43
0.0000000001
44
0.0000000001
40
0
40
0
40
0
40
0
40
1
40
1
40
1
40
1
41
1
41
1
41
1
41
1
10
16.715638482433185
20
-5.8943002399553395
30
0
10
16.848355641951045
20
-5.5329278827785453
30
0
10
17.133858922879003
20
-5.0017969704636771
30
0
10
16.772625129227226
20
-4.6999679169261954
30
0
0
SPLINE
5
485
100
AcDbEntity
8
0
100
AcDbSpline
70
4
71
3
72
8
73
4
74
0
42
0.000000001
43
0.0000000001
44
0.0000000001
40
0
40
0
40
0
40
0
40
1
40
1
40
1
40
1
41
1
41
1
41
1
41
1
10
16.772625129227226
20
-4.6999679169261954
30
0
10
16.480114331739582
20
-4.4555259719307756
30
0
10
15.782674663636115
20
-4.5567003764450513
30
0
10
15.415326025903333
20
-4.667439330384707
30
0
0
SPLINE
5
486
100
AcDbEntity
8
0
100
AcDbSpline
70
4
71
3
72
8
73
4
74
0
42
0.000000001
43
0.0000000001
44
0.0000000001
40
0
40
0
40
0
40
0
40
1
40
1
40
1
40
1
41
1
41
1
41
1
41
1
10
15.415326025903333
20
-4.667439330384707
30
0
10
14.686636052678463
20
-4.8870535870540497
30
0
10
14.319688252714119
20
-5.2226125183719692
30
0
10
13.796720555721881
20
-5.448541379970802
30
0
0
SPLINE
5
487
100
AcDbEntity
8
0
100
AcDbSpline
70
4
71
3
72
8
73
4
74
0
42
0.000000001
43
0.0000000001
44
0.0000000001
40
0
40
0
40
0
40
0
40
1
40
1
40
1
40
1
41
1
41
1
41
1
41
1
10
13.796720555721881
20
-5.448541379970802
30
0
10
13.57983272911774
20
-5.5422304399758184
30
0
10
13.417497193104202
20
-5.5740351872075093
30
0
10
13.18747158902212
20
-5.6367666739886149
30
0
0
LINE
5
488
100
AcDbEntity
8
0
100
AcDbLine
10
13.18747158902212
20
-5.6367666739886149
30
0
11
13.187487381879787
21
-5.6367516331717882
31
0
0
SPLINE
5
489
100
AcDbEntity
8
0
100
AcDbSpline
70
4
71
3
72
8
73
4
74
0
42
0.000000001
43
0.0000000001
44
0.0000000001
40
0
40
0
40
0
40
0
40
1
40
1
40
1
40
1
41
1
41
1
41
1
41
1
10
4.9495543236350059
20
-11.955455775081719
30
0
10
5.0930017929130216
20
-11.953334838412363
30
0
10
5.3308159339371199
20
-11.76401063505117
30
0
10
5.4024727329781186
20
-11.69274799715166
30
0
0
LINE
5
490
100
AcDbEntity
8
0
100
AcDbLine
10
5.4024727329781186
20
-11.692747997151661
30
0
11
5.9901447460374904
21
-11.152101295507411
31
0
0
SPLINE
5
491
100
AcDbEntity
8
0
100
AcDbSpline
70
4
71
3
72
8
73
4
74
0
42
0.000000001
43
0.0000000001
44
0.0000000001
40
0
40
0
40
0
40
0
40
1
40
1
40
1
40
1
41
1
41
1
41
1
41
1
10
7.687221829412989
20
-10.623020932830459
30
0
10
8.1928942819784965
20
-10.754614820949289
30
0
10
7.9955627949199961
20
-10.88949227698291
30
0
10
8.1742025496419934
20
-11.348708258426496
30
0
0
SPLINE
5
492
100
AcDbEntity
8
0
100
AcDbSpline
70
4
71
3
72
8
73
4
74
0
42
0.000000001
43
0.0000000001
44
0.0000000001
40
0
40
0
40
0
40
0
40
1
40
1
40
1
40
1
41
1
41
1
41
1
41
1
10
8.1742025496419917
20
-11.348708258426496
30
0
10
8.2157676644292419
20
-11.275449462909391
30
0
10
8.213834808031363
20
-11.262949721252578
30
0
10
8.233300465411487
20
-11.189335963860822
30
0
0
SPLINE
5
493
100
AcDbEntity
8
0
100
AcDbSpline
70
4
71
3
72
8
73
4
74
0
42
0.000000001
43
0.0000000001
44
0.0000000001
40
0
40
0
40
0
40
0
40
1
40
1
40
1
40
1
41
1
41
1
41
1
41
1
10
8.233300465411487
20
-11.189335963860824
30
0
10
8.1125074341401842
20
-10.588761087527864
30
0
10
8.3524319292160669
20
-10.646064774941587
30
0
10
7.7195991088297005
20
-10.377606750985558
30
0
0
SPLINE
5
494
100
AcDbEntity
8
0
100
AcDbSpline
70
4
71
3
72
8
73
4
74
0
42
0.000000001
43
0.0000000001
44
0.0000000001
40
0
40
0
40
0
40
0
40
1
40
1
40
1
40
1
41
1
41
1
41
1
41
1
10
7.7195991088297031
20
-10.377606750985558
30
0
10
7.6982818470646688
20
-10.400466838046295
30
0
10
7.7116084208897027
20
-10.421348061778575
30
0
10
7.6893506512659027
20
-10.445247095395164
30
0
0
SPLINE
5
495
100
AcDbEntity
8
0
100
AcDbSpline
70
4
71
3
72
8
73
4
74
0
42
0.000000001
43
0.0000000001
44
0.0000000001
40
0
40
0
40
0
40
0
40
1
40
1
40
1
40
1
41
1
41
1
41
1
41
1
10
7.6893506512659027
20
-10.44524709539516
30
0
10
7.1508482917053788
20
-10.086323862095815
30
0
10
6.4135278753417557
20
-10.514270098770321
30
0
10
6.0546300324002091
20
-10.796626813986146
30
0
0
SPLINE
5
496
100
AcDbEntity
8
0
100
AcDbSpline
70
4
71
3
72
8
73
4
74
0
42
0.000000001
43
0.0000000001
44
0.0000000001
40
0
40
0
40
0
40
0
40
1
40
1
40
1
40
1
41
1
41
1
41
1
41
1
10
6.0546300324002109
20
-10.796626813986151
30
0
10
5.5615395441471538
20
-11.236204361058487
30
0
10
5.4387078951425689
20
-11.506802236389969
30
0
10
5.0937876354427374
20
-11.828003712210688
30
0
0
SPLINE
5
497
100
AcDbEntity
8
0
100
AcDbSpline
70
4
71
3
72
8
73
4
74
0
42
0.000000001
43
0.0000000001
44
0.0000000001
40
0
40
0
40
0
40
0
40
1
40
1
40
1
40
1
41
1
41
1
41
1
41
1
10
5.0937876354427374
20
-11.828003712210684
30
0
10
5.0583064664666022
20
-11.858758279700202
30
0
10
4.9767622393871669
20
-11.939746424630608
30
0
10
4.949554323635005
20
-11.95545577508172
30
0
0
SPLINE
5
498
100
AcDbEntity
8
0
100
AcDbSpline
70
4
71
3
72
8
73
4
74
0
42
0.000000001
43
0.0000000001
44
0.0000000001
40
0
40
0
40
0
40
0
40
1
40
1
40
1
40
1
41
1
41
1
41
1
41
1
10
12.370483748573651
20
-10.244768706389632
30
0
10
12.447431063378772
20
-10.32160847935444
30
0
10
12.498026115062194
20
-10.385417640661199
30
0
10
12.576128564599626
20
-10.458083586956521
30
0
0
SPLINE
5
499
100
AcDbEntity
8
0
100
AcDbSpline
70
4
71
3
72
8
73
4
74
0
42
0.000000001
43
0.0000000001
44
0.0000000001
40
0
40
0
40
0
40
0
40
1
40
1
40
1
40
1
41
1
41
1
41
1
41
1
10
12.576128564599626
20
-10.458083586956521
30
0
10
12.644928268929574
20
-10.522108583984746
30
0
10
12.722599799064914
20
-10.614041816635424
30
0
10
12.76421548310263
20
-10.699506746009662
30
0
0
SPLINE
5
500
100
AcDbEntity
8
0
100
AcDbSpline
70
4
71
3
72
8
73
4
74
0
42
0.000000001
43
0.0000000001
44
0.0000000001
40
0
40
0
40
0
40
0
40
1
40
1
40
1
40
1
41
1
41
1
41
1
41
1
10
12.76421548310263
20
-10.699506746009662
30
0
10
12.884949999874863
20
-10.947599003243885
30
0
10
12.826962386720984
20
-11.034141607143773
30
0
10
13.332403019864749
20
-10.954760688176048
30
0
0
SPLINE
5
501
100
AcDbEntity
8
0
100
AcDbSpline
70
4
71
3
72
8
73
4
74
0
42
0.000000001
43
0.0000000001
44
0.0000000001
40
0
40
0
40
0
40
0
40
1
40
1
40
1
40
1
41
1
41
1
41
1
41
1
10
13.332403019864749
20
-10.954760688176048
30
0
10
13.339811374192873
20
-10.838307915934037
30
0
10
13.201826544601788
20
-10.67192188794899
30
0
10
13.150338444419265
20
-10.606002500041408
30
0
0
SPLINE
5
502
100
AcDbEntity
8
0
100
AcDbSpline
70
4
71
3
72
8
73
4
74
0
42
0.000000001
43
0.0000000001
44
0.0000000001
40
0
40
0
40
0
40
0
40
1
40
1
40
1
40
1
41
1
41
1
41
1
41
1
10
13.150338444419265
20
-10.606002500041408
30
0
10
13.113743761058814
20
-10.559196230116703
30
0
10
13.064658431364402
20
-10.498405760747117
30
0
10
13.052259910033506
20
-10.429466928861519
30
0
0
SPLINE
5
503
100
AcDbEntity
8
0
100
AcDbSpline
70
4
71
3
72
8
73
4
74
0
42
0.000000001
43
0.0000000001
44
0.0000000001
40
0
40
0
40
0
40
0
40
1
40
1
40
1
40
1
41
1
41
1
41
1
41
1
10
13.052259910033506
20
-10.429466928861519
30
0
10
13.034178216064536
20
-10.328770164286604
30
0
10
13.092828377199643
20
-10.312582485176572
30
0
10
13.125557194615141
20
-10.237252810221191
30
0
0
SPLINE
5
504
100
AcDbEntity
8
0
100
AcDbSpline
70
4
71
3
72
8
73
4
74
0
42
0.000000001
43
0.0000000001
44
0.0000000001
40
0
40
0
40
0
40
0
40
1
40
1
40
1
40
1
41
1
41
1
41
1
41
1
10
13.125557194615141
20
-10.237252810221191
30
0
10
13.031652486898867
20
-10.155854165676127
30
0
10
12.939580502712959
20
-10.025708985835678
30
0
10
12.758208932902777
20
-10.049612603977948
30
0
0
SPLINE
5
505
100
AcDbEntity
8
0
100
AcDbSpline
70
4
71
3
72
8
73
4
74
0
42
0.000000001
43
0.0000000001
44
0.0000000001
40
0
40
0
40
0
40
0
40
1
40
1
40
1
40
1
41
1
41
1
41
1
41
1
10
12.758208932902777
20
-10.049612603977948
30
0
10
12.594179800914521
20
-10.07123678633009
30
0
10
12.46267906745754
20
-10.170825042704857
30
0
10
12.37049954143132
20
-10.244784499247301
30
0
0
LINE
5
506
100
AcDbEntity
8
0
100
AcDbLine
10
12.370499541431318
20
-10.244784499247302
30
0
11
12.370483748573651
21
-10.244768706389632
31
0
0
SPLINE
5
507
100
AcDbEntity
8
0
100
AcDbSpline
70
4
71
3
72
8
73
4
74
0
42
0.000000001
43
0.0000000001
44
0.0000000001
40
0
40
0
40
0
40
0
40
1
40
1
40
1
40
1
41
1
41
1
41
1
41
1
10
13.199362106764685
20
-10.105013196637586
30
0
10
13.249340860978622
20
-10.183362315570982
30
0
10
13.306374134304829
20
-10.243075110414914
30
0
10
13.361588972876653
20
-10.336332686987207
30
0
0
SPLINE
5
508
100
AcDbEntity
8
0
100
AcDbSpline
70
4
71
3
72
8
73
4
74
0
42
0.000000001
43
0.0000000001
44
0.0000000001
40
0
40
0
40
0
40
0
40
1
40
1
40
1
40
1
41
1
41
1
41
1
41
1
10
13.361588972876653
20
-10.336332686987207
30
0
10
13.416065307342272
20
-10.428373461478198
30
0
10
13.460145429217087
20
-10.510511362170307
30
0
10
13.495707936522789
20
-10.611793966560635
30
0
0
SPLINE
5
509
100
AcDbEntity
8
0
100
AcDbSpline
70
4
71
3
72
8
73
4
74
0
42
0.000000001
43
0.0000000001
44
0.0000000001
40
0
40
0
40
0
40
0
40
1
40
1
40
1
40
1
41
1
41
1
41
1
41
1
10
13.495707936522789
20
-10.611793966560635
30
0
10
13.62060086312726
20
-10.967452129414651
30
0
10
13.524632179321904
20
-10.95332880241412
30
0
10
13.94597960558605
20
-10.92813167402473
30
0
0
SPLINE
5
510
100
AcDbEntity
8
0
100
AcDbSpline
70
4
71
3
72
8
73
4
74
0
42
0.000000001
43
0.0000000001
44
0.0000000001
40
0
40
0
40
0
40
0
40
1
40
1
40
1
40
1
41
1
41
1
41
1
41
1
10
13.94597960558605
20
-10.92813167402473
30
0
10
13.925279681427925
20
-10.786296771346356
30
0
10
13.854647253567611
20
-10.698706574554468
30
0
10
13.790837340220008
20
-10.589954700527866
30
0
0
SPLINE
5
511
100
AcDbEntity
8
0
100
AcDbSpline
70
4
71
3
72
8
73
4
74
0
42
0.000000001
43
0.0000000001
44
0.0000000001
40
0
40
0
40
0
40
0
40
1
40
1
40
1
40
1
41
1
41
1
41
1
41
1
10
13.790837340220008
20
-10.589954700527866
30
0
10
13.670071613752862
20
-10.384202342661577
30
0
10
13.771723470196291
20
-10.383755630401817
30
0
10
13.805068961101693
20
-10.236591014280805
30
0
0
SPLINE
5
512
100
AcDbEntity
8
0
100
AcDbSpline
70
4
71
3
72
8
73
4
74
0
42
0.000000001
43
0.0000000001
44
0.0000000001
40
0
40
0
40
0
40
0
40
1
40
1
40
1
40
1
41
1
41
1
41
1
41
1
10
13.805068961101693
20
-10.236591014280805
30
0
10
13.729785160637634
20
-10.15565487485317
30
0
10
13.710717917146079
20
-10.106707544653146
30
0
10
13.562475626499413
20
-10.079415982520599
30
0
0
SPLINE
5
513
100
AcDbEntity
8
0
100
AcDbSpline
70
4
71
3
72
8
73
4
74
0
42
0.000000001
43
0.0000000001
44
0.0000000001
40
0
40
0
40
0
40
0
40
1
40
1
40
1
40
1
41
1
41
1
41
1
41
1
10
13.562475626499413
20
-10.079415982520599
30
0
10
13.477334826727796
20
-10.063783309551482
30
0
10
13.278774611447748
20
-10.053002052049907
30
0
10
13.199362858805529
20
-10.105013948678428
30
0
0
LINE
5
514
100
AcDbEntity
8
0
100
AcDbLine
10
13.199362858805531
20
-10.105013948678428
30
0
11
13.199362106764685
21
-10.105013196637586
31
0
0
SPLINE
5
515
100
AcDbEntity
8
0
100
AcDbSpline
70
4
71
3
72
8
73
4
74
0
42
0.000000001
43
0.0000000001
44
0.0000000001
40
0
40
0
40
0
40
0
40
1
40
1
40
1
40
1
41
1
41
1
41
1
41
1
10
18.968397879836921
20
-12.58899958336746
30
0
10
19.08635999804752
20
-12.83056111793541
30
0
10
19.149661531786371
20
-12.922679352633061
30
0
10
19.148075477651965
20
-13.247488048134109
30
0
0
SPLINE
5
516
100
AcDbEntity
8
0
100
AcDbSpline
70
4
71
3
72
8
73
4
74
0
42
0.000000001
43
0.0000000001
44
0.0000000001
40
0
40
0
40
0
40
0
40
1
40
1
40
1
40
1
41
1
41
1
41
1
41
1
10
19.148075477651965
20
-13.247488048134109
30
0
10
19.206032257131348
20
-13.327161510989118
30
0
10
19.397014532873545
20
-13.31775122394132
30
0
10
19.49894389238743
20
-13.298206434515508
30
0
0
SPLINE
5
517
100
AcDbEntity
8
0
100
AcDbSpline
70
4
71
3
72
8
73
4
74
0
42
0.000000001
43
0.0000000001
44
0.0000000001
40
0
40
0
40
0
40
0
40
1
40
1
40
1
40
1
41
1
41
1
41
1
41
1
10
19.49894389238743
20
-13.298206434515508
30
0
10
19.521029827816161
20
-13.185003230748963
30
0
10
19.524572692219756
20
-13.075927979160584
30
0
10
19.487946799164391
20
-12.973860244131888
30
0
0
SPLINE
5
518
100
AcDbEntity
8
0
100
AcDbSpline
70
4
71
3
72
8
73
4
74
0
42
0.000000001
43
0.0000000001
44
0.0000000001
40
0
40
0
40
0
40
0
40
1
40
1
40
1
40
1
41
1
41
1
41
1
41
1
10
19.487946799164391
20
-12.973860244131888
30
0
10
19.414757432443487
20
-12.769663106725512
30
0
10
19.442542333367957
20
-12.856714090234153
30
0
10
19.462672210568339
20
-12.655535644764949
30
0
0
SPLINE
5
519
100
AcDbEntity
8
0
100
AcDbSpline
70
4
71
3
72
8
73
4
74
0
42
0.000000001
43
0.0000000001
44
0.0000000001
40
0
40
0
40
0
40
0
40
1
40
1
40
1
40
1
41
1
41
1
41
1
41
1
10
19.462672210568339
20
-12.655535644764949
30
0
10
19.472190791497294
20
-12.560737888549575
30
0
10
19.366395942058872
20
-12.459994497442494
30
0
10
19.253823700558222
20
-12.462982355705174
30
0
0
SPLINE
5
520
100
AcDbEntity
8
0
100
AcDbSpline
70
4
71
3
72
8
73
4
74
0
42
0.000000001
43
0.0000000001
44
0.0000000001
40
0
40
0
40
0
40
0
40
1
40
1
40
1
40
1
41
1
41
1
41
1
41
1
10
19.253823700558222
20
-12.462982355705174
30
0
10
19.160951168896698
20
-12.465446793542274
30
0
10
19.022735086746895
20
-12.545674510497358
30
0
10
18.968397879836921
20
-12.588984542550632
30
0
0
LINE
5
521
100
AcDbEntity
8
0
100
AcDbLine
10
18.968397879836921
20
-12.588984542550634
30
0
11
18.968397879836921
21
-12.58899958336746
31
0
0
SPLINE
5
522
100
AcDbEntity
8
0
100
AcDbSpline
70
4
71
3
72
8
73
4
74
0
42
0.000000001
43
0.0000000001
44
0.0000000001
40
0
40
0
40
0
40
0
40
1
40
1
40
1
40
1
41
1
41
1
41
1
41
1
10
4.3735166424441756
20
-12.104273915198647
30
0
10
4.4175194921225422
20
-12.13119622527809
30
0
10
4.4344154056949145
20
-12.141746606241373
30
0
10
4.4691617606775402
20
-12.178741751349841
30
0
0
SPLINE
5
523
100
AcDbEntity
8
0
100
AcDbSpline
70
4
71
3
72
8
73
4
74
0
42
0.000000001
43
0.0000000001
44
0.0000000001
40
0
40
0
40
0
40
0
40
1
40
1
40
1
40
1
41
1
41
1
41
1
41
1
10
4.4691617606775402
20
-12.178741751349841
30
0
10
4.3050555445030438
20
-12.253394589548007
30
0
10
4.205652478185459
20
-12.228935965264823
30
0
10
4.0168264915456184
20
-12.340968993482228
30
0
0
LINE
5
524
100
AcDbEntity
8
0
100
AcDbLine
10
4.0168264915456184
20
-12.340968993482226
30
0
11
4.168796084612219
21
-12.336949335185219
31
0
0
SPLINE
5
525
100
AcDbEntity
8
0
100
AcDbSpline
70
4
71
3
72
8
73
4
74
0
42
0.000000001
43
0.0000000001
44
0.0000000001
40
0
40
0
40
0
40
0
40
1
40
1
40
1
40
1
41
1
41
1
41
1
41
1
10
4.168796084612219
20
-12.336949335185219
30
0
10
4.1319088573644835
20
-12.437831101807106
30
0
10
3.879827587497537
20
-12.678730840434667
30
0
10
3.856955957399808
20
-12.870174869253455
30
0
0
SPLINE
5
526
100
AcDbEntity
8
0
100
AcDbSpline
70
4
71
3
72
8
73
4
74
0
42
0.000000001
43
0.0000000001
44
0.0000000001
40
0
40
0
40
0
40
0
40
1
40
1
40
1
40
1
41
1
41
1
41
1
41
1
10
3.856955957399808
20
-12.870174869253455
30
0
10
3.9976513301933285
20
-12.781167827516464
30
0
10
4.1196643163958528
20
-12.702233620808499
30
0
10
4.301805976027576
20
-12.620896643612427
30
0
0
SPLINE
5
527
100
AcDbEntity
8
0
100
AcDbSpline
70
4
71
3
72
8
73
4
74
0
42
0.000000001
43
0.0000000001
44
0.0000000001
40
0
40
0
40
0
40
0
40
1
40
1
40
1
40
1
41
1
41
1
41
1
41
1
10
4.301805976027576
20
-12.620896643612427
30
0
10
4.348504140081336
20
-12.66730207576869
30
0
10
4.3211353057523416
20
-12.664715055274451
30
0
10
4.3343345625690644
20
-12.731620368725043
30
0
0
SPLINE
5
528
100
AcDbEntity
8
0
100
AcDbSpline
70
4
71
3
72
8
73
4
74
0
42
0.000000001
43
0.0000000001
44
0.0000000001
40
0
40
0
40
0
40
0
40
1
40
1
40
1
40
1
41
1
41
1
41
1
41
1
10
4.3343345625690644
20
-12.731620368725043
30
0
10
4.4908476103786725
20
-12.624839593743618
30
0
10
4.4949753745466259
20
-12.529410123221508
30
0
10
4.5885565166909101
20
-12.330111027814835
30
0
0
SPLINE
5
529
100
AcDbEntity
8
0
100
AcDbSpline
70
4
71
3
72
8
73
4
74
0
42
0.000000001
43
0.0000000001
44
0.0000000001
40
0
40
0
40
0
40
0
40
1
40
1
40
1
40
1
41
1
41
1
41
1
41
1
10
4.5885565166909101
20
-12.330111027814835
30
0
10
4.5912826647407989
20
-12.329710942087237
30
0
10
4.5959648710190359
20
-12.32860168184625
30
0
10
4.5967810233421096
20
-12.33143537173645
30
0
0
LINE
5
530
100
AcDbEntity
8
0
100
AcDbLine
10
4.5967810233421096
20
-12.33143537173645
30
0
11
4.6457588111962087
21
-12.330111027814834
31
0
0
LINE
5
531
100
AcDbEntity
8
0
100
AcDbLine
10
4.6457588111962087
20
-12.330111027814834
30
0
11
4.6718341352780834
21
-12.135278302964931
31
0
0
SPLINE
5
532
100
AcDbEntity
8
0
100
AcDbSpline
70
4
71
3
72
8
73
4
74
0
42
0.000000001
43
0.0000000001
44
0.0000000001
40
0
40
0
40
0
40
0
40
1
40
1
40
1
40
1
41
1
41
1
41
1
41
1
10
4.6718341352780834
20
-12.135278302964931
30
0
10
4.6086096857254741
20
-12.108494368400297
30
0
10
4.6162028540903615
20
-12.186705111818883
30
0
10
4.5960727888797699
20
-12.06869636707612
30
0
0
SPLINE
5
533
100
AcDbEntity
8
0
100
AcDbSpline
70
4
71
3
72
8
73
4
74
0
42
0.000000001
43
0.0000000001
44
0.0000000001
40
0
40
0
40
0
40
0
40
1
40
1
40
1
40
1
41
1
41
1
41
1
41
1
10
4.5960727888797699
20
-12.06869636707612
30
0
10
4.5957339944807423
20
-12.066709475173276
30
0
10
4.5965195011395306
20
-12.06021033822234
30
0
10
4.5945942765856778
20
-12.056714100350911
30
0
0
SPLINE
5
534
100
AcDbEntity
8
0
100
AcDbSpline
70
4
71
3
72
8
73
4
74
0
42
0.000000001
43
0.0000000001
44
0.0000000001
40
0
40
0
40
0
40
0
40
1
40
1
40
1
40
1
41
1
41
1
41
1
41
1
10
4.5945942765856778
20
-12.056714100350911
30
0
10
4.5249936487596925
20
-12.052062727747169
30
0
10
4.4171039895576971
20
-12.043699281550529
30
0
10
4.373501413617138
20
-12.10425962642266
30
0
0
LINE
5
535
100
AcDbEntity
8
0
100
AcDbLine
10
4.373501413617138
20
-12.10425962642266
30
0
11
4.3735166424441756
21
-12.104273915198647
31
0
0
SPLINE
5
536
100
AcDbEntity
8
0
100
AcDbSpline
70
4
71
3
72
8
73
4
74
0
42
0.000000001
43
0.0000000001
44
0.0000000001
40
0
40
0
40
0
40
0
40
1
40
1
40
1
40
1
41
1
41
1
41
1
41
1
10
19.690957968163961
20
-12.592387527357735
30
0
10
19.744294208714095
20
-12.671875988165775
30
0
10
19.815189098828043
20
-12.728493382906716
30
0
10
19.836843362813838
20
-12.859701196455992
30
0
0
SPLINE
5
537
100
AcDbEntity
8
0
100
AcDbSpline
70
4
71
3
72
8
73
4
74
0
42
0.000000001
43
0.0000000001
44
0.0000000001
40
0
40
0
40
0
40
0
40
1
40
1
40
1
40
1
41
1
41
1
41
1
41
1
10
19.836843362813838
20
-12.859701196455992
30
0
10
19.858899216608915
20
-12.993111737629576
30
0
10
19.842865705871358
20
-13.10974951191856
30
0
10
19.888592797188728
20
-13.234934982410316
30
0
0
SPLINE
5
538
100
AcDbEntity
8
0
100
AcDbSpline
70
4
71
3
72
8
73
4
74
0
42
0.000000001
43
0.0000000001
44
0.0000000001
40
0
40
0
40
0
40
0
40
1
40
1
40
1
40
1
41
1
41
1
41
1
41
1
10
19.888592797188728
20
-13.234934982410316
30
0
10
19.971330826472236
20
-13.283481474841899
30
0
10
20.099535740942002
20
-13.302548718333458
30
0
10
20.223288573630992
20
-13.284251564663444
30
0
0
SPLINE
5
539
100
AcDbEntity
8
0
100
AcDbSpline
70
4
71
3
72
8
73
4
74
0
42
0.000000001
43
0.0000000001
44
0.0000000001
40
0
40
0
40
0
40
0
40
1
40
1
40
1
40
1
41
1
41
1
41
1
41
1
10
20.223288573630992
20
-13.284251564663444
30
0
10
20.203066195407121
20
-13.184001512348289
30
0
10
20.176143133286836
20
-13.111843945661718
30
0
10
20.146079548613077
20
-13.017969695599517
30
0
0
SPLINE
5
540
100
AcDbEntity
8
0
100
AcDbSpline
70
4
71
3
72
8
73
4
74
0
42
0.000000001
43
0.0000000001
44
0.0000000001
40
0
40
0
40
0
40
0
40
1
40
1
40
1
40
1
41
1
41
1
41
1
41
1
10
20.146079548613077
20
-13.017969695599517
30
0
10
20.081006958692853
20
-12.81480435822747
30
0
10
20.2087185343707
20
-12.667887163543259
30
0
10
19.952093621750532
20
-12.547490689129216
30
0
0
SPLINE
5
541
100
AcDbEntity
8
0
100
AcDbSpline
70
4
71
3
72
8
73
4
74
0
42
0.000000001
43
0.0000000001
44
0.0000000001
40
0
40
0
40
0
40
0
40
1
40
1
40
1
40
1
41
1
41
1
41
1
41
1
10
19.952093621750532
20
-12.547490689129216
30
0
10
19.85909775539103
20
-12.503888113188657
30
0
10
19.763344907307143
20
-12.541222428716573
30
0
10
19.69094142326545
20
-12.592386775316895
30
0
0
LINE
5
542
100
AcDbEntity
8
0
100
AcDbLine
10
19.69094142326545
20
-12.592386775316895
30
0
11
19.690957968163961
21
-12.592387527357735
31
0
0
SPLINE
5
543
100
AcDbEntity
8
0
100
AcDbSpline
70
4
71
3
72
8
73
4
74
0
42
0.000000001
43
0.0000000001
44
0.0000000001
40
0
40
0
40
0
40
0
40
1
40
1
40
1
40
1
41
1
41
1
41
1
41
1
10
14.19499612101429
20
-10.870574980272945
30
0
10
14.295477801908579
20
-10.927423251552181
30
0
10
14.340327261564092
20
-10.964079226241202
30
0
10
14.482116289751147
20
-10.896881368903324
30
0
0
SPLINE
5
544
100
AcDbEntity
8
0
100
AcDbSpline
70
4
71
3
72
8
73
4
74
0
42
0.000000001
43
0.0000000001
44
0.0000000001
40
0
40
0
40
0
40
0
40
1
40
1
40
1
40
1
41
1
41
1
41
1
41
1
10
14.482116289751147
20
-10.896881368903324
30
0
10
14.505249818071874
20
-10.753059574322107
30
0
10
14.430042725773635
20
-10.748408201718366
30
0
10
14.378323373032398
20
-10.66571604692618
30
0
0
SPLINE
5
545
100
AcDbEntity
8
0
100
AcDbSpline
70
4
71
3
72
8
73
4
74
0
42
0.000000001
43
0.0000000001
44
0.0000000001
40
0
40
0
40
0
40
0
40
1
40
1
40
1
40
1
41
1
41
1
41
1
41
1
10
14.378323373032398
20
-10.66571604692618
30
0
10
14.32239935994718
20
-10.576185584763612
30
0
10
14.328790955057805
20
-10.450290939758466
30
0
10
14.332949740910463
20
-10.331127060283391
30
0
0
SPLINE
5
546
100
AcDbEntity
8
0
100
AcDbSpline
70
4
71
3
72
8
73
4
74
0
42
0.000000001
43
0.0000000001
44
0.0000000001
40
0
40
0
40
0
40
0
40
1
40
1
40
1
40
1
41
1
41
1
41
1
41
1
10
14.332949740910463
20
-10.331127060283391
30
0
10
14.231728803869126
20
-10.250606799441021
30
0
10
14.158000975905818
20
-10.172811934607701
30
0
10
13.971100025809623
20
-10.206234133678921
30
0
0
SPLINE
5
547
100
AcDbEntity
8
0
100
AcDbSpline
70
4
71
3
72
8
73
4
74
0
42
0.000000001
43
0.0000000001
44
0.0000000001
40
0
40
0
40
0
40
0
40
1
40
1
40
1
40
1
41
1
41
1
41
1
41
1
10
13.971100025809623
20
-10.206234133678921
30
0
10
14.106728335424345
20
-10.435443397427717
30
0
10
14.176883217350404
20
-10.53168958430353
30
0
10
14.19499612101429
20
-10.870590773130614
30
0
0
LINE
5
548
100
AcDbEntity
8
0
100
AcDbLine
10
14.194996121014286
20
-10.870590773130614
30
0
11
14.19499612101429
21
-10.870574980272945
31
0
0
SPLINE
5
549
100
AcDbEntity
8
0
100
AcDbSpline
70
4
71
3
72
8
73
4
74
0
42
0.000000001
43
0.0000000001
44
0.0000000001
40
0
40
0
40
0
40
0
40
1
40
1
40
1
40
1
41
1
41
1
41
1
41
1
10
20.529292487894111
20
-13.266231914063882
30
0
10
20.629680915724077
20
-13.323249394532423
30
0
10
20.674469460071439
20
-13.359982829428102
30
0
10
20.816366030098806
20
-13.293015848628521
30
0
0
SPLINE
5
550
100
AcDbEntity
8
0
100
AcDbSpline
70
4
71
3
72
8
73
4
74
0
42
0.000000001
43
0.0000000001
44
0.0000000001
40
0
40
0
40
0
40
0
40
1
40
1
40
1
40
1
41
1
41
1
41
1
41
1
10
20.816366030098806
20
-13.293015848628521
30
0
10
20.842087330954616
20
-13.134808264793142
30
0
10
20.748598125803188
20
-12.990355507946033
30
0
10
20.668138780268968
20
-12.726999829795794
30
0
0
SPLINE
5
551
100
AcDbEntity
8
0
100
AcDbSpline
70
4
71
3
72
8
73
4
74
0
42
0.000000001
43
0.0000000001
44
0.0000000001
40
0
40
0
40
0
40
0
40
1
40
1
40
1
40
1
41
1
41
1
41
1
41
1
10
20.668138780268968
20
-12.726999829795794
30
0
10
20.56705697078328
20
-12.646309607723284
30
0
10
20.493451725477115
20
-12.568392160232822
30
0
10
20.306504900889596
20
-12.601490229701421
30
0
0
SPLINE
5
552
100
AcDbEntity
8
0
100
AcDbSpline
70
4
71
3
72
8
73
4
74
0
42
0.000000001
43
0.0000000001
44
0.0000000001
40
0
40
0
40
0
40
0
40
1
40
1
40
1
40
1
41
1
41
1
41
1
41
1
10
20.306504900889596
20
-12.601490229701421
30
0
10
20.441747413552704
20
-12.830931122029355
30
0
10
20.511748879147131
20
-12.927284098704636
30
0
10
20.529292487894111
20
-13.266216121206215
30
0
0
LINE
5
553
100
AcDbEntity
8
0
100
AcDbLine
10
20.529292487894111
20
-13.266216121206218
30
0
11
20.529292487894111
21
-13.266231914063882
31
0
0
SPLINE
5
554
100
AcDbEntity
8
0
100
AcDbSpline
70
4
71
3
72
8
73
4
74
0
42
0.000000001
43
0.0000000001
44
0.0000000001
40
0
40
0
40
0
40
0
40
0.015338538983734919
40
0.015338538983734919
40
0.015338538983734919
40
0.015338538983734919
41
1
41
1
41
1
41
1
10
12.170182558745882
20
-11.67585580094414
30
0
10
12.173856107150723
20
-11.676360408607705
30
0
10
12.17746088337686
20
-11.676883348146706
30
0
10
12.180998158164643
20
-11.677423998222498
30
0
0
SPLINE
5
555
100
AcDbEntity
8
0
100
AcDbSpline
70
4
71
3
72
8
73
4
74
0
42
0.000000001
43
0.0000000001
44
0.0000000001
40
0.94391479469665029
40
0.94391479469665029
40
0.94391479469665029
40
0.94391479469665029
40
1
40
1
40
1
40
1
41
1
41
1
41
1
41
1
10
12.363198832970435
20
-11.832482071502476
30
0
10
12.36327765657056
20
-11.833973289731986
30
0
10
12.363482526606621
20
-11.8351983859647
30
0
10
12.36387556570072
20
-11.836126984848178
30
0
0
SPLINE
5
556
100
AcDbEntity
8
0
100
AcDbSpline
70
4
71
3
72
8
73
4
74
0
42
0.000000001
43
0.0000000001
44
0.0000000001
40
0.99997395073232542
40
0.99997395073232542
40
0.99997395073232542
40
0.99997395073232542
40
1
40
1
40
1
40
1
41
1
41
1
41
1
41
1
10
8.5140075218578826
20
-12.240176785271517
30
0
10
8.5140079979424286
20
-12.240180523397097
30
0
10
8.5140084747139184
20
-12.240184261894504
30
0
10
8.5140089521723894
20
-12.240188000763759
30
0
0
SPLINE
5
557
100
AcDbEntity
8
0
100
AcDbSpline
70
4
71
3
72
8
73
4
74
0
42
0.000000001
43
0.0000000001
44
0.0000000001
40
0
40
0
40
0
40
0
40
0.11779792280909165
40
0.11779792280909165
40
0.11779792280909165
40
0.11779792280909165
41
1
41
1
41
1
41
1
10
18.064864427325197
20
-13.635236545729319
30
0
10
18.245960587250181
20
-13.655879607907133
30
0
10
18.398450008662333
20
-13.676312382664133
30
0
10
18.525386901728233
20
-13.696191971867444
30
0
0
SPLINE
5
558
100
AcDbEntity
8
0
100
AcDbSpline
70
4
71
3
72
8
73
4
74
0
42
0.000000001
43
0.0000000001
44
0.0000000001
40
0.99896999043660395
40
0.99896999043660395
40
0.99896999043660395
40
0.99896999043660395
40
1
40
1
40
1
40
1
41
1
41
1
41
1
41
1
10
18.525386901031652
20
-13.696191976568608
30
0
10
18.525635155488398
20
-13.696228800275948
30
0
10
18.525883918028239
20
-13.696265812703421
30
0
10
18.5261331896115
20
-13.696303014087675
30
0
0
SPLINE
5
559
100
AcDbEntity
8
0
100
AcDbSpline
70
4
71
3
72
8
73
4
74
0
42
0.000000001
43
0.0000000001
44
0.0000000001
40
0.99999760245126723
40
0.99999760245126723
40
0.99999760245126723
40
0.99999760245126723
40
1
40
1
40
1
40
1
41
1
41
1
41
1
41
1
10
17.744985427596212
20
-10.357071048712115
30
0
10
17.744985154230815
20
-10.357071271564624
30
0
10
17.744984880864855
20
-10.357071494416946
30
0
10
17.744984607498345
20
-10.357071717269083
30
0
0
SPLINE
5
560
100
AcDbEntity
8
0
100
AcDbSpline
70
4
71
3
72
8
73
4
74
0
42
0.000000001
43
0.0000000001
44
0.0000000001
40
0.99995174646855922
40
0.99995174646855922
40
0.99995174646855922
40
0.99995174646855922
40
1
40
1
40
1
40
1
41
1
41
1
41
1
41
1
10
18.086112394755645
20
-10.226375609862648
30
0
10
18.086109702798659
20
-10.226379263759229
30
0
10
18.086107010149263
20
-10.226382917839866
30
0
10
18.086104316807411
20
-10.226386572104543
30
0
0
SPLINE
5
561
100
AcDbEntity
8
0
100
AcDbSpline
70
4
71
3
72
8
73
4
74
0
42
0.000000001
43
0.0000000001
44
0.0000000001
40
0
40
0
40
0
40
0
40
0.79365089877519668
40
0.79365089877519668
40
0.79365089877519668
40
0.79365089877519668
41
1
41
1
41
1
41
1
10
18.111162317641149
20
-11.014358420771254
30
0
10
18.190383862192562
20
-10.619498131003569
30
0
10
18.206731156708386
20
-10.454471265598064
30
0
10
18.086112372518912
20
-10.226375640025982
30
0
0
SPLINE
5
562
100
AcDbEntity
8
0
100
AcDbSpline
70
4
71
5
72
21
73
15
74
0
42
0.000000001
43
0.0000000001
44
0.0000000001
40
0
40
0
40
0
40
0
40
0
40
0
40
0.10000000000000001
40
0.20000000000000001
40
0.30000000000000004
40
0.40000000000000002
40
0.5
40
0.59999999999999998
40
0.69999999999999996
40
0.79999999999999993
40
0.89999999999999991
40
1
40
1
40
1
40
1
40
1
40
1
41
1
41
1
41
1
41
1
41
1
41
1
41
1
41
1
41
1
41
1
41
1
41
1
41
1
41
1
41
1
10
16.687559533539744
20
-12.05247033388318
30
0
10
16.718259361806524
20
-12.023108159134853
30
0
10
16.779088843548212
20
-11.96379456025039
30
0
10
16.8686225982518
20
-11.873056554362067
30
0
10
16.984523263613983
20
-11.74847792945512
30
0
10
17.123018236040391
20
-11.586492918565252
30
0
10
17.253995461299382
20
-11.418074345632341
30
0
10
17.375713255973043
20
-11.243495039776889
30
0
10
17.485833997468557
20
-11.063828720945736
30
0
10
17.581532004691077
20
-10.8816501331262
30
0
10
17.659659906326262
20
-10.70048522600365
30
0
10
17.705582221234259
20
-10.559239232557589
30
0
10
17.729517171243167
20
-10.456686716447418
30
0
10
17.740635262855822
20
-10.389996919879595
30
0
10
17.744984607498345
20
-10.357071717269083
30
0
0
SPLINE
5
563
100
AcDbEntity
8
0
100
AcDbSpline
70
4
71
5
72
21
73
15
74
0
42
0.000000001
43
0.0000000001
44
0.0000000001
40
0
40
0
40
0
40
0
40
0
40
0
40
0.10000000000000001
40
0.20000000000000001
40
0.30000000000000004
40
0.40000000000000002
40
0.5
40
0.59999999999999998
40
0.69999999999999996
40
0.79999999999999993
40
0.89999999999999991
40
1
40
1
40
1
40
1
40
1
40
1
41
1
41
1
41
1
41
1
41
1
41
1
41
1
41
1
41
1
41
1
41
1
41
1
41
1
41
1
41
1
10
12.363198832970435
20
-11.832482071502476
30
0
10
12.372742638863091
20
-11.831336717497141
30
0
10
12.391778027673217
20
-11.829023764924509
30
0
10
12.420174449341667
20
-11.825487605522719
30
0
10
12.457717803232406
20
-11.820637042364455
30
0
10
12.504079559488005
20
-11.814332136987897
30
0
10
12.549821261262677
20
-11.807763117198464
30
0
10
12.594889252169526
20
-11.800907127866306
30
0
10
12.639248867234825
20
-11.793749403321739
30
0
10
12.682920866008571
20
-11.786298786168464
30
0
10
12.725954172168054
20
-11.778576115620657
30
0
10
12.759910264099011
20
-11.77219754545675
30
0
10
12.785129248531607
20
-11.767307945350256
30
0
10
12.801833434809234
20
-11.764002008758244
30
0
10
12.810158410141469
20
-11.762337489535881
30
0
0
SPLINE
5
564
100
AcDbEntity
8
0
100
AcDbSpline
70
4
71
5
72
21
73
15
74
0
42
0.000000001
43
0.0000000001
44
0.0000000001
40
0
40
0
40
0
40
0
40
0
40
0
40
0.10000000000000001
40
0.20000000000000001
40
0.30000000000000004
40
0.40000000000000002
40
0.5
40
0.59999999999999998
40
0.69999999999999996
40
0.79999999999999993
40
0.89999999999999991
40
1
40
1
40
1
40
1
40
1
40
1
41
1
41
1
41
1
41
1
41
1
41
1
41
1
41
1
41
1
41
1
41
1
41
1
41
1
41
1
41
1
10
16.417211379646648
20
-12.656635880515843
30
0
10
16.442940417276567
20
-12.640726445896121
30
0
10
16.493878812741809
20
-12.60854844897405
30
0
10
16.568727436770246
20
-12.559204119065118
30
0
10
16.665355760577722
20
-12.491221142115524
30
0
10
16.780495255282393
20
-12.402340782620103
30
0
10
16.889467906643464
20
-12.309198790898032
30
0
10
16.991744332138946
20
-12.211429334140258
30
0
10
17.086989331971655
20
-12.108800770616012
30
0
10
17.175419465471069
20
-12.001462754882626
30
0
10
17.257523799247554
20
-11.889753259206625
30
0
10
17.318548922039639
20
-11.797166487342384
30
0
10
17.361862105911648
20
-11.726029411836759
30
0
10
17.389663887138656
20
-11.677862725821933
30
0
10
17.403296355313223
20
-11.653593887958534
30
0
0
SPLINE
5
565
100
AcDbEntity
8
0
100
AcDbSpline
70
4
71
5
72
21
73
15
74
0
42
0.000000001
43
0.0000000001
44
0.0000000001
40
0
40
0
40
0
40
0
40
0
40
0
40
0.10000000000000001
40
0.20000000000000001
40
0.30000000000000004
40
0.40000000000000002
40
0.5
40
0.59999999999999998
40
0.69999999999999996
40
0.79999999999999993
40
0.89999999999999991
40
1
40
1
40
1
40
1
40
1
40
1
41
1
41
1
41
1
41
1
41
1
41
1
41
1
41
1
41
1
41
1
41
1
41
1
41
1
41
1
41
1
10
17.473466278056112
20
-12.678075812861854
30
0
10
17.502178749681782
20
-12.65420611431683
30
0
10
17.556459882566017
20
-12.607836388677876
30
0
10
17.628468390557579
20
-12.542365340147482
30
0
10
17.705184639192321
20
-12.463594060573223
30
0
10
17.769946047298813
20
-12.376112184494492
30
0
10
17.807327044262028
20
-12.292373650226594
30
0
10
17.833552184403345
20
-12.188627540966195
30
0
10
17.863358656001452
20
-12.046102148687183
30
0
10
17.903275319127463
20
-11.858825083708716
30
0
10
17.956931764778346
20
-11.625038692169142
30
0
10
18.011476564626996
20
-11.402118802533112
30
0
10
18.058850999612336
20
-11.215618613314389
30
0
10
18.093254822197355
20
-11.082851180956755
30
0
10
18.111162317641149
20
-11.014358420771256
30
0
0
SPLINE
5
566
100
AcDbEntity
8
0
100
AcDbSpline
70
4
71
5
72
21
73
15
74
0
42
0.000000001
43
0.0000000001
44
0.0000000001
40
0
40
0
40
0
40
0
40
0
40
0
40
0.10000000000000001
40
0.20000000000000001
40
0.30000000000000004
40
0.40000000000000002
40
0.5
40
0.59999999999999998
40
0.69999999999999996
40
0.79999999999999993
40
0.89999999999999991
40
1
40
1
40
1
40
1
40
1
40
1
41
1
41
1
41
1
41
1
41
1
41
1
41
1
41
1
41
1
41
1
41
1
41
1
41
1
41
1
41
1
10
17.239358972307613
20
-12.795560385138195
30
0
10
17.244954386991207
20
-12.793706491240812
30
0
10
17.256066785229308
20
-12.789956124556864
30
0
10
17.272500101888077
20
-12.784202844751972
30
0
10
17.293932778006329
20
-12.77627208308596
30
0
10
17.319871000275626
20
-12.765895756942706
30
0
10
17.34487609289447
20
-12.755012851017364
30
0
10
17.368864902642876
20
-12.743578222878105
30
0
10
17.391779999934105
20
-12.731560695004292
30
0
10
17.413646735089586
20
-12.718974029641558
30
0
10
17.434537256584179
20
-12.705857394935741
30
0
10
17.450529202958194
20
-12.694972956147407
30
0
10
17.462143136206048
20
-12.686603317289824
30
0
10
17.469719591873819
20
-12.680933349162517
30
0
10
17.473466278056112
20
-12.678075812861854
30
0
0
SPLINE
5
567
100
AcDbEntity
8
0
100
AcDbSpline
70
4
71
5
72
21
73
15
74
0
42
0.000000001
43
0.0000000001
44
0.0000000001
40
0
40
0
40
0
40
0
40
0
40
0
40
0.10000000000000001
40
0.20000000000000001
40
0.30000000000000004
40
0.40000000000000002
40
0.5
40
0.59999999999999998
40
0.69999999999999996
40
0.79999999999999993
40
0.89999999999999991
40
1
40
1
40
1
40
1
40
1
40
1
41
1
41
1
41
1
41
1
41
1
41
1
41
1
41
1
41
1
41
1
41
1
41
1
41
1
41
1
41
1
10
16.779753724362372
20
-13.011016325980405
30
0
10
16.788921309886828
20
-13.004244796987011
30
0
10
16.807258583506787
20
-12.990912893586287
30
0
10
16.83477080130001
20
-12.97154846709914
30
0
10
16.871466583646043
20
-12.947017235141699
30
0
10
16.917359171504931
20
-12.918648945898589
30
0
10
16.963276787694838
20
-12.892794173716224
30
0
10
17.009221679409013
20
-12.869678597412772
30
0
10
17.055195422957297
20
-12.849460521051437
30
0
10
17.101197381023592
20
-12.832075941079518
30
0
10
17.147225629367764
20
-12.817331612135535
30
0
10
17.184067639835945
20
-12.807485615158511
30
0
10
17.211709388108659
20
-12.801129531245817
30
0
10
17.230141697963926
20
-12.797341820849272
30
0
10
17.239358972307613
20
-12.795560385138195
30
0
0
SPLINE
5
568
100
AcDbEntity
8
0
100
AcDbSpline
70
4
71
5
72
16
73
10
74
0
42
0.000000001
43
0.0000000001
44
0.0000000001
40
0
40
0
40
0
40
0
40
0
40
0
40
0.20000000000000001
40
0.40000000000000002
40
0.60000000000000009
40
0.80000000000000004
40
1
40
1
40
1
40
1
40
1
40
1
41
1
41
1
41
1
41
1
41
1
41
1
41
1
41
1
41
1
41
1
10
8.6739587880813165
20
-14.016615257398302
30
0
10
8.6365549369209837
20
-13.942627120379532
30
0
10
8.5695600502133296
20
-13.806577887077827
30
0
10
8.4924850820651887
20
-13.638252971094831
30
0
10
8.4300924106209756
20
-13.475454607562112
30
0
10
8.3968930217459619
20
-13.34033526085377
30
0
10
8.3923154965140583
20
-13.265797473042845
30
0
10
8.3971852429296749
20
-13.222569320772983
30
0
10
8.403882139098565
20
-13.199017929451593
30
0
10
8.4080935496434996
20
-13.188559631887705
30
0
0
LINE
5
569
100
AcDbEntity
8
0
100
AcDbLine
10
18.360733087169461
20
-13.905723075137223
30
0
11
18.702252882206125
21
-13.920275817458162
31
0
0
SPLINE
5
570
100
AcDbEntity
8
0
100
AcDbSpline
70
4
71
5
72
26
73
20
74
0
42
0.000000001
43
0.0000000001
44
0.0000000001
40
0
40
0
40
0
40
0
40
0
40
0
40
0.066666666666666666
40
0.13333333333333333
40
0.20000000000000001
40
0.26666666666666666
40
0.33333333333333331
40
0.39999999999999997
40
0.46666666666666662
40
0.53333333333333333
40
0.59999999999999998
40
0.66666666666666663
40
0.73333333333333328
40
0.79999999999999993
40
0.86666666666666659
40
0.93333333333333324
40
1
40
1
40
1
40
1
40
1
40
1
41
1
41
1
41
1
41
1
41
1
41
1
41
1
41
1
41
1
41
1
41
1
41
1
41
1
41
1
41
1
41
1
41
1
41
1
41
1
41
1
10
9.6570800173177336
20
-9.5179368179371604
30
0
10
9.6329479772295272
20
-9.5433513004456536
30
0
10
9.5865917802218998
20
-9.5953626075583944
30
0
10
9.5227810197813554
20
-9.6769265114448952
30
0
10
9.4492312921199169
20
-9.792824569481839
30
0
10
9.376799322553385
20
-9.9497212287484995
30
0
10
9.3238644682978844
20
-10.118446490005905
30
0
10
9.2896615931142321
20
-10.298137843508551
30
0
10
9.2722249373904031
20
-10.486928942334721
30
0
10
9.2676626039240837
20
-10.681401997561252
30
0
10
9.2706488403006713
20
-10.876988661216362
30
0
10
9.2752143744080282
20
-11.068609664826889
30
0
10
9.2753950584757821
20
-11.251218527021038
30
0
10
9.2658955398978797
20
-11.420365454844232
30
0
10
9.2428339153399559
20
-11.572850896851795
30
0
10
9.2043277754191486
20
-11.70724213152762
30
0
10
9.1606464543830413
20
-11.799972130096746
30
0
10
9.1206591502142285
20
-11.861275806129383
30
0
10
9.0908121270921143
20
-11.89850718320203
30
0
10
9.0750914285268998
20
-11.91621345216508
30
0
0
SPLINE
5
571
100
AcDbEntity
8
0
100
AcDbSpline
70
4
71
3
72
8
73
4
74
0
42
0.000000001
43
0.0000000001
44
0.0000000001
40
0.33298908836210617
40
0.33298908836210617
40
0.33298908836210617
40
0.33298908836210617
40
1
40
1
40
1
40
1
41
1
41
1
41
1
41
1
10
9.07509144354343
20
-11.916213445319613
30
0
10
9.5502602532591876
20
-11.699602039206436
30
0
10
10.19900809930523
20
-11.43374109640127
30
0
10
10.859676510109173
20
-10.798993017256796
30
0
0
SPLINE
5
572
100
AcDbEntity
8
0
100
AcDbSpline
70
4
71
5
72
21
73
15
74
0
42
0.000000001
43
0.0000000001
44
0.0000000001
40
0
40
0
40
0
40
0
40
0
40
0
40
0.10000000000000001
40
0.20000000000000001
40
0.30000000000000004
40
0.40000000000000002
40
0.5
40
0.59999999999999998
40
0.69999999999999996
40
0.79999999999999993
40
0.89999999999999991
40
1
40
1
40
1
40
1
40
1
40
1
41
1
41
1
41
1
41
1
41
1
41
1
41
1
41
1
41
1
41
1
41
1
41
1
41
1
41
1
41
1
10
6.5018440131585074
20
-10.773845024480496
30
0
10
6.5040291993131181
20
-10.772546291646739
30
0
10
6.5087461489049883
20
-10.770103891913795
30
0
10
6.5168621527494457
20
-10.766905841095104
30
0
10
6.5297915541254437
20
-10.763585151937551
30
0
10
6.5495206207973284
20
-10.761036637032166
30
0
10
6.5724459827794588
20
-10.759947166232283
30
0
10
6.5977080027183703
20
-10.759970435539611
30
0
10
6.6229106036519187
20
-10.760117159315278
30
0
10
6.6453030863154128
20
-10.759238963857857
30
0
10
6.6639846877935378
20
-10.756950983793196
30
0
10
6.6756314181771108
20
-10.753847136840745
30
0
10
6.6825460663243925
20
-10.750814027628406
30
0
10
6.6863565106324323
20
-10.748482200734237
30
0
10
6.6880620990570945
20
-10.747238930576151
30
0
0
SPLINE
5
573
100
AcDbEntity
8
0
100
AcDbSpline
70
4
71
3
72
8
73
4
74
0
42
0.000000001
43
0.0000000001
44
0.0000000001
40
0
40
0
40
0
40
0
40
0.80171776703696462
40
0.80171776703696462
40
0.80171776703696462
40
0.80171776703696462
41
1
41
1
41
1
41
1
10
5.9901447460374904
20
-11.152101295507409
30
0
10
6.0446228995154598
20
-11.10612134942874
30
0
10
6.3506834557549423
20
-10.857177482943499
30
0
10
6.5046907052011047
20
-10.772266526553439
30
0
0
SPLINE
5
574
100
AcDbEntity
8
0
100
AcDbSpline
70
4
71
3
72
8
73
4
74
0
42
0.000000001
43
0.0000000001
44
0.0000000001
40
0.05865434715635634
40
0.05865434715635634
40
0.05865434715635634
40
0.05865434715635634
40
1
40
1
40
1
40
1
41
1
41
1
41
1
41
1
10
6.6841649515237878
20
-10.749693243634926
30
0
10
6.9357541092687418
20
-10.590215210170621
30
0
10
7.3862101286094939
20
-10.506789607163872
30
0
10
7.6872218294129908
20
-10.623020932830457
30
0
0
LINE
5
575
100
AcDbEntity
8
0
100
AcDbLine
10
1.6472446938263443
20
-12.242217838643233
30
0
11
21.068247069091743
21
-12.242217838643233
31
0
0
LINE
5
576
100
AcDbEntity
8
0
100
AcDbLine
10
11.972916981774215
20
-3.6245511118842706
30
0
11
11.972916981774215
21
-20.706684097340027
31
0
0
ENDSEC
0
SECTION
2
OBJECTS
0
DICTIONARY
5
C
100
AcDbDictionary
3
ACAD_GROUP
350
D
3
ACAD_MLINESTYLE
350
17
0
DICTIONARY
5
D
100
AcDbDictionary
0
DICTIONARY
5
1A
330
C
100
AcDbDictionary
0
DICTIONARY
5
17
100
AcDbDictionary
0
ENDSEC
0
EOF
