  0
SECTION
  2
HEADER
  9
$ACADVER
  1
AC1032
  9
$ACADMAINTVER
 90
       55
  9
$DWGCODEPAGE
  3
ANSI_1252
  9
$LASTSAVEDBY
  1
hauli
  9
$REQUIREDVERSIONS
160
                 0
  9
$INSBASE
 10
0.0
 20
0.0
 30
0.0
  9
$EXTMIN
 10
-17.11188334009758
 20
-3.945909552045953
 30
0.0
  9
$EXTMAX
 10
84.3743676110102
 20
52.72256089695175
 30
0.0
  9
$LIMMIN
 10
0.0
 20
0.0
  9
$LIMMAX
 10
24.0
 20
24.0
  9
$ORTHOMODE
 70
     0
  9
$REGENMODE
 70
     1
  9
$FILLMODE
 70
     1
  9
$QTEXTMODE
 70
     0
  9
$MIRRTEXT
 70
     1
  9
$LTSCALE
 40
1.0
  9
$ATTMODE
 70
     1
  9
$TEXTSIZE
 40
0.1388888889
  9
$TRACEWID
 40
0.05
  9
$TEXTSTYLE
  7
Standard
  9
$CLAYER
  8
0
  9
$CELTYPE
  6
ByLayer
  9
$CECOLOR
 62
   256
  9
$CELTSCALE
 40
1.0
  9
$DISPSILH
 70
     0
  9
$DIMSCALE
 40
1.0
  9
$DIMASZ
 40
0.1041666667
  9
$DIMEXO
 40
0.05
  9
$DIMDLI
 40
0.38
  9
$DIMRND
 40
0.0
  9
$DIMDLE
 40
0.0
  9
$DIMEXE
 40
0.125
  9
$DIMTP
 40
0.0
  9
$DIMTM
 40
0.0
  9
$DIMTXT
 40
0.1388888889
  9
$DIMCEN
 40
0.09
  9
$DIMTSZ
 40
0.0
  9
$DIMTOL
 70
     0
  9
$DIMLIM
 70
     0
  9
$DIMTIH
 70
     1
  9
$DIMTOH
 70
     1
  9
$DIMSE1
 70
     0
  9
$DIMSE2
 70
     0
  9
$DIMTAD
 70
     0
  9
$DIMZIN
 70
     1
  9
$DIMBLK
  1

  9
$DIMASO
 70
     1
  9
$DIMSHO
 70
     1
  9
$DIMPOST
  1

  9
$DIMAPOST
  1

  9
$DIMALT
 70
     0
  9
$DIMALTD
 70
     2
  9
$DIMALTF
 40
25.4
  9
$DIMLFAC
 40
1.0
  9
$DIMTOFL
 70
     0
  9
$DIMTVP
 40
0.0
  9
$DIMTIX
 70
     0
  9
$DIMSOXD
 70
     0
  9
$DIMSAH
 70
     0
  9
$DIMBLK1
  1

  9
$DIMBLK2
  1

  9
$DIMSTYLE
  2
Standard
  9
$DIMCLRD
 70
     0
  9
$DIMCLRE
 70
     0
  9
$DIMCLRT
 70
     0
  9
$DIMTFAC
 40
1.0
  9
$DIMGAP
 40
0.0625
  9
$DIMJUST
 70
     0
  9
$DIMSD1
 70
     0
  9
$DIMSD2
 70
     0
  9
$DIMTOLJ
 70
     1
  9
$DIMTZIN
 70
     1
  9
$DIMALTZ
 70
     0
  9
$DIMALTTZ
 70
     0
  9
$DIMUPT
 70
     0
  9
$DIMDEC
 70
     2
  9
$DIMTDEC
 70
     4
  9
$DIMALTU
 70
     2
  9
$DIMALTTD
 70
     2
  9
$DIMTXSTY
  7
Standard
  9
$DIMAUNIT
 70
     0
  9
$DIMADEC
 70
     0
  9
$DIMALTRND
 40
0.0
  9
$DIMAZIN
 70
     0
  9
$DIMDSEP
 70
    46
  9
$DIMATFIT
 70
     3
  9
$DIMFRAC
 70
     0
  9
$DIMLDRBLK
  1

  9
$DIMLUNIT
 70
     2
  9
$DIMLWD
 70
    -2
  9
$DIMLWE
 70
    -2
  9
$DIMTMOVE
 70
     0
  9
$DIMFXL
 40
1.0
  9
$DIMFXLON
 70
     0
  9
$DIMJOGANG
 40
0.7853981633974483
  9
$DIMTFILL
 70
     0
  9
$DIMTFILLCLR
 70
     0
  9
$DIMARCSYM
 70
     0
  9
$DIMLTYPE
  6

  9
$DIMLTEX1
  6

  9
$DIMLTEX2
  6

  9
$DIMTXTDIRECTION
 70
     0
  9
$LUNITS
 70
     2
  9
$LUPREC
 70
     5
  9
$SKETCHINC
 40
0.1
  9
$FILLETRAD
 40
0.25
  9
$AUNITS
 70
     0
  9
$AUPREC
 70
     0
  9
$MENU
  1
.
  9
$ELEVATION
 40
0.0
  9
$PELEVATION
 40
0.0
  9
$THICKNESS
 40
0.0
  9
$LIMCHECK
 70
     0
  9
$CHAMFERA
 40
0.0
  9
$CHAMFERB
 40
0.0
  9
$CHAMFERC
 40
0.0
  9
$CHAMFERD
 40
0.0
  9
$SKPOLY
 70
     0
  9
$TDCREATE
 40
2458449.449074074
  9
$TDUCREATE
 40
2458449.782414734
  9
$TDUPDATE
 40
2458916.550289352
  9
$TDUUPDATE
 40
2458916.883622685
  9
$TDINDWG
 40
0.0589004745
  9
$TDUSRTIMER
 40
0.0589004745
  9
$USRTIMER
 70
     1
  9
$ANGBASE
 50
0.0
  9
$ANGDIR
 70
     0
  9
$PDMODE
 70
     0
  9
$PDSIZE
 40
-1.0
  9
$PLINEWID
 40
0.0
  9
$SPLFRAME
 70
     0
  9
$SPLINETYPE
 70
     6
  9
$SPLINESEGS
 70
     8
  9
$HANDSEED
  5
5B0
  9
$SURFTAB1
 70
     6
  9
$SURFTAB2
 70
     6
  9
$SURFTYPE
 70
     6
  9
$SURFU
 70
     6
  9
$SURFV
 70
     6
  9
$UCSBASE
  2

  9
$UCSNAME
  2

  9
$UCSORG
 10
0.0
 20
0.0
 30
0.0
  9
$UCSXDIR
 10
1.0
 20
0.0
 30
0.0
  9
$UCSYDIR
 10
0.0
 20
1.0
 30
0.0
  9
$UCSORTHOREF
  2

  9
$UCSORTHOVIEW
 70
     0
  9
$UCSORGTOP
 10
0.0
 20
0.0
 30
0.0
  9
$UCSORGBOTTOM
 10
0.0
 20
0.0
 30
0.0
  9
$UCSORGLEFT
 10
0.0
 20
0.0
 30
0.0
  9
$UCSORGRIGHT
 10
0.0
 20
0.0
 30
0.0
  9
$UCSORGFRONT
 10
0.0
 20
0.0
 30
0.0
  9
$UCSORGBACK
 10
0.0
 20
0.0
 30
0.0
  9
$PUCSBASE
  2

  9
$PUCSNAME
  2

  9
$PUCSORG
 10
0.0
 20
0.0
 30
0.0
  9
$PUCSXDIR
 10
1.0
 20
0.0
 30
0.0
  9
$PUCSYDIR
 10
0.0
 20
1.0
 30
0.0
  9
$PUCSORTHOREF
  2

  9
$PUCSORTHOVIEW
 70
     0
  9
$PUCSORGTOP
 10
0.0
 20
0.0
 30
0.0
  9
$PUCSORGBOTTOM
 10
0.0
 20
0.0
 30
0.0
  9
$PUCSORGLEFT
 10
0.0
 20
0.0
 30
0.0
  9
$PUCSORGRIGHT
 10
0.0
 20
0.0
 30
0.0
  9
$PUCSORGFRONT
 10
0.0
 20
0.0
 30
0.0
  9
$PUCSORGBACK
 10
0.0
 20
0.0
 30
0.0
  9
$USERI1
 70
     0
  9
$USERI2
 70
     0
  9
$USERI3
 70
     0
  9
$USERI4
 70
     0
  9
$USERI5
 70
     0
  9
$USERR1
 40
0.0
  9
$USERR2
 40
0.0
  9
$USERR3
 40
0.0
  9
$USERR4
 40
0.0
  9
$USERR5
 40
0.0
  9
$WORLDVIEW
 70
     1
  9
$SHADEDGE
 70
     3
  9
$SHADEDIF
 70
    70
  9
$TILEMODE
 70
     1
  9
$MAXACTVP
 70
    64
  9
$PINSBASE
 10
0.0
 20
0.0
 30
0.0
  9
$PLIMCHECK
 70
     0
  9
$PEXTMIN
 10
1.000000000000000E+20
 20
1.000000000000000E+20
 30
1.000000000000000E+20
  9
$PEXTMAX
 10
-1.000000000000000E+20
 20
-1.000000000000000E+20
 30
-1.000000000000000E+20
  9
$PLIMMIN
 10
0.0
 20
0.0
  9
$PLIMMAX
 10
12.0
 20
9.0
  9
$UNITMODE
 70
     0
  9
$VISRETAIN
 70
     1
  9
$PLINEGEN
 70
     0
  9
$PSLTSCALE
 70
     1
  9
$TREEDEPTH
 70
  3020
  9
$CMLSTYLE
  2
Standard
  9
$CMLJUST
 70
     0
  9
$CMLSCALE
 40
1.0
  9
$PROXYGRAPHICS
 70
     1
  9
$MEASUREMENT
 70
     0
  9
$CELWEIGHT
370
    -1
  9
$ENDCAPS
280
     0
  9
$JOINSTYLE
280
     0
  9
$LWDISPLAY
290
     1
  9
$INSUNITS
 70
     1
  9
$HYPERLINKBASE
  1

  9
$STYLESHEET
  1

  9
$XEDIT
290
     1
  9
$CEPSNTYPE
380
     0
  9
$PSTYLEMODE
290
     1
  9
$FINGERPRINTGUID
  2
{0EA6E4F4-B2FD-4B2B-9890-202056FEE99F}
  9
$VERSIONGUID
  2
{68D3D25A-3258-0840-91EE-6066FB99C3EE}
  9
$EXTNAMES
290
     1
  9
$PSVPSCALE
 40
0.0
  9
$OLESTARTUP
290
     0
  9
$SORTENTS
280
   127
  9
$INDEXCTL
280
     0
  9
$HIDETEXT
280
     0
  9
$XCLIPFRAME
280
     2
  9
$HALOGAP
280
     0
  9
$OBSCOLOR
 70
   257
  9
$OBSLTYPE
280
     0
  9
$INTERSECTIONDISPLAY
280
     0
  9
$INTERSECTIONCOLOR
 70
   257
  9
$DIMASSOC
280
     1
  9
$PROJECTNAME
  1

  9
$CAMERADISPLAY
290
     0
  9
$LENSLENGTH
 40
50.0
  9
$CAMERAHEIGHT
 40
0.0
  9
$STEPSPERSEC
 40
2.0
  9
$STEPSIZE
 40
6.0
  9
$3DDWFPREC
 40
2.0
  9
$PSOLWIDTH
 40
0.25
  9
$PSOLHEIGHT
 40
4.0
  9
$LOFTANG1
 40
1.570796326794896
  9
$LOFTANG2
 40
1.570796326794896
  9
$LOFTMAG1
 40
0.0
  9
$LOFTMAG2
 40
0.0
  9
$LOFTPARAM
 70
     7
  9
$LOFTNORMALS
280
     1
  9
$LATITUDE
 40
37.795
  9
$LONGITUDE
 40
-122.394
  9
$NORTHDIRECTION
 40
0.0
  9
$TIMEZONE
 70
 -8000
  9
$LIGHTGLYPHDISPLAY
280
     1
  9
$TILEMODELIGHTSYNCH
280
     1
  9
$CMATERIAL
347
28B
  9
$SOLIDHIST
280
     0
  9
$SHOWHIST
280
     1
  9
$DWFFRAME
280
     2
  9
$DGNFRAME
280
     0
  9
$REALWORLDSCALE
290
     1
  9
$INTERFERECOLOR
 62
     1
  9
$INTERFEREOBJVS
345
2AD
  9
$INTERFEREVPVS
346
2AA
  9
$CSHADOW
280
     0
  9
$SHADOWPLANELOCATION
 40
0.0
  0
ENDSEC
  0
SECTION
  2
CLASSES
  0
CLASS
  1
ACDBDICTIONARYWDFLT
  2
AcDbDictionaryWithDefault
  3
ObjectDBX Classes
 90
        0
 91
        1
280
     0
281
     0
  0
CLASS
  1
VISUALSTYLE
  2
AcDbVisualStyle
  3
ObjectDBX Classes
 90
     4095
 91
       24
280
     0
281
     0
  0
CLASS
  1
MATERIAL
  2
AcDbMaterial
  3
ObjectDBX Classes
 90
     1153
 91
        3
280
     0
281
     0
  0
CLASS
  1
SCALE
  2
AcDbScale
  3
ObjectDBX Classes
 90
     1153
 91
       33
280
     0
281
     0
  0
CLASS
  1
TABLESTYLE
  2
AcDbTableStyle
  3
ObjectDBX Classes
 90
     4095
 91
        1
280
     0
281
     0
  0
CLASS
  1
MLEADERSTYLE
  2
AcDbMLeaderStyle
  3
ACDB_MLEADERSTYLE_CLASS
 90
     4095
 91
        1
280
     0
281
     0
  0
CLASS
  1
SUN
  2
AcDbSun
  3
SCENEOE
 90
     1153
 91
        0
280
     0
281
     0
  0
CLASS
  1
ACDBSECTIONVIEWSTYLE
  2
AcDbSectionViewStyle
  3
ObjectDBX Classes
 90
     1025
 91
        1
280
     0
281
     0
  0
CLASS
  1
ACDBDETAILVIEWSTYLE
  2
AcDbDetailViewStyle
  3
ObjectDBX Classes
 90
     1025
 91
        1
280
     0
281
     0
  0
CLASS
  1
SORTENTSTABLE
  2
AcDbSortentsTable
  3
ObjectDBX Classes
 90
        0
 91
        1
280
     0
281
     0
  0
CLASS
  1
DICTIONARYVAR
  2
AcDbDictionaryVar
  3
ObjectDBX Classes
 90
        0
 91
       90
280
     0
281
     0
  0
CLASS
  1
CELLSTYLEMAP
  2
AcDbCellStyleMap
  3
ObjectDBX Classes
 90
     1152
 91
        2
280
     0
281
     0
  0
ENDSEC
  0
SECTION
  2
TABLES
  0
TABLE
  2
VPORT
  5
8
330
0
100
AcDbSymbolTable
 70
     1
  0
VPORT
  5
29
330
8
100
AcDbSymbolTableRecord
100
AcDbViewportTableRecord
  2
*Active
 70
     0
 10
0.0
 20
0.0
 11
1.0
 21
1.0
 12
3.535139736612698
 22
13.012171254581
 13
0.0
 23
0.0
 14
0.5
 24
0.5
 15
0.5
 25
0.5
 16
0.0
 26
0.0
 36
1.0
 17
0.0
 27
0.0
 37
0.0
 40
28.80324571069678
 41
2.028742514970059
 42
50.0
 43
0.0
 44
0.0
 50
0.0
 51
0.0
 71
     0
 72
  2000
 73
     1
 74
     1
 75
     0
 76
     0
 77
     0
 78
     0
281
     0
 65
     1
110
0.0
120
0.0
130
0.0
111
1.0
121
0.0
131
0.0
112
0.0
122
1.0
132
0.0
 79
     0
146
0.0
348
2A9
 60
     3
 61
     5
292
     1
282
     1
141
0.0
142
0.0
 63
   250
421
  3355443
1001
ACAD_NAV_VCDISPLAY
1070
     3
  0
ENDTAB
  0
TABLE
  2
LTYPE
  5
5
330
0
100
AcDbSymbolTable
 70
     7
  0
LTYPE
  5
14
330
5
100
AcDbSymbolTableRecord
100
AcDbLinetypeTableRecord
  2
ByBlock
 70
     0
  3

 72
    65
 73
     0
 40
0.0
  0
LTYPE
  5
15
330
5
100
AcDbSymbolTableRecord
100
AcDbLinetypeTableRecord
  2
ByLayer
 70
     0
  3

 72
    65
 73
     0
 40
0.0
  0
LTYPE
  5
16
330
5
100
AcDbSymbolTableRecord
100
AcDbLinetypeTableRecord
  2
Continuous
 70
     0
  3
Solid line
 72
    65
 73
     0
 40
0.0
  0
LTYPE
  5
6E
330
5
100
AcDbSymbolTableRecord
100
AcDbLinetypeTableRecord
  2
HIDDEN
 70
     0
  3
Hidden __ __ __ __ __ __ __ __ __ __ __ __ __ __
 72
    65
 73
     2
 40
0.075
 49
0.05
 74
     0
 49
-0.025
 74
     0
  0
LTYPE
  5
6F
330
5
100
AcDbSymbolTableRecord
100
AcDbLinetypeTableRecord
  2
PHANTOM
 70
     0
  3
Phantom ______  __  __  ______  __  __  ______
 72
    65
 73
     6
 40
0.5
 49
0.25
 74
     0
 49
-0.05
 74
     0
 49
0.05
 74
     0
 49
-0.05
 74
     0
 49
0.05
 74
     0
 49
-0.05
 74
     0
  0
LTYPE
  5
70
330
5
100
AcDbSymbolTableRecord
100
AcDbLinetypeTableRecord
  2
CENTER
 70
     0
  3
Center ____ _ ____ _ ____ _ ____ _ ____ _ ____
 72
    65
 73
     4
 40
0.4
 49
0.25
 74
     0
 49
-0.05
 74
     0
 49
0.05
 74
     0
 49
-0.05
 74
     0
  0
LTYPE
  5
71
330
5
100
AcDbSymbolTableRecord
100
AcDbLinetypeTableRecord
  2
CENTERX2
 70
     0
  3
Center (2x) ________  __  ________  __  _____
 72
    65
 73
     4
 40
0.8
 49
0.5
 74
     0
 49
-0.1
 74
     0
 49
0.1
 74
     0
 49
-0.1
 74
     0
  0
LTYPE
  5
72
330
5
100
AcDbSymbolTableRecord
100
AcDbLinetypeTableRecord
  2
DOT2
 70
     0
  3
Dot (.5x) ........................................
 72
    65
 73
     2
 40
0.025
 49
0.0
 74
     0
 49
-0.025
 74
     0
  0
ENDTAB
  0
TABLE
  2
LAYER
  5
2
102
{ACAD_XDICTIONARY
360
575
102
}
330
0
100
AcDbSymbolTable
 70
    41
  0
LAYER
  5
10
102
{ACAD_XDICTIONARY
360
520
102
}
330
2
100
AcDbSymbolTableRecord
100
AcDbLayerTableRecord
  2
0
 70
     0
 62
     7
  6
Continuous
370
    -3
390
F
347
29B
348
0
  0
LAYER
  5
73
102
{ACAD_XDICTIONARY
360
522
102
}
330
2
100
AcDbSymbolTableRecord
100
AcDbLayerTableRecord
  2
FORMAT
 70
     0
 62
     7
  6
Continuous
370
    -3
390
F
347
29B
348
0
  0
LAYER
  5
74
102
{ACAD_XDICTIONARY
360
524
102
}
330
2
100
AcDbSymbolTableRecord
100
AcDbLayerTableRecord
  2
VIEWS
 70
     0
 62
     7
  6
Continuous
370
    -3
390
F
347
29B
348
0
  0
LAYER
  5
75
102
{ACAD_XDICTIONARY
360
526
102
}
330
2
100
AcDbSymbolTableRecord
100
AcDbLayerTableRecord
  2
BORDER
 70
     0
 62
     7
  6
Continuous
370
    25
390
F
347
29B
348
0
  0
LAYER
  5
76
102
{ACAD_XDICTIONARY
360
528
102
}
330
2
100
AcDbSymbolTableRecord
100
AcDbLayerTableRecord
  2
TITLEBLOCK
 70
     0
 62
     7
  6
Continuous
370
    25
390
F
347
29B
348
0
  0
LAYER
  5
77
102
{ACAD_XDICTIONARY
360
52A
102
}
330
2
100
AcDbSymbolTableRecord
100
AcDbLayerTableRecord
  2
DIMENSION
 70
     0
 62
     5
  6
Continuous
370
    -3
390
F
347
29B
348
0
  0
LAYER
  5
78
102
{ACAD_XDICTIONARY
360
52C
102
}
330
2
100
AcDbSymbolTableRecord
100
AcDbLayerTableRecord
  2
NOTE
 70
     0
 62
     1
  6
Continuous
370
    -3
390
F
347
29B
348
0
  0
LAYER
  5
79
102
{ACAD_XDICTIONARY
360
52E
102
}
330
2
100
AcDbSymbolTableRecord
100
AcDbLayerTableRecord
  2
GD&T
 70
     0
 62
    96
  6
Continuous
370
    -3
390
F
347
29B
348
0
  0
LAYER
  5
7A
102
{ACAD_XDICTIONARY
360
530
102
}
330
2
100
AcDbSymbolTableRecord
100
AcDbLayerTableRecord
  2
SLD-0
 70
     0
 62
   179
  6
Continuous
370
    -3
390
F
347
29B
348
0
  0
LAYER
  5
7B
102
{ACAD_XDICTIONARY
360
532
102
}
330
2
100
AcDbSymbolTableRecord
100
AcDbLayerTableRecord
  2
SLD-DEFPOINTS
 70
     0
 62
   179
  6
Continuous
370
    -3
390
F
347
29B
348
0
  0
LAYER
  5
7C
102
{ACAD_XDICTIONARY
360
534
102
}
330
2
100
AcDbSymbolTableRecord
100
AcDbLayerTableRecord
  2
CAR-TRACK
 70
     0
 62
     1
  6
Continuous
370
    -3
390
F
347
29B
348
0
  0
LAYER
  5
7D
102
{ACAD_XDICTIONARY
360
536
102
}
330
2
100
AcDbSymbolTableRecord
100
AcDbLayerTableRecord
  2
TRACK_CROSS_SECTION
 70
     0
 62
     8
  6
Continuous
370
    -3
390
F
347
29B
348
0
  0
LAYER
  5
7E
102
{ACAD_XDICTIONARY
360
538
102
}
330
2
100
AcDbSymbolTableRecord
100
AcDbLayerTableRecord
  2
TEXT
 70
     0
 62
     2
  6
Continuous
370
    -3
390
F
347
29B
348
0
  0
LAYER
  5
7F
102
{ACAD_XDICTIONARY
360
53A
102
}
330
2
100
AcDbSymbolTableRecord
100
AcDbLayerTableRecord
  2
OBJ
 70
     0
 62
     1
  6
Continuous
370
    -3
390
F
347
29B
348
0
  0
LAYER
  5
80
102
{ACAD_XDICTIONARY
360
53C
102
}
330
2
100
AcDbSymbolTableRecord
100
AcDbLayerTableRecord
  2
TXT
 70
     0
 62
     4
  6
Continuous
370
    -3
390
F
347
29B
348
0
  0
LAYER
  5
81
102
{ACAD_XDICTIONARY
360
53E
102
}
330
2
100
AcDbSymbolTableRecord
100
AcDbLayerTableRecord
  2
OBJ2
 70
     0
 62
     3
  6
Continuous
370
    -3
390
F
347
29B
348
0
  0
LAYER
  5
82
102
{ACAD_XDICTIONARY
360
540
102
}
330
2
100
AcDbSymbolTableRecord
100
AcDbLayerTableRecord
  2
RED
 70
     0
 62
     1
  6
Continuous
370
    -3
390
F
347
29B
348
0
  0
LAYER
  5
83
102
{ACAD_XDICTIONARY
360
542
102
}
330
2
100
AcDbSymbolTableRecord
100
AcDbLayerTableRecord
  2
LAYER_1
 70
     0
 62
   179
  6
Continuous
370
    -3
390
F
347
29B
348
0
  0
LAYER
  5
84
102
{ACAD_XDICTIONARY
360
544
102
}
330
2
100
AcDbSymbolTableRecord
100
AcDbLayerTableRecord
  2
LICHTRAUM
 70
     0
 62
   179
  6
Continuous
370
    -3
390
F
347
29B
348
0
  0
LAYER
  5
85
102
{ACAD_XDICTIONARY
360
546
102
}
330
2
100
AcDbSymbolTableRecord
100
AcDbLayerTableRecord
  2
PIVOTS
 70
     0
 62
     7
  6
Continuous
370
    -3
390
F
347
29B
348
0
  0
LAYER
  5
86
102
{ACAD_XDICTIONARY
360
548
102
}
330
2
100
AcDbSymbolTableRecord
100
AcDbLayerTableRecord
  2
BODY
 70
     0
 62
     1
  6
Continuous
370
    -3
390
F
347
29B
348
0
  0
LAYER
  5
87
102
{ACAD_XDICTIONARY
360
54A
102
}
330
2
100
AcDbSymbolTableRecord
100
AcDbLayerTableRecord
  2
FZG_IAG_981013
 70
     0
 62
     1
  6
Continuous
370
    -3
390
F
347
29B
348
0
  0
LAYER
  5
88
102
{ACAD_XDICTIONARY
360
54C
102
}
330
2
100
AcDbSymbolTableRecord
100
AcDbLayerTableRecord
  2
SOL_-_SKETCH
 70
     0
 62
   179
  6
Continuous
370
    -3
390
F
347
29B
348
0
  0
LAYER
  5
89
102
{ACAD_XDICTIONARY
360
54E
102
}
330
2
100
AcDbSymbolTableRecord
100
AcDbLayerTableRecord
  2
TG_2011_-_TITLE_BLOCK_FOR_STAMP_STATE_BLOCK
 70
     0
 62
   179
  6
Continuous
370
    -3
390
F
347
29B
348
0
  0
LAYER
  5
8A
102
{ACAD_XDICTIONARY
360
550
102
}
330
2
100
AcDbSymbolTableRecord
100
AcDbLayerTableRecord
  2
TG_2011_-_TITLE_BLOCK_FOR_STAMP_TEXT
 70
     0
 62
   179
  6
Continuous
370
    -3
390
F
347
29B
348
0
  0
LAYER
  5
8B
102
{ACAD_XDICTIONARY
360
552
102
}
330
2
100
AcDbSymbolTableRecord
100
AcDbLayerTableRecord
  2
TG_2011_-_TITLE_BLOCK_FOR_STAMP_RED
 70
     0
 62
     1
  6
Continuous
370
    -3
390
F
347
29B
348
0
  0
LAYER
  5
8C
102
{ACAD_XDICTIONARY
360
554
102
}
330
2
100
AcDbSymbolTableRecord
100
AcDbLayerTableRecord
  2
TG_2011_-_TITLE_BLOCK_FOR_STAMP_TITLE
 70
     0
 62
    24
  6
Continuous
370
    -3
390
F
347
29B
348
0
  0
LAYER
  5
8D
102
{ACAD_XDICTIONARY
360
556
102
}
330
2
100
AcDbSymbolTableRecord
100
AcDbLayerTableRecord
  2
TG_2011_-_TITLE_BLOCK_FOR_STAMP_OBJ
 70
     0
 62
     1
  6
Continuous
370
    -3
390
F
347
29B
348
0
  0
LAYER
  5
8E
102
{ACAD_XDICTIONARY
360
558
102
}
330
2
100
AcDbSymbolTableRecord
100
AcDbLayerTableRecord
  2
TG_2011_-_TITLE_BLOCK_FOR_STAMP_BORDER
 70
     0
 62
     3
  6
Continuous
370
    -3
390
F
347
29B
348
0
  0
LAYER
  5
8F
102
{ACAD_XDICTIONARY
360
55A
102
}
330
2
100
AcDbSymbolTableRecord
100
AcDbLayerTableRecord
  2
TG_2011_-_TITLE_BLOCK_FOR_STAMP_TXT
 70
     0
 62
     4
  6
Continuous
370
    -3
390
F
347
29B
348
0
  0
LAYER
  5
90
102
{ACAD_XDICTIONARY
360
55C
102
}
330
2
100
AcDbSymbolTableRecord
100
AcDbLayerTableRecord
  2
TG_2011_-_TITLE_BLOCK_FOR_STAMP_LAYER_1
 70
     0
 62
   179
  6
Continuous
370
    -3
390
F
347
29B
348
0
  0
LAYER
  5
91
102
{ACAD_XDICTIONARY
360
55E
102
}
330
2
100
AcDbSymbolTableRecord
100
AcDbLayerTableRecord
  2
PRIMARY
 70
     0
 62
     5
  6
Continuous
370
    -1
390
F
347
29B
348
0
  0
LAYER
  5
92
102
{ACAD_XDICTIONARY
360
560
102
}
330
2
100
AcDbSymbolTableRecord
100
AcDbLayerTableRecord
  2
SECONDARY
 70
     0
 62
   144
  6
Continuous
370
    -1
390
F
347
29B
348
0
  0
LAYER
  5
93
102
{ACAD_XDICTIONARY
360
562
102
}
330
2
100
AcDbSymbolTableRecord
100
AcDbLayerTableRecord
  2
PRIMARY_NEW
 70
     0
 62
     3
  6
PHANTOM
370
    -1
390
F
347
29B
348
0
  0
LAYER
  5
94
102
{ACAD_XDICTIONARY
360
564
102
}
330
2
100
AcDbSymbolTableRecord
100
AcDbLayerTableRecord
  2
SECONDARY_NEW
 70
     0
 62
    70
  6
PHANTOM
370
    -1
390
F
347
29B
348
0
  0
LAYER
  5
95
102
{ACAD_XDICTIONARY
360
566
102
}
330
2
100
AcDbSymbolTableRecord
100
AcDbLayerTableRecord
  2
EXISTING_PROCESS
 70
     0
 62
   171
  6
HIDDEN
370
    -1
390
F
347
29B
348
0
  0
LAYER
  5
96
102
{ACAD_XDICTIONARY
360
568
102
}
330
2
100
AcDbSymbolTableRecord
100
AcDbLayerTableRecord
  2
EXISTING_SECONDARY
 70
     0
 62
   171
  6
HIDDEN
370
    -1
390
F
347
29B
348
0
  0
LAYER
  5
97
102
{ACAD_XDICTIONARY
360
56A
102
}
330
2
100
AcDbSymbolTableRecord
100
AcDbLayerTableRecord
  2
JACKETED_PIPE
 70
     0
 62
     4
  6
Continuous
370
    -1
390
F
347
29B
348
0
  0
LAYER
  5
98
102
{ACAD_XDICTIONARY
360
56C
102
}
330
2
100
AcDbSymbolTableRecord
100
AcDbLayerTableRecord
  2
ELECTRICAL_SIGNAL
 70
     0
 62
     1
  6
HIDDEN
370
    -1
390
F
347
29B
348
0
  0
LAYER
  5
99
102
{ACAD_XDICTIONARY
360
56E
102
}
330
2
100
AcDbSymbolTableRecord
100
AcDbLayerTableRecord
  2
INSTRUMENT_SUPPLY
 70
     0
 62
   102
  6
Continuous
370
    -1
390
F
347
29B
348
0
  0
LAYER
  5
9A
102
{ACAD_XDICTIONARY
360
570
102
}
330
2
100
AcDbSymbolTableRecord
100
AcDbLayerTableRecord
  2
LEADER
 70
     0
 62
   102
  6
Continuous
370
    -1
390
F
347
29B
348
0
  0
ENDTAB
  0
TABLE
  2
STYLE
  5
3
330
0
100
AcDbSymbolTable
 70
     2
  0
STYLE
  5
11
330
3
100
AcDbSymbolTableRecord
100
AcDbTextStyleTableRecord
  2
Standard
 70
     0
 40
0.0
 41
1.0
 50
0.0
 71
     0
 42
0.1388888889
  3
txt
  4

  0
STYLE
  5
207
330
3
100
AcDbSymbolTableRecord
100
AcDbTextStyleTableRecord
  2
SLDTEXTSTYLE0
 70
     0
 40
0.0
 41
0.7
 50
0.0
 71
     0
 42
0.1388888889
  3
TXT
  4

  0
ENDTAB
  0
TABLE
  2
VIEW
  5
6
330
0
100
AcDbSymbolTable
 70
     2
  0
ENDTAB
  0
TABLE
  2
UCS
  5
7
330
0
100
AcDbSymbolTable
 70
     0
  0
ENDTAB
  0
TABLE
  2
APPID
  5
9
330
0
100
AcDbSymbolTable
 70
     3
  0
APPID
  5
12
330
9
100
AcDbSymbolTableRecord
100
AcDbRegAppTableRecord
  2
ACAD
 70
     0
  0
APPID
  5
2C8
330
9
100
AcDbSymbolTableRecord
100
AcDbRegAppTableRecord
  2
ACAD_EXEMPT_FROM_CAD_STANDARDS
 70
     0
  0
APPID
  5
2DB
330
9
100
AcDbSymbolTableRecord
100
AcDbRegAppTableRecord
  2
ACAD_NAV_VCDISPLAY
 70
     0
  0
ENDTAB
  0
TABLE
  2
DIMSTYLE
  5
A
330
0
100
AcDbSymbolTable
 70
     2
100
AcDbDimStyleTable
 71
     1
340
27
  0
DIMSTYLE
105
27
330
A
100
AcDbSymbolTableRecord
100
AcDbDimStyleTableRecord
  2
Standard
 70
     0
340
11
  0
ENDTAB
  0
TABLE
  2
BLOCK_RECORD
  5
1
330
0
100
AcDbSymbolTable
 70
     3
  0
BLOCK_RECORD
  5
1F
102
{ACAD_XDICTIONARY
360
2D3
102
}
330
1
100
AcDbSymbolTableRecord
100
AcDbBlockTableRecord
  2
*Model_Space
340
22
 70
     0
280
     1
281
     0
  0
BLOCK_RECORD
  5
1B
330
1
100
AcDbSymbolTableRecord
100
AcDbBlockTableRecord
  2
*Paper_Space
340
1E
 70
     0
280
     1
281
     0
  0
BLOCK_RECORD
  5
23
330
1
100
AcDbSymbolTableRecord
100
AcDbBlockTableRecord
  2
*Paper_Space0
340
26
 70
     0
280
     1
281
     0
  0
BLOCK_RECORD
  5
9B
330
1
100
AcDbSymbolTableRecord
100
AcDbBlockTableRecord
  2
Block8
340
0
 70
     0
280
     1
281
     0
  0
ENDTAB
  0
ENDSEC
  0
SECTION
  2
BLOCKS
  0
BLOCK
  5
20
330
1F
100
AcDbEntity
  8
0
100
AcDbBlockBegin
  2
*Model_Space
 70
     0
 10
0.0
 20
0.0
 30
0.0
  3
*Model_Space
  1

  0
ENDBLK
  5
21
330
1F
100
AcDbEntity
  8
0
100
AcDbBlockEnd
  0
BLOCK
  5
1C
330
1B
100
AcDbEntity
 67
     1
  8
0
100
AcDbBlockBegin
  2
*Paper_Space
 70
     0
 10
0.0
 20
0.0
 30
0.0
  3
*Paper_Space
  1

  0
ENDBLK
  5
1D
330
1B
100
AcDbEntity
 67
     1
  8
0
100
AcDbBlockEnd
  0
BLOCK
  5
24
330
23
100
AcDbEntity
 67
     1
  8
0
100
AcDbBlockBegin
  2
*Paper_Space0
 70
     0
 10
0.0
 20
0.0
 30
0.0
  3
*Paper_Space0
  1

  0
ENDBLK
  5
25
330
23
100
AcDbEntity
 67
     1
  8
0
100
AcDbBlockEnd
  0
BLOCK
  5
9C
330
9B
100
AcDbEntity
  8
0
100
AcDbBlockBegin
  2
Block8
 70
     0
 10
0.0
 20
0.0
 30
0.0
  3
Block8
  1

  0
LINE
  5
9E
330
9B
100
AcDbEntity
  8
LAYER_1
100
AcDbLine
 10
0.0910780766
 20
0.5137586803000001
 30
0.0
 11
0.0910780766
 21
0.4859045902
 31
0.0
  0
LINE
  5
9F
330
9B
100
AcDbEntity
  8
LAYER_1
100
AcDbLine
 10
0.0756175222
 20
0.4514637851
 30
0.0
 11
0.097044267
 21
0.3677319725999999
 31
0.0
  0
LINE
  5
A0
330
9B
100
AcDbEntity
  8
LAYER_1
100
AcDbLine
 10
0.097044267
 20
0.3677319725999999
 30
0.0
 11
0.0657569471
 21
0.3677319725999999
 31
0.0
  0
LINE
  5
A1
330
9B
100
AcDbEntity
  8
LAYER_1
100
AcDbLine
 10
0.0657569471
 20
0.3677319725999999
 30
0.0
 11
0.0482161098
 21
0.4399806911
 31
0.0
  0
LINE
  5
A2
330
9B
100
AcDbEntity
  8
LAYER_1
100
AcDbLine
 10
0.0456136369
 20
0.4399806911
 30
0.0
 11
0.0289289877
 21
0.4399806911
 31
0.0
  0
LINE
  5
A3
330
9B
100
AcDbEntity
  8
LAYER_1
100
AcDbLine
 10
0.0289289877
 20
0.4399806911
 30
0.0
 11
0.0289289877
 21
0.3677319725999999
 31
0.0
  0
LINE
  5
A4
330
9B
100
AcDbEntity
  8
LAYER_1
100
AcDbLine
 10
0.0289289877
 20
0.3677319725999999
 30
0.0
 11
0.0
 21
0.3677319725999999
 31
0.0
  0
LINE
  5
A5
330
9B
100
AcDbEntity
  8
LAYER_1
100
AcDbLine
 10
0.0
 20
0.3677319725999999
 30
0.0
 11
0.0
 21
0.5595316868
 31
0.0
  0
LINE
  5
A6
330
9B
100
AcDbEntity
  8
LAYER_1
100
AcDbLine
 10
0.0
 20
0.5595316868
 30
0.0
 11
0.0456136369
 21
0.5595316868
 31
0.0
  0
LINE
  5
A7
330
9B
100
AcDbEntity
  8
LAYER_1
100
AcDbLine
 10
0.0463782722
 20
0.5299906517000001
 30
0.0
 11
0.0289289877
 21
0.5299906517000001
 31
0.0
  0
LINE
  5
A8
330
9B
100
AcDbEntity
  8
LAYER_1
100
AcDbLine
 10
0.0289289877
 20
0.5299906517000001
 30
0.0
 11
0.0289289877
 21
0.4686028074000001
 31
0.0
  0
LINE
  5
A9
330
9B
100
AcDbEntity
  8
LAYER_1
100
AcDbLine
 10
0.0289289877
 20
0.4686028074000001
 30
0.0
 11
0.0463782722
 21
0.4686028074000001
 31
0.0
  0
LINE
  5
AA
330
9B
100
AcDbEntity
  8
LAYER_1
100
AcDbLine
 10
0.0629120288
 20
0.4852874565
 30
0.0
 11
0.0629120288
 21
0.5133060026000001
 31
0.0
  0
LINE
  5
AB
330
9B
100
AcDbEntity
  8
LAYER_1
100
AcDbLine
 10
0.197855762
 20
0.5160559772
 30
0.0
 11
0.197855762
 21
0.4113568793
 31
0.0
  0
LINE
  5
AC
330
9B
100
AcDbEntity
  8
LAYER_1
100
AcDbLine
 10
0.1061690289
 20
0.4113568793
 30
0.0
 11
0.1061690289
 21
0.5160559772
 31
0.0
  0
LINE
  5
AD
330
9B
100
AcDbEntity
  8
LAYER_1
100
AcDbLine
 10
0.1344859692
 20
0.5166680246000001
 30
0.0
 11
0.1344859692
 21
0.4116603599000001
 31
0.0
  0
LINE
  5
AE
330
9B
100
AcDbEntity
  8
LAYER_1
100
AcDbLine
 10
0.1677009841
 20
0.4116603599000001
 30
0.0
 11
0.1677009841
 21
0.5166680246000001
 31
0.0
  0
LINE
  5
AF
330
9B
100
AcDbEntity
  8
LAYER_1
100
AcDbLine
 10
0.2120345772
 20
0.4110500079000001
 30
0.0
 11
0.2120345772
 21
0.5157541921000001
 31
0.0
  0
LINE
  5
B0
330
9B
100
AcDbEntity
  8
LAYER_1
100
AcDbLine
 10
0.3037213103
 20
0.5157541921000001
 30
0.0
 11
0.3037213103
 21
0.4938629016
 31
0.0
  0
LINE
  5
B1
330
9B
100
AcDbEntity
  8
LAYER_1
100
AcDbLine
 10
0.3037213103
 20
0.4938629016
 30
0.0
 11
0.2737208158
 21
0.4938629016
 31
0.0
  0
LINE
  5
B2
330
9B
100
AcDbEntity
  8
LAYER_1
100
AcDbLine
 10
0.2737208158
 20
0.4938629016
 30
0.0
 11
0.2737208158
 21
0.5163645441
 31
0.0
  0
LINE
  5
B3
330
9B
100
AcDbEntity
  8
LAYER_1
100
AcDbLine
 10
0.240505801
 20
0.5163645441
 30
0.0
 11
0.240505801
 21
0.4113568793
 31
0.0
  0
LINE
  5
B4
330
9B
100
AcDbEntity
  8
LAYER_1
100
AcDbLine
 10
0.2737208158
 20
0.4113568793
 30
0.0
 11
0.2737208158
 21
0.4378393729
 31
0.0
  0
LINE
  5
B5
330
9B
100
AcDbEntity
  8
LAYER_1
100
AcDbLine
 10
0.2737208158
 20
0.4378393729
 30
0.0
 11
0.3037213103
 21
0.4378393729
 31
0.0
  0
LINE
  5
B6
330
9B
100
AcDbEntity
  8
LAYER_1
100
AcDbLine
 10
0.3037213103
 20
0.4378393729
 30
0.0
 11
0.3037213103
 21
0.4110500079000001
 31
0.0
  0
LINE
  5
B7
330
9B
100
AcDbEntity
  8
LAYER_1
100
AcDbLine
 10
0.3455931505
 20
0.4285772819
 30
0.0
 11
0.3455931505
 21
0.3677319725999999
 31
0.0
  0
LINE
  5
B8
330
9B
100
AcDbEntity
  8
LAYER_1
100
AcDbLine
 10
0.3455931505
 20
0.3677319725999999
 30
0.0
 11
0.3166658582
 21
0.3677319725999999
 31
0.0
  0
LINE
  5
B9
330
9B
100
AcDbEntity
  8
LAYER_1
100
AcDbLine
 10
0.3166658582
 20
0.3677319725999999
 30
0.0
 11
0.3166658582
 21
0.5596825794
 31
0.0
  0
LINE
  5
BA
330
9B
100
AcDbEntity
  8
LAYER_1
100
AcDbLine
 10
0.3166658582
 20
0.5596825794
 30
0.0
 11
0.3455931505
 21
0.5596825794
 31
0.0
  0
LINE
  5
BB
330
9B
100
AcDbEntity
  8
LAYER_1
100
AcDbLine
 10
0.3455931505
 20
0.5596825794
 30
0.0
 11
0.3455931505
 21
0.4912621241
 31
0.0
  0
LINE
  5
BC
330
9B
100
AcDbEntity
  8
LAYER_1
100
AcDbLine
 10
0.3455931505
 20
0.4912621241
 30
0.0
 11
0.3809528743999999
 21
0.5596825794
 31
0.0
  0
LINE
  5
BD
330
9B
100
AcDbEntity
  8
LAYER_1
100
AcDbLine
 10
0.3809528743999999
 20
0.5596825794
 30
0.0
 11
0.4117976891
 21
0.5596825794
 31
0.0
  0
LINE
  5
BE
330
9B
100
AcDbEntity
  8
LAYER_1
100
AcDbLine
 10
0.4117976891
 20
0.5596825794
 30
0.0
 11
0.3721977145
 21
0.4813896811
 31
0.0
  0
LINE
  5
BF
330
9B
100
AcDbEntity
  8
LAYER_1
100
AcDbLine
 10
0.3721977145
 20
0.4813896811
 30
0.0
 11
0.4186370219
 21
0.3677319725999999
 31
0.0
  0
LINE
  5
C0
330
9B
100
AcDbEntity
  8
LAYER_1
100
AcDbLine
 10
0.4186370219
 20
0.3677319725999999
 30
0.0
 11
0.3846268541
 21
0.3677319725999999
 31
0.0
  0
LINE
  5
C1
330
9B
100
AcDbEntity
  8
LAYER_1
100
AcDbLine
 10
0.3846268541
 20
0.3677319725999999
 30
0.0
 11
0.3542533667
 21
0.4456637460000001
 31
0.0
  0
LINE
  5
C2
330
9B
100
AcDbEntity
  8
LAYER_1
100
AcDbLine
 10
0.3542533667
 20
0.4456637460000001
 30
0.0
 11
0.3455931505
 21
0.4285772819
 31
0.0
  0
LINE
  5
C3
330
9B
100
AcDbEntity
  8
LAYER_1
100
AcDbLine
 10
0.4614074359000001
 20
0.4480966768
 30
0.0
 11
0.4226822991
 21
0.5596825794
 31
0.0
  0
LINE
  5
C4
330
9B
100
AcDbEntity
  8
LAYER_1
100
AcDbLine
 10
0.4226822991
 20
0.5596825794
 30
0.0
 11
0.4545206312
 21
0.5596825794
 31
0.0
  0
LINE
  5
C5
330
9B
100
AcDbEntity
  8
LAYER_1
100
AcDbLine
 10
0.4545206312
 20
0.5596825794
 30
0.0
 11
0.4759524623
 21
0.4908026647
 31
0.0
  0
LINE
  5
C6
330
9B
100
AcDbEntity
  8
LAYER_1
100
AcDbLine
 10
0.4759524623
 20
0.4908026647
 30
0.0
 11
0.4972249237
 21
0.5596825794
 31
0.0
  0
LINE
  5
C7
330
9B
100
AcDbEntity
  8
LAYER_1
100
AcDbLine
 10
0.4972249237
 20
0.5596825794
 30
0.0
 11
0.5292175392000001
 21
0.5596825794
 31
0.0
  0
LINE
  5
C8
330
9B
100
AcDbEntity
  8
LAYER_1
100
AcDbLine
 10
0.5292175392000001
 20
0.5596825794
 30
0.0
 11
0.490338119
 21
0.4480966768
 31
0.0
  0
LINE
  5
C9
330
9B
100
AcDbEntity
  8
LAYER_1
100
AcDbLine
 10
0.490338119
 20
0.4480966768
 30
0.0
 11
0.490338119
 21
0.3677319725999999
 31
0.0
  0
LINE
  5
CA
330
9B
100
AcDbEntity
  8
LAYER_1
100
AcDbLine
 10
0.490338119
 20
0.3677319725999999
 30
0.0
 11
0.4614074359000001
 21
0.3677319725999999
 31
0.0
  0
LINE
  5
CB
330
9B
100
AcDbEntity
  8
LAYER_1
100
AcDbLine
 10
0.4614074359000001
 20
0.3677319725999999
 30
0.0
 11
0.4614074359000001
 21
0.4480966768
 31
0.0
  0
LINE
  5
CC
330
9B
100
AcDbEntity
  8
LAYER_1
100
AcDbLine
 10
0.0356326868
 20
0.1219856219
 30
0.0
 11
0.0006340879
 21
0.1219856219
 31
0.0
  0
LINE
  5
CD
330
9B
100
AcDbEntity
  8
LAYER_1
100
AcDbLine
 10
0.0006340879
 20
0.1219856219
 30
0.0
 11
0.0006340879
 21
0.354194027
 31
0.0
  0
LINE
  5
CE
330
9B
100
AcDbEntity
  8
LAYER_1
100
AcDbLine
 10
0.0006340879
 20
0.354194027
 30
0.0
 11
0.0508575775
 21
0.354194027
 31
0.0
  0
LINE
  5
CF
330
9B
100
AcDbEntity
  8
LAYER_1
100
AcDbLine
 10
0.0508575775
 20
0.354194027
 30
0.0
 11
0.0834741083
 21
0.1873848349
 31
0.0
  0
LINE
  5
D0
330
9B
100
AcDbEntity
  8
LAYER_1
100
AcDbLine
 10
0.0834741083
 20
0.1873848349
 30
0.0
 11
0.1147834687
 21
0.354194027
 31
0.0
  0
LINE
  5
D1
330
9B
100
AcDbEntity
  8
LAYER_1
100
AcDbLine
 10
0.1147834687
 20
0.354194027
 30
0.0
 11
0.1630317915
 21
0.354194027
 31
0.0
  0
LINE
  5
D2
330
9B
100
AcDbEntity
  8
LAYER_1
100
AcDbLine
 10
0.1630317915
 20
0.354194027
 30
0.0
 11
0.1630317915
 21
0.1219856219
 31
0.0
  0
LINE
  5
D3
330
9B
100
AcDbEntity
  8
LAYER_1
100
AcDbLine
 10
0.1630317915
 20
0.1219856219
 30
0.0
 11
0.1280331926
 21
0.1219856219
 31
0.0
  0
LINE
  5
D4
330
9B
100
AcDbEntity
  8
LAYER_1
100
AcDbLine
 10
0.1280331926
 20
0.1219856219
 30
0.0
 11
0.1280331926
 21
0.2679004317
 31
0.0
  0
LINE
  5
D5
330
9B
100
AcDbEntity
  8
LAYER_1
100
AcDbLine
 10
0.1280331926
 20
0.2679004317
 30
0.0
 11
0.0976681824
 21
0.1219856219
 31
0.0
  0
LINE
  5
D6
330
9B
100
AcDbEntity
  8
LAYER_1
100
AcDbLine
 10
0.0976681824
 20
0.1219856219
 30
0.0
 11
0.0695224797
 21
0.1219856219
 31
0.0
  0
LINE
  5
D7
330
9B
100
AcDbEntity
  8
LAYER_1
100
AcDbLine
 10
0.0695224797
 20
0.1219856219
 30
0.0
 11
0.0356326868
 21
0.2675342205
 31
0.0
  0
LINE
  5
D8
330
9B
100
AcDbEntity
  8
LAYER_1
100
AcDbLine
 10
0.0356326868
 20
0.2675342205
 30
0.0
 11
0.0356326868
 21
0.1219856219
 31
0.0
  0
LINE
  5
D9
330
9B
100
AcDbEntity
  8
LAYER_1
100
AcDbLine
 10
0.2916532956
 20
0.3014155362
 30
0.0
 11
0.2916532956
 21
0.1747607218
 31
0.0
  0
LINE
  5
DA
330
9B
100
AcDbEntity
  8
LAYER_1
100
AcDbLine
 10
0.1807319985
 20
0.1747607218
 30
0.0
 11
0.1807319985
 21
0.3014155362
 31
0.0
  0
LINE
  5
DB
330
9B
100
AcDbEntity
  8
LAYER_1
100
AcDbLine
 10
0.214989698
 20
0.302161522
 30
0.0
 11
0.214989698
 21
0.1751303238
 31
0.0
  0
LINE
  5
DC
330
9B
100
AcDbEntity
  8
LAYER_1
100
AcDbLine
 10
0.2551712023
 20
0.1751303238
 30
0.0
 11
0.2551712023
 21
0.302161522
 31
0.0
  0
LINE
  5
DD
330
9B
100
AcDbEntity
  8
LAYER_1
100
AcDbLine
 10
0.309170397
 20
0.1745742254
 30
0.0
 11
0.309170397
 21
0.3540075304999999
 31
0.0
  0
LINE
  5
DE
330
9B
100
AcDbEntity
  8
LAYER_1
100
AcDbLine
 10
0.309170397
 20
0.3540075304999999
 30
0.0
 11
0.3434264011
 21
0.3540075304999999
 31
0.0
  0
LINE
  5
DF
330
9B
100
AcDbEntity
  8
LAYER_1
100
AcDbLine
 10
0.3434264011
 20
0.3540075304999999
 30
0.0
 11
0.3434264011
 21
0.1749438274
 31
0.0
  0
LINE
  5
E0
330
9B
100
AcDbEntity
  8
LAYER_1
100
AcDbLine
 10
0.3836096008
 20
0.1749438274
 30
0.0
 11
0.3836096008
 21
0.3540075304999999
 31
0.0
  0
LINE
  5
E1
330
9B
100
AcDbEntity
  8
LAYER_1
100
AcDbLine
 10
0.3836096008
 20
0.3540075304999999
 30
0.0
 11
0.4200916941
 21
0.3540075304999999
 31
0.0
  0
LINE
  5
E2
330
9B
100
AcDbEntity
  8
LAYER_1
100
AcDbLine
 10
0.4200916941
 20
0.3540075304999999
 30
0.0
 11
0.4200916941
 21
0.1745742254
 31
0.0
  0
LINE
  5
E3
330
9B
100
AcDbEntity
  8
LAYER_1
100
AcDbLine
 10
0.4774495200000001
 20
0.354194027
 30
0.0
 11
0.5238939137
 21
0.1981372021
 31
0.0
  0
LINE
  5
E4
330
9B
100
AcDbEntity
  8
LAYER_1
100
AcDbLine
 10
0.5238939137
 20
0.1981372021
 30
0.0
 11
0.5238939137
 21
0.354194027
 31
0.0
  0
LINE
  5
E5
330
9B
100
AcDbEntity
  8
LAYER_1
100
AcDbLine
 10
0.5238939137
 20
0.354194027
 30
0.0
 11
0.5588942081
 21
0.354194027
 31
0.0
  0
LINE
  5
E6
330
9B
100
AcDbEntity
  8
LAYER_1
100
AcDbLine
 10
0.5588942081
 20
0.354194027
 30
0.0
 11
0.5588942081
 21
0.1219856219
 31
0.0
  0
LINE
  5
E7
330
9B
100
AcDbEntity
  8
LAYER_1
100
AcDbLine
 10
0.5588942081
 20
0.1219856219
 30
0.0
 11
0.5212999179
 21
0.1219856219
 31
0.0
  0
LINE
  5
E8
330
9B
100
AcDbEntity
  8
LAYER_1
100
AcDbLine
 10
0.5212999179
 20
0.1219856219
 30
0.0
 11
0.4731567112
 21
0.2706809239
 31
0.0
  0
LINE
  5
E9
330
9B
100
AcDbEntity
  8
LAYER_1
100
AcDbLine
 10
0.4731567112
 20
0.2706809239
 30
0.0
 11
0.4731567112
 21
0.1219856219
 31
0.0
  0
LINE
  5
EA
330
9B
100
AcDbEntity
  8
LAYER_1
100
AcDbLine
 10
0.4731567112
 20
0.1219856219
 30
0.0
 11
0.4381581123
 21
0.1219856219
 31
0.0
  0
LINE
  5
EB
330
9B
100
AcDbEntity
  8
LAYER_1
100
AcDbLine
 10
0.4381581123
 20
0.1219856219
 30
0.0
 11
0.4381581123
 21
0.354194027
 31
0.0
  0
LINE
  5
EC
330
9B
100
AcDbEntity
  8
LAYER_1
100
AcDbLine
 10
0.4381581123
 20
0.354194027
 30
0.0
 11
0.4774495200000001
 21
0.354194027
 31
0.0
  0
LINE
  5
ED
330
9B
100
AcDbEntity
  8
LAYER_1
100
AcDbLine
 10
0.6112217165000001
 20
0.3188275214
 30
0.0
 11
0.5740004192
 21
0.3188275214
 31
0.0
  0
LINE
  5
EE
330
9B
100
AcDbEntity
  8
LAYER_1
100
AcDbLine
 10
0.5740004192
 20
0.3188275214
 30
0.0
 11
0.5740004192
 21
0.3540075304999999
 31
0.0
  0
LINE
  5
EF
330
9B
100
AcDbEntity
  8
LAYER_1
100
AcDbLine
 10
0.5740004192
 20
0.3540075304999999
 30
0.0
 11
0.6832568118000001
 21
0.3540075304999999
 31
0.0
  0
LINE
  5
F0
330
9B
100
AcDbEntity
  8
LAYER_1
100
AcDbLine
 10
0.6832568118000001
 20
0.3540075304999999
 30
0.0
 11
0.6832568118000001
 21
0.3188275214
 31
0.0
  0
LINE
  5
F1
330
9B
100
AcDbEntity
  8
LAYER_1
100
AcDbLine
 10
0.6832568118000001
 20
0.3188275214
 30
0.0
 11
0.6462152292
 21
0.3188275214
 31
0.0
  0
LINE
  5
F2
330
9B
100
AcDbEntity
  8
LAYER_1
100
AcDbLine
 10
0.6462152292
 20
0.3188275214
 30
0.0
 11
0.6462152292
 21
0.1219856219
 31
0.0
  0
LINE
  5
F3
330
9B
100
AcDbEntity
  8
LAYER_1
100
AcDbLine
 10
0.6462152292
 20
0.1219856219
 30
0.0
 11
0.6112217165000001
 21
0.1219856219
 31
0.0
  0
LINE
  5
F4
330
9B
100
AcDbEntity
  8
LAYER_1
100
AcDbLine
 10
0.6112217165000001
 20
0.1219856219
 30
0.0
 11
0.6112217165000001
 21
0.3188275214
 31
0.0
  0
LINE
  5
F5
330
9B
100
AcDbEntity
  8
LAYER_1
100
AcDbLine
 10
0.7114584634000001
 20
0.1753134294
 30
0.0
 11
0.702954226
 21
0.1219856219
 31
0.0
  0
LINE
  5
F6
330
9B
100
AcDbEntity
  8
LAYER_1
100
AcDbLine
 10
0.702954226
 20
0.1219856219
 30
0.0
 11
0.6665128229000001
 21
0.1219856219
 31
0.0
  0
LINE
  5
F7
330
9B
100
AcDbEntity
  8
LAYER_1
100
AcDbLine
 10
0.6665128229000001
 20
0.1219856219
 30
0.0
 11
0.7059551232
 21
0.3540075304999999
 31
0.0
  0
LINE
  5
F8
330
9B
100
AcDbEntity
  8
LAYER_1
100
AcDbLine
 10
0.7059551232
 20
0.3540075304999999
 30
0.0
 11
0.7541017207
 21
0.3540075304999999
 31
0.0
  0
LINE
  5
F9
330
9B
100
AcDbEntity
  8
LAYER_1
100
AcDbLine
 10
0.7541017207
 20
0.3540075304999999
 30
0.0
 11
0.7929879226000001
 21
0.1219856219
 31
0.0
  0
LINE
  5
FA
330
9B
100
AcDbEntity
  8
LAYER_1
100
AcDbLine
 10
0.7929879226000001
 20
0.1219856219
 30
0.0
 11
0.7561836991
 21
0.1219856219
 31
0.0
  0
LINE
  5
FB
330
9B
100
AcDbEntity
  8
LAYER_1
100
AcDbLine
 10
0.7561836991
 20
0.1219856219
 30
0.0
 11
0.7479948101999999
 21
0.1753134294
 31
0.0
  0
LINE
  5
FC
330
9B
100
AcDbEntity
  8
LAYER_1
100
AcDbLine
 10
0.7479948101999999
 20
0.1753134294
 30
0.0
 11
0.7114584634000001
 21
0.1753134294
 31
0.0
  0
LINE
  5
FD
330
9B
100
AcDbEntity
  8
LAYER_1
100
AcDbLine
 10
0.7298436209000001
 20
0.3008628286
 30
0.0
 11
0.7168804234000001
 21
0.2093880233
 31
0.0
  0
LINE
  5
FE
330
9B
100
AcDbEntity
  8
LAYER_1
100
AcDbLine
 10
0.7168804234000001
 20
0.2093880233
 30
0.0
 11
0.7428034277
 21
0.2093880233
 31
0.0
  0
LINE
  5
FF
330
9B
100
AcDbEntity
  8
LAYER_1
100
AcDbLine
 10
0.7428034277
 20
0.2093880233
 30
0.0
 11
0.7298436209000001
 21
0.3008628286
 31
0.0
  0
LINE
  5
100
330
9B
100
AcDbEntity
  8
LAYER_1
100
AcDbLine
 10
0.8443931213999999
 20
0.1219856219
 30
0.0
 11
0.8093928270000001
 21
0.1219856219
 31
0.0
  0
LINE
  5
101
330
9B
100
AcDbEntity
  8
LAYER_1
100
AcDbLine
 10
0.8093928270000001
 20
0.1219856219
 30
0.0
 11
0.8093928270000001
 21
0.3540075304999999
 31
0.0
  0
LINE
  5
102
330
9B
100
AcDbEntity
  8
LAYER_1
100
AcDbLine
 10
0.8093928270000001
 20
0.3540075304999999
 30
0.0
 11
0.8443931213999999
 21
0.3540075304999999
 31
0.0
  0
LINE
  5
103
330
9B
100
AcDbEntity
  8
LAYER_1
100
AcDbLine
 10
0.8443931213999999
 20
0.3540075304999999
 30
0.0
 11
0.8443931213999999
 21
0.1219856219
 31
0.0
  0
LINE
  5
104
330
9B
100
AcDbEntity
  8
LAYER_1
100
AcDbLine
 10
0.9019391391999999
 20
0.354194027
 30
0.0
 11
0.9483801419999998
 21
0.1981372021
 31
0.0
  0
LINE
  5
105
330
9B
100
AcDbEntity
  8
LAYER_1
100
AcDbLine
 10
0.9483801419999998
 20
0.1981372021
 30
0.0
 11
0.9483801419999998
 21
0.354194027
 31
0.0
  0
LINE
  5
106
330
9B
100
AcDbEntity
  8
LAYER_1
100
AcDbLine
 10
0.9483801419999998
 20
0.354194027
 30
0.0
 11
0.9833804364
 21
0.354194027
 31
0.0
  0
LINE
  5
107
330
9B
100
AcDbEntity
  8
LAYER_1
100
AcDbLine
 10
0.9833804364
 20
0.354194027
 30
0.0
 11
0.9833804364
 21
0.1219856219
 31
0.0
  0
LINE
  5
108
330
9B
100
AcDbEntity
  8
LAYER_1
100
AcDbLine
 10
0.9833804364
 20
0.1219856219
 30
0.0
 11
0.9457861462
 21
0.1219856219
 31
0.0
  0
LINE
  5
109
330
9B
100
AcDbEntity
  8
LAYER_1
100
AcDbLine
 10
0.9457861462
 20
0.1219856219
 30
0.0
 11
0.8976463302999999
 21
0.2706809239
 31
0.0
  0
LINE
  5
10A
330
9B
100
AcDbEntity
  8
LAYER_1
100
AcDbLine
 10
0.8976463302999999
 20
0.2706809239
 30
0.0
 11
0.8976463302999999
 21
0.1219856219
 31
0.0
  0
LINE
  5
10B
330
9B
100
AcDbEntity
  8
LAYER_1
100
AcDbLine
 10
0.8976463302999999
 20
0.1219856219
 30
0.0
 11
0.8626460359999999
 21
0.1219856219
 31
0.0
  0
LINE
  5
10C
330
9B
100
AcDbEntity
  8
LAYER_1
100
AcDbLine
 10
0.8626460359999999
 20
0.1219856219
 30
0.0
 11
0.8626460359999999
 21
0.354194027
 31
0.0
  0
LINE
  5
10D
330
9B
100
AcDbEntity
  8
LAYER_1
100
AcDbLine
 10
0.8626460359999999
 20
0.354194027
 30
0.0
 11
0.9019391391999999
 21
0.354194027
 31
0.0
  0
LINE
  5
10E
330
9B
100
AcDbEntity
  8
LAYER_1
100
AcDbLine
 10
0.6392334809
 20
0.5521311692000001
 30
0.0
 11
0.6823311112999999
 21
0.4928676888
 31
0.0
  0
LINE
  5
10F
330
9B
100
AcDbEntity
  8
LAYER_1
100
AcDbLine
 10
0.7523622176000001
 20
0.6077952684000002
 30
0.0
 11
0.7685229813
 21
0.5646925517
 31
0.0
  0
LINE
  5
110
330
9B
100
AcDbEntity
  8
LAYER_1
100
AcDbLine
 10
0.8080263168
 20
0.5557220733000001
 30
0.0
 11
0.7882678674
 21
0.5287852066
 31
0.0
  0
LINE
  5
111
330
9B
100
AcDbEntity
  8
LAYER_1
100
AcDbLine
 10
0.6661567842000001
 20
0.4713188736000001
 30
0.0
 11
0.6464118982000001
 21
0.4874864190000001
 31
0.0
  0
LINE
  5
112
330
9B
100
AcDbEntity
  8
LAYER_1
100
AcDbLine
 10
0.9833804364
 20
0.0
 30
0.0
 11
0.0002763538
 21
0.0
 31
0.0
  0
LINE
  5
113
330
9B
100
AcDbEntity
  8
LAYER_1
100
AcDbLine
 10
0.0002763538
 20
0.0
 30
0.0
 11
0.0002763538
 21
0.0958862937
 31
0.0
  0
LINE
  5
114
330
9B
100
AcDbEntity
  8
LAYER_1
100
AcDbLine
 10
0.0002763538
 20
0.0958862937
 30
0.0
 11
0.9833804364
 21
0.0958862937
 31
0.0
  0
LINE
  5
115
330
9B
100
AcDbEntity
  8
LAYER_1
100
AcDbLine
 10
0.9833804364
 20
0.0958862937
 30
0.0
 11
0.9833804364
 21
0.0
 31
0.0
  0
LINE
  5
116
330
9B
100
AcDbEntity
  8
PIVOTS
370
    18
100
AcDbLine
 10
0.6392334809
 20
0.5521311692000001
 30
0.0
 11
0.6823311112999999
 21
0.4928676888
 31
0.0
  0
LINE
  5
117
330
9B
100
AcDbEntity
  8
PIVOTS
370
    18
100
AcDbLine
 10
0.7523622176000001
 20
0.6077952684000002
 30
0.0
 11
0.7685229813
 21
0.5646925517
 31
0.0
  0
LINE
  5
118
330
9B
100
AcDbEntity
  8
PIVOTS
370
    18
100
AcDbLine
 10
0.8080263168
 20
0.5557220733000001
 30
0.0
 11
0.7882678674
 21
0.5287852066
 31
0.0
  0
LINE
  5
119
330
9B
100
AcDbEntity
  8
PIVOTS
370
    18
100
AcDbLine
 10
0.6661567842000001
 20
0.4713188736000001
 30
0.0
 11
0.6464118982000001
 21
0.4874864190000001
 31
0.0
  0
LINE
  5
11A
330
9B
100
AcDbEntity
  8
PIVOTS
370
    18
100
AcDbLine
 10
0.9833804364
 20
0.0
 30
0.0
 11
0.0002763538
 21
0.0
 31
0.0
  0
LINE
  5
11B
330
9B
100
AcDbEntity
  8
PIVOTS
370
    18
100
AcDbLine
 10
0.0002763538
 20
0.0
 30
0.0
 11
0.0002763538
 21
0.0958862937
 31
0.0
  0
LINE
  5
11C
330
9B
100
AcDbEntity
  8
PIVOTS
370
    18
100
AcDbLine
 10
0.0002763538
 20
0.0958862937
 30
0.0
 11
0.9833804364
 21
0.0958862937
 31
0.0
  0
LINE
  5
11D
330
9B
100
AcDbEntity
  8
PIVOTS
370
    18
100
AcDbLine
 10
0.9833804364
 20
0.0958862937
 30
0.0
 11
0.9833804364
 21
0.0
 31
0.0
  0
LINE
  5
11E
330
9B
100
AcDbEntity
  8
PIVOTS
370
    18
100
AcDbLine
 10
0.0356326868
 20
0.1219856219
 30
0.0
 11
0.0006340879
 21
0.1219856219
 31
0.0
  0
LINE
  5
11F
330
9B
100
AcDbEntity
  8
PIVOTS
370
    18
100
AcDbLine
 10
0.0006340879
 20
0.1219856219
 30
0.0
 11
0.0006340879
 21
0.354194027
 31
0.0
  0
LINE
  5
120
330
9B
100
AcDbEntity
  8
PIVOTS
370
    18
100
AcDbLine
 10
0.0006340879
 20
0.354194027
 30
0.0
 11
0.0508575775
 21
0.354194027
 31
0.0
  0
LINE
  5
121
330
9B
100
AcDbEntity
  8
PIVOTS
370
    18
100
AcDbLine
 10
0.0508575775
 20
0.354194027
 30
0.0
 11
0.0834741083
 21
0.1873848349
 31
0.0
  0
LINE
  5
122
330
9B
100
AcDbEntity
  8
PIVOTS
370
    18
100
AcDbLine
 10
0.0834741083
 20
0.1873848349
 30
0.0
 11
0.1147834687
 21
0.354194027
 31
0.0
  0
LINE
  5
123
330
9B
100
AcDbEntity
  8
PIVOTS
370
    18
100
AcDbLine
 10
0.1147834687
 20
0.354194027
 30
0.0
 11
0.1630317915
 21
0.354194027
 31
0.0
  0
LINE
  5
124
330
9B
100
AcDbEntity
  8
PIVOTS
370
    18
100
AcDbLine
 10
0.1630317915
 20
0.354194027
 30
0.0
 11
0.1630317915
 21
0.1219856219
 31
0.0
  0
LINE
  5
125
330
9B
100
AcDbEntity
  8
PIVOTS
370
    18
100
AcDbLine
 10
0.1630317915
 20
0.1219856219
 30
0.0
 11
0.1280331926
 21
0.1219856219
 31
0.0
  0
LINE
  5
126
330
9B
100
AcDbEntity
  8
PIVOTS
370
    18
100
AcDbLine
 10
0.1280331926
 20
0.1219856219
 30
0.0
 11
0.1280331926
 21
0.2679004317
 31
0.0
  0
LINE
  5
127
330
9B
100
AcDbEntity
  8
PIVOTS
370
    18
100
AcDbLine
 10
0.1280331926
 20
0.2679004317
 30
0.0
 11
0.0976681824
 21
0.1219856219
 31
0.0
  0
LINE
  5
128
330
9B
100
AcDbEntity
  8
PIVOTS
370
    18
100
AcDbLine
 10
0.0976681824
 20
0.1219856219
 30
0.0
 11
0.0695224797
 21
0.1219856219
 31
0.0
  0
LINE
  5
129
330
9B
100
AcDbEntity
  8
PIVOTS
370
    18
100
AcDbLine
 10
0.0695224797
 20
0.1219856219
 30
0.0
 11
0.0356326868
 21
0.2675342205
 31
0.0
  0
LINE
  5
12A
330
9B
100
AcDbEntity
  8
PIVOTS
370
    18
100
AcDbLine
 10
0.0356326868
 20
0.2675342205
 30
0.0
 11
0.0356326868
 21
0.1219856219
 31
0.0
  0
LINE
  5
12B
330
9B
100
AcDbEntity
  8
PIVOTS
370
    18
100
AcDbLine
 10
0.2916532956
 20
0.3014155362
 30
0.0
 11
0.2916532956
 21
0.1747607218
 31
0.0
  0
LINE
  5
12C
330
9B
100
AcDbEntity
  8
PIVOTS
370
    18
100
AcDbLine
 10
0.1807319985
 20
0.1747607218
 30
0.0
 11
0.1807319985
 21
0.3014155362
 31
0.0
  0
LINE
  5
12D
330
9B
100
AcDbEntity
  8
PIVOTS
370
    18
100
AcDbLine
 10
0.214989698
 20
0.302161522
 30
0.0
 11
0.214989698
 21
0.1751303238
 31
0.0
  0
LINE
  5
12E
330
9B
100
AcDbEntity
  8
PIVOTS
370
    18
100
AcDbLine
 10
0.2551712023
 20
0.1751303238
 30
0.0
 11
0.2551712023
 21
0.302161522
 31
0.0
  0
LINE
  5
12F
330
9B
100
AcDbEntity
  8
PIVOTS
370
    18
100
AcDbLine
 10
0.309170397
 20
0.1745742254
 30
0.0
 11
0.309170397
 21
0.3540075304999999
 31
0.0
  0
LINE
  5
130
330
9B
100
AcDbEntity
  8
PIVOTS
370
    18
100
AcDbLine
 10
0.309170397
 20
0.3540075304999999
 30
0.0
 11
0.3434264011
 21
0.3540075304999999
 31
0.0
  0
LINE
  5
131
330
9B
100
AcDbEntity
  8
PIVOTS
370
    18
100
AcDbLine
 10
0.3434264011
 20
0.3540075304999999
 30
0.0
 11
0.3434264011
 21
0.1749438274
 31
0.0
  0
LINE
  5
132
330
9B
100
AcDbEntity
  8
PIVOTS
370
    18
100
AcDbLine
 10
0.3836096008
 20
0.1749438274
 30
0.0
 11
0.3836096008
 21
0.3540075304999999
 31
0.0
  0
LINE
  5
133
330
9B
100
AcDbEntity
  8
PIVOTS
370
    18
100
AcDbLine
 10
0.3836096008
 20
0.3540075304999999
 30
0.0
 11
0.4200916941
 21
0.3540075304999999
 31
0.0
  0
LINE
  5
134
330
9B
100
AcDbEntity
  8
PIVOTS
370
    18
100
AcDbLine
 10
0.4200916941
 20
0.3540075304999999
 30
0.0
 11
0.4200916941
 21
0.1745742254
 31
0.0
  0
LINE
  5
135
330
9B
100
AcDbEntity
  8
PIVOTS
370
    18
100
AcDbLine
 10
0.4774495200000001
 20
0.354194027
 30
0.0
 11
0.5238939137
 21
0.1981372021
 31
0.0
  0
LINE
  5
136
330
9B
100
AcDbEntity
  8
PIVOTS
370
    18
100
AcDbLine
 10
0.5238939137
 20
0.1981372021
 30
0.0
 11
0.5238939137
 21
0.354194027
 31
0.0
  0
LINE
  5
137
330
9B
100
AcDbEntity
  8
PIVOTS
370
    18
100
AcDbLine
 10
0.5238939137
 20
0.354194027
 30
0.0
 11
0.5588942081
 21
0.354194027
 31
0.0
  0
LINE
  5
138
330
9B
100
AcDbEntity
  8
PIVOTS
370
    18
100
AcDbLine
 10
0.5588942081
 20
0.354194027
 30
0.0
 11
0.5588942081
 21
0.1219856219
 31
0.0
  0
LINE
  5
139
330
9B
100
AcDbEntity
  8
PIVOTS
370
    18
100
AcDbLine
 10
0.5588942081
 20
0.1219856219
 30
0.0
 11
0.5212999179
 21
0.1219856219
 31
0.0
  0
LINE
  5
13A
330
9B
100
AcDbEntity
  8
PIVOTS
370
    18
100
AcDbLine
 10
0.5212999179
 20
0.1219856219
 30
0.0
 11
0.4731567112
 21
0.2706809239
 31
0.0
  0
LINE
  5
13B
330
9B
100
AcDbEntity
  8
PIVOTS
370
    18
100
AcDbLine
 10
0.4731567112
 20
0.2706809239
 30
0.0
 11
0.4731567112
 21
0.1219856219
 31
0.0
  0
LINE
  5
13C
330
9B
100
AcDbEntity
  8
PIVOTS
370
    18
100
AcDbLine
 10
0.4731567112
 20
0.1219856219
 30
0.0
 11
0.4381581123
 21
0.1219856219
 31
0.0
  0
LINE
  5
13D
330
9B
100
AcDbEntity
  8
PIVOTS
370
    18
100
AcDbLine
 10
0.4381581123
 20
0.1219856219
 30
0.0
 11
0.4381581123
 21
0.354194027
 31
0.0
  0
LINE
  5
13E
330
9B
100
AcDbEntity
  8
PIVOTS
370
    18
100
AcDbLine
 10
0.4381581123
 20
0.354194027
 30
0.0
 11
0.4774495200000001
 21
0.354194027
 31
0.0
  0
LINE
  5
13F
330
9B
100
AcDbEntity
  8
PIVOTS
370
    18
100
AcDbLine
 10
0.6112217165000001
 20
0.3188275214
 30
0.0
 11
0.5740004192
 21
0.3188275214
 31
0.0
  0
LINE
  5
140
330
9B
100
AcDbEntity
  8
PIVOTS
370
    18
100
AcDbLine
 10
0.5740004192
 20
0.3188275214
 30
0.0
 11
0.5740004192
 21
0.3540075304999999
 31
0.0
  0
LINE
  5
141
330
9B
100
AcDbEntity
  8
PIVOTS
370
    18
100
AcDbLine
 10
0.5740004192
 20
0.3540075304999999
 30
0.0
 11
0.6832568118000001
 21
0.3540075304999999
 31
0.0
  0
LINE
  5
142
330
9B
100
AcDbEntity
  8
PIVOTS
370
    18
100
AcDbLine
 10
0.6832568118000001
 20
0.3540075304999999
 30
0.0
 11
0.6832568118000001
 21
0.3188275214
 31
0.0
  0
LINE
  5
143
330
9B
100
AcDbEntity
  8
PIVOTS
370
    18
100
AcDbLine
 10
0.6832568118000001
 20
0.3188275214
 30
0.0
 11
0.6462152292
 21
0.3188275214
 31
0.0
  0
LINE
  5
144
330
9B
100
AcDbEntity
  8
PIVOTS
370
    18
100
AcDbLine
 10
0.6462152292
 20
0.3188275214
 30
0.0
 11
0.6462152292
 21
0.1219856219
 31
0.0
  0
LINE
  5
145
330
9B
100
AcDbEntity
  8
PIVOTS
370
    18
100
AcDbLine
 10
0.6462152292
 20
0.1219856219
 30
0.0
 11
0.6112217165000001
 21
0.1219856219
 31
0.0
  0
LINE
  5
146
330
9B
100
AcDbEntity
  8
PIVOTS
370
    18
100
AcDbLine
 10
0.6112217165000001
 20
0.1219856219
 30
0.0
 11
0.6112217165000001
 21
0.3188275214
 31
0.0
  0
LINE
  5
147
330
9B
100
AcDbEntity
  8
PIVOTS
370
    18
100
AcDbLine
 10
0.7114584634000001
 20
0.1753134294
 30
0.0
 11
0.702954226
 21
0.1219856219
 31
0.0
  0
LINE
  5
148
330
9B
100
AcDbEntity
  8
PIVOTS
370
    18
100
AcDbLine
 10
0.702954226
 20
0.1219856219
 30
0.0
 11
0.6665128229000001
 21
0.1219856219
 31
0.0
  0
LINE
  5
149
330
9B
100
AcDbEntity
  8
PIVOTS
370
    18
100
AcDbLine
 10
0.6665128229000001
 20
0.1219856219
 30
0.0
 11
0.7059551232
 21
0.3540075304999999
 31
0.0
  0
LINE
  5
14A
330
9B
100
AcDbEntity
  8
PIVOTS
370
    18
100
AcDbLine
 10
0.7059551232
 20
0.3540075304999999
 30
0.0
 11
0.7541017207
 21
0.3540075304999999
 31
0.0
  0
LINE
  5
14B
330
9B
100
AcDbEntity
  8
PIVOTS
370
    18
100
AcDbLine
 10
0.7541017207
 20
0.3540075304999999
 30
0.0
 11
0.7929879226000001
 21
0.1219856219
 31
0.0
  0
LINE
  5
14C
330
9B
100
AcDbEntity
  8
PIVOTS
370
    18
100
AcDbLine
 10
0.7929879226000001
 20
0.1219856219
 30
0.0
 11
0.7561836991
 21
0.1219856219
 31
0.0
  0
LINE
  5
14D
330
9B
100
AcDbEntity
  8
PIVOTS
370
    18
100
AcDbLine
 10
0.7561836991
 20
0.1219856219
 30
0.0
 11
0.7479948101999999
 21
0.1753134294
 31
0.0
  0
LINE
  5
14E
330
9B
100
AcDbEntity
  8
PIVOTS
370
    18
100
AcDbLine
 10
0.7479948101999999
 20
0.1753134294
 30
0.0
 11
0.7114584634000001
 21
0.1753134294
 31
0.0
  0
LINE
  5
14F
330
9B
100
AcDbEntity
  8
PIVOTS
370
    18
100
AcDbLine
 10
0.7298436209000001
 20
0.3008628286
 30
0.0
 11
0.7168804234000001
 21
0.2093880233
 31
0.0
  0
LINE
  5
150
330
9B
100
AcDbEntity
  8
PIVOTS
370
    18
100
AcDbLine
 10
0.7168804234000001
 20
0.2093880233
 30
0.0
 11
0.7428034277
 21
0.2093880233
 31
0.0
  0
LINE
  5
151
330
9B
100
AcDbEntity
  8
PIVOTS
370
    18
100
AcDbLine
 10
0.7428034277
 20
0.2093880233
 30
0.0
 11
0.7298436209000001
 21
0.3008628286
 31
0.0
  0
LINE
  5
152
330
9B
100
AcDbEntity
  8
PIVOTS
370
    18
100
AcDbLine
 10
0.8443931213999999
 20
0.1219856219
 30
0.0
 11
0.8093928270000001
 21
0.1219856219
 31
0.0
  0
LINE
  5
153
330
9B
100
AcDbEntity
  8
PIVOTS
370
    18
100
AcDbLine
 10
0.8093928270000001
 20
0.1219856219
 30
0.0
 11
0.8093928270000001
 21
0.3540075304999999
 31
0.0
  0
LINE
  5
154
330
9B
100
AcDbEntity
  8
PIVOTS
370
    18
100
AcDbLine
 10
0.8093928270000001
 20
0.3540075304999999
 30
0.0
 11
0.8443931213999999
 21
0.3540075304999999
 31
0.0
  0
LINE
  5
155
330
9B
100
AcDbEntity
  8
PIVOTS
370
    18
100
AcDbLine
 10
0.8443931213999999
 20
0.3540075304999999
 30
0.0
 11
0.8443931213999999
 21
0.1219856219
 31
0.0
  0
LINE
  5
156
330
9B
100
AcDbEntity
  8
PIVOTS
370
    18
100
AcDbLine
 10
0.9019391391999999
 20
0.354194027
 30
0.0
 11
0.9483801419999998
 21
0.1981372021
 31
0.0
  0
LINE
  5
157
330
9B
100
AcDbEntity
  8
PIVOTS
370
    18
100
AcDbLine
 10
0.9483801419999998
 20
0.1981372021
 30
0.0
 11
0.9483801419999998
 21
0.354194027
 31
0.0
  0
LINE
  5
158
330
9B
100
AcDbEntity
  8
PIVOTS
370
    18
100
AcDbLine
 10
0.9483801419999998
 20
0.354194027
 30
0.0
 11
0.9833804364
 21
0.354194027
 31
0.0
  0
LINE
  5
159
330
9B
100
AcDbEntity
  8
PIVOTS
370
    18
100
AcDbLine
 10
0.9833804364
 20
0.354194027
 30
0.0
 11
0.9833804364
 21
0.1219856219
 31
0.0
  0
LINE
  5
15A
330
9B
100
AcDbEntity
  8
PIVOTS
370
    18
100
AcDbLine
 10
0.9833804364
 20
0.1219856219
 30
0.0
 11
0.9457861462
 21
0.1219856219
 31
0.0
  0
LINE
  5
15B
330
9B
100
AcDbEntity
  8
PIVOTS
370
    18
100
AcDbLine
 10
0.9457861462
 20
0.1219856219
 30
0.0
 11
0.8976463302999999
 21
0.2706809239
 31
0.0
  0
LINE
  5
15C
330
9B
100
AcDbEntity
  8
PIVOTS
370
    18
100
AcDbLine
 10
0.8976463302999999
 20
0.2706809239
 30
0.0
 11
0.8976463302999999
 21
0.1219856219
 31
0.0
  0
LINE
  5
15D
330
9B
100
AcDbEntity
  8
PIVOTS
370
    18
100
AcDbLine
 10
0.8976463302999999
 20
0.1219856219
 30
0.0
 11
0.8626460359999999
 21
0.1219856219
 31
0.0
  0
LINE
  5
15E
330
9B
100
AcDbEntity
  8
PIVOTS
370
    18
100
AcDbLine
 10
0.8626460359999999
 20
0.1219856219
 30
0.0
 11
0.8626460359999999
 21
0.354194027
 31
0.0
  0
LINE
  5
15F
330
9B
100
AcDbEntity
  8
PIVOTS
370
    18
100
AcDbLine
 10
0.8626460359999999
 20
0.354194027
 30
0.0
 11
0.9019391391999999
 21
0.354194027
 31
0.0
  0
LINE
  5
160
330
9B
100
AcDbEntity
  8
PIVOTS
370
    18
100
AcDbLine
 10
0.0910780766
 20
0.5137586803000001
 30
0.0
 11
0.0910780766
 21
0.4859045902
 31
0.0
  0
LINE
  5
161
330
9B
100
AcDbEntity
  8
PIVOTS
370
    18
100
AcDbLine
 10
0.0756175222
 20
0.4514637851
 30
0.0
 11
0.097044267
 21
0.3677319725999999
 31
0.0
  0
LINE
  5
162
330
9B
100
AcDbEntity
  8
PIVOTS
370
    18
100
AcDbLine
 10
0.097044267
 20
0.3677319725999999
 30
0.0
 11
0.0657569471
 21
0.3677319725999999
 31
0.0
  0
LINE
  5
163
330
9B
100
AcDbEntity
  8
PIVOTS
370
    18
100
AcDbLine
 10
0.0657569471
 20
0.3677319725999999
 30
0.0
 11
0.0482161098
 21
0.4399806911
 31
0.0
  0
LINE
  5
164
330
9B
100
AcDbEntity
  8
PIVOTS
370
    18
100
AcDbLine
 10
0.0456136369
 20
0.4399806911
 30
0.0
 11
0.0289289877
 21
0.4399806911
 31
0.0
  0
LINE
  5
165
330
9B
100
AcDbEntity
  8
PIVOTS
370
    18
100
AcDbLine
 10
0.0289289877
 20
0.4399806911
 30
0.0
 11
0.0289289877
 21
0.3677319725999999
 31
0.0
  0
LINE
  5
166
330
9B
100
AcDbEntity
  8
PIVOTS
370
    18
100
AcDbLine
 10
0.0289289877
 20
0.3677319725999999
 30
0.0
 11
0.0
 21
0.3677319725999999
 31
0.0
  0
LINE
  5
167
330
9B
100
AcDbEntity
  8
PIVOTS
370
    18
100
AcDbLine
 10
0.0
 20
0.3677319725999999
 30
0.0
 11
0.0
 21
0.5595316868
 31
0.0
  0
LINE
  5
168
330
9B
100
AcDbEntity
  8
PIVOTS
370
    18
100
AcDbLine
 10
0.0
 20
0.5595316868
 30
0.0
 11
0.0456136369
 21
0.5595316868
 31
0.0
  0
LINE
  5
169
330
9B
100
AcDbEntity
  8
PIVOTS
370
    18
100
AcDbLine
 10
0.0463782722
 20
0.5299906517000001
 30
0.0
 11
0.0289289877
 21
0.5299906517000001
 31
0.0
  0
LINE
  5
16A
330
9B
100
AcDbEntity
  8
PIVOTS
370
    18
100
AcDbLine
 10
0.0289289877
 20
0.5299906517000001
 30
0.0
 11
0.0289289877
 21
0.4686028074000001
 31
0.0
  0
LINE
  5
16B
330
9B
100
AcDbEntity
  8
PIVOTS
370
    18
100
AcDbLine
 10
0.0289289877
 20
0.4686028074000001
 30
0.0
 11
0.0463782722
 21
0.4686028074000001
 31
0.0
  0
LINE
  5
16C
330
9B
100
AcDbEntity
  8
PIVOTS
370
    18
100
AcDbLine
 10
0.0629120288
 20
0.4852874565
 30
0.0
 11
0.0629120288
 21
0.5133060026000001
 31
0.0
  0
LINE
  5
16D
330
9B
100
AcDbEntity
  8
PIVOTS
370
    18
100
AcDbLine
 10
0.197855762
 20
0.5160559772
 30
0.0
 11
0.197855762
 21
0.4113568793
 31
0.0
  0
LINE
  5
16E
330
9B
100
AcDbEntity
  8
PIVOTS
370
    18
100
AcDbLine
 10
0.1061690289
 20
0.4113568793
 30
0.0
 11
0.1061690289
 21
0.5160559772
 31
0.0
  0
LINE
  5
16F
330
9B
100
AcDbEntity
  8
PIVOTS
370
    18
100
AcDbLine
 10
0.1344859692
 20
0.5166680246000001
 30
0.0
 11
0.1344859692
 21
0.4116603599000001
 31
0.0
  0
LINE
  5
170
330
9B
100
AcDbEntity
  8
PIVOTS
370
    18
100
AcDbLine
 10
0.1677009841
 20
0.4116603599000001
 30
0.0
 11
0.1677009841
 21
0.5166680246000001
 31
0.0
  0
LINE
  5
171
330
9B
100
AcDbEntity
  8
PIVOTS
370
    18
100
AcDbLine
 10
0.2120345772
 20
0.4110500079000001
 30
0.0
 11
0.2120345772
 21
0.5157541921000001
 31
0.0
  0
LINE
  5
172
330
9B
100
AcDbEntity
  8
PIVOTS
370
    18
100
AcDbLine
 10
0.3037213103
 20
0.5157541921000001
 30
0.0
 11
0.3037213103
 21
0.4938629016
 31
0.0
  0
LINE
  5
173
330
9B
100
AcDbEntity
  8
PIVOTS
370
    18
100
AcDbLine
 10
0.3037213103
 20
0.4938629016
 30
0.0
 11
0.2737208158
 21
0.4938629016
 31
0.0
  0
LINE
  5
174
330
9B
100
AcDbEntity
  8
PIVOTS
370
    18
100
AcDbLine
 10
0.2737208158
 20
0.4938629016
 30
0.0
 11
0.2737208158
 21
0.5163645441
 31
0.0
  0
LINE
  5
175
330
9B
100
AcDbEntity
  8
PIVOTS
370
    18
100
AcDbLine
 10
0.240505801
 20
0.5163645441
 30
0.0
 11
0.240505801
 21
0.4113568793
 31
0.0
  0
LINE
  5
176
330
9B
100
AcDbEntity
  8
PIVOTS
370
    18
100
AcDbLine
 10
0.2737208158
 20
0.4113568793
 30
0.0
 11
0.2737208158
 21
0.4378393729
 31
0.0
  0
LINE
  5
177
330
9B
100
AcDbEntity
  8
PIVOTS
370
    18
100
AcDbLine
 10
0.2737208158
 20
0.4378393729
 30
0.0
 11
0.3037213103
 21
0.4378393729
 31
0.0
  0
LINE
  5
178
330
9B
100
AcDbEntity
  8
PIVOTS
370
    18
100
AcDbLine
 10
0.3037213103
 20
0.4378393729
 30
0.0
 11
0.3037213103
 21
0.4110500079000001
 31
0.0
  0
LINE
  5
179
330
9B
100
AcDbEntity
  8
PIVOTS
370
    18
100
AcDbLine
 10
0.3455931505
 20
0.4285772819
 30
0.0
 11
0.3455931505
 21
0.3677319725999999
 31
0.0
  0
LINE
  5
17A
330
9B
100
AcDbEntity
  8
PIVOTS
370
    18
100
AcDbLine
 10
0.3455931505
 20
0.3677319725999999
 30
0.0
 11
0.3166658582
 21
0.3677319725999999
 31
0.0
  0
LINE
  5
17B
330
9B
100
AcDbEntity
  8
PIVOTS
370
    18
100
AcDbLine
 10
0.3166658582
 20
0.3677319725999999
 30
0.0
 11
0.3166658582
 21
0.5596825794
 31
0.0
  0
LINE
  5
17C
330
9B
100
AcDbEntity
  8
PIVOTS
370
    18
100
AcDbLine
 10
0.3166658582
 20
0.5596825794
 30
0.0
 11
0.3455931505
 21
0.5596825794
 31
0.0
  0
LINE
  5
17D
330
9B
100
AcDbEntity
  8
PIVOTS
370
    18
100
AcDbLine
 10
0.3455931505
 20
0.5596825794
 30
0.0
 11
0.3455931505
 21
0.4912621241
 31
0.0
  0
LINE
  5
17E
330
9B
100
AcDbEntity
  8
PIVOTS
370
    18
100
AcDbLine
 10
0.3455931505
 20
0.4912621241
 30
0.0
 11
0.3809528743999999
 21
0.5596825794
 31
0.0
  0
LINE
  5
17F
330
9B
100
AcDbEntity
  8
PIVOTS
370
    18
100
AcDbLine
 10
0.3809528743999999
 20
0.5596825794
 30
0.0
 11
0.4117976891
 21
0.5596825794
 31
0.0
  0
LINE
  5
180
330
9B
100
AcDbEntity
  8
PIVOTS
370
    18
100
AcDbLine
 10
0.4117976891
 20
0.5596825794
 30
0.0
 11
0.3721977145
 21
0.4813896811
 31
0.0
  0
LINE
  5
181
330
9B
100
AcDbEntity
  8
PIVOTS
370
    18
100
AcDbLine
 10
0.3721977145
 20
0.4813896811
 30
0.0
 11
0.4186370219
 21
0.3677319725999999
 31
0.0
  0
LINE
  5
182
330
9B
100
AcDbEntity
  8
PIVOTS
370
    18
100
AcDbLine
 10
0.4186370219
 20
0.3677319725999999
 30
0.0
 11
0.3846268541
 21
0.3677319725999999
 31
0.0
  0
LINE
  5
183
330
9B
100
AcDbEntity
  8
PIVOTS
370
    18
100
AcDbLine
 10
0.3846268541
 20
0.3677319725999999
 30
0.0
 11
0.3542533667
 21
0.4456637460000001
 31
0.0
  0
LINE
  5
184
330
9B
100
AcDbEntity
  8
PIVOTS
370
    18
100
AcDbLine
 10
0.3542533667
 20
0.4456637460000001
 30
0.0
 11
0.3455931505
 21
0.4285772819
 31
0.0
  0
LINE
  5
185
330
9B
100
AcDbEntity
  8
PIVOTS
370
    18
100
AcDbLine
 10
0.4614074359000001
 20
0.4480966768
 30
0.0
 11
0.4226822991
 21
0.5596825794
 31
0.0
  0
LINE
  5
186
330
9B
100
AcDbEntity
  8
PIVOTS
370
    18
100
AcDbLine
 10
0.4226822991
 20
0.5596825794
 30
0.0
 11
0.4545206312
 21
0.5596825794
 31
0.0
  0
LINE
  5
187
330
9B
100
AcDbEntity
  8
PIVOTS
370
    18
100
AcDbLine
 10
0.4545206312
 20
0.5596825794
 30
0.0
 11
0.4759524623
 21
0.4908026647
 31
0.0
  0
LINE
  5
188
330
9B
100
AcDbEntity
  8
PIVOTS
370
    18
100
AcDbLine
 10
0.4759524623
 20
0.4908026647
 30
0.0
 11
0.4972249237
 21
0.5596825794
 31
0.0
  0
LINE
  5
189
330
9B
100
AcDbEntity
  8
PIVOTS
370
    18
100
AcDbLine
 10
0.4972249237
 20
0.5596825794
 30
0.0
 11
0.5292175392000001
 21
0.5596825794
 31
0.0
  0
LINE
  5
18A
330
9B
100
AcDbEntity
  8
PIVOTS
370
    18
100
AcDbLine
 10
0.5292175392000001
 20
0.5596825794
 30
0.0
 11
0.490338119
 21
0.4480966768
 31
0.0
  0
LINE
  5
18B
330
9B
100
AcDbEntity
  8
PIVOTS
370
    18
100
AcDbLine
 10
0.490338119
 20
0.4480966768
 30
0.0
 11
0.490338119
 21
0.3677319725999999
 31
0.0
  0
LINE
  5
18C
330
9B
100
AcDbEntity
  8
PIVOTS
370
    18
100
AcDbLine
 10
0.490338119
 20
0.3677319725999999
 30
0.0
 11
0.4614074359000001
 21
0.3677319725999999
 31
0.0
  0
LINE
  5
18D
330
9B
100
AcDbEntity
  8
PIVOTS
370
    18
100
AcDbLine
 10
0.4614074359000001
 20
0.3677319725999999
 30
0.0
 11
0.4614074359000001
 21
0.4480966768
 31
0.0
  0
SPLINE
  5
18E
330
9B
100
AcDbEntity
  8
LAYER_1
100
AcDbSpline
210
0.0
220
0.0
230
1.0
 70
     8
 71
     3
 72
    11
 73
     7
 74
     0
 42
0.000000001
 43
0.0000000001
 40
0.0
 40
0.0
 40
0.0
 40
0.0
 40
1.0
 40
2.0
 40
3.0
 40
4.0
 40
4.0
 40
4.0
 40
4.0
 10
0.0456136368504933
 20
0.5595316867969029
 30
0.0
 10
0.0617371012590639
 20
0.5595316867969029
 30
0.0
 10
0.073572843113557
 20
0.5550930716737024
 30
0.0
 10
0.081125948680348
 20
0.5462158414273014
 30
0.0
 10
0.0877584400332744
 20
0.5384541989391379
 30
0.0
 10
0.0910780765539873
 20
0.5276391012038825
 30
0.0
 10
0.0910780765539873
 20
0.5137586802666624
 30
0.0
  0
SPLINE
  5
18F
330
9B
100
AcDbEntity
  8
LAYER_1
100
AcDbSpline
210
0.0
220
0.0
230
1.0
 70
     8
 71
     3
 72
     8
 73
     4
 74
     0
 42
0.000000001
 43
0.0000000001
 40
0.0
 40
0.0
 40
0.0
 40
0.0
 40
1.0
 40
1.0
 40
1.0
 40
1.0
 10
0.0910780765539873
 20
0.4859045901753476
 30
0.0
 10
0.0910780765539873
 20
0.4723310406427479
 30
0.0
 10
0.08592229787192
 20
0.460847946590251
 30
0.0
 10
0.0756175221962846
 20
0.4514637851284799
 30
0.0
  0
SPLINE
  5
190
330
9B
100
AcDbEntity
  8
LAYER_1
100
AcDbSpline
210
0.0
220
0.0
230
1.0
 70
    24
 71
     3
 72
     8
 73
     4
 74
     0
 42
0.000000001
 43
0.0000000001
 40
0.0
 40
0.0
 40
0.0
 40
0.0
 40
1.0
 40
1.0
 40
1.0
 40
1.0
 10
0.0482161098123392
 20
0.439980691075983
 30
0.0
 10
0.0473989163480981
 20
0.439980691075983
 30
0.0
 10
0.046532555642233
 20
0.439980691075983
 30
0.0
 10
0.0456136368504933
 20
0.439980691075983
 30
0.0
  0
SPLINE
  5
191
330
9B
100
AcDbEntity
  8
LAYER_1
100
AcDbSpline
210
0.0
220
0.0
230
1.0
 70
     8
 71
     3
 72
     8
 73
     4
 74
     0
 42
0.000000001
 43
0.0000000001
 40
0.0
 40
0.0
 40
0.0
 40
0.0
 40
1.0
 40
1.0
 40
1.0
 40
1.0
 10
0.0629120287916758
 20
0.513306002559292
 30
0.0
 10
0.0629120287916758
 20
0.5244228854327937
 30
0.0
 10
0.0573985160412371
 20
0.5299906516912315
 30
0.0
 10
0.0463782722288597
 20
0.5299906516912315
 30
0.0
  0
SPLINE
  5
192
330
9B
100
AcDbEntity
  8
LAYER_1
100
AcDbSpline
210
0.0
220
0.0
230
1.0
 70
     8
 71
     3
 72
    11
 73
     7
 74
     0
 42
0.000000001
 43
0.0000000001
 40
0.0
 40
0.0
 40
0.0
 40
0.0
 40
1.0
 40
2.0
 40
3.0
 40
4.0
 40
4.0
 40
4.0
 40
4.0
 10
0.0463782722288597
 20
0.4686028073899149
 30
0.0
 10
0.0509711707654337
 20
0.4686028073899149
 30
0.0
 10
0.0548740324971399
 20
0.470237194318396
 30
0.0
 10
0.0580885528461044
 20
0.4735008819089851
 30
0.0
 10
0.0613030731950686
 20
0.4767713511880735
 30
0.0
 10
0.0629120287916758
 20
0.4806979488295299
 30
0.0
 10
0.0629120287916758
 20
0.4852874565218534
 30
0.0
  0
SPLINE
  5
193
330
9B
100
AcDbEntity
  8
LAYER_1
100
AcDbSpline
210
0.0
220
0.0
230
1.0
 70
     8
 71
     3
 72
    11
 73
     7
 74
     0
 42
0.000000001
 43
0.0000000001
 40
0.0
 40
0.0
 40
0.0
 40
0.0
 40
1.0
 40
2.0
 40
3.0
 40
4.0
 40
4.0
 40
4.0
 40
4.0
 10
0.1519352537301856
 20
0.5619815717675017
 30
0.0
 10
0.1646899143764189
 20
0.5619815717675017
 30
0.0
 10
0.1755321388656735
 20
0.5574903985584255
 30
0.0
 10
0.184463622620074
 20
0.5485080521402756
 30
0.0
 10
0.1933917155302247
 20
0.5395257057221256
 30
0.0
 10
0.1978557619852999
 20
0.5287106079868711
 30
0.0
 10
0.1978557619852999
 20
0.5160559772460119
 30
0.0
  0
SPLINE
  5
194
330
9B
100
AcDbEntity
  8
LAYER_1
100
AcDbSpline
210
0.0
220
0.0
230
1.0
 70
     8
 71
     3
 72
    17
 73
    13
 74
     0
 42
0.000000001
 43
0.0000000001
 40
0.0
 40
0.0
 40
0.0
 40
0.0
 40
1.0
 40
2.0
 40
3.0
 40
4.0
 40
5.0
 40
6.0
 40
7.0
 40
8.0
 40
9.0
 40
10.0
 40
10.0
 40
10.0
 40
10.0
 10
0.1978557619852999
 20
0.4113568793399259
 30
0.0
 10
0.1978557619852999
 20
0.3986005232715676
 30
0.0
 10
0.1933645887762249
 20
0.3877566033601889
 30
0.0
 10
0.1843856332023248
 20
0.3788319012942876
 30
0.0
 10
0.1754066776284248
 20
0.3698953312735128
 30
0.0
 10
0.1645881890489201
 20
0.3654329802405621
 30
0.0
 10
0.1519352537301856
 20
0.3654329802405621
 30
0.0
 10
0.1391772022397027
 20
0.3654329802405621
 30
0.0
 10
0.1283621045044477
 20
0.3699241534496371
 30
0.0
 10
0.1194848742580467
 20
0.3789064998677871
 30
0.0
 10
0.1106076440116454
 20
0.3878837600195618
 30
0.0
 10
0.1061690288884446
 20
0.3987039440211915
 30
0.0
 10
0.1061690288884446
 20
0.4113568793399259
 30
0.0
  0
SPLINE
  5
195
330
9B
100
AcDbEntity
  8
LAYER_1
100
AcDbSpline
210
0.0
220
0.0
230
1.0
 70
     8
 71
     3
 72
    11
 73
     7
 74
     0
 42
0.000000001
 43
0.0000000001
 40
0.0
 40
0.0
 40
0.0
 40
0.0
 40
1.0
 40
2.0
 40
3.0
 40
4.0
 40
4.0
 40
4.0
 40
4.0
 10
0.1061690288884446
 20
0.5160559772460119
 30
0.0
 10
0.1061690288884446
 20
0.5288157241586201
 30
0.0
 10
0.1106568112532697
 20
0.5396528623814996
 30
0.0
 10
0.1196357668271698
 20
0.5485826507137751
 30
0.0
 10
0.1286147224010701
 20
0.5575124390460506
 30
0.0
 10
0.1393840437389504
 20
0.5619815717675017
 30
0.0
 10
0.1519352537301856
 20
0.5619815717675017
 30
0.0
  0
SPLINE
  5
196
330
9B
100
AcDbEntity
  8
LAYER_1
100
AcDbSpline
210
0.0
220
0.0
230
1.0
 70
     8
 71
     3
 72
    17
 73
    13
 74
     0
 42
0.000000001
 43
0.0000000001
 40
0.0
 40
0.0
 40
0.0
 40
0.0
 40
1.0
 40
2.0
 40
3.0
 40
4.0
 40
5.0
 40
6.0
 40
7.0
 40
8.0
 40
9.0
 40
10.0
 40
10.0
 40
10.0
 40
10.0
 10
0.1677009840703856
 20
0.5166680246331297
 30
0.0
 10
0.1677009840703856
 20
0.5212643140139536
 30
0.0
 10
0.1660954193180283
 20
0.5251671757456609
 30
0.0
 10
0.162880898969064
 20
0.5283783052503744
 30
0.0
 10
0.1596629877758496
 20
0.5315962164435894
 30
0.0
 10
0.1557635168883931
 20
0.5332017811959461
 30
0.0
 10
0.1511706183518193
 20
0.5332017811959461
 30
0.0
 10
0.1465777198152455
 20
0.5332017811959461
 30
0.0
 10
0.142647731329539
 20
0.5315962164435894
 30
0.0
 10
0.1393840437389504
 20
0.5283783052503744
 30
0.0
 10
0.1361169653041117
 20
0.5251671757456609
 30
0.0
 10
0.1344859692198797
 20
0.5212643140139536
 30
0.0
 10
0.1344859692198797
 20
0.5166680246331297
 30
0.0
  0
SPLINE
  5
197
330
9B
100
AcDbEntity
  8
LAYER_1
100
AcDbSpline
210
0.0
220
0.0
230
1.0
 70
     8
 71
     3
 72
    17
 73
    13
 74
     0
 42
0.000000001
 43
0.0000000001
 40
0.0
 40
0.0
 40
0.0
 40
0.0
 40
1.0
 40
2.0
 40
3.0
 40
4.0
 40
5.0
 40
6.0
 40
7.0
 40
8.0
 40
9.0
 40
10.0
 40
10.0
 40
10.0
 40
10.0
 10
0.1344859692198797
 20
0.4116603599002981
 30
0.0
 10
0.1344859692198797
 20
0.4070708522079735
 30
0.0
 10
0.1361169653041117
 20
0.4031662950541423
 30
0.0
 10
0.1393840437389504
 20
0.3999551655494276
 30
0.0
 10
0.142647731329539
 20
0.3967389497783388
 30
0.0
 10
0.1465777198152455
 20
0.395131689603857
 30
0.0
 10
0.1511706183518193
 20
0.395131689603857
 30
0.0
 10
0.1557635168883931
 20
0.395131689603857
 30
0.0
 10
0.1596629877758496
 20
0.3967389497783388
 30
0.0
 10
0.162880898969064
 20
0.3999551655494276
 30
0.0
 10
0.1660954193180283
 20
0.4031662950541423
 30
0.0
 10
0.1677009840703856
 20
0.4070708522079735
 30
0.0
 10
0.1677009840703856
 20
0.4116603599002981
 30
0.0
  0
SPLINE
  5
198
330
9B
100
AcDbEntity
  8
LAYER_1
100
AcDbSpline
210
0.0
220
0.0
230
1.0
 70
     8
 71
     3
 72
    11
 73
     7
 74
     0
 42
0.000000001
 43
0.0000000001
 40
0.0
 40
0.0
 40
0.0
 40
0.0
 40
1.0
 40
2.0
 40
3.0
 40
4.0
 40
4.0
 40
4.0
 40
4.0
 10
0.2579550854716317
 20
0.3652820876714379
 30
0.0
 10
0.2451970339811485
 20
0.3652820876714379
 30
0.0
 10
0.234356504914019
 20
0.3697444387043886
 30
0.0
 10
0.2254250211596185
 20
0.3786742270366641
 30
0.0
 10
0.2164952328273427
 20
0.3876040153689407
 30
0.0
 10
0.2120345772165171
 20
0.398395377194445
 30
0.0
 10
0.2120345772165171
 20
0.4110500079353043
 30
0.0
  0
SPLINE
  5
199
330
9B
100
AcDbEntity
  8
LAYER_1
100
AcDbSpline
210
0.0
220
0.0
230
1.0
 70
     8
 71
     3
 72
    17
 73
    13
 74
     0
 42
0.000000001
 43
0.0000000001
 40
0.0
 40
0.0
 40
0.0
 40
0.0
 40
1.0
 40
2.0
 40
3.0
 40
4.0
 40
5.0
 40
6.0
 40
7.0
 40
8.0
 40
9.0
 40
10.0
 40
10.0
 40
10.0
 40
10.0
 10
0.2120345772165171
 20
0.5157541921077656
 30
0.0
 10
0.2120345772165171
 20
0.5285071573318735
 30
0.0
 10
0.2165223595813425
 20
0.5393510772432523
 30
0.0
 10
0.2255013151552429
 20
0.5482808655755289
 30
0.0
 10
0.2344802707291426
 20
0.5572038722193039
 30
0.0
 10
0.2452987593086476
 20
0.5616730049407551
 30
0.0
 10
0.2579550854716317
 20
0.5616730049407551
 30
0.0
 10
0.2707097461178647
 20
0.5616730049407551
 30
0.0
 10
0.2815282346973694
 20
0.557181831731679
 30
0.0
 10
0.2904054649437709
 20
0.5482045715799043
 30
0.0
 10
0.2992826951901722
 20
0.5392222251617543
 30
0.0
 10
0.3037213103133727
 20
0.5284020411601246
 30
0.0
 10
0.3037213103133727
 20
0.5157541921077656
 30
0.0
  0
SPLINE
  5
19A
330
9B
100
AcDbEntity
  8
LAYER_1
100
AcDbSpline
210
0.0
220
0.0
230
1.0
 70
     8
 71
     3
 72
    17
 73
    13
 74
     0
 42
0.000000001
 43
0.0000000001
 40
0.0
 40
0.0
 40
0.0
 40
0.0
 40
1.0
 40
2.0
 40
3.0
 40
4.0
 40
5.0
 40
6.0
 40
7.0
 40
8.0
 40
9.0
 40
10.0
 40
10.0
 40
10.0
 40
10.0
 10
0.2737208158118314
 20
0.5163645440727584
 30
0.0
 10
0.2737208158118314
 20
0.5209557471872071
 30
0.0
 10
0.2720864288833497
 20
0.5248823448286634
 30
0.0
 10
0.2688227412927606
 20
0.5281511186856278
 30
0.0
 10
0.2655556628579225
 20
0.5314148062762158
 30
0.0
 10
0.2616290652164658
 20
0.533050888626823
 30
0.0
 10
0.2570361666798918
 20
0.533050888626823
 30
0.0
 10
0.252443268143318
 20
0.533050888626823
 30
0.0
 10
0.2485387109894865
 20
0.5314148062762158
 30
0.0
 10
0.2453258860626471
 20
0.5281511186856278
 30
0.0
 10
0.2421113657136828
 20
0.5248823448286634
 30
0.0
 10
0.2405058009613255
 20
0.5209557471872071
 30
0.0
 10
0.2405058009613255
 20
0.5163645440727584
 30
0.0
  0
SPLINE
  5
19B
330
9B
100
AcDbEntity
  8
LAYER_1
100
AcDbSpline
210
0.0
220
0.0
230
1.0
 70
     8
 71
     3
 72
    17
 73
    13
 74
     0
 42
0.000000001
 43
0.0000000001
 40
0.0
 40
0.0
 40
0.0
 40
0.0
 40
1.0
 40
2.0
 40
3.0
 40
4.0
 40
5.0
 40
6.0
 40
7.0
 40
8.0
 40
9.0
 40
10.0
 40
10.0
 40
10.0
 40
10.0
 10
0.2405058009613255
 20
0.4113568793399259
 30
0.0
 10
0.2405058009613255
 20
0.4067673716476022
 30
0.0
 10
0.2421113657136828
 20
0.4028645099158961
 30
0.0
 10
0.2453258860626471
 20
0.399646598722681
 30
0.0
 10
0.2485387109894865
 20
0.3964303829515923
 30
0.0
 10
0.252443268143318
 20
0.3948248181992355
 30
0.0
 10
0.2570361666798918
 20
0.3948248181992355
 30
0.0
 10
0.2616290652164658
 20
0.3948248181992355
 30
0.0
 10
0.2655556628579225
 20
0.3964303829515923
 30
0.0
 10
0.2688227412927606
 20
0.399646598722681
 30
0.0
 10
0.2720864288833497
 20
0.4028645099158961
 30
0.0
 10
0.2737208158118314
 20
0.4067673716476022
 30
0.0
 10
0.2737208158118314
 20
0.4113568793399259
 30
0.0
  0
SPLINE
  5
19C
330
9B
100
AcDbEntity
  8
LAYER_1
100
AcDbSpline
210
0.0
220
0.0
230
1.0
 70
     8
 71
     3
 72
    11
 73
     7
 74
     0
 42
0.000000001
 43
0.0000000001
 40
0.0
 40
0.0
 40
0.0
 40
0.0
 40
1.0
 40
2.0
 40
3.0
 40
4.0
 40
4.0
 40
4.0
 40
4.0
 10
0.3037213103133727
 20
0.4110500079353043
 30
0.0
 10
0.3037213103133727
 20
0.3982919564448211
 30
0.0
 10
0.299230137104298
 20
0.3874768587095666
 30
0.0
 10
0.2902511815303976
 20
0.3785979330410406
 30
0.0
 10
0.2812722259564973
 20
0.3697207027946395
 30
0.0
 10
0.2705062954628671
 20
0.3652820876714379
 30
0.0
 10
0.2579550854716317
 20
0.3652820876714379
 30
0.0
  0
SPLINE
  5
19D
330
9B
100
AcDbEntity
  8
LAYER_1
100
AcDbSpline
210
0.0
220
0.0
230
1.0
 70
     8
 71
     3
 72
    11
 73
     7
 74
     0
 42
0.000000001
 43
0.0000000001
 40
0.0
 40
0.0
 40
0.0
 40
0.0
 40
1.0
 40
2.0
 40
3.0
 40
4.0
 40
4.0
 40
4.0
 40
4.0
 10
0.2360977034363747
 20
0.3569745192590308
 30
0.0
 10
0.2515294356179532
 20
0.3569745192590308
 30
0.0
 10
0.2646452211768075
 20
0.3515406913484664
 30
0.0
 10
0.2754484509571875
 20
0.3406747309494625
 30
0.0
 10
0.2862482898933172
 20
0.3298121613947077
 30
0.0
 10
0.2916532956277568
 20
0.3167218071677289
 30
0.0
 10
0.2916532956277568
 20
0.3014155362233983
 30
0.0
  0
SPLINE
  5
19E
330
9B
100
AcDbEntity
  8
LAYER_1
100
AcDbSpline
210
0.0
220
0.0
230
1.0
 70
     8
 71
     3
 72
    17
 73
    13
 74
     0
 42
0.000000001
 43
0.0000000001
 40
0.0
 40
0.0
 40
0.0
 40
0.0
 40
1.0
 40
2.0
 40
3.0
 40
4.0
 40
5.0
 40
6.0
 40
7.0
 40
8.0
 40
9.0
 40
10.0
 40
10.0
 40
10.0
 40
10.0
 10
0.2916532956277568
 20
0.1747607217988071
 30
0.0
 10
0.2916532956277568
 20
0.1593289896172286
 30
0.0
 10
0.2862160768729427
 20
0.1462098132141244
 30
0.0
 10
0.2753552027403133
 20
0.1354133651222448
 30
0.0
 10
0.2644909377634342
 20
0.1246101353418649
 30
0.0
 10
0.2514039743807044
 20
0.1192085204516749
 30
0.0
 10
0.2360977034363747
 20
0.1192085204516749
 30
0.0
 10
0.2206676666769214
 20
0.1192085204516749
 30
0.0
 10
0.2075840941384421
 20
0.1246372620958646
 30
0.0
 10
0.1968418995545613
 20
0.1355049179169941
 30
0.0
 10
0.1861014003928058
 20
0.1463657920496227
 30
0.0
 10
0.1807319985229907
 20
0.1594510600102274
 30
0.0
 10
0.1807319985229907
 20
0.1747607217988071
 30
0.0
  0
SPLINE
  5
19F
330
9B
100
AcDbEntity
  8
LAYER_1
100
AcDbSpline
210
0.0
220
0.0
230
1.0
 70
     8
 71
     3
 72
    11
 73
     7
 74
     0
 42
0.000000001
 43
0.0000000001
 40
0.0
 40
0.0
 40
0.0
 40
0.0
 40
1.0
 40
2.0
 40
3.0
 40
4.0
 40
4.0
 40
4.0
 40
4.0
 10
0.1807319985229907
 20
0.3014155362233983
 30
0.0
 10
0.1807319985229907
 20
0.3168506592492269
 30
0.0
 10
0.186162435589305
 20
0.3299630539638309
 30
0.0
 10
0.1970267005661843
 20
0.3407662837442108
 30
0.0
 10
0.2078892701209385
 20
0.3515695135245907
 30
0.0
 10
0.2209151983071686
 20
0.3569745192590308
 30
0.0
 10
0.2360977034363747
 20
0.3569745192590308
 30
0.0
  0
SPLINE
  5
1A0
330
9B
100
AcDbEntity
  8
LAYER_1
100
AcDbSpline
210
0.0
220
0.0
230
1.0
 70
     8
 71
     3
 72
    17
 73
    13
 74
     0
 42
0.000000001
 43
0.0000000001
 40
0.0
 40
0.0
 40
0.0
 40
0.0
 40
1.0
 40
2.0
 40
3.0
 40
4.0
 40
5.0
 40
6.0
 40
7.0
 40
8.0
 40
9.0
 40
10.0
 40
10.0
 40
10.0
 40
10.0
 10
0.2551712023424128
 20
0.3021615219583906
 30
0.0
 10
0.2551712023424128
 20
0.3077157248398288
 30
0.0
 10
0.2532282485871846
 20
0.3124357800357766
 30
0.0
 10
0.2493389502324775
 20
0.3163284692347333
 30
0.0
 10
0.2454496518777709
 20
0.3202143767451897
 30
0.0
 10
0.2407295966818231
 20
0.3221573305004184
 30
0.0
 10
0.2351736983782599
 20
0.3221573305004184
 30
0.0
 10
0.2296178000746969
 20
0.3221573305004184
 30
0.0
 10
0.2248638364362497
 20
0.3202143767451897
 30
0.0
 10
0.2209151983071686
 20
0.3163284692347333
 30
0.0
 10
0.2169614739117125
 20
0.3124357800357766
 30
0.0
 10
0.2149896979803597
 20
0.3077157248398288
 30
0.0
 10
0.2149896979803597
 20
0.3021615219583906
 30
0.0
  0
SPLINE
  5
1A1
330
9B
100
AcDbEntity
  8
LAYER_1
100
AcDbSpline
210
0.0
220
0.0
230
1.0
 70
     8
 71
     3
 72
    17
 73
    13
 74
     0
 42
0.000000001
 43
0.0000000001
 40
0.0
 40
0.0
 40
0.0
 40
0.0
 40
1.0
 40
2.0
 40
3.0
 40
4.0
 40
5.0
 40
6.0
 40
7.0
 40
8.0
 40
9.0
 40
10.0
 40
10.0
 40
10.0
 40
10.0
 10
0.2149896979803597
 20
0.1751303238220535
 30
0.0
 10
0.2149896979803597
 20
0.1695727300963652
 30
0.0
 10
0.2169614739117125
 20
0.1648560657446675
 30
0.0
 10
0.2209151983071686
 20
0.1609633765457108
 30
0.0
 10
0.2248638364362497
 20
0.1570774690352539
 30
0.0
 10
0.2296178000746969
 20
0.1551345152800257
 30
0.0
 10
0.2351736983782599
 20
0.1551345152800257
 30
0.0
 10
0.2407295966818231
 20
0.1551345152800257
 30
0.0
 10
0.2454496518777709
 20
0.1570774690352539
 30
0.0
 10
0.2493389502324775
 20
0.1609633765457108
 30
0.0
 10
0.2532282485871846
 20
0.1648560657446675
 30
0.0
 10
0.2551712023424128
 20
0.1695727300963652
 30
0.0
 10
0.2551712023424128
 20
0.1751303238220535
 30
0.0
  0
SPLINE
  5
1A2
330
9B
100
AcDbEntity
  8
LAYER_1
100
AcDbSpline
210
0.0
220
0.0
230
1.0
 70
     8
 71
     3
 72
    11
 73
     7
 74
     0
 42
0.000000001
 43
0.0000000001
 40
0.0
 40
0.0
 40
0.0
 40
0.0
 40
1.0
 40
2.0
 40
3.0
 40
4.0
 40
4.0
 40
4.0
 40
4.0
 10
0.3645361019364465
 20
0.1193916260411725
 30
0.0
 10
0.3491043697548681
 20
0.1193916260411725
 30
0.0
 10
0.3360207972163885
 20
0.1247593324888629
 30
0.0
 10
0.3252786026325079
 20
0.1355049179169941
 30
0.0
 10
0.3145397988928776
 20
0.146243721656624
 30
0.0
 10
0.3091703970230621
 20
0.1592645635764796
 30
0.0
 10
0.3091703970230621
 20
0.1745742253650593
 30
0.0
  0
SPLINE
  5
1A3
330
9B
100
AcDbEntity
  8
LAYER_1
100
AcDbSpline
210
0.0
220
0.0
230
1.0
 70
     8
 71
     3
 72
    17
 73
    13
 74
     0
 42
0.000000001
 43
0.0000000001
 40
0.0
 40
0.0
 40
0.0
 40
0.0
 40
1.0
 40
2.0
 40
3.0
 40
4.0
 40
5.0
 40
6.0
 40
7.0
 40
8.0
 40
9.0
 40
10.0
 40
10.0
 40
10.0
 40
10.0
 10
0.3434264010583061
 20
0.1749438273883047
 30
0.0
 10
0.3434264010583061
 20
0.1693930153511167
 30
0.0
 10
0.3453998724117842
 20
0.1646695693109198
 30
0.0
 10
0.3493519013851153
 20
0.160776880111963
 30
0.0
 10
0.3533022349363215
 20
0.1568909726015055
 30
0.0
 10
0.3580545031526435
 20
0.1549480188462779
 30
0.0
 10
0.3636120968783319
 20
0.1549480188462779
 30
0.0
 10
0.3691662997597701
 20
0.1549480188462779
 30
0.0
 10
0.3738880503778425
 20
0.1568909726015055
 30
0.0
 10
0.377777348732549
 20
0.160776880111963
 30
0.0
 10
0.3816666470872561
 20
0.1646695693109198
 30
0.0
 10
0.3836096008424843
 20
0.1693930153511167
 30
0.0
 10
0.3836096008424843
 20
0.1749438273883047
 30
0.0
  0
SPLINE
  5
1A4
330
9B
100
AcDbEntity
  8
LAYER_1
100
AcDbSpline
210
0.0
220
0.0
230
1.0
 70
     8
 71
     3
 72
    11
 73
     7
 74
     0
 42
0.000000001
 43
0.0000000001
 40
0.0
 40
0.0
 40
0.0
 40
0.0
 40
1.0
 40
2.0
 40
3.0
 40
4.0
 40
4.0
 40
4.0
 40
4.0
 10
0.4200916941278289
 20
0.1745742253650593
 30
0.0
 10
0.4200916941278289
 20
0.1590204227904821
 30
0.0
 10
0.4146544753730142
 20
0.1459351548298774
 30
0.0
 10
0.4037936012403851
 20
0.1353184214832458
 30
0.0
 10
0.3929293362635057
 20
0.1247016881366142
 30
0.0
 10
0.3798423728807765
 20
0.1193916260411725
 30
0.0
 10
0.3645361019364465
 20
0.1193916260411725
 30
0.0
  0
SPLINE
  5
1A5
330
9B
100
AcDbEntity
  8
LAYER_1
100
AcDbSpline
210
0.0
220
0.0
230
1.0
 70
     8
 71
     2
 72
     6
 73
     3
 74
     0
 42
0.000000001
 43
0.0000000001
 40
0.0
 40
0.0
 40
0.0
 40
1.0
 40
1.0
 40
1.0
 10
0.5189263269036046
 20
0.4012877673396635
 30
0.0
 10
0.5979397796162261
 20
0.4336160764188035
 30
0.0
 10
0.6392334808922668
 20
0.5521311692213607
 30
0.0
  0
SPLINE
  5
1A6
330
9B
100
AcDbEntity
  8
LAYER_1
100
AcDbSpline
210
0.0
220
0.0
230
1.0
 70
     8
 71
     2
 72
     6
 73
     3
 74
     0
 42
0.000000001
 43
0.0000000001
 40
0.0
 40
0.0
 40
0.0
 40
1.0
 40
1.0
 40
1.0
 10
0.6823311113092875
 20
0.4928676888426442
 30
0.0
 10
0.7236248125853281
 20
0.5449476656778156
 30
0.0
 10
0.7523622176037586
 20
0.607795268428741
 30
0.0
  0
SPLINE
  5
1A7
330
9B
100
AcDbEntity
  8
LAYER_1
100
AcDbSpline
210
0.0
220
0.0
230
1.0
 70
     8
 71
     2
 72
     6
 73
     3
 74
     0
 42
0.000000001
 43
0.0000000001
 40
0.0
 40
0.0
 40
0.0
 40
1.0
 40
1.0
 40
1.0
 10
0.7685229812990789
 20
0.5646925517453455
 30
0.0
 10
0.7990439703929895
 20
0.6113844770673265
 30
0.0
 10
0.8098166825751199
 20
0.6419088570054873
 30
0.0
  0
SPLINE
  5
1A8
330
9B
100
AcDbEntity
  8
LAYER_1
100
AcDbSpline
210
0.0
220
0.0
230
1.0
 70
     8
 71
     2
 72
     6
 73
     3
 74
     0
 42
0.000000001
 43
0.0000000001
 40
0.0
 40
0.0
 40
0.0
 40
1.0
 40
1.0
 40
1.0
 10
0.8098166825751199
 20
0.6419088570054873
 30
0.0
 10
0.8583023645053305
 20
0.4767120114136997
 30
0.0
 10
0.9678334154676127
 20
0.4084712708832086
 30
0.0
  0
SPLINE
  5
1A9
330
9B
100
AcDbEntity
  8
LAYER_1
100
AcDbSpline
210
0.0
220
0.0
230
1.0
 70
     8
 71
     2
 72
     6
 73
     3
 74
     0
 42
0.000000001
 43
0.0000000001
 40
0.0
 40
0.0
 40
0.0
 40
1.0
 40
1.0
 40
1.0
 10
0.9678334154676127
 20
0.4084712708832086
 30
0.0
 10
0.8529143129921402
 20
0.4515689013002289
 30
0.0
 10
0.8080263168111393
 20
0.5557220732820712
 30
0.0
  0
SPLINE
  5
1AA
330
9B
100
AcDbEntity
  8
LAYER_1
100
AcDbSpline
210
0.0
220
0.0
230
1.0
 70
     8
 71
     2
 72
     6
 73
     3
 74
     0
 42
0.000000001
 43
0.0000000001
 40
0.0
 40
0.0
 40
0.0
 40
1.0
 40
1.0
 40
1.0
 10
0.7882678673666094
 20
0.5287852065603707
 30
0.0
 10
0.8708688332956906
 20
0.3994957061535579
 30
0.0
 10
0.9390960104491822
 20
0.3653804221546876
 30
0.0
  0
SPLINE
  5
1AB
330
9B
100
AcDbEntity
  8
LAYER_1
100
AcDbSpline
210
0.0
220
0.0
230
1.0
 70
     8
 71
     2
 72
     6
 73
     3
 74
     0
 42
0.000000001
 43
0.0000000001
 40
0.0
 40
0.0
 40
0.0
 40
1.0
 40
1.0
 40
1.0
 10
0.9390960104491822
 20
0.3653804221546876
 30
0.0
 10
0.7918655531158198
 20
0.4300268677802192
 30
0.0
 10
0.7433798711856086
 20
0.4910756276565398
 30
0.0
  0
SPLINE
  5
1AC
330
9B
100
AcDbEntity
  8
LAYER_1
100
AcDbSpline
210
0.0
220
0.0
230
1.0
 70
     8
 71
     2
 72
     6
 73
     3
 74
     0
 42
0.000000001
 43
0.0000000001
 40
0.0
 40
0.0
 40
0.0
 40
1.0
 40
1.0
 40
1.0
 10
0.7433798711856086
 20
0.4910756276565398
 30
0.0
 10
0.6356391859873066
 20
0.3887263848156776
 30
0.0
 10
0.5548319766664554
 20
0.3761548297589422
 30
0.0
  0
SPLINE
  5
1AD
330
9B
100
AcDbEntity
  8
LAYER_1
100
AcDbSpline
210
0.0
220
0.0
230
1.0
 70
     8
 71
     2
 72
     6
 73
     3
 74
     0
 42
0.000000001
 43
0.0000000001
 40
0.0
 40
0.0
 40
0.0
 40
1.0
 40
1.0
 40
1.0
 10
0.5548319766664554
 20
0.3761548297589422
 30
0.0
 10
0.6320550636150964
 20
0.4228416688145489
 30
0.0
 10
0.666156784236967
 20
0.4713188736341342
 30
0.0
  0
SPLINE
  5
1AE
330
9B
100
AcDbEntity
  8
LAYER_1
100
AcDbSpline
210
0.0
220
0.0
230
1.0
 70
     8
 71
     2
 72
     6
 73
     3
 74
     0
 42
0.000000001
 43
0.0000000001
 40
0.0
 40
0.0
 40
0.0
 40
1.0
 40
1.0
 40
1.0
 10
0.6464118981694371
 20
0.4874864190179542
 30
0.0
 10
0.5674086179895655
 20
0.3869292373631978
 30
0.0
 10
0.5189263269036046
 20
0.4012877673396635
 30
0.0
  0
SPLINE
  5
1AF
330
9B
100
AcDbEntity
  8
PIVOTS
370
    18
100
AcDbSpline
210
0.0
220
0.0
230
1.0
 70
     8
 71
     2
 72
     6
 73
     3
 74
     0
 42
0.000000001
 43
0.0000000001
 40
0.0
 40
0.0
 40
0.0
 40
1.0
 40
1.0
 40
1.0
 10
0.5189263269036046
 20
0.4012877673396635
 30
0.0
 10
0.5979397796162261
 20
0.4336160764188035
 30
0.0
 10
0.6392334808922668
 20
0.5521311692213607
 30
0.0
  0
SPLINE
  5
1B0
330
9B
100
AcDbEntity
  8
PIVOTS
370
    18
100
AcDbSpline
210
0.0
220
0.0
230
1.0
 70
     8
 71
     2
 72
     6
 73
     3
 74
     0
 42
0.000000001
 43
0.0000000001
 40
2.0
 40
2.0
 40
2.0
 40
3.0
 40
3.0
 40
3.0
 10
0.6823311113092875
 20
0.4928676888426442
 30
0.0
 10
0.7236248125853281
 20
0.5449476656778156
 30
0.0
 10
0.7523622176037586
 20
0.607795268428741
 30
0.0
  0
SPLINE
  5
1B1
330
9B
100
AcDbEntity
  8
PIVOTS
370
    18
100
AcDbSpline
210
0.0
220
0.0
230
1.0
 70
     8
 71
     2
 72
     6
 73
     3
 74
     0
 42
0.000000001
 43
0.0000000001
 40
4.0
 40
4.0
 40
4.0
 40
5.0
 40
5.0
 40
5.0
 10
0.7685229812990789
 20
0.5646925517453455
 30
0.0
 10
0.7990439703929895
 20
0.6113844770673265
 30
0.0
 10
0.8098166825751199
 20
0.6419088570054873
 30
0.0
  0
SPLINE
  5
1B2
330
9B
100
AcDbEntity
  8
PIVOTS
370
    18
100
AcDbSpline
210
0.0
220
0.0
230
1.0
 70
     8
 71
     2
 72
     6
 73
     3
 74
     0
 42
0.000000001
 43
0.0000000001
 40
5.0
 40
5.0
 40
5.0
 40
6.0
 40
6.0
 40
6.0
 10
0.8098166825751199
 20
0.6419088570054873
 30
0.0
 10
0.8583023645053305
 20
0.4767120114136997
 30
0.0
 10
0.9678334154676127
 20
0.4084712708832086
 30
0.0
  0
SPLINE
  5
1B3
330
9B
100
AcDbEntity
  8
PIVOTS
370
    18
100
AcDbSpline
210
0.0
220
0.0
230
1.0
 70
     8
 71
     2
 72
     6
 73
     3
 74
     0
 42
0.000000001
 43
0.0000000001
 40
6.0
 40
6.0
 40
6.0
 40
7.0
 40
7.0
 40
7.0
 10
0.9678334154676127
 20
0.4084712708832086
 30
0.0
 10
0.8529143129921402
 20
0.4515689013002289
 30
0.0
 10
0.8080263168111393
 20
0.5557220732820712
 30
0.0
  0
SPLINE
  5
1B4
330
9B
100
AcDbEntity
  8
PIVOTS
370
    18
100
AcDbSpline
210
0.0
220
0.0
230
1.0
 70
     8
 71
     2
 72
     6
 73
     3
 74
     0
 42
0.000000001
 43
0.0000000001
 40
8.0
 40
8.0
 40
8.0
 40
9.0
 40
9.0
 40
9.0
 10
0.7882678673666094
 20
0.5287852065603707
 30
0.0
 10
0.8708688332956906
 20
0.3994957061535579
 30
0.0
 10
0.9390960104491822
 20
0.3653804221546876
 30
0.0
  0
SPLINE
  5
1B5
330
9B
100
AcDbEntity
  8
PIVOTS
370
    18
100
AcDbSpline
210
0.0
220
0.0
230
1.0
 70
     8
 71
     2
 72
     6
 73
     3
 74
     0
 42
0.000000001
 43
0.0000000001
 40
9.0
 40
9.0
 40
9.0
 40
10.0
 40
10.0
 40
10.0
 10
0.9390960104491822
 20
0.3653804221546876
 30
0.0
 10
0.7918655531158198
 20
0.4300268677802192
 30
0.0
 10
0.7433798711856086
 20
0.4910756276565398
 30
0.0
  0
SPLINE
  5
1B6
330
9B
100
AcDbEntity
  8
PIVOTS
370
    18
100
AcDbSpline
210
0.0
220
0.0
230
1.0
 70
     8
 71
     2
 72
     6
 73
     3
 74
     0
 42
0.000000001
 43
0.0000000001
 40
10.0
 40
10.0
 40
10.0
 40
11.0
 40
11.0
 40
11.0
 10
0.7433798711856086
 20
0.4910756276565398
 30
0.0
 10
0.6356391859873066
 20
0.3887263848156776
 30
0.0
 10
0.5548319766664554
 20
0.3761548297589422
 30
0.0
  0
SPLINE
  5
1B7
330
9B
100
AcDbEntity
  8
PIVOTS
370
    18
100
AcDbSpline
210
0.0
220
0.0
230
1.0
 70
     8
 71
     2
 72
     6
 73
     3
 74
     0
 42
0.000000001
 43
0.0000000001
 40
11.0
 40
11.0
 40
11.0
 40
12.0
 40
12.0
 40
12.0
 10
0.5548319766664554
 20
0.3761548297589422
 30
0.0
 10
0.6320550636150964
 20
0.4228416688145489
 30
0.0
 10
0.666156784236967
 20
0.4713188736341342
 30
0.0
  0
SPLINE
  5
1B8
330
9B
100
AcDbEntity
  8
PIVOTS
370
    18
100
AcDbSpline
210
0.0
220
0.0
230
1.0
 70
     8
 71
     2
 72
     6
 73
     3
 74
     0
 42
0.000000001
 43
0.0000000001
 40
13.0
 40
13.0
 40
13.0
 40
14.0
 40
14.0
 40
14.0
 10
0.6464118981694371
 20
0.4874864190179542
 30
0.0
 10
0.5674086179895655
 20
0.3869292373631978
 30
0.0
 10
0.5189263269036046
 20
0.4012877673396635
 30
0.0
  0
SPLINE
  5
1B9
330
9B
100
AcDbEntity
  8
PIVOTS
370
    18
100
AcDbSpline
210
0.0
220
0.0
230
1.0
 70
     8
 71
     3
 72
     8
 73
     4
 74
     0
 42
0.000000001
 43
0.0000000001
 40
0.0
 40
0.0
 40
0.0
 40
0.0
 40
1.0
 40
1.0
 40
1.0
 40
1.0
 10
0.2360977034363747
 20
0.3569745192590308
 30
0.0
 10
0.2515294356179532
 20
0.3569745192590308
 30
0.0
 10
0.2646452211768075
 20
0.3515406913484664
 30
0.0
 10
0.2754484509571875
 20
0.3406747309494625
 30
0.0
  0
SPLINE
  5
1BA
330
9B
100
AcDbEntity
  8
PIVOTS
370
    18
100
AcDbSpline
210
0.0
220
0.0
230
1.0
 70
     8
 71
     3
 72
     8
 73
     4
 74
     0
 42
0.000000001
 43
0.0000000001
 40
1.0
 40
1.0
 40
1.0
 40
1.0
 40
2.0
 40
2.0
 40
2.0
 40
2.0
 10
0.2754484509571875
 20
0.3406747309494625
 30
0.0
 10
0.2862482898933172
 20
0.3298121613947077
 30
0.0
 10
0.2916532956277568
 20
0.3167218071677289
 30
0.0
 10
0.2916532956277568
 20
0.3014155362233983
 30
0.0
  0
SPLINE
  5
1BB
330
9B
100
AcDbEntity
  8
PIVOTS
370
    18
100
AcDbSpline
210
0.0
220
0.0
230
1.0
 70
     8
 71
     3
 72
     8
 73
     4
 74
     0
 42
0.000000001
 43
0.0000000001
 40
3.0
 40
3.0
 40
3.0
 40
3.0
 40
4.0
 40
4.0
 40
4.0
 40
4.0
 10
0.2916532956277568
 20
0.1747607217988071
 30
0.0
 10
0.2916532956277568
 20
0.1593289896172286
 30
0.0
 10
0.2862160768729427
 20
0.1462098132141244
 30
0.0
 10
0.2753552027403133
 20
0.1354133651222448
 30
0.0
  0
SPLINE
  5
1BC
330
9B
100
AcDbEntity
  8
PIVOTS
370
    18
100
AcDbSpline
210
0.0
220
0.0
230
1.0
 70
     8
 71
     3
 72
     8
 73
     4
 74
     0
 42
0.000000001
 43
0.0000000001
 40
4.0
 40
4.0
 40
4.0
 40
4.0
 40
5.0
 40
5.0
 40
5.0
 40
5.0
 10
0.2753552027403133
 20
0.1354133651222448
 30
0.0
 10
0.2644909377634342
 20
0.1246101353418649
 30
0.0
 10
0.2514039743807044
 20
0.1192085204516749
 30
0.0
 10
0.2360977034363747
 20
0.1192085204516749
 30
0.0
  0
SPLINE
  5
1BD
330
9B
100
AcDbEntity
  8
PIVOTS
370
    18
100
AcDbSpline
210
0.0
220
0.0
230
1.0
 70
     8
 71
     3
 72
     8
 73
     4
 74
     0
 42
0.000000001
 43
0.0000000001
 40
5.0
 40
5.0
 40
5.0
 40
5.0
 40
6.0
 40
6.0
 40
6.0
 40
6.0
 10
0.2360977034363747
 20
0.1192085204516749
 30
0.0
 10
0.2206676666769214
 20
0.1192085204516749
 30
0.0
 10
0.2075840941384421
 20
0.1246372620958646
 30
0.0
 10
0.1968418995545613
 20
0.1355049179169941
 30
0.0
  0
SPLINE
  5
1BE
330
9B
100
AcDbEntity
  8
PIVOTS
370
    18
100
AcDbSpline
210
0.0
220
0.0
230
1.0
 70
     8
 71
     3
 72
     8
 73
     4
 74
     0
 42
0.000000001
 43
0.0000000001
 40
6.0
 40
6.0
 40
6.0
 40
6.0
 40
7.0
 40
7.0
 40
7.0
 40
7.0
 10
0.1968418995545613
 20
0.1355049179169941
 30
0.0
 10
0.1861014003928058
 20
0.1463657920496227
 30
0.0
 10
0.1807319985229907
 20
0.1594510600102274
 30
0.0
 10
0.1807319985229907
 20
0.1747607217988071
 30
0.0
  0
SPLINE
  5
1BF
330
9B
100
AcDbEntity
  8
PIVOTS
370
    18
100
AcDbSpline
210
0.0
220
0.0
230
1.0
 70
     8
 71
     3
 72
     8
 73
     4
 74
     0
 42
0.000000001
 43
0.0000000001
 40
8.0
 40
8.0
 40
8.0
 40
8.0
 40
9.0
 40
9.0
 40
9.0
 40
9.0
 10
0.1807319985229907
 20
0.3014155362233983
 30
0.0
 10
0.1807319985229907
 20
0.3168506592492269
 30
0.0
 10
0.186162435589305
 20
0.3299630539638309
 30
0.0
 10
0.1970267005661843
 20
0.3407662837442108
 30
0.0
  0
SPLINE
  5
1C0
330
9B
100
AcDbEntity
  8
PIVOTS
370
    18
100
AcDbSpline
210
0.0
220
0.0
230
1.0
 70
     8
 71
     3
 72
     8
 73
     4
 74
     0
 42
0.000000001
 43
0.0000000001
 40
9.0
 40
9.0
 40
9.0
 40
9.0
 40
10.0
 40
10.0
 40
10.0
 40
10.0
 10
0.1970267005661843
 20
0.3407662837442108
 30
0.0
 10
0.2078892701209385
 20
0.3515695135245907
 30
0.0
 10
0.2209151983071686
 20
0.3569745192590308
 30
0.0
 10
0.2360977034363747
 20
0.3569745192590308
 30
0.0
  0
SPLINE
  5
1C1
330
9B
100
AcDbEntity
  8
PIVOTS
370
    18
100
AcDbSpline
210
0.0
220
0.0
230
1.0
 70
     8
 71
     3
 72
     8
 73
     4
 74
     0
 42
0.000000001
 43
0.0000000001
 40
0.0
 40
0.0
 40
0.0
 40
0.0
 40
1.0
 40
1.0
 40
1.0
 40
1.0
 10
0.2551712023424128
 20
0.3021615219583906
 30
0.0
 10
0.2551712023424128
 20
0.3077157248398288
 30
0.0
 10
0.2532282485871846
 20
0.3124357800357766
 30
0.0
 10
0.2493389502324775
 20
0.3163284692347333
 30
0.0
  0
SPLINE
  5
1C2
330
9B
100
AcDbEntity
  8
PIVOTS
370
    18
100
AcDbSpline
210
0.0
220
0.0
230
1.0
 70
     8
 71
     3
 72
     8
 73
     4
 74
     0
 42
0.000000001
 43
0.0000000001
 40
1.0
 40
1.0
 40
1.0
 40
1.0
 40
2.0
 40
2.0
 40
2.0
 40
2.0
 10
0.2493389502324775
 20
0.3163284692347333
 30
0.0
 10
0.2454496518777709
 20
0.3202143767451897
 30
0.0
 10
0.2407295966818231
 20
0.3221573305004184
 30
0.0
 10
0.2351736983782599
 20
0.3221573305004184
 30
0.0
  0
SPLINE
  5
1C3
330
9B
100
AcDbEntity
  8
PIVOTS
370
    18
100
AcDbSpline
210
0.0
220
0.0
230
1.0
 70
     8
 71
     3
 72
     8
 73
     4
 74
     0
 42
0.000000001
 43
0.0000000001
 40
2.0
 40
2.0
 40
2.0
 40
2.0
 40
3.0
 40
3.0
 40
3.0
 40
3.0
 10
0.2351736983782599
 20
0.3221573305004184
 30
0.0
 10
0.2296178000746969
 20
0.3221573305004184
 30
0.0
 10
0.2248638364362497
 20
0.3202143767451897
 30
0.0
 10
0.2209151983071686
 20
0.3163284692347333
 30
0.0
  0
SPLINE
  5
1C4
330
9B
100
AcDbEntity
  8
PIVOTS
370
    18
100
AcDbSpline
210
0.0
220
0.0
230
1.0
 70
     8
 71
     3
 72
     8
 73
     4
 74
     0
 42
0.000000001
 43
0.0000000001
 40
3.0
 40
3.0
 40
3.0
 40
3.0
 40
4.0
 40
4.0
 40
4.0
 40
4.0
 10
0.2209151983071686
 20
0.3163284692347333
 30
0.0
 10
0.2169614739117125
 20
0.3124357800357766
 30
0.0
 10
0.2149896979803597
 20
0.3077157248398288
 30
0.0
 10
0.2149896979803597
 20
0.3021615219583906
 30
0.0
  0
SPLINE
  5
1C5
330
9B
100
AcDbEntity
  8
PIVOTS
370
    18
100
AcDbSpline
210
0.0
220
0.0
230
1.0
 70
     8
 71
     3
 72
     8
 73
     4
 74
     0
 42
0.000000001
 43
0.0000000001
 40
5.0
 40
5.0
 40
5.0
 40
5.0
 40
6.0
 40
6.0
 40
6.0
 40
6.0
 10
0.2149896979803597
 20
0.1751303238220535
 30
0.0
 10
0.2149896979803597
 20
0.1695727300963652
 30
0.0
 10
0.2169614739117125
 20
0.1648560657446675
 30
0.0
 10
0.2209151983071686
 20
0.1609633765457108
 30
0.0
  0
SPLINE
  5
1C6
330
9B
100
AcDbEntity
  8
PIVOTS
370
    18
100
AcDbSpline
210
0.0
220
0.0
230
1.0
 70
     8
 71
     3
 72
     8
 73
     4
 74
     0
 42
0.000000001
 43
0.0000000001
 40
6.0
 40
6.0
 40
6.0
 40
6.0
 40
7.0
 40
7.0
 40
7.0
 40
7.0
 10
0.2209151983071686
 20
0.1609633765457108
 30
0.0
 10
0.2248638364362497
 20
0.1570774690352539
 30
0.0
 10
0.2296178000746969
 20
0.1551345152800257
 30
0.0
 10
0.2351736983782599
 20
0.1551345152800257
 30
0.0
  0
SPLINE
  5
1C7
330
9B
100
AcDbEntity
  8
PIVOTS
370
    18
100
AcDbSpline
210
0.0
220
0.0
230
1.0
 70
     8
 71
     3
 72
     8
 73
     4
 74
     0
 42
0.000000001
 43
0.0000000001
 40
7.0
 40
7.0
 40
7.0
 40
7.0
 40
8.0
 40
8.0
 40
8.0
 40
8.0
 10
0.2351736983782599
 20
0.1551345152800257
 30
0.0
 10
0.2407295966818231
 20
0.1551345152800257
 30
0.0
 10
0.2454496518777709
 20
0.1570774690352539
 30
0.0
 10
0.2493389502324775
 20
0.1609633765457108
 30
0.0
  0
SPLINE
  5
1C8
330
9B
100
AcDbEntity
  8
PIVOTS
370
    18
100
AcDbSpline
210
0.0
220
0.0
230
1.0
 70
     8
 71
     3
 72
     8
 73
     4
 74
     0
 42
0.000000001
 43
0.0000000001
 40
8.0
 40
8.0
 40
8.0
 40
8.0
 40
9.0
 40
9.0
 40
9.0
 40
9.0
 10
0.2493389502324775
 20
0.1609633765457108
 30
0.0
 10
0.2532282485871846
 20
0.1648560657446675
 30
0.0
 10
0.2551712023424128
 20
0.1695727300963652
 30
0.0
 10
0.2551712023424128
 20
0.1751303238220535
 30
0.0
  0
SPLINE
  5
1C9
330
9B
100
AcDbEntity
  8
PIVOTS
370
    18
100
AcDbSpline
210
0.0
220
0.0
230
1.0
 70
     8
 71
     3
 72
     8
 73
     4
 74
     0
 42
0.000000001
 43
0.0000000001
 40
0.0
 40
0.0
 40
0.0
 40
0.0
 40
1.0
 40
1.0
 40
1.0
 40
1.0
 10
0.3645361019364465
 20
0.1193916260411725
 30
0.0
 10
0.3491043697548681
 20
0.1193916260411725
 30
0.0
 10
0.3360207972163885
 20
0.1247593324888629
 30
0.0
 10
0.3252786026325079
 20
0.1355049179169941
 30
0.0
  0
SPLINE
  5
1CA
330
9B
100
AcDbEntity
  8
PIVOTS
370
    18
100
AcDbSpline
210
0.0
220
0.0
230
1.0
 70
     8
 71
     3
 72
     8
 73
     4
 74
     0
 42
0.000000001
 43
0.0000000001
 40
1.0
 40
1.0
 40
1.0
 40
1.0
 40
2.0
 40
2.0
 40
2.0
 40
2.0
 10
0.3252786026325079
 20
0.1355049179169941
 30
0.0
 10
0.3145397988928776
 20
0.146243721656624
 30
0.0
 10
0.3091703970230621
 20
0.1592645635764796
 30
0.0
 10
0.3091703970230621
 20
0.1745742253650593
 30
0.0
  0
SPLINE
  5
1CB
330
9B
100
AcDbEntity
  8
PIVOTS
370
    18
100
AcDbSpline
210
0.0
220
0.0
230
1.0
 70
     8
 71
     3
 72
     8
 73
     4
 74
     0
 42
0.000000001
 43
0.0000000001
 40
5.0
 40
5.0
 40
5.0
 40
5.0
 40
6.0
 40
6.0
 40
6.0
 40
6.0
 10
0.3434264010583061
 20
0.1749438273883047
 30
0.0
 10
0.3434264010583061
 20
0.1693930153511167
 30
0.0
 10
0.3453998724117842
 20
0.1646695693109198
 30
0.0
 10
0.3493519013851153
 20
0.160776880111963
 30
0.0
  0
SPLINE
  5
1CC
330
9B
100
AcDbEntity
  8
PIVOTS
370
    18
100
AcDbSpline
210
0.0
220
0.0
230
1.0
 70
     8
 71
     3
 72
     8
 73
     4
 74
     0
 42
0.000000001
 43
0.0000000001
 40
6.0
 40
6.0
 40
6.0
 40
6.0
 40
7.0
 40
7.0
 40
7.0
 40
7.0
 10
0.3493519013851153
 20
0.160776880111963
 30
0.0
 10
0.3533022349363215
 20
0.1568909726015055
 30
0.0
 10
0.3580545031526435
 20
0.1549480188462779
 30
0.0
 10
0.3636120968783319
 20
0.1549480188462779
 30
0.0
  0
SPLINE
  5
1CD
330
9B
100
AcDbEntity
  8
PIVOTS
370
    18
100
AcDbSpline
210
0.0
220
0.0
230
1.0
 70
     8
 71
     3
 72
     8
 73
     4
 74
     0
 42
0.000000001
 43
0.0000000001
 40
7.0
 40
7.0
 40
7.0
 40
7.0
 40
8.0
 40
8.0
 40
8.0
 40
8.0
 10
0.3636120968783319
 20
0.1549480188462779
 30
0.0
 10
0.3691662997597701
 20
0.1549480188462779
 30
0.0
 10
0.3738880503778425
 20
0.1568909726015055
 30
0.0
 10
0.377777348732549
 20
0.160776880111963
 30
0.0
  0
SPLINE
  5
1CE
330
9B
100
AcDbEntity
  8
PIVOTS
370
    18
100
AcDbSpline
210
0.0
220
0.0
230
1.0
 70
     8
 71
     3
 72
     8
 73
     4
 74
     0
 42
0.000000001
 43
0.0000000001
 40
8.0
 40
8.0
 40
8.0
 40
8.0
 40
9.0
 40
9.0
 40
9.0
 40
9.0
 10
0.377777348732549
 20
0.160776880111963
 30
0.0
 10
0.3816666470872561
 20
0.1646695693109198
 30
0.0
 10
0.3836096008424843
 20
0.1693930153511167
 30
0.0
 10
0.3836096008424843
 20
0.1749438273883047
 30
0.0
  0
SPLINE
  5
1CF
330
9B
100
AcDbEntity
  8
PIVOTS
370
    18
100
AcDbSpline
210
0.0
220
0.0
230
1.0
 70
     8
 71
     3
 72
     8
 73
     4
 74
     0
 42
0.000000001
 43
0.0000000001
 40
12.0
 40
12.0
 40
12.0
 40
12.0
 40
13.0
 40
13.0
 40
13.0
 40
13.0
 10
0.4200916941278289
 20
0.1745742253650593
 30
0.0
 10
0.4200916941278289
 20
0.1590204227904821
 30
0.0
 10
0.4146544753730142
 20
0.1459351548298774
 30
0.0
 10
0.4037936012403851
 20
0.1353184214832458
 30
0.0
  0
SPLINE
  5
1D0
330
9B
100
AcDbEntity
  8
PIVOTS
370
    18
100
AcDbSpline
210
0.0
220
0.0
230
1.0
 70
     8
 71
     3
 72
     8
 73
     4
 74
     0
 42
0.000000001
 43
0.0000000001
 40
13.0
 40
13.0
 40
13.0
 40
13.0
 40
14.0
 40
14.0
 40
14.0
 40
14.0
 10
0.4037936012403851
 20
0.1353184214832458
 30
0.0
 10
0.3929293362635057
 20
0.1247016881366142
 30
0.0
 10
0.3798423728807765
 20
0.1193916260411725
 30
0.0
 10
0.3645361019364465
 20
0.1193916260411725
 30
0.0
  0
SPLINE
  5
1D1
330
9B
100
AcDbEntity
  8
PIVOTS
370
    18
100
AcDbSpline
210
0.0
220
0.0
230
1.0
 70
     8
 71
     3
 72
     8
 73
     4
 74
     0
 42
0.000000001
 43
0.0000000001
 40
0.0
 40
0.0
 40
0.0
 40
0.0
 40
1.0
 40
1.0
 40
1.0
 40
1.0
 10
0.0456136368504933
 20
0.5595316867969029
 30
0.0
 10
0.0617371012590639
 20
0.5595316867969029
 30
0.0
 10
0.073572843113557
 20
0.5550930716737024
 30
0.0
 10
0.081125948680348
 20
0.5462158414273014
 30
0.0
  0
SPLINE
  5
1D2
330
9B
100
AcDbEntity
  8
PIVOTS
370
    18
100
AcDbSpline
210
0.0
220
0.0
230
1.0
 70
     8
 71
     3
 72
     8
 73
     4
 74
     0
 42
0.000000001
 43
0.0000000001
 40
1.0
 40
1.0
 40
1.0
 40
1.0
 40
2.0
 40
2.0
 40
2.0
 40
2.0
 10
0.081125948680348
 20
0.5462158414273014
 30
0.0
 10
0.0877584400332744
 20
0.5384541989391379
 30
0.0
 10
0.0910780765539873
 20
0.5276391012038825
 30
0.0
 10
0.0910780765539873
 20
0.5137586802666624
 30
0.0
  0
SPLINE
  5
1D3
330
9B
100
AcDbEntity
  8
PIVOTS
370
    18
100
AcDbSpline
210
0.0
220
0.0
230
1.0
 70
     8
 71
     3
 72
     8
 73
     4
 74
     0
 42
0.000000001
 43
0.0000000001
 40
3.0
 40
3.0
 40
3.0
 40
3.0
 40
4.0
 40
4.0
 40
4.0
 40
4.0
 10
0.0910780765539873
 20
0.4859045901753476
 30
0.0
 10
0.0910780765539873
 20
0.4723310406427479
 30
0.0
 10
0.08592229787192
 20
0.460847946590251
 30
0.0
 10
0.0756175221962846
 20
0.4514637851284799
 30
0.0
  0
SPLINE
  5
1D4
330
9B
100
AcDbEntity
  8
PIVOTS
370
    18
100
AcDbSpline
210
0.0
220
0.0
230
1.0
 70
    24
 71
     3
 72
     8
 73
     4
 74
     0
 42
0.000000001
 43
0.0000000001
 40
7.0
 40
7.0
 40
7.0
 40
7.0
 40
8.0
 40
8.0
 40
8.0
 40
8.0
 10
0.0482161098123392
 20
0.439980691075983
 30
0.0
 10
0.0473989163480981
 20
0.439980691075983
 30
0.0
 10
0.046532555642233
 20
0.439980691075983
 30
0.0
 10
0.0456136368504933
 20
0.439980691075983
 30
0.0
  0
SPLINE
  5
1D5
330
9B
100
AcDbEntity
  8
PIVOTS
370
    18
100
AcDbSpline
210
0.0
220
0.0
230
1.0
 70
     8
 71
     3
 72
     8
 73
     4
 74
     0
 42
0.000000001
 43
0.0000000001
 40
0.0
 40
0.0
 40
0.0
 40
0.0
 40
1.0
 40
1.0
 40
1.0
 40
1.0
 10
0.0629120287916758
 20
0.513306002559292
 30
0.0
 10
0.0629120287916758
 20
0.5244228854327937
 30
0.0
 10
0.0573985160412371
 20
0.5299906516912315
 30
0.0
 10
0.0463782722288597
 20
0.5299906516912315
 30
0.0
  0
SPLINE
  5
1D6
330
9B
100
AcDbEntity
  8
PIVOTS
370
    18
100
AcDbSpline
210
0.0
220
0.0
230
1.0
 70
     8
 71
     3
 72
     8
 73
     4
 74
     0
 42
0.000000001
 43
0.0000000001
 40
4.0
 40
4.0
 40
4.0
 40
4.0
 40
5.0
 40
5.0
 40
5.0
 40
5.0
 10
0.0463782722288597
 20
0.4686028073899149
 30
0.0
 10
0.0509711707654337
 20
0.4686028073899149
 30
0.0
 10
0.0548740324971399
 20
0.470237194318396
 30
0.0
 10
0.0580885528461044
 20
0.4735008819089851
 30
0.0
  0
SPLINE
  5
1D7
330
9B
100
AcDbEntity
  8
PIVOTS
370
    18
100
AcDbSpline
210
0.0
220
0.0
230
1.0
 70
     8
 71
     3
 72
     8
 73
     4
 74
     0
 42
0.000000001
 43
0.0000000001
 40
5.0
 40
5.0
 40
5.0
 40
5.0
 40
6.0
 40
6.0
 40
6.0
 40
6.0
 10
0.0580885528461044
 20
0.4735008819089851
 30
0.0
 10
0.0613030731950686
 20
0.4767713511880735
 30
0.0
 10
0.0629120287916758
 20
0.4806979488295299
 30
0.0
 10
0.0629120287916758
 20
0.4852874565218534
 30
0.0
  0
SPLINE
  5
1D8
330
9B
100
AcDbEntity
  8
PIVOTS
370
    18
100
AcDbSpline
210
0.0
220
0.0
230
1.0
 70
     8
 71
     3
 72
     8
 73
     4
 74
     0
 42
0.000000001
 43
0.0000000001
 40
0.0
 40
0.0
 40
0.0
 40
0.0
 40
1.0
 40
1.0
 40
1.0
 40
1.0
 10
0.1519352537301856
 20
0.5619815717675017
 30
0.0
 10
0.1646899143764189
 20
0.5619815717675017
 30
0.0
 10
0.1755321388656735
 20
0.5574903985584255
 30
0.0
 10
0.184463622620074
 20
0.5485080521402756
 30
0.0
  0
SPLINE
  5
1D9
330
9B
100
AcDbEntity
  8
PIVOTS
370
    18
100
AcDbSpline
210
0.0
220
0.0
230
1.0
 70
     8
 71
     3
 72
     8
 73
     4
 74
     0
 42
0.000000001
 43
0.0000000001
 40
1.0
 40
1.0
 40
1.0
 40
1.0
 40
2.0
 40
2.0
 40
2.0
 40
2.0
 10
0.184463622620074
 20
0.5485080521402756
 30
0.0
 10
0.1933917155302247
 20
0.5395257057221256
 30
0.0
 10
0.1978557619852999
 20
0.5287106079868711
 30
0.0
 10
0.1978557619852999
 20
0.5160559772460119
 30
0.0
  0
SPLINE
  5
1DA
330
9B
100
AcDbEntity
  8
PIVOTS
370
    18
100
AcDbSpline
210
0.0
220
0.0
230
1.0
 70
     8
 71
     3
 72
     8
 73
     4
 74
     0
 42
0.000000001
 43
0.0000000001
 40
3.0
 40
3.0
 40
3.0
 40
3.0
 40
4.0
 40
4.0
 40
4.0
 40
4.0
 10
0.1978557619852999
 20
0.4113568793399259
 30
0.0
 10
0.1978557619852999
 20
0.3986005232715676
 30
0.0
 10
0.1933645887762249
 20
0.3877566033601889
 30
0.0
 10
0.1843856332023248
 20
0.3788319012942876
 30
0.0
  0
SPLINE
  5
1DB
330
9B
100
AcDbEntity
  8
PIVOTS
370
    18
100
AcDbSpline
210
0.0
220
0.0
230
1.0
 70
     8
 71
     3
 72
     8
 73
     4
 74
     0
 42
0.000000001
 43
0.0000000001
 40
4.0
 40
4.0
 40
4.0
 40
4.0
 40
5.0
 40
5.0
 40
5.0
 40
5.0
 10
0.1843856332023248
 20
0.3788319012942876
 30
0.0
 10
0.1754066776284248
 20
0.3698953312735128
 30
0.0
 10
0.1645881890489201
 20
0.3654329802405621
 30
0.0
 10
0.1519352537301856
 20
0.3654329802405621
 30
0.0
  0
SPLINE
  5
1DC
330
9B
100
AcDbEntity
  8
PIVOTS
370
    18
100
AcDbSpline
210
0.0
220
0.0
230
1.0
 70
     8
 71
     3
 72
     8
 73
     4
 74
     0
 42
0.000000001
 43
0.0000000001
 40
5.0
 40
5.0
 40
5.0
 40
5.0
 40
6.0
 40
6.0
 40
6.0
 40
6.0
 10
0.1519352537301856
 20
0.3654329802405621
 30
0.0
 10
0.1391772022397027
 20
0.3654329802405621
 30
0.0
 10
0.1283621045044477
 20
0.3699241534496371
 30
0.0
 10
0.1194848742580467
 20
0.3789064998677871
 30
0.0
  0
SPLINE
  5
1DD
330
9B
100
AcDbEntity
  8
PIVOTS
370
    18
100
AcDbSpline
210
0.0
220
0.0
230
1.0
 70
     8
 71
     3
 72
     8
 73
     4
 74
     0
 42
0.000000001
 43
0.0000000001
 40
6.0
 40
6.0
 40
6.0
 40
6.0
 40
7.0
 40
7.0
 40
7.0
 40
7.0
 10
0.1194848742580467
 20
0.3789064998677871
 30
0.0
 10
0.1106076440116454
 20
0.3878837600195618
 30
0.0
 10
0.1061690288884446
 20
0.3987039440211915
 30
0.0
 10
0.1061690288884446
 20
0.4113568793399259
 30
0.0
  0
SPLINE
  5
1DE
330
9B
100
AcDbEntity
  8
PIVOTS
370
    18
100
AcDbSpline
210
0.0
220
0.0
230
1.0
 70
     8
 71
     3
 72
     8
 73
     4
 74
     0
 42
0.000000001
 43
0.0000000001
 40
8.0
 40
8.0
 40
8.0
 40
8.0
 40
9.0
 40
9.0
 40
9.0
 40
9.0
 10
0.1061690288884446
 20
0.5160559772460119
 30
0.0
 10
0.1061690288884446
 20
0.5288157241586201
 30
0.0
 10
0.1106568112532697
 20
0.5396528623814996
 30
0.0
 10
0.1196357668271698
 20
0.5485826507137751
 30
0.0
  0
SPLINE
  5
1DF
330
9B
100
AcDbEntity
  8
PIVOTS
370
    18
100
AcDbSpline
210
0.0
220
0.0
230
1.0
 70
     8
 71
     3
 72
     8
 73
     4
 74
     0
 42
0.000000001
 43
0.0000000001
 40
9.0
 40
9.0
 40
9.0
 40
9.0
 40
10.0
 40
10.0
 40
10.0
 40
10.0
 10
0.1196357668271698
 20
0.5485826507137751
 30
0.0
 10
0.1286147224010701
 20
0.5575124390460506
 30
0.0
 10
0.1393840437389504
 20
0.5619815717675017
 30
0.0
 10
0.1519352537301856
 20
0.5619815717675017
 30
0.0
  0
SPLINE
  5
1E0
330
9B
100
AcDbEntity
  8
PIVOTS
370
    18
100
AcDbSpline
210
0.0
220
0.0
230
1.0
 70
     8
 71
     3
 72
     8
 73
     4
 74
     0
 42
0.000000001
 43
0.0000000001
 40
0.0
 40
0.0
 40
0.0
 40
0.0
 40
1.0
 40
1.0
 40
1.0
 40
1.0
 10
0.1677009840703856
 20
0.5166680246331297
 30
0.0
 10
0.1677009840703856
 20
0.5212643140139536
 30
0.0
 10
0.1660954193180283
 20
0.5251671757456609
 30
0.0
 10
0.162880898969064
 20
0.5283783052503744
 30
0.0
  0
SPLINE
  5
1E1
330
9B
100
AcDbEntity
  8
PIVOTS
370
    18
100
AcDbSpline
210
0.0
220
0.0
230
1.0
 70
     8
 71
     3
 72
     8
 73
     4
 74
     0
 42
0.000000001
 43
0.0000000001
 40
1.0
 40
1.0
 40
1.0
 40
1.0
 40
2.0
 40
2.0
 40
2.0
 40
2.0
 10
0.162880898969064
 20
0.5283783052503744
 30
0.0
 10
0.1596629877758496
 20
0.5315962164435894
 30
0.0
 10
0.1557635168883931
 20
0.5332017811959461
 30
0.0
 10
0.1511706183518193
 20
0.5332017811959461
 30
0.0
  0
SPLINE
  5
1E2
330
9B
100
AcDbEntity
  8
PIVOTS
370
    18
100
AcDbSpline
210
0.0
220
0.0
230
1.0
 70
     8
 71
     3
 72
     8
 73
     4
 74
     0
 42
0.000000001
 43
0.0000000001
 40
2.0
 40
2.0
 40
2.0
 40
2.0
 40
3.0
 40
3.0
 40
3.0
 40
3.0
 10
0.1511706183518193
 20
0.5332017811959461
 30
0.0
 10
0.1465777198152455
 20
0.5332017811959461
 30
0.0
 10
0.142647731329539
 20
0.5315962164435894
 30
0.0
 10
0.1393840437389504
 20
0.5283783052503744
 30
0.0
  0
SPLINE
  5
1E3
330
9B
100
AcDbEntity
  8
PIVOTS
370
    18
100
AcDbSpline
210
0.0
220
0.0
230
1.0
 70
     8
 71
     3
 72
     8
 73
     4
 74
     0
 42
0.000000001
 43
0.0000000001
 40
3.0
 40
3.0
 40
3.0
 40
3.0
 40
4.0
 40
4.0
 40
4.0
 40
4.0
 10
0.1393840437389504
 20
0.5283783052503744
 30
0.0
 10
0.1361169653041117
 20
0.5251671757456609
 30
0.0
 10
0.1344859692198797
 20
0.5212643140139536
 30
0.0
 10
0.1344859692198797
 20
0.5166680246331297
 30
0.0
  0
SPLINE
  5
1E4
330
9B
100
AcDbEntity
  8
PIVOTS
370
    18
100
AcDbSpline
210
0.0
220
0.0
230
1.0
 70
     8
 71
     3
 72
     8
 73
     4
 74
     0
 42
0.000000001
 43
0.0000000001
 40
5.0
 40
5.0
 40
5.0
 40
5.0
 40
6.0
 40
6.0
 40
6.0
 40
6.0
 10
0.1344859692198797
 20
0.4116603599002981
 30
0.0
 10
0.1344859692198797
 20
0.4070708522079735
 30
0.0
 10
0.1361169653041117
 20
0.4031662950541423
 30
0.0
 10
0.1393840437389504
 20
0.3999551655494276
 30
0.0
  0
SPLINE
  5
1E5
330
9B
100
AcDbEntity
  8
PIVOTS
370
    18
100
AcDbSpline
210
0.0
220
0.0
230
1.0
 70
     8
 71
     3
 72
     8
 73
     4
 74
     0
 42
0.000000001
 43
0.0000000001
 40
6.0
 40
6.0
 40
6.0
 40
6.0
 40
7.0
 40
7.0
 40
7.0
 40
7.0
 10
0.1393840437389504
 20
0.3999551655494276
 30
0.0
 10
0.142647731329539
 20
0.3967389497783388
 30
0.0
 10
0.1465777198152455
 20
0.395131689603857
 30
0.0
 10
0.1511706183518193
 20
0.395131689603857
 30
0.0
  0
SPLINE
  5
1E6
330
9B
100
AcDbEntity
  8
PIVOTS
370
    18
100
AcDbSpline
210
0.0
220
0.0
230
1.0
 70
     8
 71
     3
 72
     8
 73
     4
 74
     0
 42
0.000000001
 43
0.0000000001
 40
7.0
 40
7.0
 40
7.0
 40
7.0
 40
8.0
 40
8.0
 40
8.0
 40
8.0
 10
0.1511706183518193
 20
0.395131689603857
 30
0.0
 10
0.1557635168883931
 20
0.395131689603857
 30
0.0
 10
0.1596629877758496
 20
0.3967389497783388
 30
0.0
 10
0.162880898969064
 20
0.3999551655494276
 30
0.0
  0
SPLINE
  5
1E7
330
9B
100
AcDbEntity
  8
PIVOTS
370
    18
100
AcDbSpline
210
0.0
220
0.0
230
1.0
 70
     8
 71
     3
 72
     8
 73
     4
 74
     0
 42
0.000000001
 43
0.0000000001
 40
8.0
 40
8.0
 40
8.0
 40
8.0
 40
9.0
 40
9.0
 40
9.0
 40
9.0
 10
0.162880898969064
 20
0.3999551655494276
 30
0.0
 10
0.1660954193180283
 20
0.4031662950541423
 30
0.0
 10
0.1677009840703856
 20
0.4070708522079735
 30
0.0
 10
0.1677009840703856
 20
0.4116603599002981
 30
0.0
  0
SPLINE
  5
1E8
330
9B
100
AcDbEntity
  8
PIVOTS
370
    18
100
AcDbSpline
210
0.0
220
0.0
230
1.0
 70
     8
 71
     3
 72
     8
 73
     4
 74
     0
 42
0.000000001
 43
0.0000000001
 40
0.0
 40
0.0
 40
0.0
 40
0.0
 40
1.0
 40
1.0
 40
1.0
 40
1.0
 10
0.2579550854716317
 20
0.3652820876714379
 30
0.0
 10
0.2451970339811485
 20
0.3652820876714379
 30
0.0
 10
0.234356504914019
 20
0.3697444387043886
 30
0.0
 10
0.2254250211596185
 20
0.3786742270366641
 30
0.0
  0
SPLINE
  5
1E9
330
9B
100
AcDbEntity
  8
PIVOTS
370
    18
100
AcDbSpline
210
0.0
220
0.0
230
1.0
 70
     8
 71
     3
 72
     8
 73
     4
 74
     0
 42
0.000000001
 43
0.0000000001
 40
1.0
 40
1.0
 40
1.0
 40
1.0
 40
2.0
 40
2.0
 40
2.0
 40
2.0
 10
0.2254250211596185
 20
0.3786742270366641
 30
0.0
 10
0.2164952328273427
 20
0.3876040153689407
 30
0.0
 10
0.2120345772165171
 20
0.398395377194445
 30
0.0
 10
0.2120345772165171
 20
0.4110500079353043
 30
0.0
  0
SPLINE
  5
1EA
330
9B
100
AcDbEntity
  8
PIVOTS
370
    18
100
AcDbSpline
210
0.0
220
0.0
230
1.0
 70
     8
 71
     3
 72
     8
 73
     4
 74
     0
 42
0.000000001
 43
0.0000000001
 40
3.0
 40
3.0
 40
3.0
 40
3.0
 40
4.0
 40
4.0
 40
4.0
 40
4.0
 10
0.2120345772165171
 20
0.5157541921077656
 30
0.0
 10
0.2120345772165171
 20
0.5285071573318735
 30
0.0
 10
0.2165223595813425
 20
0.5393510772432523
 30
0.0
 10
0.2255013151552429
 20
0.5482808655755289
 30
0.0
  0
SPLINE
  5
1EB
330
9B
100
AcDbEntity
  8
PIVOTS
370
    18
100
AcDbSpline
210
0.0
220
0.0
230
1.0
 70
     8
 71
     3
 72
     8
 73
     4
 74
     0
 42
0.000000001
 43
0.0000000001
 40
4.0
 40
4.0
 40
4.0
 40
4.0
 40
5.0
 40
5.0
 40
5.0
 40
5.0
 10
0.2255013151552429
 20
0.5482808655755289
 30
0.0
 10
0.2344802707291426
 20
0.5572038722193039
 30
0.0
 10
0.2452987593086476
 20
0.5616730049407551
 30
0.0
 10
0.2579550854716317
 20
0.5616730049407551
 30
0.0
  0
SPLINE
  5
1EC
330
9B
100
AcDbEntity
  8
PIVOTS
370
    18
100
AcDbSpline
210
0.0
220
0.0
230
1.0
 70
     8
 71
     3
 72
     8
 73
     4
 74
     0
 42
0.000000001
 43
0.0000000001
 40
5.0
 40
5.0
 40
5.0
 40
5.0
 40
6.0
 40
6.0
 40
6.0
 40
6.0
 10
0.2579550854716317
 20
0.5616730049407551
 30
0.0
 10
0.2707097461178647
 20
0.5616730049407551
 30
0.0
 10
0.2815282346973694
 20
0.557181831731679
 30
0.0
 10
0.2904054649437709
 20
0.5482045715799043
 30
0.0
  0
SPLINE
  5
1ED
330
9B
100
AcDbEntity
  8
PIVOTS
370
    18
100
AcDbSpline
210
0.0
220
0.0
230
1.0
 70
     8
 71
     3
 72
     8
 73
     4
 74
     0
 42
0.000000001
 43
0.0000000001
 40
6.0
 40
6.0
 40
6.0
 40
6.0
 40
7.0
 40
7.0
 40
7.0
 40
7.0
 10
0.2904054649437709
 20
0.5482045715799043
 30
0.0
 10
0.2992826951901722
 20
0.5392222251617543
 30
0.0
 10
0.3037213103133727
 20
0.5284020411601246
 30
0.0
 10
0.3037213103133727
 20
0.5157541921077656
 30
0.0
  0
SPLINE
  5
1EE
330
9B
100
AcDbEntity
  8
PIVOTS
370
    18
100
AcDbSpline
210
0.0
220
0.0
230
1.0
 70
     8
 71
     3
 72
     8
 73
     4
 74
     0
 42
0.000000001
 43
0.0000000001
 40
10.0
 40
10.0
 40
10.0
 40
10.0
 40
11.0
 40
11.0
 40
11.0
 40
11.0
 10
0.2737208158118314
 20
0.5163645440727584
 30
0.0
 10
0.2737208158118314
 20
0.5209557471872071
 30
0.0
 10
0.2720864288833497
 20
0.5248823448286634
 30
0.0
 10
0.2688227412927606
 20
0.5281511186856278
 30
0.0
  0
SPLINE
  5
1EF
330
9B
100
AcDbEntity
  8
PIVOTS
370
    18
100
AcDbSpline
210
0.0
220
0.0
230
1.0
 70
     8
 71
     3
 72
     8
 73
     4
 74
     0
 42
0.000000001
 43
0.0000000001
 40
11.0
 40
11.0
 40
11.0
 40
11.0
 40
12.0
 40
12.0
 40
12.0
 40
12.0
 10
0.2688227412927606
 20
0.5281511186856278
 30
0.0
 10
0.2655556628579225
 20
0.5314148062762158
 30
0.0
 10
0.2616290652164658
 20
0.533050888626823
 30
0.0
 10
0.2570361666798918
 20
0.533050888626823
 30
0.0
  0
SPLINE
  5
1F0
330
9B
100
AcDbEntity
  8
PIVOTS
370
    18
100
AcDbSpline
210
0.0
220
0.0
230
1.0
 70
     8
 71
     3
 72
     8
 73
     4
 74
     0
 42
0.000000001
 43
0.0000000001
 40
12.0
 40
12.0
 40
12.0
 40
12.0
 40
13.0
 40
13.0
 40
13.0
 40
13.0
 10
0.2570361666798918
 20
0.533050888626823
 30
0.0
 10
0.252443268143318
 20
0.533050888626823
 30
0.0
 10
0.2485387109894865
 20
0.5314148062762158
 30
0.0
 10
0.2453258860626471
 20
0.5281511186856278
 30
0.0
  0
SPLINE
  5
1F1
330
9B
100
AcDbEntity
  8
PIVOTS
370
    18
100
AcDbSpline
210
0.0
220
0.0
230
1.0
 70
     8
 71
     3
 72
     8
 73
     4
 74
     0
 42
0.000000001
 43
0.0000000001
 40
13.0
 40
13.0
 40
13.0
 40
13.0
 40
14.0
 40
14.0
 40
14.0
 40
14.0
 10
0.2453258860626471
 20
0.5281511186856278
 30
0.0
 10
0.2421113657136828
 20
0.5248823448286634
 30
0.0
 10
0.2405058009613255
 20
0.5209557471872071
 30
0.0
 10
0.2405058009613255
 20
0.5163645440727584
 30
0.0
  0
SPLINE
  5
1F2
330
9B
100
AcDbEntity
  8
PIVOTS
370
    18
100
AcDbSpline
210
0.0
220
0.0
230
1.0
 70
     8
 71
     3
 72
     8
 73
     4
 74
     0
 42
0.000000001
 43
0.0000000001
 40
15.0
 40
15.0
 40
15.0
 40
15.0
 40
16.0
 40
16.0
 40
16.0
 40
16.0
 10
0.2405058009613255
 20
0.4113568793399259
 30
0.0
 10
0.2405058009613255
 20
0.4067673716476022
 30
0.0
 10
0.2421113657136828
 20
0.4028645099158961
 30
0.0
 10
0.2453258860626471
 20
0.399646598722681
 30
0.0
  0
SPLINE
  5
1F3
330
9B
100
AcDbEntity
  8
PIVOTS
370
    18
100
AcDbSpline
210
0.0
220
0.0
230
1.0
 70
     8
 71
     3
 72
     8
 73
     4
 74
     0
 42
0.000000001
 43
0.0000000001
 40
16.0
 40
16.0
 40
16.0
 40
16.0
 40
17.0
 40
17.0
 40
17.0
 40
17.0
 10
0.2453258860626471
 20
0.399646598722681
 30
0.0
 10
0.2485387109894865
 20
0.3964303829515923
 30
0.0
 10
0.252443268143318
 20
0.3948248181992355
 30
0.0
 10
0.2570361666798918
 20
0.3948248181992355
 30
0.0
  0
SPLINE
  5
1F4
330
9B
100
AcDbEntity
  8
PIVOTS
370
    18
100
AcDbSpline
210
0.0
220
0.0
230
1.0
 70
     8
 71
     3
 72
     8
 73
     4
 74
     0
 42
0.000000001
 43
0.0000000001
 40
17.0
 40
17.0
 40
17.0
 40
17.0
 40
18.0
 40
18.0
 40
18.0
 40
18.0
 10
0.2570361666798918
 20
0.3948248181992355
 30
0.0
 10
0.2616290652164658
 20
0.3948248181992355
 30
0.0
 10
0.2655556628579225
 20
0.3964303829515923
 30
0.0
 10
0.2688227412927606
 20
0.399646598722681
 30
0.0
  0
SPLINE
  5
1F5
330
9B
100
AcDbEntity
  8
PIVOTS
370
    18
100
AcDbSpline
210
0.0
220
0.0
230
1.0
 70
     8
 71
     3
 72
     8
 73
     4
 74
     0
 42
0.000000001
 43
0.0000000001
 40
18.0
 40
18.0
 40
18.0
 40
18.0
 40
19.0
 40
19.0
 40
19.0
 40
19.0
 10
0.2688227412927606
 20
0.399646598722681
 30
0.0
 10
0.2720864288833497
 20
0.4028645099158961
 30
0.0
 10
0.2737208158118314
 20
0.4067673716476022
 30
0.0
 10
0.2737208158118314
 20
0.4113568793399259
 30
0.0
  0
SPLINE
  5
1F6
330
9B
100
AcDbEntity
  8
PIVOTS
370
    18
100
AcDbSpline
210
0.0
220
0.0
230
1.0
 70
     8
 71
     3
 72
     8
 73
     4
 74
     0
 42
0.000000001
 43
0.0000000001
 40
22.0
 40
22.0
 40
22.0
 40
22.0
 40
23.0
 40
23.0
 40
23.0
 40
23.0
 10
0.3037213103133727
 20
0.4110500079353043
 30
0.0
 10
0.3037213103133727
 20
0.3982919564448211
 30
0.0
 10
0.299230137104298
 20
0.3874768587095666
 30
0.0
 10
0.2902511815303976
 20
0.3785979330410406
 30
0.0
  0
SPLINE
  5
1F7
330
9B
100
AcDbEntity
  8
PIVOTS
370
    18
100
AcDbSpline
210
0.0
220
0.0
230
1.0
 70
     8
 71
     3
 72
     8
 73
     4
 74
     0
 42
0.000000001
 43
0.0000000001
 40
23.0
 40
23.0
 40
23.0
 40
23.0
 40
24.0
 40
24.0
 40
24.0
 40
24.0
 10
0.2902511815303976
 20
0.3785979330410406
 30
0.0
 10
0.2812722259564973
 20
0.3697207027946395
 30
0.0
 10
0.2705062954628671
 20
0.3652820876714379
 30
0.0
 10
0.2579550854716317
 20
0.3652820876714379
 30
0.0
  0
HATCH
  5
1F8
330
9B
100
AcDbEntity
  8
LAYER_1
 62
   158
100
AcDbHatch
 10
0.0
 20
0.0
 30
0.0
210
0.0
220
0.0
230
1.0
  2
SOLID
 70
     1
 71
     0
 91
        2
 92
        0
 93
       12
 72
     4
 94
        3
 73
     1
 74
     0
 95
       11
 96
        7
 40
0.0
 40
0.0
 40
0.0
 40
0.0
 40
1.0
 40
2.0
 40
3.0
 40
4.0
 40
4.0
 40
4.0
 40
4.0
 10
0.0456136368504933
 20
0.5595316867969029
 42
1.0
 10
0.0617371012590639
 20
0.5595316867969029
 42
1.0
 10
0.073572843113557
 20
0.5550930716737024
 42
1.0
 10
0.081125948680348
 20
0.5462158414273014
 42
1.0
 10
0.0877584400332744
 20
0.5384541989391379
 42
1.0
 10
0.0910780765539873
 20
0.5276391012038825
 42
1.0
 10
0.0910780765539873
 20
0.5137586802666624
 42
1.0
 97
        0
 72
     1
 10
0.0910780765539873
 20
0.5137586802666624
 11
0.0910780765539873
 21
0.4859045901753476
 72
     4
 94
        3
 73
     1
 74
     0
 95
        8
 96
        4
 40
0.0
 40
0.0
 40
0.0
 40
0.0
 40
1.0
 40
1.0
 40
1.0
 40
1.0
 10
0.0910780765539873
 20
0.4859045901753476
 42
1.0
 10
0.0910780765539873
 20
0.4723310406427479
 42
1.0
 10
0.08592229787192
 20
0.460847946590251
 42
1.0
 10
0.0756175221962846
 20
0.4514637851284799
 42
1.0
 97
        0
 72
     1
 10
0.0756175221962846
 20
0.4514637851284799
 11
0.0970442670117962
 21
0.3677319726420367
 72
     1
 10
0.0970442670117962
 20
0.3677319726420367
 11
0.0657569471173941
 21
0.3677319726420367
 72
     1
 10
0.0657569471173941
 20
0.3677319726420367
 11
0.0482161098123392
 21
0.439980691075983
 72
     4
 94
        3
 73
     1
 74
     0
 95
        8
 96
        4
 40
0.0
 40
0.0
 40
0.0
 40
0.0
 40
1.0
 40
1.0
 40
1.0
 40
1.0
 10
0.0482161098123392
 20
0.439980691075983
 42
1.0
 10
0.0473989163480981
 20
0.439980691075983
 42
1.0
 10
0.046532555642233
 20
0.439980691075983
 42
1.0
 10
0.0456136368504933
 20
0.439980691075983
 42
1.0
 97
        0
 72
     1
 10
0.0456136368504933
 20
0.439980691075983
 11
0.0289289877185538
 21
0.439980691075983
 72
     1
 10
0.0289289877185538
 20
0.439980691075983
 11
0.0289289877185538
 21
0.3677319726420367
 72
     1
 10
0.0289289877185538
 20
0.3677319726420367
 11
0.0000000000000003
 21
0.3677319726420367
 72
     1
 10
0.0000000000000003
 20
0.3677319726420367
 11
0.0000000000000003
 21
0.5595316867969029
 72
     1
 10
0.0000000000000003
 20
0.5595316867969029
 11
0.0456136368504933
 21
0.5595316867969029
 97
        0
 92
        0
 93
        6
 72
     1
 10
0.0629120287916758
 20
0.4852874565218534
 11
0.0629120287916758
 21
0.513306002559292
 72
     4
 94
        3
 73
     1
 74
     0
 95
        8
 96
        4
 40
0.0
 40
0.0
 40
0.0
 40
0.0
 40
1.0
 40
1.0
 40
1.0
 40
1.0
 10
0.0629120287916758
 20
0.513306002559292
 42
1.0
 10
0.0629120287916758
 20
0.5244228854327937
 42
1.0
 10
0.0573985160412371
 20
0.5299906516912315
 42
1.0
 10
0.0463782722288597
 20
0.5299906516912315
 42
1.0
 97
        0
 72
     1
 10
0.0463782722288597
 20
0.5299906516912315
 11
0.0289289877185538
 21
0.5299906516912315
 72
     1
 10
0.0289289877185538
 20
0.5299906516912315
 11
0.0289289877185538
 21
0.4686028073899149
 72
     1
 10
0.0289289877185538
 20
0.4686028073899149
 11
0.0463782722288597
 21
0.4686028073899149
 72
     4
 94
        3
 73
     1
 74
     0
 95
       11
 96
        7
 40
0.0
 40
0.0
 40
0.0
 40
0.0
 40
1.0
 40
2.0
 40
3.0
 40
4.0
 40
4.0
 40
4.0
 40
4.0
 10
0.0463782722288597
 20
0.4686028073899149
 42
1.0
 10
0.0509711707654337
 20
0.4686028073899149
 42
1.0
 10
0.0548740324971399
 20
0.470237194318396
 42
1.0
 10
0.0580885528461044
 20
0.4735008819089851
 42
1.0
 10
0.0613030731950686
 20
0.4767713511880735
 42
1.0
 10
0.0629120287916758
 20
0.4806979488295299
 42
1.0
 10
0.0629120287916758
 20
0.4852874565218534
 42
1.0
 97
        0
 97
        0
 75
     0
 76
     1
 98
        1
 10
0.0
 20
0.0
450
        0
451
        0
460
0.0
461
0.0
452
        0
462
0.0
453
        0
470

  0
HATCH
  5
1F9
330
9B
100
AcDbEntity
  8
LAYER_1
 62
   158
100
AcDbHatch
 10
0.0
 20
0.0
 30
0.0
210
0.0
220
0.0
230
1.0
  2
SOLID
 70
     1
 71
     0
 91
        2
 92
        0
 93
        5
 72
     4
 94
        3
 73
     1
 74
     0
 95
       11
 96
        7
 40
0.0
 40
0.0
 40
0.0
 40
0.0
 40
1.0
 40
2.0
 40
3.0
 40
4.0
 40
4.0
 40
4.0
 40
4.0
 10
0.1519352537301856
 20
0.5619815717675017
 42
1.0
 10
0.1646899143764189
 20
0.5619815717675017
 42
1.0
 10
0.1755321388656735
 20
0.5574903985584255
 42
1.0
 10
0.184463622620074
 20
0.5485080521402756
 42
1.0
 10
0.1933917155302247
 20
0.5395257057221256
 42
1.0
 10
0.1978557619852999
 20
0.5287106079868711
 42
1.0
 10
0.1978557619852999
 20
0.5160559772460119
 42
1.0
 97
        0
 72
     1
 10
0.1978557619852999
 20
0.5160559772460119
 11
0.1978557619852999
 21
0.4113568793399259
 72
     4
 94
        3
 73
     1
 74
     0
 95
       17
 96
       13
 40
0.0
 40
0.0
 40
0.0
 40
0.0
 40
1.0
 40
2.0
 40
3.0
 40
4.0
 40
5.0
 40
6.0
 40
7.0
 40
8.0
 40
9.0
 40
10.0
 40
10.0
 40
10.0
 40
10.0
 10
0.1978557619852999
 20
0.4113568793399259
 42
1.0
 10
0.1978557619852999
 20
0.3986005232715676
 42
1.0
 10
0.1933645887762249
 20
0.3877566033601889
 42
1.0
 10
0.1843856332023248
 20
0.3788319012942876
 42
1.0
 10
0.1754066776284248
 20
0.3698953312735128
 42
1.0
 10
0.1645881890489201
 20
0.3654329802405621
 42
1.0
 10
0.1519352537301856
 20
0.3654329802405621
 42
1.0
 10
0.1391772022397027
 20
0.3654329802405621
 42
1.0
 10
0.1283621045044477
 20
0.3699241534496371
 42
1.0
 10
0.1194848742580467
 20
0.3789064998677871
 42
1.0
 10
0.1106076440116454
 20
0.3878837600195618
 42
1.0
 10
0.1061690288884446
 20
0.3987039440211915
 42
1.0
 10
0.1061690288884446
 20
0.4113568793399259
 42
1.0
 97
        0
 72
     1
 10
0.1061690288884446
 20
0.4113568793399259
 11
0.1061690288884446
 21
0.5160559772460119
 72
     4
 94
        3
 73
     1
 74
     0
 95
       11
 96
        7
 40
0.0
 40
0.0
 40
0.0
 40
0.0
 40
1.0
 40
2.0
 40
3.0
 40
4.0
 40
4.0
 40
4.0
 40
4.0
 10
0.1061690288884446
 20
0.5160559772460119
 42
1.0
 10
0.1061690288884446
 20
0.5288157241586201
 42
1.0
 10
0.1106568112532697
 20
0.5396528623814996
 42
1.0
 10
0.1196357668271698
 20
0.5485826507137751
 42
1.0
 10
0.1286147224010701
 20
0.5575124390460506
 42
1.0
 10
0.1393840437389504
 20
0.5619815717675017
 42
1.0
 10
0.1519352537301856
 20
0.5619815717675017
 42
1.0
 97
        0
 97
        0
 92
        0
 93
        4
 72
     1
 10
0.1677009840703856
 20
0.4116603599002981
 11
0.1677009840703856
 21
0.5166680246331297
 72
     4
 94
        3
 73
     1
 74
     0
 95
       17
 96
       13
 40
0.0
 40
0.0
 40
0.0
 40
0.0
 40
1.0
 40
2.0
 40
3.0
 40
4.0
 40
5.0
 40
6.0
 40
7.0
 40
8.0
 40
9.0
 40
10.0
 40
10.0
 40
10.0
 40
10.0
 10
0.1677009840703856
 20
0.5166680246331297
 42
1.0
 10
0.1677009840703856
 20
0.5212643140139536
 42
1.0
 10
0.1660954193180283
 20
0.5251671757456609
 42
1.0
 10
0.162880898969064
 20
0.5283783052503744
 42
1.0
 10
0.1596629877758496
 20
0.5315962164435894
 42
1.0
 10
0.1557635168883931
 20
0.5332017811959461
 42
1.0
 10
0.1511706183518193
 20
0.5332017811959461
 42
1.0
 10
0.1465777198152455
 20
0.5332017811959461
 42
1.0
 10
0.142647731329539
 20
0.5315962164435894
 42
1.0
 10
0.1393840437389504
 20
0.5283783052503744
 42
1.0
 10
0.1361169653041117
 20
0.5251671757456609
 42
1.0
 10
0.1344859692198797
 20
0.5212643140139536
 42
1.0
 10
0.1344859692198797
 20
0.5166680246331297
 42
1.0
 97
        0
 72
     1
 10
0.1344859692198797
 20
0.5166680246331297
 11
0.1344859692198797
 21
0.4116603599002981
 72
     4
 94
        3
 73
     1
 74
     0
 95
       17
 96
       13
 40
0.0
 40
0.0
 40
0.0
 40
0.0
 40
1.0
 40
2.0
 40
3.0
 40
4.0
 40
5.0
 40
6.0
 40
7.0
 40
8.0
 40
9.0
 40
10.0
 40
10.0
 40
10.0
 40
10.0
 10
0.1344859692198797
 20
0.4116603599002981
 42
1.0
 10
0.1344859692198797
 20
0.4070708522079735
 42
1.0
 10
0.1361169653041117
 20
0.4031662950541423
 42
1.0
 10
0.1393840437389504
 20
0.3999551655494276
 42
1.0
 10
0.142647731329539
 20
0.3967389497783388
 42
1.0
 10
0.1465777198152455
 20
0.395131689603857
 42
1.0
 10
0.1511706183518193
 20
0.395131689603857
 42
1.0
 10
0.1557635168883931
 20
0.395131689603857
 42
1.0
 10
0.1596629877758496
 20
0.3967389497783388
 42
1.0
 10
0.162880898969064
 20
0.3999551655494276
 42
1.0
 10
0.1660954193180283
 20
0.4031662950541423
 42
1.0
 10
0.1677009840703856
 20
0.4070708522079735
 42
1.0
 10
0.1677009840703856
 20
0.4116603599002981
 42
1.0
 97
        0
 97
        0
 75
     0
 76
     1
 98
        1
 10
0.0
 20
0.0
450
        0
451
        0
460
0.0
461
0.0
452
        0
462
0.0
453
        0
470

  0
HATCH
  5
1FA
330
9B
100
AcDbEntity
  8
LAYER_1
 62
   158
100
AcDbHatch
 10
0.0
 20
0.0
 30
0.0
210
0.0
220
0.0
230
1.0
  2
SOLID
 70
     1
 71
     0
 91
        1
 92
        0
 93
       13
 72
     4
 94
        3
 73
     1
 74
     0
 95
       11
 96
        7
 40
0.0
 40
0.0
 40
0.0
 40
0.0
 40
1.0
 40
2.0
 40
3.0
 40
4.0
 40
4.0
 40
4.0
 40
4.0
 10
0.2579550854716317
 20
0.3652820876714379
 42
1.0
 10
0.2451970339811485
 20
0.3652820876714379
 42
1.0
 10
0.234356504914019
 20
0.3697444387043886
 42
1.0
 10
0.2254250211596185
 20
0.3786742270366641
 42
1.0
 10
0.2164952328273427
 20
0.3876040153689407
 42
1.0
 10
0.2120345772165171
 20
0.398395377194445
 42
1.0
 10
0.2120345772165171
 20
0.4110500079353043
 42
1.0
 97
        0
 72
     1
 10
0.2120345772165171
 20
0.4110500079353043
 11
0.2120345772165171
 21
0.5157541921077656
 72
     4
 94
        3
 73
     1
 74
     0
 95
       17
 96
       13
 40
0.0
 40
0.0
 40
0.0
 40
0.0
 40
1.0
 40
2.0
 40
3.0
 40
4.0
 40
5.0
 40
6.0
 40
7.0
 40
8.0
 40
9.0
 40
10.0
 40
10.0
 40
10.0
 40
10.0
 10
0.2120345772165171
 20
0.5157541921077656
 42
1.0
 10
0.2120345772165171
 20
0.5285071573318735
 42
1.0
 10
0.2165223595813425
 20
0.5393510772432523
 42
1.0
 10
0.2255013151552429
 20
0.5482808655755289
 42
1.0
 10
0.2344802707291426
 20
0.5572038722193039
 42
1.0
 10
0.2452987593086476
 20
0.5616730049407551
 42
1.0
 10
0.2579550854716317
 20
0.5616730049407551
 42
1.0
 10
0.2707097461178647
 20
0.5616730049407551
 42
1.0
 10
0.2815282346973694
 20
0.557181831731679
 42
1.0
 10
0.2904054649437709
 20
0.5482045715799043
 42
1.0
 10
0.2992826951901722
 20
0.5392222251617543
 42
1.0
 10
0.3037213103133727
 20
0.5284020411601246
 42
1.0
 10
0.3037213103133727
 20
0.5157541921077656
 42
1.0
 97
        0
 72
     1
 10
0.3037213103133727
 20
0.5157541921077656
 11
0.3037213103133727
 21
0.4938629016300082
 72
     1
 10
0.3037213103133727
 20
0.4938629016300082
 11
0.2737208158118314
 21
0.4938629016300082
 72
     1
 10
0.2737208158118314
 20
0.4938629016300082
 11
0.2737208158118314
 21
0.5163645440727584
 72
     4
 94
        3
 73
     1
 74
     0
 95
       17
 96
       13
 40
0.0
 40
0.0
 40
0.0
 40
0.0
 40
1.0
 40
2.0
 40
3.0
 40
4.0
 40
5.0
 40
6.0
 40
7.0
 40
8.0
 40
9.0
 40
10.0
 40
10.0
 40
10.0
 40
10.0
 10
0.2737208158118314
 20
0.5163645440727584
 42
1.0
 10
0.2737208158118314
 20
0.5209557471872071
 42
1.0
 10
0.2720864288833497
 20
0.5248823448286634
 42
1.0
 10
0.2688227412927606
 20
0.5281511186856278
 42
1.0
 10
0.2655556628579225
 20
0.5314148062762158
 42
1.0
 10
0.2616290652164658
 20
0.533050888626823
 42
1.0
 10
0.2570361666798918
 20
0.533050888626823
 42
1.0
 10
0.252443268143318
 20
0.533050888626823
 42
1.0
 10
0.2485387109894865
 20
0.5314148062762158
 42
1.0
 10
0.2453258860626471
 20
0.5281511186856278
 42
1.0
 10
0.2421113657136828
 20
0.5248823448286634
 42
1.0
 10
0.2405058009613255
 20
0.5209557471872071
 42
1.0
 10
0.2405058009613255
 20
0.5163645440727584
 42
1.0
 97
        0
 72
     1
 10
0.2405058009613255
 20
0.5163645440727584
 11
0.2405058009613255
 21
0.4113568793399259
 72
     4
 94
        3
 73
     1
 74
     0
 95
       17
 96
       13
 40
0.0
 40
0.0
 40
0.0
 40
0.0
 40
1.0
 40
2.0
 40
3.0
 40
4.0
 40
5.0
 40
6.0
 40
7.0
 40
8.0
 40
9.0
 40
10.0
 40
10.0
 40
10.0
 40
10.0
 10
0.2405058009613255
 20
0.4113568793399259
 42
1.0
 10
0.2405058009613255
 20
0.4067673716476022
 42
1.0
 10
0.2421113657136828
 20
0.4028645099158961
 42
1.0
 10
0.2453258860626471
 20
0.399646598722681
 42
1.0
 10
0.2485387109894865
 20
0.3964303829515923
 42
1.0
 10
0.252443268143318
 20
0.3948248181992355
 42
1.0
 10
0.2570361666798918
 20
0.3948248181992355
 42
1.0
 10
0.2616290652164658
 20
0.3948248181992355
 42
1.0
 10
0.2655556628579225
 20
0.3964303829515923
 42
1.0
 10
0.2688227412927606
 20
0.399646598722681
 42
1.0
 10
0.2720864288833497
 20
0.4028645099158961
 42
1.0
 10
0.2737208158118314
 20
0.4067673716476022
 42
1.0
 10
0.2737208158118314
 20
0.4113568793399259
 42
1.0
 97
        0
 72
     1
 10
0.2737208158118314
 20
0.4113568793399259
 11
0.2737208158118314
 21
0.4378393729321318
 72
     1
 10
0.2737208158118314
 20
0.4378393729321318
 11
0.3037213103133727
 21
0.4378393729321318
 72
     1
 10
0.3037213103133727
 20
0.4378393729321318
 11
0.3037213103133727
 21
0.4110500079353043
 72
     4
 94
        3
 73
     1
 74
     0
 95
       11
 96
        7
 40
0.0
 40
0.0
 40
0.0
 40
0.0
 40
1.0
 40
2.0
 40
3.0
 40
4.0
 40
4.0
 40
4.0
 40
4.0
 10
0.3037213103133727
 20
0.4110500079353043
 42
1.0
 10
0.3037213103133727
 20
0.3982919564448211
 42
1.0
 10
0.299230137104298
 20
0.3874768587095666
 42
1.0
 10
0.2902511815303976
 20
0.3785979330410406
 42
1.0
 10
0.2812722259564973
 20
0.3697207027946395
 42
1.0
 10
0.2705062954628671
 20
0.3652820876714379
 42
1.0
 10
0.2579550854716317
 20
0.3652820876714379
 42
1.0
 97
        0
 97
        0
 75
     0
 76
     1
 98
        1
 10
0.0
 20
0.0
450
        0
451
        0
460
0.0
461
0.0
452
        0
462
0.0
453
        0
470

  0
HATCH
  5
1FB
330
9B
100
AcDbEntity
  8
LAYER_1
 62
   158
100
AcDbHatch
 10
0.0
 20
0.0
 30
0.0
210
0.0
220
0.0
230
1.0
  2
SOLID
 70
     1
 71
     0
 91
        1
 92
        0
 93
       12
 72
     1
 10
0.3542533667484359
 20
0.4456637460389202
 11
0.3455931505340321
 21
0.4285772818633597
 72
     1
 10
0.3455931505340321
 20
0.4285772818633597
 11
0.3455931505340321
 21
0.3677319726420367
 72
     1
 10
0.3455931505340321
 20
0.3677319726420367
 11
0.316665858237604
 21
0.3677319726420367
 72
     1
 10
0.316665858237604
 20
0.3677319726420367
 11
0.316665858237604
 21
0.5596825793660269
 72
     1
 10
0.316665858237604
 20
0.5596825793660269
 11
0.3455931505340321
 21
0.5596825793660269
 72
     1
 10
0.3455931505340321
 20
0.5596825793660269
 11
0.3455931505340321
 21
0.4912621240902875
 72
     1
 10
0.3455931505340321
 20
0.4912621240902875
 11
0.3809528743726389
 21
0.5596825793660269
 72
     1
 10
0.3809528743726389
 20
0.5596825793660269
 11
0.4117976890924208
 21
0.5596825793660269
 72
     1
 10
0.4117976890924208
 20
0.5596825793660269
 11
0.3721977145192367
 21
0.4813896810565226
 72
     1
 10
0.3721977145192367
 20
0.4813896810565226
 11
0.4186370219445946
 21
0.3677319726420367
 72
     1
 10
0.4186370219445946
 20
0.3677319726420367
 11
0.3846268541174733
 21
0.3677319726420367
 72
     1
 10
0.3846268541174733
 20
0.3677319726420367
 11
0.3542533667484359
 21
0.4456637460389202
 97
        0
 75
     0
 76
     1
 98
        1
 10
0.0
 20
0.0
450
        0
451
        0
460
0.0
461
0.0
452
        0
462
0.0
453
        0
470

  0
HATCH
  5
1FC
330
9B
100
AcDbEntity
  8
LAYER_1
 62
   158
100
AcDbHatch
 10
0.0
 20
0.0
 30
0.0
210
0.0
220
0.0
230
1.0
  2
SOLID
 70
     1
 71
     0
 91
        1
 92
        0
 93
        9
 72
     1
 10
0.4614074358914946
 20
0.3677319726420367
 11
0.4614074358914946
 21
0.4480966767882679
 72
     1
 10
0.4614074358914946
 20
0.4480966767882679
 11
0.4226822991347996
 21
0.5596825793660269
 72
     1
 10
0.4226822991347996
 20
0.5596825793660269
 11
0.4545206312198209
 21
0.5596825793660269
 72
     1
 10
0.4545206312198209
 20
0.5596825793660269
 11
0.4759524623017076
 21
0.4908026646944178
 72
     1
 10
0.4759524623017076
 20
0.4908026646944178
 11
0.4972249237038462
 21
0.5596825793660269
 72
     1
 10
0.4972249237038462
 20
0.5596825793660269
 11
0.5292175392022403
 21
0.5596825793660269
 72
     1
 10
0.5292175392022403
 20
0.5596825793660269
 11
0.4903381190321726
 21
0.4480966767882679
 72
     1
 10
0.4903381190321726
 20
0.4480966767882679
 11
0.4903381190321726
 21
0.3677319726420367
 72
     1
 10
0.4903381190321726
 20
0.3677319726420367
 11
0.4614074358914946
 21
0.3677319726420367
 97
        0
 75
     0
 76
     1
 98
        1
 10
0.0
 20
0.0
450
        0
451
        0
460
0.0
461
0.0
452
        0
462
0.0
453
        0
470

  0
HATCH
  5
1FD
330
9B
100
AcDbEntity
  8
LAYER_1
 62
   158
100
AcDbHatch
 10
0.0
 20
0.0
 30
0.0
210
0.0
220
0.0
230
1.0
  2
SOLID
 70
     1
 71
     0
 91
        1
 92
        0
 93
       13
 72
     1
 10
0.0356326868007292
 20
0.2675342204777751
 11
0.0356326868007292
 21
0.121985621892394
 72
     1
 10
0.0356326868007292
 20
0.121985621892394
 11
0.0006340878747432
 21
0.121985621892394
 72
     1
 10
0.0006340878747432
 20
0.121985621892394
 11
0.0006340878747432
 21
0.3541940269740616
 72
     1
 10
0.0006340878747432
 20
0.3541940269740616
 11
0.0508575774830599
 21
0.3541940269740616
 72
     1
 10
0.0508575774830599
 20
0.3541940269740616
 11
0.0834741083234469
 21
0.1873848349414169
 72
     1
 10
0.0834741083234469
 20
0.1873848349414169
 11
0.1147834687054737
 21
0.3541940269740616
 72
     1
 10
0.1147834687054737
 20
0.3541940269740616
 11
0.1630317915381874
 21
0.3541940269740616
 72
     1
 10
0.1630317915381874
 20
0.3541940269740616
 11
0.1630317915381874
 21
0.121985621892394
 72
     1
 10
0.1630317915381874
 20
0.121985621892394
 11
0.1280331926122017
 21
0.121985621892394
 72
     1
 10
0.1280331926122017
 20
0.121985621892394
 11
0.1280331926122017
 21
0.2679004316567714
 72
     1
 10
0.1280331926122017
 20
0.2679004316567714
 11
0.0976681823537894
 21
0.121985621892394
 72
     1
 10
0.0976681823537894
 20
0.121985621892394
 11
0.0695224796569774
 21
0.121985621892394
 72
     1
 10
0.0695224796569774
 20
0.121985621892394
 11
0.0356326868007292
 21
0.2675342204777751
 97
        0
 75
     0
 76
     1
 98
        1
 10
0.0
 20
0.0
450
        0
451
        0
460
0.0
461
0.0
452
        0
462
0.0
453
        0
470

  0
HATCH
  5
1FE
330
9B
100
AcDbEntity
  8
LAYER_1
 62
   158
100
AcDbHatch
 10
0.0
 20
0.0
 30
0.0
210
0.0
220
0.0
230
1.0
  2
SOLID
 70
     1
 71
     0
 91
        2
 92
        0
 93
        5
 72
     4
 94
        3
 73
     1
 74
     0
 95
       11
 96
        7
 40
0.0
 40
0.0
 40
0.0
 40
0.0
 40
1.0
 40
2.0
 40
3.0
 40
4.0
 40
4.0
 40
4.0
 40
4.0
 10
0.2360977034363747
 20
0.3569745192590308
 42
1.0
 10
0.2515294356179532
 20
0.3569745192590308
 42
1.0
 10
0.2646452211768075
 20
0.3515406913484664
 42
1.0
 10
0.2754484509571875
 20
0.3406747309494625
 42
1.0
 10
0.2862482898933172
 20
0.3298121613947077
 42
1.0
 10
0.2916532956277568
 20
0.3167218071677289
 42
1.0
 10
0.2916532956277568
 20
0.3014155362233983
 42
1.0
 97
        0
 72
     1
 10
0.2916532956277568
 20
0.3014155362233983
 11
0.2916532956277568
 21
0.1747607217988071
 72
     4
 94
        3
 73
     1
 74
     0
 95
       17
 96
       13
 40
0.0
 40
0.0
 40
0.0
 40
0.0
 40
1.0
 40
2.0
 40
3.0
 40
4.0
 40
5.0
 40
6.0
 40
7.0
 40
8.0
 40
9.0
 40
10.0
 40
10.0
 40
10.0
 40
10.0
 10
0.2916532956277568
 20
0.1747607217988071
 42
1.0
 10
0.2916532956277568
 20
0.1593289896172286
 42
1.0
 10
0.2862160768729427
 20
0.1462098132141244
 42
1.0
 10
0.2753552027403133
 20
0.1354133651222448
 42
1.0
 10
0.2644909377634342
 20
0.1246101353418649
 42
1.0
 10
0.2514039743807044
 20
0.1192085204516749
 42
1.0
 10
0.2360977034363747
 20
0.1192085204516749
 42
1.0
 10
0.2206676666769214
 20
0.1192085204516749
 42
1.0
 10
0.2075840941384421
 20
0.1246372620958646
 42
1.0
 10
0.1968418995545613
 20
0.1355049179169941
 42
1.0
 10
0.1861014003928058
 20
0.1463657920496227
 42
1.0
 10
0.1807319985229907
 20
0.1594510600102274
 42
1.0
 10
0.1807319985229907
 20
0.1747607217988071
 42
1.0
 97
        0
 72
     1
 10
0.1807319985229907
 20
0.1747607217988071
 11
0.1807319985229907
 21
0.3014155362233983
 72
     4
 94
        3
 73
     1
 74
     0
 95
       11
 96
        7
 40
0.0
 40
0.0
 40
0.0
 40
0.0
 40
1.0
 40
2.0
 40
3.0
 40
4.0
 40
4.0
 40
4.0
 40
4.0
 10
0.1807319985229907
 20
0.3014155362233983
 42
1.0
 10
0.1807319985229907
 20
0.3168506592492269
 42
1.0
 10
0.186162435589305
 20
0.3299630539638309
 42
1.0
 10
0.1970267005661843
 20
0.3407662837442108
 42
1.0
 10
0.2078892701209385
 20
0.3515695135245907
 42
1.0
 10
0.2209151983071686
 20
0.3569745192590308
 42
1.0
 10
0.2360977034363747
 20
0.3569745192590308
 42
1.0
 97
        0
 97
        0
 92
        0
 93
        4
 72
     1
 10
0.2551712023424128
 20
0.1751303238220535
 11
0.2551712023424128
 21
0.3021615219583906
 72
     4
 94
        3
 73
     1
 74
     0
 95
       17
 96
       13
 40
0.0
 40
0.0
 40
0.0
 40
0.0
 40
1.0
 40
2.0
 40
3.0
 40
4.0
 40
5.0
 40
6.0
 40
7.0
 40
8.0
 40
9.0
 40
10.0
 40
10.0
 40
10.0
 40
10.0
 10
0.2551712023424128
 20
0.3021615219583906
 42
1.0
 10
0.2551712023424128
 20
0.3077157248398288
 42
1.0
 10
0.2532282485871846
 20
0.3124357800357766
 42
1.0
 10
0.2493389502324775
 20
0.3163284692347333
 42
1.0
 10
0.2454496518777709
 20
0.3202143767451897
 42
1.0
 10
0.2407295966818231
 20
0.3221573305004184
 42
1.0
 10
0.2351736983782599
 20
0.3221573305004184
 42
1.0
 10
0.2296178000746969
 20
0.3221573305004184
 42
1.0
 10
0.2248638364362497
 20
0.3202143767451897
 42
1.0
 10
0.2209151983071686
 20
0.3163284692347333
 42
1.0
 10
0.2169614739117125
 20
0.3124357800357766
 42
1.0
 10
0.2149896979803597
 20
0.3077157248398288
 42
1.0
 10
0.2149896979803597
 20
0.3021615219583906
 42
1.0
 97
        0
 72
     1
 10
0.2149896979803597
 20
0.3021615219583906
 11
0.2149896979803597
 21
0.1751303238220535
 72
     4
 94
        3
 73
     1
 74
     0
 95
       17
 96
       13
 40
0.0
 40
0.0
 40
0.0
 40
0.0
 40
1.0
 40
2.0
 40
3.0
 40
4.0
 40
5.0
 40
6.0
 40
7.0
 40
8.0
 40
9.0
 40
10.0
 40
10.0
 40
10.0
 40
10.0
 10
0.2149896979803597
 20
0.1751303238220535
 42
1.0
 10
0.2149896979803597
 20
0.1695727300963652
 42
1.0
 10
0.2169614739117125
 20
0.1648560657446675
 42
1.0
 10
0.2209151983071686
 20
0.1609633765457108
 42
1.0
 10
0.2248638364362497
 20
0.1570774690352539
 42
1.0
 10
0.2296178000746969
 20
0.1551345152800257
 42
1.0
 10
0.2351736983782599
 20
0.1551345152800257
 42
1.0
 10
0.2407295966818231
 20
0.1551345152800257
 42
1.0
 10
0.2454496518777709
 20
0.1570774690352539
 42
1.0
 10
0.2493389502324775
 20
0.1609633765457108
 42
1.0
 10
0.2532282485871846
 20
0.1648560657446675
 42
1.0
 10
0.2551712023424128
 20
0.1695727300963652
 42
1.0
 10
0.2551712023424128
 20
0.1751303238220535
 42
1.0
 97
        0
 97
        0
 75
     0
 76
     1
 98
        1
 10
0.0
 20
0.0
450
        0
451
        0
460
0.0
461
0.0
452
        0
462
0.0
453
        0
470

  0
HATCH
  5
1FF
330
9B
100
AcDbEntity
  8
LAYER_1
 62
   158
100
AcDbHatch
 10
0.0
 20
0.0
 30
0.0
210
0.0
220
0.0
230
1.0
  2
SOLID
 70
     1
 71
     0
 91
        1
 92
        0
 93
        9
 72
     4
 94
        3
 73
     1
 74
     0
 95
       11
 96
        7
 40
0.0
 40
0.0
 40
0.0
 40
0.0
 40
1.0
 40
2.0
 40
3.0
 40
4.0
 40
4.0
 40
4.0
 40
4.0
 10
0.3645361019364465
 20
0.1193916260411725
 42
1.0
 10
0.3491043697548681
 20
0.1193916260411725
 42
1.0
 10
0.3360207972163885
 20
0.1247593324888629
 42
1.0
 10
0.3252786026325079
 20
0.1355049179169941
 42
1.0
 10
0.3145397988928776
 20
0.146243721656624
 42
1.0
 10
0.3091703970230621
 20
0.1592645635764796
 42
1.0
 10
0.3091703970230621
 20
0.1745742253650593
 42
1.0
 97
        0
 72
     1
 10
0.3091703970230621
 20
0.1745742253650593
 11
0.3091703970230621
 21
0.3540075305403138
 72
     1
 10
0.3091703970230621
 20
0.3540075305403138
 11
0.3434264010583061
 21
0.3540075305403138
 72
     1
 10
0.3434264010583061
 20
0.3540075305403138
 11
0.3434264010583061
 21
0.1749438273883047
 72
     4
 94
        3
 73
     1
 74
     0
 95
       17
 96
       13
 40
0.0
 40
0.0
 40
0.0
 40
0.0
 40
1.0
 40
2.0
 40
3.0
 40
4.0
 40
5.0
 40
6.0
 40
7.0
 40
8.0
 40
9.0
 40
10.0
 40
10.0
 40
10.0
 40
10.0
 10
0.3434264010583061
 20
0.1749438273883047
 42
1.0
 10
0.3434264010583061
 20
0.1693930153511167
 42
1.0
 10
0.3453998724117842
 20
0.1646695693109198
 42
1.0
 10
0.3493519013851153
 20
0.160776880111963
 42
1.0
 10
0.3533022349363215
 20
0.1568909726015055
 42
1.0
 10
0.3580545031526435
 20
0.1549480188462779
 42
1.0
 10
0.3636120968783319
 20
0.1549480188462779
 42
1.0
 10
0.3691662997597701
 20
0.1549480188462779
 42
1.0
 10
0.3738880503778425
 20
0.1568909726015055
 42
1.0
 10
0.377777348732549
 20
0.160776880111963
 42
1.0
 10
0.3816666470872561
 20
0.1646695693109198
 42
1.0
 10
0.3836096008424843
 20
0.1693930153511167
 42
1.0
 10
0.3836096008424843
 20
0.1749438273883047
 42
1.0
 97
        0
 72
     1
 10
0.3836096008424843
 20
0.1749438273883047
 11
0.3836096008424843
 21
0.3540075305403138
 72
     1
 10
0.3836096008424843
 20
0.3540075305403138
 11
0.4200916941278289
 21
0.3540075305403138
 72
     1
 10
0.4200916941278289
 20
0.3540075305403138
 11
0.4200916941278289
 21
0.1745742253650593
 72
     4
 94
        3
 73
     1
 74
     0
 95
       11
 96
        7
 40
0.0
 40
0.0
 40
0.0
 40
0.0
 40
1.0
 40
2.0
 40
3.0
 40
4.0
 40
4.0
 40
4.0
 40
4.0
 10
0.4200916941278289
 20
0.1745742253650593
 42
1.0
 10
0.4200916941278289
 20
0.1590204227904821
 42
1.0
 10
0.4146544753730142
 20
0.1459351548298774
 42
1.0
 10
0.4037936012403851
 20
0.1353184214832458
 42
1.0
 10
0.3929293362635057
 20
0.1247016881366142
 42
1.0
 10
0.3798423728807765
 20
0.1193916260411725
 42
1.0
 10
0.3645361019364465
 20
0.1193916260411725
 42
1.0
 97
        0
 97
        0
 75
     0
 76
     1
 98
        1
 10
0.0
 20
0.0
450
        0
451
        0
460
0.0
461
0.0
452
        0
462
0.0
453
        0
470

  0
HATCH
  5
200
330
9B
100
AcDbEntity
  8
LAYER_1
 62
   158
100
AcDbHatch
 10
0.0
 20
0.0
 30
0.0
210
0.0
220
0.0
230
1.0
  2
SOLID
 70
     1
 71
     0
 91
        1
 92
        0
 93
       10
 72
     1
 10
0.4381581122916282
 20
0.3541940269740616
 11
0.4774495200380657
 21
0.3541940269740616
 72
     1
 10
0.4774495200380657
 20
0.3541940269740616
 11
0.5238939137297989
 21
0.1981372020580475
 72
     1
 10
0.5238939137297989
 20
0.1981372020580475
 11
0.5238939137297989
 21
0.3541940269740616
 72
     1
 10
0.5238939137297989
 20
0.3541940269740616
 11
0.5588942080779101
 21
0.3541940269740616
 72
     1
 10
0.5588942080779101
 20
0.3541940269740616
 11
0.5588942080779101
 21
0.121985621892394
 72
     1
 10
0.5588942080779101
 20
0.121985621892394
 11
0.5212999178785786
 21
0.121985621892394
 72
     1
 10
0.5212999178785786
 20
0.121985621892394
 11
0.4731567112176136
 21
0.2706809239417406
 72
     1
 10
0.4731567112176136
 20
0.2706809239417406
 11
0.4731567112176136
 21
0.121985621892394
 72
     1
 10
0.4731567112176136
 20
0.121985621892394
 11
0.4381581122916282
 21
0.121985621892394
 72
     1
 10
0.4381581122916282
 20
0.121985621892394
 11
0.4381581122916282
 21
0.3541940269740616
 97
        0
 75
     0
 76
     1
 98
        1
 10
0.0
 20
0.0
450
        0
451
        0
460
0.0
461
0.0
452
        0
462
0.0
453
        0
470

  0
HATCH
  5
201
330
9B
100
AcDbEntity
  8
LAYER_1
 62
   158
100
AcDbHatch
 10
0.0
 20
0.0
 30
0.0
210
0.0
220
0.0
230
1.0
  2
SOLID
 70
     1
 71
     0
 91
        1
 92
        0
 93
        8
 72
     1
 10
0.6112217165433279
 20
0.121985621892394
 11
0.6112217165433279
 21
0.3188275214469553
 72
     1
 10
0.6112217165433279
 20
0.3188275214469553
 11
0.5740004192114922
 21
0.3188275214469553
 72
     1
 10
0.5740004192114922
 20
0.3188275214469553
 11
0.5740004192114922
 21
0.3540075305403138
 72
     1
 10
0.5740004192114922
 20
0.3540075305403138
 11
0.6832568117895272
 21
0.3540075305403138
 72
     1
 10
0.6832568117895272
 20
0.3540075305403138
 11
0.6832568117895272
 21
0.3188275214469553
 72
     1
 10
0.6832568117895272
 20
0.3188275214469553
 11
0.6462152292029387
 21
0.3188275214469553
 72
     1
 10
0.6462152292029387
 20
0.3188275214469553
 11
0.6462152292029387
 21
0.121985621892394
 72
     1
 10
0.6462152292029387
 20
0.121985621892394
 11
0.6112217165433279
 21
0.121985621892394
 97
        0
 75
     0
 76
     1
 98
        1
 10
0.0
 20
0.0
450
        0
451
        0
460
0.0
461
0.0
452
        0
462
0.0
453
        0
470

  0
HATCH
  5
202
330
9B
100
AcDbEntity
  8
LAYER_1
 62
   158
100
AcDbHatch
 10
0.0
 20
0.0
 30
0.0
210
0.0
220
0.0
230
1.0
  2
SOLID
 70
     1
 71
     0
 91
        2
 92
        0
 93
        8
 72
     1
 10
0.7479948102098075
 20
0.1753134294115511
 11
0.7114584634164634
 21
0.1753134294115511
 72
     1
 10
0.7114584634164634
 20
0.1753134294115511
 11
0.7029542260375579
 21
0.121985621892394
 72
     1
 10
0.7029542260375579
 20
0.121985621892394
 11
0.6665128228832133
 21
0.121985621892394
 72
     1
 10
0.6665128228832133
 20
0.121985621892394
 11
0.7059551231987746
 21
0.3540075305403138
 72
     1
 10
0.7059551231987746
 20
0.3540075305403138
 11
0.7541017207039892
 21
0.3540075305403138
 72
     1
 10
0.7541017207039892
 20
0.3540075305403138
 11
0.7929879225625567
 21
0.121985621892394
 72
     1
 10
0.7929879225625567
 20
0.121985621892394
 11
0.756183699073466
 21
0.121985621892394
 72
     1
 10
0.756183699073466
 20
0.121985621892394
 11
0.7479948102098075
 21
0.1753134294115511
 97
        0
 92
        0
 93
        3
 72
     1
 10
0.7168804233721533
 20
0.2093880232794226
 11
0.7428034276631149
 21
0.2093880232794226
 72
     1
 10
0.7428034276631149
 20
0.2093880232794226
 11
0.7298436209397592
 21
0.3008628286106552
 72
     1
 10
0.7298436209397592
 20
0.3008628286106552
 11
0.7168804233721533
 21
0.2093880232794226
 97
        0
 75
     0
 76
     1
 98
        1
 10
0.0
 20
0.0
450
        0
451
        0
460
0.0
461
0.0
452
        0
462
0.0
453
        0
470

  0
HATCH
  5
203
330
9B
100
AcDbEntity
  8
LAYER_1
 62
   158
100
AcDbHatch
 10
0.0
 20
0.0
 30
0.0
210
0.0
220
0.0
230
1.0
  2
SOLID
 70
     1
 71
     0
 91
        1
 92
        0
 93
        4
 72
     1
 10
0.8443931213919849
 20
0.3540075305403138
 11
0.8443931213919849
 21
0.121985621892394
 72
     1
 10
0.8443931213919849
 20
0.121985621892394
 11
0.8093928270438745
 21
0.121985621892394
 72
     1
 10
0.8093928270438745
 20
0.121985621892394
 11
0.8093928270438745
 21
0.3540075305403138
 72
     1
 10
0.8093928270438745
 20
0.3540075305403138
 11
0.8443931213919849
 21
0.3540075305403138
 97
        0
 75
     0
 76
     1
 98
        1
 10
0.0
 20
0.0
450
        0
451
        0
460
0.0
461
0.0
452
        0
462
0.0
453
        0
470

  0
HATCH
  5
204
330
9B
100
AcDbEntity
  8
LAYER_1
 62
   158
100
AcDbHatch
 10
0.0
 20
0.0
 30
0.0
210
0.0
220
0.0
230
1.0
  2
SOLID
 70
     1
 71
     0
 91
        1
 92
        0
 93
       10
 72
     1
 10
0.8626460359895322
 20
0.3541940269740616
 11
0.9019391391580951
 21
0.3541940269740616
 72
     1
 10
0.9019391391580951
 20
0.3541940269740616
 11
0.9483801420055792
 21
0.1981372020580475
 72
     1
 10
0.9483801420055792
 20
0.1981372020580475
 11
0.9483801420055792
 21
0.3541940269740616
 72
     1
 10
0.9483801420055792
 20
0.3541940269740616
 11
0.9833804363536895
 21
0.3541940269740616
 72
     1
 10
0.9833804363536895
 20
0.3541940269740616
 11
0.9833804363536895
 21
0.121985621892394
 72
     1
 10
0.9833804363536895
 20
0.121985621892394
 11
0.9457861461543579
 21
0.121985621892394
 72
     1
 10
0.9457861461543579
 20
0.121985621892394
 11
0.8976463303376426
 21
0.2706809239417406
 72
     1
 10
0.8976463303376426
 20
0.2706809239417406
 11
0.8976463303376426
 21
0.121985621892394
 72
     1
 10
0.8976463303376426
 20
0.121985621892394
 11
0.8626460359895322
 21
0.121985621892394
 72
     1
 10
0.8626460359895322
 20
0.121985621892394
 11
0.8626460359895322
 21
0.3541940269740616
 97
        0
 75
     0
 76
     1
 98
        1
 10
0.0
 20
0.0
450
        0
451
        0
460
0.0
461
0.0
452
        0
462
0.0
453
        0
470

  0
HATCH
  5
205
330
9B
100
AcDbEntity
  8
LAYER_1
 62
   153
100
AcDbHatch
 10
0.0
 20
0.0
 30
0.0
210
0.0
220
0.0
230
1.0
  2
SOLID
 70
     1
 71
     0
 91
        1
 92
        0
 93
       14
 72
     4
 94
        2
 73
     1
 74
     0
 95
        6
 96
        3
 40
0.0
 40
0.0
 40
0.0
 40
1.0
 40
1.0
 40
1.0
 10
0.5189263269036046
 20
0.4012877673396635
 42
1.0
 10
0.5979397796162261
 20
0.4336160764188035
 42
1.0
 10
0.6392334808922668
 20
0.5521311692213607
 42
1.0
 97
        0
 72
     1
 10
0.6392334808922668
 20
0.5521311692213607
 11
0.6823311113092875
 21
0.4928676888426442
 72
     4
 94
        2
 73
     1
 74
     0
 95
        6
 96
        3
 40
0.0
 40
0.0
 40
0.0
 40
1.0
 40
1.0
 40
1.0
 10
0.6823311113092875
 20
0.4928676888426442
 42
1.0
 10
0.7236248125853281
 20
0.5449476656778156
 42
1.0
 10
0.7523622176037586
 20
0.607795268428741
 42
1.0
 97
        0
 72
     1
 10
0.7523622176037586
 20
0.607795268428741
 11
0.7685229812990789
 21
0.5646925517453455
 72
     4
 94
        2
 73
     1
 74
     0
 95
        6
 96
        3
 40
0.0
 40
0.0
 40
0.0
 40
1.0
 40
1.0
 40
1.0
 10
0.7685229812990789
 20
0.5646925517453455
 42
1.0
 10
0.7990439703929895
 20
0.6113844770673265
 42
1.0
 10
0.8098166825751199
 20
0.6419088570054873
 42
1.0
 97
        0
 72
     4
 94
        2
 73
     1
 74
     0
 95
        6
 96
        3
 40
0.0
 40
0.0
 40
0.0
 40
1.0
 40
1.0
 40
1.0
 10
0.8098166825751199
 20
0.6419088570054873
 42
1.0
 10
0.8583023645053305
 20
0.4767120114136997
 42
1.0
 10
0.9678334154676127
 20
0.4084712708832086
 42
1.0
 97
        0
 72
     4
 94
        2
 73
     1
 74
     0
 95
        6
 96
        3
 40
0.0
 40
0.0
 40
0.0
 40
1.0
 40
1.0
 40
1.0
 10
0.9678334154676127
 20
0.4084712708832086
 42
1.0
 10
0.8529143129921402
 20
0.4515689013002289
 42
1.0
 10
0.8080263168111393
 20
0.5557220732820712
 42
1.0
 97
        0
 72
     1
 10
0.8080263168111393
 20
0.5557220732820712
 11
0.7882678673666094
 21
0.5287852065603707
 72
     4
 94
        2
 73
     1
 74
     0
 95
        6
 96
        3
 40
0.0
 40
0.0
 40
0.0
 40
1.0
 40
1.0
 40
1.0
 10
0.7882678673666094
 20
0.5287852065603707
 42
1.0
 10
0.8708688332956906
 20
0.3994957061535579
 42
1.0
 10
0.9390960104491822
 20
0.3653804221546876
 42
1.0
 97
        0
 72
     4
 94
        2
 73
     1
 74
     0
 95
        6
 96
        3
 40
0.0
 40
0.0
 40
0.0
 40
1.0
 40
1.0
 40
1.0
 10
0.9390960104491822
 20
0.3653804221546876
 42
1.0
 10
0.7918655531158198
 20
0.4300268677802192
 42
1.0
 10
0.7433798711856086
 20
0.4910756276565398
 42
1.0
 97
        0
 72
     4
 94
        2
 73
     1
 74
     0
 95
        6
 96
        3
 40
0.0
 40
0.0
 40
0.0
 40
1.0
 40
1.0
 40
1.0
 10
0.7433798711856086
 20
0.4910756276565398
 42
1.0
 10
0.6356391859873066
 20
0.3887263848156776
 42
1.0
 10
0.5548319766664554
 20
0.3761548297589422
 42
1.0
 97
        0
 72
     4
 94
        2
 73
     1
 74
     0
 95
        6
 96
        3
 40
0.0
 40
0.0
 40
0.0
 40
1.0
 40
1.0
 40
1.0
 10
0.5548319766664554
 20
0.3761548297589422
 42
1.0
 10
0.6320550636150964
 20
0.4228416688145489
 42
1.0
 10
0.666156784236967
 20
0.4713188736341342
 42
1.0
 97
        0
 72
     1
 10
0.666156784236967
 20
0.4713188736341342
 11
0.6464118981694371
 21
0.4874864190179542
 72
     4
 94
        2
 73
     1
 74
     0
 95
        6
 96
        3
 40
0.0
 40
0.0
 40
0.0
 40
1.0
 40
1.0
 40
1.0
 10
0.6464118981694371
 20
0.4874864190179542
 42
1.0
 10
0.5674086179895655
 20
0.3869292373631978
 42
1.0
 10
0.5189263269036046
 20
0.4012877673396635
 42
1.0
 97
        0
 97
        0
 75
     0
 76
     1
 98
        1
 10
0.0
 20
0.0
450
        0
451
        0
460
0.0
461
0.0
452
        0
462
0.0
453
        0
470

  0
HATCH
  5
206
330
9B
100
AcDbEntity
  8
LAYER_1
 62
   158
100
AcDbHatch
 10
0.0
 20
0.0
 30
0.0
210
0.0
220
0.0
230
1.0
  2
SOLID
 70
     1
 71
     0
 91
        1
 92
        0
 93
        4
 72
     1
 10
0.9833804363536895
 20
0.095886293700434
 11
0.9833804363536895
 21
0.0000000000000005
 72
     1
 10
0.9833804363536895
 20
0.0000000000000005
 11
0.0002763538063724
 21
0.0000000000000005
 72
     1
 10
0.0002763538063723
 20
0.0000000000000005
 11
0.0002763538063723
 21
0.095886293700434
 72
     1
 10
0.0002763538063723
 20
0.095886293700434
 11
0.9833804363536895
 21
0.095886293700434
 97
        0
 75
     0
 76
     1
 98
        1
 10
0.0
 20
0.0
450
        0
451
        0
460
0.0
461
0.0
452
        0
462
0.0
453
        0
470

  0
MTEXT
  5
208
330
9B
100
AcDbEntity
  8
PIVOTS
100
AcDbMText
 10
0.0212733794
 20
0.0925380959
 30
0.0
 40
0.07
 41
0.0
 46
0.0
 71
     1
 72
     1
  1
AMUSEMENTS
  7
SLDTEXTSTYLE0
 73
     1
 44
1.0
  0
ENDBLK
  5
9D
330
9B
100
AcDbEntity
  8
0
100
AcDbBlockEnd
  0
ENDSEC
  0
SECTION
  2
ENTITIES
  0
ARC
  5
209
330
1F
100
AcDbEntity
  8
0
  6
Continuous
 62
     7
100
AcDbCircle
 10
-1.818582733989692
 20
14.30963095928131
 30
0.0
 40
1.25
100
AcDbArc
 50
348.0162610438562
 51
78.01626104385623
  0
ARC
  5
20A
330
1F
100
AcDbEntity
  8
0
  6
Continuous
 62
     7
100
AcDbCircle
 10
-2.06938878265768
 20
14.362867038187
 30
0.0
 40
1.250000000000002
100
AcDbArc
 50
78.01626104385623
 51
154.9775849368563
  0
ARC
  5
20C
330
1F
100
AcDbEntity
  8
0
  6
Continuous
 62
     7
100
AcDbCircle
 10
-2.1587893209109
 20
14.16122401267837
 30
0.0
 40
0.158
100
AcDbArc
 50
242.990891273256
 51
62.990891273256
  0
ARC
  5
20E
330
1F
100
AcDbEntity
  8
0
  6
Continuous
 62
     7
100
AcDbCircle
 10
-2.631734677725764
 20
14.6772886301955
 30
0.0
 40
0.158
100
AcDbArc
 50
22.01626104385605
 51
202.016261043856
  0
CIRCLE
  5
20F
330
1F
100
AcDbEntity
  8
0
  6
Continuous
 62
     7
100
AcDbCircle
 10
-1.704657177194358
 20
15.05215835142561
 30
0.0
 40
0.158
  0
CIRCLE
  5
210
330
1F
100
AcDbEntity
  8
0
  6
Continuous
 62
     7
100
AcDbCircle
 10
-2.624716834227156
 20
12.25505787906104
 30
0.0
 40
0.7499999999999997
  0
CIRCLE
  5
211
330
1F
100
AcDbEntity
  8
0
  6
Continuous
 62
     7
100
AcDbCircle
 10
-5.337918248231514
 20
3.911007627806027
 30
0.0
 40
1.749999999999999
  0
CIRCLE
  5
212
330
1F
100
AcDbEntity
  8
0
  6
Continuous
 62
     7
100
AcDbCircle
 10
-3.331337101058198
 20
10.0819516052537
 30
0.0
 40
1.0
  0
CIRCLE
  5
213
330
1F
100
AcDbEntity
  8
0
  6
Continuous
 62
     7
100
AcDbCircle
 10
-4.215864177944868
 20
7.361719210933928
 30
0.0
 40
1.25
  0
LINE
  5
214
330
1F
100
AcDbEntity
  8
0
  6
Continuous
 62
     7
100
AcDbLine
 10
-7.592645365291422
 20
0.2950624578999999
 30
0.0
 11
-1.334872236294045
 21
2.825433076119921
 31
0.0
  0
LINE
  5
215
330
1F
100
AcDbEntity
  8
0
  6
Continuous
 62
     7
100
AcDbLine
 10
-8.717254528987943
 20
3.076294959717752
 30
0.0
 11
-7.592645365291422
 21
0.2950624578999999
 31
0.0
  0
LINE
  5
216
330
1F
100
AcDbEntity
  8
0
  6
Continuous
 62
     7
100
AcDbLine
 10
-3.202066760623776
 20
14.89158302829726
 30
0.0
 11
-8.717254528987943
 21
3.076294959717752
 31
0.0
  0
LINE
  5
217
330
1F
100
AcDbEntity
  8
0
  6
Continuous
 62
     7
100
AcDbLine
 10
-1.559040139503045
 20
15.5323891698167
 30
0.0
 11
-1.809846188171033
 21
15.58562524872239
 31
0.0
  0
LINE
  5
218
330
1F
100
AcDbEntity
  8
0
  6
Continuous
 62
     7
100
AcDbLine
 10
-2.412622684842363
 20
5.490780890376317
 30
0.0
 11
-0.5958245233636516
 21
14.05008836475243
 31
0.0
  0
LINE
  5
219
330
1F
100
AcDbEntity
  8
0
  6
Continuous
 62
     7
100
AcDbLine
 10
-1.334872236294052
 20
2.825433076119922
 30
0.0
 11
-2.412622684842363
 21
5.490780890376317
 31
0.0
  0
LINE
  5
21C
330
1F
100
AcDbEntity
  8
0
  6
Continuous
 62
     7
100
AcDbLine
 10
-3.612054267279411
 20
22.70794707694059
 30
0.0
 11
-3.965607657779411
 21
22.35439368634059
 31
0.0
  0
LINE
  5
21D
330
1F
100
AcDbEntity
  8
0
  6
Continuous
 62
     7
100
AcDbLine
 10
-3.54134358907941
 20
22.63723639884059
 30
0.0
 11
-3.612054267279411
 21
22.70794707694059
 31
0.0
  0
LINE
  5
21E
330
1F
100
AcDbEntity
  8
0
  6
Continuous
 62
     7
100
AcDbLine
 10
-1.844287314279412
 20
24.47571402994059
 30
0.0
 11
-2.197840704879411
 21
24.12216063934059
 31
0.0
  0
CIRCLE
  5
21F
330
1F
100
AcDbEntity
  8
0
  6
Continuous
 62
     7
100
AcDbCircle
 10
-1.455378584579413
 20
21.96548495674059
 30
0.0
 40
0.158
  0
CIRCLE
  5
220
330
1F
100
AcDbEntity
  8
0
  6
Continuous
 62
     7
100
AcDbCircle
 10
-2.162485365779414
 20
22.67259173794059
 30
0.0
 40
0.158
  0
LINE
  5
221
330
1F
100
AcDbEntity
  8
0
  6
Continuous
 62
     7
100
AcDbLine
 10
-2.197840704879411
 20
24.12216063934059
 30
0.0
 11
-2.127130026779411
 21
24.05144996124059
 31
0.0
  0
LINE
  5
222
330
1F
100
AcDbEntity
  8
0
  6
Continuous
 62
     7
100
AcDbLine
 10
-1.066469854979413
 20
23.69789657064059
 30
0.0
 11
-1.844287314279412
 21
24.47571402994059
 31
0.0
  0
LINE
  5
223
330
1F
100
AcDbEntity
  8
0
  6
Continuous
 62
     7
100
AcDbLine
 10
-3.965607657779411
 20
22.35439368634059
 30
0.0
 11
-3.187790198479412
 21
21.57657622704059
 31
0.0
  0
ARC
  5
224
330
1F
100
AcDbEntity
  8
0
  6
Continuous
 62
     7
100
AcDbCircle
 10
-2.127130026779411
 20
22.63723639884059
 30
0.0
 40
1.5
100
AcDbArc
 50
225.0
 51
45.0
  0
LINE
  5
225
330
1F
100
AcDbEntity
  8
0
  6
Continuous
 62
     7
100
AcDbLine
 10
-2.127130026779411
 20
24.05144996124059
 30
0.0
 11
-3.54134358907941
 21
22.63723639884059
 31
0.0
  0
LINE
  5
226
330
1F
100
AcDbEntity
  8
0
  6
Continuous
 62
     7
100
AcDbLine
 10
-8.564970986113678
 20
9.917416676720776
 30
0.0
 11
-8.939970986113678
 21
9.917416676720776
 31
0.0
  0
LINE
  5
227
330
1F
100
AcDbEntity
  8
0
  6
Continuous
 62
     7
100
AcDbLine
 10
-8.564970986113678
 20
10.06741667672077
 30
0.0
 11
-8.564970986113678
 21
9.917416676720776
 31
0.0
  0
LINE
  5
228
330
1F
100
AcDbEntity
  8
0
  6
Continuous
 62
     7
100
AcDbLine
 10
-8.939970986113678
 20
10.06741667672077
 30
0.0
 11
-8.564970986113678
 21
10.06741667672077
 31
0.0
  0
LINE
  5
229
330
1F
100
AcDbEntity
  8
0
  6
Continuous
 62
     7
100
AcDbLine
 10
-8.939970986113678
 20
9.917416676720776
 30
0.0
 11
-8.939970986113678
 21
10.06741667672077
 31
0.0
  0
LINE
  5
22A
330
1F
100
AcDbEntity
  8
0
  6
Continuous
 62
     7
100
AcDbLine
 10
-8.314970986113678
 20
6.967502118420776
 30
0.0
 11
-8.314970986113678
 21
22.32983123492077
 31
0.0
  0
LINE
  5
22C
330
1F
100
AcDbEntity
  8
0
  6
Continuous
 62
     7
100
AcDbLine
 10
-9.189970986113678
 20
6.967502118420776
 30
0.0
 11
-9.189970986113678
 21
22.32983123492077
 31
0.0
  0
ARC
  5
22D
330
1F
100
AcDbEntity
  8
0
  6
Continuous
 62
     7
100
AcDbCircle
 10
-8.752470986113678
 20
22.32983123492077
 30
0.0
 40
0.4375
100
AcDbArc
 50
0.0
 51
180.0
  0
LINE
  5
22E
330
1F
100
AcDbEntity
  8
0
  6
Continuous
 62
     7
100
AcDbLine
 10
0.771190084128758
 20
14.30505764284264
 30
0.0
 11
0.3961900841287615
 21
14.30505764284264
 31
0.0
  0
LINE
  5
22F
330
1F
100
AcDbEntity
  8
0
  6
Continuous
 62
     7
100
AcDbLine
 10
0.771190084128758
 20
14.45505764284263
 30
0.0
 11
0.771190084128758
 21
14.30505764284264
 31
0.0
  0
LINE
  5
230
330
1F
100
AcDbEntity
  8
0
  6
Continuous
 62
     7
100
AcDbLine
 10
0.3961900841287615
 20
14.45505764284263
 30
0.0
 11
0.771190084128758
 21
14.45505764284263
 31
0.0
  0
LINE
  5
231
330
1F
100
AcDbEntity
  8
0
  6
Continuous
 62
     7
100
AcDbLine
 10
0.3961900841287615
 20
14.30505764284264
 30
0.0
 11
0.3961900841287615
 21
14.45505764284263
 31
0.0
  0
LINE
  5
232
330
1F
100
AcDbEntity
  8
0
  6
Continuous
 62
     7
100
AcDbLine
 10
1.021190084128758
 20
11.48014308454264
 30
0.0
 11
1.021190084128758
 21
22.42261468974264
 31
0.0
  0
LINE
  5
236
330
1F
100
AcDbEntity
  8
0
  6
Continuous
 62
     7
100
AcDbLine
 10
0.1461900841287615
 20
11.48014308454263
 30
0.0
 11
0.1461900841287615
 21
22.42261468974264
 31
0.0
  0
ARC
  5
237
330
1F
100
AcDbEntity
  8
0
  6
Continuous
 62
     7
100
AcDbCircle
 10
0.583690084128758
 20
22.42261468974264
 30
0.0
 40
0.4375000000000037
100
AcDbArc
 50
0.0
 51
180.0
  0
LINE
  5
238
330
1F
100
AcDbEntity
  8
0
  6
Continuous
 62
     7
100
AcDbLine
 10
7.910827627599999
 20
8.0350624579
 30
0.0
 11
7.910827627599999
 21
7.8750624579
 31
0.0
  0
LINE
  5
239
330
1F
100
AcDbEntity
  8
0
  6
Continuous
 62
     7
100
AcDbLine
 10
7.910827627599999
 20
7.8750624579
 30
0.0
 11
8.510827627600001
 21
7.8750624579
 31
0.0
  0
LINE
  5
23A
330
1F
100
AcDbEntity
  8
0
  6
Continuous
 62
     7
100
AcDbLine
 10
8.510827627600001
 20
7.8750624579
 30
0.0
 11
8.510827627600001
 21
8.0350624579
 31
0.0
  0
LINE
  5
23B
330
1F
100
AcDbEntity
  8
0
  6
Continuous
 62
     7
100
AcDbLine
 10
8.510827627600001
 20
8.0350624579
 30
0.0
 11
7.910827627599999
 21
8.0350624579
 31
0.0
  0
LINE
  5
23C
330
1F
100
AcDbEntity
  8
0
  6
Continuous
 62
     7
100
AcDbLine
 10
5.410827627599999
 20
8.0350624579
 30
0.0
 11
5.410827627599999
 21
7.8750624579
 31
0.0
  0
LINE
  5
23D
330
1F
100
AcDbEntity
  8
0
  6
Continuous
 62
     7
100
AcDbLine
 10
5.410827627599999
 20
7.8750624579
 30
0.0
 11
6.0108276276
 21
7.8750624579
 31
0.0
  0
LINE
  5
23E
330
1F
100
AcDbEntity
  8
0
  6
Continuous
 62
     7
100
AcDbLine
 10
6.0108276276
 20
7.8750624579
 30
0.0
 11
6.0108276276
 21
8.0350624579
 31
0.0
  0
LINE
  5
23F
330
1F
100
AcDbEntity
  8
0
  6
Continuous
 62
     7
100
AcDbLine
 10
6.0108276276
 20
8.0350624579
 30
0.0
 11
5.410827627599999
 21
8.0350624579
 31
0.0
  0
LINE
  5
25F
330
1F
100
AcDbEntity
  8
0
  6
Continuous
 62
     7
100
AcDbLine
 10
12.3261262879
 20
0.9200624578999999
 30
0.0
 11
12.3261262879
 21
7.607562457899999
 31
0.0
  0
LINE
  5
260
330
1F
100
AcDbEntity
  8
0
  6
Continuous
 62
     7
100
AcDbLine
 10
12.3261262879
 20
7.607562457899999
 30
0.0
 11
12.1808276276
 21
7.607562457899999
 31
0.0
  0
LINE
  5
261
330
1F
100
AcDbEntity
  8
0
  6
Continuous
 62
     7
100
AcDbLine
 10
12.1808276276
 20
7.607562457899999
 30
0.0
 11
12.1808276276
 21
0.9200624578999999
 31
0.0
  0
LINE
  5
262
330
1F
100
AcDbEntity
  8
0
  6
Continuous
 62
     7
100
AcDbLine
 10
12.1808276276
 20
0.9200624578999999
 30
0.0
 11
12.3261262879
 21
0.9200624578999999
 31
0.0
  0
LINE
  5
263
330
1F
100
AcDbEntity
  8
0
  6
Continuous
 62
     7
100
AcDbLine
 10
2.2108276276
 20
14.2950624579
 30
0.0
 11
2.2108276276
 21
1.2950624579
 31
0.0
  0
ARC
  5
264
330
1F
100
AcDbEntity
  8
0
  6
Continuous
 62
     7
100
AcDbCircle
 10
3.2108276276
 20
14.2950624579
 30
0.0
 40
1.000000000000001
100
AcDbArc
 50
90.0
 51
180.0
  0
ARC
  5
265
330
1F
100
AcDbEntity
  8
0
  6
Continuous
 62
     7
100
AcDbCircle
 10
12.4211262879
 20
14.9200624579
 30
0.0
 40
0.375
100
AcDbArc
 50
0.0
 51
90.0
  0
LINE
  5
266
330
1F
100
AcDbEntity
  8
0
  6
Continuous
 62
     7
100
AcDbLine
 10
12.7961262879
 20
14.9200624579
 30
0.0
 11
12.7961262879
 21
0.6700624579
 31
0.0
  0
ARC
  5
267
330
1F
100
AcDbEntity
  8
0
  6
Continuous
 62
     7
100
AcDbCircle
 10
12.4211262879
 20
0.6700624579
 30
0.0
 40
0.3749999999999997
100
AcDbArc
 50
270.0
 51
0.0
  0
ARC
  5
268
330
1F
100
AcDbEntity
  8
0
  6
Continuous
 62
     7
100
AcDbCircle
 10
3.2108276276
 20
1.2950624579
 30
0.0
 40
1.0
100
AcDbArc
 50
180.0
 51
270.0
  0
LINE
  5
269
330
1F
100
AcDbEntity
  8
0
  6
Continuous
 62
     7
100
AcDbLine
 10
12.1808276276
 20
7.982562457899999
 30
0.0
 11
12.3261262879
 21
7.982562457899999
 31
0.0
  0
LINE
  5
26A
330
1F
100
AcDbEntity
  8
0
  6
Continuous
 62
     7
100
AcDbLine
 10
12.3261262879
 20
7.982562457899999
 30
0.0
 11
12.3261262879
 21
14.5450624579
 31
0.0
  0
LINE
  5
26B
330
1F
100
AcDbEntity
  8
0
  6
Continuous
 62
     7
100
AcDbLine
 10
12.3261262879
 20
14.5450624579
 30
0.0
 11
12.1808276276
 21
14.5450624579
 31
0.0
  0
LINE
  5
26C
330
1F
100
AcDbEntity
  8
0
  6
Continuous
 62
     7
100
AcDbLine
 10
12.1808276276
 20
14.5450624579
 30
0.0
 11
12.1808276276
 21
7.982562457899999
 31
0.0
  0
LINE
  5
26E
330
1F
100
AcDbEntity
  8
0
  6
Continuous
 62
     7
100
AcDbLine
 10
3.2108276276
 20
15.2950624579
 30
0.0
 11
3.680827627599999
 21
15.2950624579
 31
0.0
  0
LINE
  5
26F
330
1F
100
AcDbEntity
  8
0
  6
Continuous
 62
     7
100
AcDbLine
 10
12.4211262879
 20
0.2950624578999999
 30
0.0
 11
3.2108276276
 21
0.2950624578999999
 31
0.0
  0
LINE
  5
2D0
330
1F
100
AcDbEntity
  8
0
100
AcDbLine
 10
12.1808276276
 20
15.3625624579
 30
0.0
 11
12.1808276276
 21
22.7950624579
 31
0.0
  0
LINE
  5
2D1
330
1F
100
AcDbEntity
  8
0
100
AcDbLine
 10
11.6808276276
 20
23.2950624579
 30
0.0
 11
4.680827627599999
 21
23.2950624579
 31
0.0
  0
LINE
  5
2D2
330
1F
100
AcDbEntity
  8
0
100
AcDbLine
 10
4.180827627599999
 20
15.7950624579
 30
0.0
 11
4.180827627599999
 21
22.7950624579
 31
0.0
  0
ARC
  5
2D5
330
1F
100
AcDbEntity
  8
0
100
AcDbCircle
 10
3.680827627599999
 20
15.7950624579
 30
0.0
 40
0.5
100
AcDbArc
 50
270.0
 51
0.0
  0
ARC
  5
2D6
330
1F
100
AcDbEntity
  8
0
100
AcDbCircle
 10
4.680827627599999
 20
22.7950624579
 30
0.0
 40
0.5
100
AcDbArc
 50
90.0
 51
180.0
  0
ARC
  5
2D7
330
1F
100
AcDbEntity
  8
0
100
AcDbCircle
 10
11.6808276276
 20
22.7950624579
 30
0.0
 40
0.5
100
AcDbArc
 50
0.0
 51
90.0
  0
LINE
  5
2D8
330
1F
100
AcDbEntity
  8
0
100
AcDbLine
 10
12.4211262879
 20
15.2950624579
 30
0.0
 11
12.2454231363683
 21
15.2950624579
 31
0.0
  0
LINE
  5
2E6
330
1F
100
AcDbEntity
  8
0
  6
Continuous
 62
     7
100
AcDbLine
 10
7.910827627599999
 20
7.5550624579
 30
0.0
 11
7.910827627599999
 21
7.7150624579
 31
0.0
  0
LINE
  5
2E7
330
1F
100
AcDbEntity
  8
0
  6
Continuous
 62
     7
100
AcDbLine
 10
7.910827627599999
 20
7.7150624579
 30
0.0
 11
8.510827627600001
 21
7.7150624579
 31
0.0
  0
LINE
  5
2E8
330
1F
100
AcDbEntity
  8
0
  6
Continuous
 62
     7
100
AcDbLine
 10
8.510827627600001
 20
7.7150624579
 30
0.0
 11
8.510827627600001
 21
7.5550624579
 31
0.0
  0
LINE
  5
2E9
330
1F
100
AcDbEntity
  8
0
  6
Continuous
 62
     7
100
AcDbLine
 10
8.510827627600001
 20
7.5550624579
 30
0.0
 11
7.910827627599999
 21
7.5550624579
 31
0.0
  0
LINE
  5
2EA
330
1F
100
AcDbEntity
  8
0
  6
Continuous
 62
     7
100
AcDbLine
 10
5.410827627599999
 20
7.5550624579
 30
0.0
 11
5.410827627599999
 21
7.7150624579
 31
0.0
  0
LINE
  5
2EB
330
1F
100
AcDbEntity
  8
0
  6
Continuous
 62
     7
100
AcDbLine
 10
5.410827627599999
 20
7.7150624579
 30
0.0
 11
6.0108276276
 21
7.7150624579
 31
0.0
  0
LINE
  5
2EC
330
1F
100
AcDbEntity
  8
0
  6
Continuous
 62
     7
100
AcDbLine
 10
6.0108276276
 20
7.7150624579
 30
0.0
 11
6.0108276276
 21
7.5550624579
 31
0.0
  0
LINE
  5
2ED
330
1F
100
AcDbEntity
  8
0
  6
Continuous
 62
     7
100
AcDbLine
 10
6.0108276276
 20
7.5550624579
 30
0.0
 11
5.410827627599999
 21
7.5550624579
 31
0.0
  0
ARC
  5
2EE
330
1F
100
AcDbEntity
  8
0
100
AcDbCircle
 10
-1.704657177194358
 20
15.05215835142561
 30
0.0
 40
0.841999999957787
100
AcDbArc
 50
202.0163943933606
 51
242.9908912766688
  0
ARC
  5
2EF
330
1F
100
AcDbEntity
  8
0
100
AcDbCircle
 10
-1.704657177194358
 20
15.05215835142561
 30
0.0
 40
1.157914758145682
100
AcDbArc
 50
201.7399514190728
 51
243.2672009267059
  0
LINE
  5
3EF
330
1F
100
AcDbEntity
  8
0
  6
Continuous
 62
     7
100
AcDbLine
 10
-3.612054267279411
 20
18.73816447670899
 30
0.0
 11
-3.965607657779411
 21
18.38461108610899
 31
0.0
  0
LINE
  5
3F0
330
1F
100
AcDbEntity
  8
0
  6
Continuous
 62
     7
100
AcDbLine
 10
-3.54134358907941
 20
18.66745379860899
 30
0.0
 11
-3.612054267279411
 21
18.73816447670899
 31
0.0
  0
LINE
  5
3F1
330
1F
100
AcDbEntity
  8
0
  6
Continuous
 62
     7
100
AcDbLine
 10
-1.844287314279412
 20
20.50593142970899
 30
0.0
 11
-2.197840704879411
 21
20.15237803910899
 31
0.0
  0
CIRCLE
  5
3F2
330
1F
100
AcDbEntity
  8
0
  6
Continuous
 62
     7
100
AcDbCircle
 10
-1.455378584579413
 20
17.99570235650899
 30
0.0
 40
0.158
  0
CIRCLE
  5
3F3
330
1F
100
AcDbEntity
  8
0
  6
Continuous
 62
     7
100
AcDbCircle
 10
-2.162485365779414
 20
18.70280913770899
 30
0.0
 40
0.158
  0
LINE
  5
3F4
330
1F
100
AcDbEntity
  8
0
  6
Continuous
 62
     7
100
AcDbLine
 10
-2.197840704879411
 20
20.15237803910899
 30
0.0
 11
-2.127130026779411
 21
20.08166736100899
 31
0.0
  0
LINE
  5
3F5
330
1F
100
AcDbEntity
  8
0
  6
Continuous
 62
     7
100
AcDbLine
 10
-1.066469854979413
 20
19.72811397040899
 30
0.0
 11
-1.844287314279412
 21
20.50593142970899
 31
0.0
  0
LINE
  5
3F6
330
1F
100
AcDbEntity
  8
0
  6
Continuous
 62
     7
100
AcDbLine
 10
-3.965607657779411
 20
18.38461108610899
 30
0.0
 11
-3.187790198479412
 21
17.60679362680899
 31
0.0
  0
ARC
  5
3F7
330
1F
100
AcDbEntity
  8
0
  6
Continuous
 62
     7
100
AcDbCircle
 10
-2.127130026779411
 20
18.66745379860899
 30
0.0
 40
1.5
100
AcDbArc
 50
225.0
 51
45.0
  0
LINE
  5
3F8
330
1F
100
AcDbEntity
  8
0
  6
Continuous
 62
     7
100
AcDbLine
 10
-2.127130026779411
 20
20.08166736100899
 30
0.0
 11
-3.54134358907941
 21
18.66745379860899
 31
0.0
  0
LINE
  5
3F9
330
1F
100
AcDbEntity
  8
0
  6
Continuous
 62
     7
100
AcDbLine
 10
8.100827627599999
 20
21.81006245789999
 30
0.0
 11
8.260827627599999
 21
21.81006245789999
 31
0.0
  0
LINE
  5
3FA
330
1F
100
AcDbEntity
  8
0
  6
Continuous
 62
     7
100
AcDbLine
 10
8.260827627599999
 20
21.81006245789999
 30
0.0
 11
8.260827627599999
 21
22.4100624579
 31
0.0
  0
LINE
  5
3FB
330
1F
100
AcDbEntity
  8
0
  6
Continuous
 62
     7
100
AcDbLine
 10
8.260827627599999
 20
22.4100624579
 30
0.0
 11
8.100827627599999
 21
22.4100624579
 31
0.0
  0
LINE
  5
3FC
330
1F
100
AcDbEntity
  8
0
  6
Continuous
 62
     7
100
AcDbLine
 10
8.100827627599999
 20
22.4100624579
 30
0.0
 11
8.100827627599999
 21
21.81006245789999
 31
0.0
  0
LINE
  5
403
330
1F
100
AcDbEntity
  8
0
  6
Continuous
 62
     7
100
AcDbLine
 10
8.100827627599999
 20
8.810062457899995
 30
0.0
 11
8.260827627599999
 21
8.810062457899995
 31
0.0
  0
LINE
  5
404
330
1F
100
AcDbEntity
  8
0
  6
Continuous
 62
     7
100
AcDbLine
 10
8.260827627599999
 20
8.810062457899995
 30
0.0
 11
8.260827627599999
 21
9.4100624579
 31
0.0
  0
LINE
  5
405
330
1F
100
AcDbEntity
  8
0
  6
Continuous
 62
     7
100
AcDbLine
 10
8.260827627599999
 20
9.4100624579
 30
0.0
 11
8.100827627599999
 21
9.4100624579
 31
0.0
  0
LINE
  5
406
330
1F
100
AcDbEntity
  8
0
  6
Continuous
 62
     7
100
AcDbLine
 10
8.100827627599999
 20
9.4100624579
 30
0.0
 11
8.100827627599999
 21
8.810062457899995
 31
0.0
  0
LINE
  5
407
330
1F
100
AcDbEntity
  8
0
  6
Continuous
 62
     7
100
AcDbLine
 10
8.100827627599999
 20
15.31006245789999
 30
0.0
 11
8.260827627599999
 21
15.31006245789999
 31
0.0
  0
LINE
  5
408
330
1F
100
AcDbEntity
  8
0
  6
Continuous
 62
     7
100
AcDbLine
 10
8.260827627599999
 20
15.31006245789999
 30
0.0
 11
8.260827627599999
 21
15.9100624579
 31
0.0
  0
LINE
  5
409
330
1F
100
AcDbEntity
  8
0
  6
Continuous
 62
     7
100
AcDbLine
 10
8.260827627599999
 20
15.9100624579
 30
0.0
 11
8.100827627599999
 21
15.9100624579
 31
0.0
  0
LINE
  5
40A
330
1F
100
AcDbEntity
  8
0
  6
Continuous
 62
     7
100
AcDbLine
 10
8.100827627599999
 20
15.9100624579
 30
0.0
 11
8.100827627599999
 21
15.31006245789999
 31
0.0
  0
LINE
  5
41C
330
1F
100
AcDbEntity
  8
0
  6
Continuous
 62
     7
100
AcDbLine
 10
-7.536423614602924
 20
25.18304924365622
 30
0.0
 11
-7.37642361460292
 21
25.18304924365622
 31
0.0
  0
LINE
  5
41D
330
1F
100
AcDbEntity
  8
0
  6
Continuous
 62
     7
100
AcDbLine
 10
-7.37642361460292
 20
19.18304924365623
 30
0.0
 11
-7.37642361460292
 21
25.18304924365622
 31
0.0
  0
LINE
  5
41E
330
1F
100
AcDbEntity
  8
0
  6
Continuous
 62
     7
100
AcDbLine
 10
-7.37642361460292
 20
25.68304924365623
 30
0.0
 11
-7.536423614602924
 21
25.68304924365623
 31
0.0
  0
LINE
  5
41F
330
1F
100
AcDbEntity
  8
0
  6
Continuous
 62
     7
100
AcDbLine
 10
-7.536423614602924
 20
25.68304924365623
 30
0.0
 11
-7.536423614602924
 21
25.18304924365622
 31
0.0
  0
LINE
  5
420
330
1F
100
AcDbEntity
  8
0
  6
Continuous
 62
     7
100
AcDbLine
 10
-7.536423614602924
 20
12.18304924365623
 30
0.0
 11
-7.37642361460292
 21
12.18304924365623
 31
0.0
  0
LINE
  5
421
330
1F
100
AcDbEntity
  8
0
  6
Continuous
 62
     7
100
AcDbLine
 10
-7.37642361460292
 20
11.35804924365623
 30
0.0
 11
-7.37642361460292
 21
12.18304924365623
 31
0.0
  0
LINE
  5
422
330
1F
100
AcDbEntity
  8
0
  6
Continuous
 62
     7
100
AcDbLine
 10
-7.37642361460292
 20
12.68304924365623
 30
0.0
 11
-7.536423614602924
 21
12.68304924365623
 31
0.0
  0
LINE
  5
423
330
1F
100
AcDbEntity
  8
0
  6
Continuous
 62
     7
100
AcDbLine
 10
-7.536423614602924
 20
12.68304924365623
 30
0.0
 11
-7.536423614602924
 21
12.18304924365623
 31
0.0
  0
LINE
  5
424
330
1F
100
AcDbEntity
  8
0
  6
Continuous
 62
     7
100
AcDbLine
 10
-7.536423614602924
 20
18.68304924365622
 30
0.0
 11
-7.37642361460292
 21
18.68304924365622
 31
0.0
  0
LINE
  5
425
330
1F
100
AcDbEntity
  8
0
  6
Continuous
 62
     7
100
AcDbLine
 10
-7.37642361460292
 20
12.68304924365623
 30
0.0
 11
-7.37642361460292
 21
18.68304924365622
 31
0.0
  0
LINE
  5
426
330
1F
100
AcDbEntity
  8
0
  6
Continuous
 62
     7
100
AcDbLine
 10
-7.37642361460292
 20
19.18304924365623
 30
0.0
 11
-7.536423614602924
 21
19.18304924365623
 31
0.0
  0
LINE
  5
427
330
1F
100
AcDbEntity
  8
0
  6
Continuous
 62
     7
100
AcDbLine
 10
-7.536423614602924
 20
19.18304924365623
 30
0.0
 11
-7.536423614602924
 21
18.68304924365622
 31
0.0
  0
LINE
  5
428
330
1F
100
AcDbEntity
  8
0
100
AcDbLine
 10
-7.37642361460292
 20
25.68304924365623
 30
0.0
 11
-7.37642361460292
 21
26.10804924365623
 31
0.0
  0
LINE
  5
429
330
1F
100
AcDbEntity
  8
0
100
AcDbLine
 10
-7.37642361460292
 20
11.35804924365623
 30
0.0
 11
-6.37642361460292
 21
11.35804924365623
 31
0.0
  0
ARC
  5
42A
330
1F
100
AcDbEntity
  8
0
100
AcDbCircle
 10
-19.69775105976811
 20
18.36229922763597
 30
0.0
 40
15.05049111289701
100
AcDbArc
 50
332.2649567293425
 51
29.8659774292634
  0
LINE
  5
42D
330
1F
100
AcDbEntity
  8
0
100
AcDbLine
 10
-7.37642361460292
 20
26.10804924365623
 30
0.0
 11
-7.079672825273078
 21
26.10804924365623
 31
0.0
  0
ARC
  5
42E
330
1F
100
AcDbEntity
  8
0
100
AcDbCircle
 10
-7.079672825273078
 20
25.60804924365623
 30
0.0
 40
0.5
100
AcDbArc
 50
29.8659774292628
 51
90.0
  0
CIRCLE
  5
44E
330
1F
100
AcDbEntity
  8
0
  6
Continuous
 62
     7
100
AcDbCircle
 10
-8.752470986113678
 20
6.613948727827502
 30
0.0
 40
0.1875
  0
ARC
  5
44F
330
1F
100
AcDbEntity
  8
0
  6
Continuous
 62
     7
100
AcDbCircle
 10
-8.752470986113678
 20
6.613948727827502
 30
0.0
 40
0.5625
100
AcDbArc
 50
141.0575587310187
 51
38.94244126898192
  0
CIRCLE
  5
450
330
1F
100
AcDbEntity
  8
0
  6
Continuous
 62
     7
100
AcDbCircle
 10
0.5836900841287616
 20
11.12658969394936
 30
0.0
 40
0.1875
  0
ARC
  5
451
330
1F
100
AcDbEntity
  8
0
  6
Continuous
 62
     7
100
AcDbCircle
 10
0.5836900841287616
 20
11.12658969394936
 30
0.0
 40
0.5625
100
AcDbArc
 50
141.0575587310187
 51
38.94244126898196
  0
CIRCLE
  5
454
330
1F
100
AcDbEntity
  8
0
  6
Continuous
 62
     7
100
AcDbCircle
 10
2.979252806459442
 20
21.01634189946463
 30
0.0
 40
0.1875
  0
ARC
  5
455
330
1F
100
AcDbEntity
  8
0
  6
Continuous
 62
     7
100
AcDbCircle
 10
2.979252806459442
 20
21.01634189946463
 30
0.0
 40
0.5625
100
AcDbArc
 50
147.5654043300689
 51
32.43459566993064
  0
LINE
  5
458
330
1F
100
AcDbEntity
  8
0
100
AcDbLine
 10
3.051752806459447
 20
21.3948098483579
 30
0.0
 11
3.051752806459447
 21
21.85268143690854
 31
0.0
  0
LINE
  5
459
330
1F
100
AcDbEntity
  8
0
100
AcDbLine
 10
2.906752806459437
 20
21.3948098483579
 30
0.0
 11
2.906752806459437
 21
21.85268143690854
 31
0.0
  0
LINE
  5
45A
330
1F
100
AcDbEntity
  8
0
100
AcDbLine
 10
3.051752806459447
 20
21.3948098483579
 30
0.0
 11
2.906752806459437
 21
21.3948098483579
 31
0.0
  0
LINE
  5
462
330
1F
100
AcDbEntity
  8
0
100
AcDbLine
 10
3.114252806459447
 20
21.85268143690854
 30
0.0
 11
3.454005188599559
 21
21.31803118606971
 31
0.0
  0
LINE
  5
463
330
1F
100
AcDbEntity
  8
0
100
AcDbLine
 10
2.844252806459444
 20
21.85268143690854
 30
0.0
 11
2.504500424319324
 21
21.31803118606971
 31
0.0
  0
LINE
  5
464
330
1F
100
AcDbEntity
  8
0
100
AcDbLine
 10
3.114252806459447
 20
21.85268143690854
 30
0.0
 11
3.051752806459447
 21
21.85268143690854
 31
0.0
  0
LINE
  5
465
330
1F
100
AcDbEntity
  8
0
100
AcDbLine
 10
2.906752806459437
 20
21.85268143690854
 30
0.0
 11
2.844252806459444
 21
21.85268143690854
 31
0.0
  0
CIRCLE
  5
468
330
1F
100
AcDbEntity
  8
0
  6
Continuous
 62
     7
100
AcDbCircle
 10
2.979252806459442
 20
23.11598343600181
 30
0.0
 40
0.1875
  0
ARC
  5
469
330
1F
100
AcDbEntity
  8
0
  6
Continuous
 62
     7
100
AcDbCircle
 10
2.979252806459442
 20
23.11598343600181
 30
0.0
 40
0.5625
100
AcDbArc
 50
147.5654043300689
 51
32.43459566993064
  0
LINE
  5
46A
330
1F
100
AcDbEntity
  8
0
100
AcDbLine
 10
3.051752806459447
 20
23.49445138489508
 30
0.0
 11
2.906752806459437
 21
23.49445138489508
 31
0.0
  0
LINE
  5
46B
330
1F
100
AcDbEntity
  8
0
100
AcDbLine
 10
2.906752806459437
 20
23.49445138489508
 30
0.0
 11
2.906752806459437
 21
23.95232297344572
 31
0.0
  0
LINE
  5
46C
330
1F
100
AcDbEntity
  8
0
100
AcDbLine
 10
3.051752806459447
 20
23.49445138489508
 30
0.0
 11
3.051752806459447
 21
23.95232297344572
 31
0.0
  0
LINE
  5
46D
330
1F
100
AcDbEntity
  8
0
100
AcDbLine
 10
3.114252806459447
 20
23.95232297344572
 30
0.0
 11
3.454005188599559
 21
23.41767272260689
 31
0.0
  0
LINE
  5
46E
330
1F
100
AcDbEntity
  8
0
100
AcDbLine
 10
2.844252806459444
 20
23.95232297344572
 30
0.0
 11
2.504500424319324
 21
23.41767272260689
 31
0.0
  0
LINE
  5
46F
330
1F
100
AcDbEntity
  8
0
100
AcDbLine
 10
3.114252806459447
 20
23.95232297344572
 30
0.0
 11
3.051752806459447
 21
23.95232297344572
 31
0.0
  0
LINE
  5
470
330
1F
100
AcDbEntity
  8
0
100
AcDbLine
 10
2.906752806459437
 20
23.95232297344572
 30
0.0
 11
2.844252806459444
 21
23.95232297344572
 31
0.0
  0
ARC
  5
492
330
1F
100
AcDbEntity
  8
0
100
AcDbCircle
 10
12.1808276276
 20
15.2950624579
 30
0.0
 40
0.0675
100
AcDbArc
 50
90.0
 51
0.0
  0
CIRCLE
  5
4BD
330
1F
100
AcDbEntity
  8
0
100
AcDbCircle
 10
0.6375296385536551
 20
2.472562457957786
 30
0.0
 40
0.1875
  0
CIRCLE
  5
4BE
330
1F
100
AcDbEntity
  8
0
100
AcDbCircle
 10
0.6375296385536551
 20
7.160062457957787
 30
0.0
 40
0.1875
  0
CIRCLE
  5
4BF
330
1F
100
AcDbEntity
  8
0
  6
Continuous
 62
     7
100
AcDbCircle
 10
2.97417802335741
 20
16.70441060518785
 30
0.0
 40
0.1875
  0
ARC
  5
4C0
330
1F
100
AcDbEntity
  8
0
  6
Continuous
 62
     7
100
AcDbCircle
 10
2.97417802335741
 20
16.70441060518785
 30
0.0
 40
0.5625
100
AcDbArc
 50
179.9999999999996
 51
359.9999999999996
  0
LINE
  5
4C9
330
1F
100
AcDbEntity
  8
0
100
AcDbLine
 10
3.53667802335741
 20
17.45441060518785
 30
0.0
 11
3.224178023357413
 21
17.45441060518785
 31
0.0
  0
LINE
  5
4CA
330
1F
100
AcDbEntity
  8
0
100
AcDbLine
 10
2.41167802335741
 20
16.70441060518785
 30
0.0
 11
2.411678023357413
 21
17.45441060518785
 31
0.0
  0
LINE
  5
4CB
330
1F
100
AcDbEntity
  8
0
100
AcDbLine
 10
3.53667802335741
 20
16.70441060518785
 30
0.0
 11
3.536678023357413
 21
17.45441060518785
 31
0.0
  0
LINE
  5
4CC
330
1F
100
AcDbEntity
  8
0
100
AcDbLine
 10
3.224178023357406
 20
17.58941060518786
 30
0.0
 11
2.72417802335741
 21
17.58941060518786
 31
0.0
  0
LINE
  5
4CF
330
1F
100
AcDbEntity
  8
0
100
AcDbLine
 10
3.224178023357413
 20
17.45441060518785
 30
0.0
 11
3.224178023357413
 21
17.58941060518786
 31
0.0
  0
LINE
  5
4D0
330
1F
100
AcDbEntity
  8
0
100
AcDbLine
 10
2.72417802335741
 20
17.45441060518785
 30
0.0
 11
2.72417802335741
 21
17.58941060518786
 31
0.0
  0
LINE
  5
4D1
330
1F
100
AcDbEntity
  8
0
100
AcDbLine
 10
2.72417802335741
 20
17.45441060518785
 30
0.0
 11
2.411678023357417
 21
17.45441060518785
 31
0.0
  0
CIRCLE
  5
4D3
330
1F
100
AcDbEntity
  8
0
  6
Continuous
 62
     7
100
AcDbCircle
 10
0.5750296385576164
 20
0.8575624578999999
 30
0.0
 40
0.1875
  0
ARC
  5
4D4
330
1F
100
AcDbEntity
  8
0
  6
Continuous
 62
     7
100
AcDbCircle
 10
0.5750296385576164
 20
0.8575624578999999
 30
0.0
 40
0.5625
100
AcDbArc
 50
179.9999999999996
 51
359.9999999999996
  0
LINE
  5
4D8
330
1F
100
AcDbEntity
  8
0
100
AcDbLine
 10
0.0125296385576164
 20
0.8575624578999999
 30
0.0
 11
0.0125296385576164
 21
1.5400624579
 31
0.0
  0
LINE
  5
4D9
330
1F
100
AcDbEntity
  8
0
100
AcDbLine
 10
1.137529638557616
 20
0.8575624578999999
 30
0.0
 11
1.137529638557619
 21
1.5400624579
 31
0.0
  0
CIRCLE
  5
4DC
330
1F
100
AcDbEntity
  8
0
100
AcDbCircle
 10
1.137529638557619
 20
1.607562457899999
 30
0.0
 40
0.0675
  0
ARC
  5
4DD
330
1F
100
AcDbEntity
  8
0
100
AcDbCircle
 10
0.0125296385576199
 20
1.607562457899999
 30
0.0
 40
0.0675
100
AcDbArc
 50
269.9999999999969
 51
180.0
  0
LINE
  5
4E2
330
1F
100
AcDbEntity
  8
0
100
AcDbLine
 10
-0.4874703614346956
 20
8.087562457864658
 30
0.0
 11
-0.4874703614423837
 21
1.607562457899999
 31
0.0
  0
LINE
  5
4E3
330
1F
100
AcDbEntity
  8
0
100
AcDbLine
 10
-0.4874703614423837
 20
1.607562457899999
 30
0.0
 11
-0.0549703614423791
 21
1.607562457899999
 31
0.0
  0
LINE
  5
4E4
330
1F
100
AcDbEntity
  8
0
100
AcDbLine
 10
1.205029638557618
 20
1.607562457899999
 30
0.0
 11
1.637529638557616
 21
1.607562457899999
 31
0.0
  0
LINE
  5
4E5
330
1F
100
AcDbEntity
  8
0
100
AcDbLine
 10
1.637529638557616
 20
1.607562457899999
 30
0.0
 11
1.637529638565304
 21
8.087562457864658
 31
0.0
  0
LINE
  5
4E6
330
1F
100
AcDbEntity
  8
0
100
AcDbLine
 10
1.205029638558222
 20
8.087562457864658
 30
0.0
 11
1.63752963855822
 21
8.087562457864658
 31
0.0
  0
LINE
  5
4E7
330
1F
100
AcDbEntity
  8
0
100
AcDbLine
 10
-0.4874703614417797
 20
8.087562457864658
 30
0.0
 11
-0.0549703614417752
 21
8.087562457864658
 31
0.0
  0
CIRCLE
  5
4E9
330
1F
100
AcDbEntity
  8
0
  6
Continuous
 62
     7
100
AcDbCircle
 10
0.5750296385582204
 20
8.837562457864658
 30
0.0
 40
0.1875
  0
ARC
  5
4EA
330
1F
100
AcDbEntity
  8
0
  6
Continuous
 62
     7
100
AcDbCircle
 10
0.5750296385582204
 20
8.837562457864658
 30
0.0
 40
0.5625
100
AcDbArc
 50
0.0000000000004071
 51
180.0000000000004
  0
LINE
  5
4EB
330
1F
100
AcDbEntity
  8
0
100
AcDbLine
 10
0.0125296385582203
 20
8.837562457864658
 30
0.0
 11
0.0125296385582203
 21
8.155062457864653
 31
0.0
  0
LINE
  5
4EC
330
1F
100
AcDbEntity
  8
0
100
AcDbLine
 10
1.13752963855822
 20
8.837562457864658
 30
0.0
 11
1.137529638558223
 21
8.155062457864653
 31
0.0
  0
CIRCLE
  5
4ED
330
1F
100
AcDbEntity
  8
0
100
AcDbCircle
 10
1.137529638558223
 20
8.087562457864658
 30
0.0
 40
0.0675
  0
ARC
  5
4EE
330
1F
100
AcDbEntity
  8
0
100
AcDbCircle
 10
0.0125296385582239
 20
8.087562457864658
 30
0.0
 40
0.0675
100
AcDbArc
 50
180.0
 51
90.00000000000305
  0
CIRCLE
  5
502
330
1F
100
AcDbEntity
  8
0
  6
Continuous
 62
     7
100
AcDbCircle
 10
2.97417802335741
 20
18.97304026363385
 30
0.0
 40
0.1875
  0
ARC
  5
503
330
1F
100
AcDbEntity
  8
0
  6
Continuous
 62
     7
100
AcDbCircle
 10
2.97417802335741
 20
18.97304026363385
 30
0.0
 40
0.5625
100
AcDbArc
 50
179.9999999999996
 51
359.9999999999996
  0
LINE
  5
504
330
1F
100
AcDbEntity
  8
0
100
AcDbLine
 10
3.53667802335741
 20
19.72304026363385
 30
0.0
 11
3.224178023357413
 21
19.72304026363385
 31
0.0
  0
LINE
  5
505
330
1F
100
AcDbEntity
  8
0
100
AcDbLine
 10
2.72417802335741
 20
19.72304026363385
 30
0.0
 11
2.411678023357417
 21
19.72304026363385
 31
0.0
  0
LINE
  5
506
330
1F
100
AcDbEntity
  8
0
100
AcDbLine
 10
3.224178023357406
 20
19.85804026363386
 30
0.0
 11
2.72417802335741
 21
19.85804026363386
 31
0.0
  0
LINE
  5
507
330
1F
100
AcDbEntity
  8
0
100
AcDbLine
 10
2.41167802335741
 20
18.97304026363385
 30
0.0
 11
2.411678023357413
 21
19.72304026363385
 31
0.0
  0
LINE
  5
508
330
1F
100
AcDbEntity
  8
0
100
AcDbLine
 10
3.53667802335741
 20
18.97304026363385
 30
0.0
 11
3.536678023357413
 21
19.72304026363385
 31
0.0
  0
LINE
  5
509
330
1F
100
AcDbEntity
  8
0
100
AcDbLine
 10
2.72417802335741
 20
19.72304026363385
 30
0.0
 11
2.72417802335741
 21
19.85804026363386
 31
0.0
  0
LINE
  5
50A
330
1F
100
AcDbEntity
  8
0
100
AcDbLine
 10
3.224178023357413
 20
19.72304026363385
 30
0.0
 11
3.224178023357413
 21
19.85804026363386
 31
0.0
  0
CIRCLE
  5
50B
330
1F
100
AcDbEntity
  8
0
100
AcDbCircle
 10
-6.486019759933704
 20
13.26605293125269
 30
0.0
 40
0.5154038546692164
  0
CIRCLE
  5
50C
330
1F
100
AcDbEntity
  8
0
100
AcDbCircle
 10
-6.044753050877318
 20
16.94345785721971
 30
0.0
 40
0.9566705637256021
  0
CIRCLE
  5
50D
330
1F
100
AcDbEntity
  8
0
100
AcDbCircle
 10
-6.230802601792753
 20
14.89292706154206
 30
0.0
 40
0.7706210128101674
  0
CIRCLE
  5
50E
330
1F
100
AcDbEntity
  8
0
100
AcDbCircle
 10
-6.166727271953234
 20
21.28508430460986
 30
0.0
 40
0.8346963426496856
  0
CIRCLE
  5
50F
330
1F
100
AcDbEntity
  8
0
100
AcDbCircle
 10
-6.648636289421929
 20
24.26322657012568
 30
0.0
 40
0.3527873251809908
  0
CIRCLE
  5
510
330
1F
100
AcDbEntity
  8
0
100
AcDbCircle
 10
-6.410810969773962
 20
23.04169407996946
 30
0.0
 40
0.5906126448289584
  0
CIRCLE
  5
513
330
1F
100
AcDbEntity
  8
0
100
AcDbCircle
 10
-6.023242297614906
 20
19.16526551991629
 30
0.0
 40
0.9781813169880138
  0
CIRCLE
  5
51E
330
1F
100
AcDbEntity
  8
0
100
AcDbCircle
 10
-6.711084568076451
 20
12.16323342845428
 30
0.0
 40
0.2903390465264692
  0
CIRCLE
  5
51F
330
1F
100
AcDbEntity
  8
0
100
AcDbCircle
 10
-6.821925022343982
 20
25.02225166375521
 30
0.0
 40
0.1794985922589376
  0
LINE
  5
592
330
1F
100
AcDbEntity
  8
0
100
AcDbLine
 10
0.2750296385536544
 20
5.775062457891744
 30
0.0
 11
0.2750296385536544
 21
5.920062457891743
 31
0.0
  0
LINE
  5
593
330
1F
100
AcDbEntity
  8
0
100
AcDbLine
 10
0.2750296385536544
 20
5.920062457891743
 30
0.0
 11
0.8750296385536557
 21
5.920062457891747
 31
0.0
  0
LINE
  5
594
330
1F
100
AcDbEntity
  8
0
100
AcDbLine
 10
0.8750296385536557
 20
5.920062457891747
 30
0.0
 11
0.8750296385536557
 21
5.775062457891747
 31
0.0
  0
LINE
  5
595
330
1F
100
AcDbEntity
  8
0
100
AcDbLine
 10
0.8750296385536557
 20
5.775062457891747
 30
0.0
 11
0.2750296385536544
 21
5.775062457891744
 31
0.0
  0
LINE
  5
596
330
1F
100
AcDbEntity
  8
0
100
AcDbLine
 10
0.2750296385536544
 20
3.920062457891746
 30
0.0
 11
0.2750296385536544
 21
3.775062457891747
 31
0.0
  0
LINE
  5
597
330
1F
100
AcDbEntity
  8
0
100
AcDbLine
 10
0.2750296385536544
 20
3.775062457891747
 30
0.0
 11
0.8750296385536557
 21
3.775062457891743
 31
0.0
  0
LINE
  5
598
330
1F
100
AcDbEntity
  8
0
100
AcDbLine
 10
0.8750296385536557
 20
3.775062457891743
 30
0.0
 11
0.8750296385536557
 21
3.920062457891743
 31
0.0
  0
LINE
  5
599
330
1F
100
AcDbEntity
  8
0
100
AcDbLine
 10
0.8750296385536557
 20
3.920062457891743
 30
0.0
 11
0.2750296385536544
 21
3.920062457891746
 31
0.0
  0
LINE
  5
59A
330
1F
100
AcDbEntity
  8
0
100
AcDbLine
 10
0.3875296385582203
 20
8.150062457864658
 30
0.0
 11
0.7625296385582204
 21
8.150062457864658
 31
0.0
  0
LINE
  5
59B
330
1F
100
AcDbEntity
  8
0
100
AcDbLine
 10
0.7625296385582204
 20
8.150062457864658
 30
0.0
 11
0.7625296385582204
 21
8.025062457864658
 31
0.0
  0
LINE
  5
59C
330
1F
100
AcDbEntity
  8
0
100
AcDbLine
 10
0.7625296385582204
 20
8.025062457864658
 30
0.0
 11
0.3875296385582203
 21
8.025062457864658
 31
0.0
  0
LINE
  5
59D
330
1F
100
AcDbEntity
  8
0
100
AcDbLine
 10
0.3875296385582203
 20
8.025062457864658
 30
0.0
 11
0.3875296385582203
 21
8.150062457864658
 31
0.0
  0
LINE
  5
59E
330
1F
100
AcDbEntity
  8
0
100
AcDbLine
 10
0.3875296385576163
 20
1.545062457899999
 30
0.0
 11
0.7625296385576164
 21
1.545062457899999
 31
0.0
  0
LINE
  5
59F
330
1F
100
AcDbEntity
  8
0
100
AcDbLine
 10
0.7625296385576164
 20
1.545062457899999
 30
0.0
 11
0.7625296385576164
 21
1.670062457899999
 31
0.0
  0
LINE
  5
5A0
330
1F
100
AcDbEntity
  8
0
100
AcDbLine
 10
0.7625296385576164
 20
1.670062457899999
 30
0.0
 11
0.3875296385576163
 21
1.670062457899999
 31
0.0
  0
LINE
  5
5A1
330
1F
100
AcDbEntity
  8
0
100
AcDbLine
 10
0.3875296385576163
 20
1.670062457899999
 30
0.0
 11
0.3875296385576163
 21
1.545062457899999
 31
0.0
  0
LINE
  5
5A2
330
1F
100
AcDbEntity
  8
0
100
AcDbLine
 10
7.555827627599999
 20
23.0350624579
 30
0.0
 11
8.805827627599999
 21
23.0350624579
 31
0.0
  0
LINE
  5
5A3
330
1F
100
AcDbEntity
  8
0
100
AcDbLine
 10
8.805827627599999
 20
23.0350624579
 30
0.0
 11
8.805827627599999
 21
23.1600624579
 31
0.0
  0
LINE
  5
5A4
330
1F
100
AcDbEntity
  8
0
100
AcDbLine
 10
8.805827627599999
 20
23.1600624579
 30
0.0
 11
7.555827627599999
 21
23.1600624579
 31
0.0
  0
LINE
  5
5A5
330
1F
100
AcDbEntity
  8
0
100
AcDbLine
 10
7.555827627599999
 20
23.1600624579
 30
0.0
 11
7.555827627599999
 21
23.0350624579
 31
0.0
  0
ENDSEC
  0
SECTION
  2
OBJECTS
  0
DICTIONARY
  5
C
330
0
100
AcDbDictionary
281
     1
  3
ACAD_CIP_PREVIOUS_PRODUCT_INFO
350
2C7
  3
ACAD_COLOR
350
2BC
  3
ACAD_DETAILVIEWSTYLE
350
2C3
  3
ACAD_GROUP
350
D
  3
ACAD_LAYOUT
350
1A
  3
ACAD_MATERIAL
350
28A
  3
ACAD_MLEADERSTYLE
350
2BF
  3
ACAD_MLINESTYLE
350
17
  3
ACAD_PLOTSETTINGS
350
19
  3
ACAD_PLOTSTYLENAME
350
E
  3
ACAD_SCALELIST
350
47
  3
ACAD_SECTIONVIEWSTYLE
350
2C1
  3
ACAD_TABLESTYLE
350
2BD
  3
ACAD_VISUALSTYLE
350
2A3
  3
ACDB_RECOMPOSE_DATA
350
5AF
  3
AcDbVariableDictionary
350
585
  0
DICTIONARY
  5
575
330
2
100
AcDbDictionary
280
     1
281
     1
  3
ACAD_LAYERSTATES
360
576
  0
DICTIONARY
  5
520
330
10
100
AcDbDictionary
280
     1
281
     1
  3
ADSK_XREC_LAYER_RECONCILED
360
521
  0
DICTIONARY
  5
522
330
73
100
AcDbDictionary
280
     1
281
     1
  3
ADSK_XREC_LAYER_RECONCILED
360
523
  0
DICTIONARY
  5
524
330
74
100
AcDbDictionary
280
     1
281
     1
  3
ADSK_XREC_LAYER_RECONCILED
360
525
  0
DICTIONARY
  5
526
330
75
100
AcDbDictionary
280
     1
281
     1
  3
ADSK_XREC_LAYER_RECONCILED
360
527
  0
DICTIONARY
  5
528
330
76
100
AcDbDictionary
280
     1
281
     1
  3
ADSK_XREC_LAYER_RECONCILED
360
529
  0
DICTIONARY
  5
52A
330
77
100
AcDbDictionary
280
     1
281
     1
  3
ADSK_XREC_LAYER_RECONCILED
360
52B
  0
DICTIONARY
  5
52C
330
78
100
AcDbDictionary
280
     1
281
     1
  3
ADSK_XREC_LAYER_RECONCILED
360
52D
  0
DICTIONARY
  5
52E
330
79
100
AcDbDictionary
280
     1
281
     1
  3
ADSK_XREC_LAYER_RECONCILED
360
52F
  0
DICTIONARY
  5
530
330
7A
100
AcDbDictionary
280
     1
281
     1
  3
ADSK_XREC_LAYER_RECONCILED
360
531
  0
DICTIONARY
  5
532
330
7B
100
AcDbDictionary
280
     1
281
     1
  3
ADSK_XREC_LAYER_RECONCILED
360
533
  0
DICTIONARY
  5
534
330
7C
100
AcDbDictionary
280
     1
281
     1
  3
ADSK_XREC_LAYER_RECONCILED
360
535
  0
DICTIONARY
  5
536
330
7D
100
AcDbDictionary
280
     1
281
     1
  3
ADSK_XREC_LAYER_RECONCILED
360
537
  0
DICTIONARY
  5
538
330
7E
100
AcDbDictionary
280
     1
281
     1
  3
ADSK_XREC_LAYER_RECONCILED
360
539
  0
DICTIONARY
  5
53A
330
7F
100
AcDbDictionary
280
     1
281
     1
  3
ADSK_XREC_LAYER_RECONCILED
360
53B
  0
DICTIONARY
  5
53C
330
80
100
AcDbDictionary
280
     1
281
     1
  3
ADSK_XREC_LAYER_RECONCILED
360
53D
  0
DICTIONARY
  5
53E
330
81
100
AcDbDictionary
280
     1
281
     1
  3
ADSK_XREC_LAYER_RECONCILED
360
53F
  0
DICTIONARY
  5
540
330
82
100
AcDbDictionary
280
     1
281
     1
  3
ADSK_XREC_LAYER_RECONCILED
360
541
  0
DICTIONARY
  5
542
330
83
100
AcDbDictionary
280
     1
281
     1
  3
ADSK_XREC_LAYER_RECONCILED
360
543
  0
DICTIONARY
  5
544
330
84
100
AcDbDictionary
280
     1
281
     1
  3
ADSK_XREC_LAYER_RECONCILED
360
545
  0
DICTIONARY
  5
546
330
85
100
AcDbDictionary
280
     1
281
     1
  3
ADSK_XREC_LAYER_RECONCILED
360
547
  0
DICTIONARY
  5
548
330
86
100
AcDbDictionary
280
     1
281
     1
  3
ADSK_XREC_LAYER_RECONCILED
360
549
  0
DICTIONARY
  5
54A
330
87
100
AcDbDictionary
280
     1
281
     1
  3
ADSK_XREC_LAYER_RECONCILED
360
54B
  0
DICTIONARY
  5
54C
330
88
100
AcDbDictionary
280
     1
281
     1
  3
ADSK_XREC_LAYER_RECONCILED
360
54D
  0
DICTIONARY
  5
54E
330
89
100
AcDbDictionary
280
     1
281
     1
  3
ADSK_XREC_LAYER_RECONCILED
360
54F
  0
DICTIONARY
  5
550
330
8A
100
AcDbDictionary
280
     1
281
     1
  3
ADSK_XREC_LAYER_RECONCILED
360
551
  0
DICTIONARY
  5
552
330
8B
100
AcDbDictionary
280
     1
281
     1
  3
ADSK_XREC_LAYER_RECONCILED
360
553
  0
DICTIONARY
  5
554
330
8C
100
AcDbDictionary
280
     1
281
     1
  3
ADSK_XREC_LAYER_RECONCILED
360
555
  0
DICTIONARY
  5
556
330
8D
100
AcDbDictionary
280
     1
281
     1
  3
ADSK_XREC_LAYER_RECONCILED
360
557
  0
DICTIONARY
  5
558
330
8E
100
AcDbDictionary
280
     1
281
     1
  3
ADSK_XREC_LAYER_RECONCILED
360
559
  0
DICTIONARY
  5
55A
330
8F
100
AcDbDictionary
280
     1
281
     1
  3
ADSK_XREC_LAYER_RECONCILED
360
55B
  0
DICTIONARY
  5
55C
330
90
100
AcDbDictionary
280
     1
281
     1
  3
ADSK_XREC_LAYER_RECONCILED
360
55D
  0
DICTIONARY
  5
55E
330
91
100
AcDbDictionary
280
     1
281
     1
  3
ADSK_XREC_LAYER_RECONCILED
360
55F
  0
DICTIONARY
  5
560
330
92
100
AcDbDictionary
280
     1
281
     1
  3
ADSK_XREC_LAYER_RECONCILED
360
561
  0
DICTIONARY
  5
562
330
93
100
AcDbDictionary
280
     1
281
     1
  3
ADSK_XREC_LAYER_RECONCILED
360
563
  0
DICTIONARY
  5
564
330
94
100
AcDbDictionary
280
     1
281
     1
  3
ADSK_XREC_LAYER_RECONCILED
360
565
  0
DICTIONARY
  5
566
330
95
100
AcDbDictionary
280
     1
281
     1
  3
ADSK_XREC_LAYER_RECONCILED
360
567
  0
DICTIONARY
  5
568
330
96
100
AcDbDictionary
280
     1
281
     1
  3
ADSK_XREC_LAYER_RECONCILED
360
569
  0
DICTIONARY
  5
56A
330
97
100
AcDbDictionary
280
     1
281
     1
  3
ADSK_XREC_LAYER_RECONCILED
360
56B
  0
DICTIONARY
  5
56C
330
98
100
AcDbDictionary
280
     1
281
     1
  3
ADSK_XREC_LAYER_RECONCILED
360
56D
  0
DICTIONARY
  5
56E
330
99
100
AcDbDictionary
280
     1
281
     1
  3
ADSK_XREC_LAYER_RECONCILED
360
56F
  0
DICTIONARY
  5
570
330
9A
100
AcDbDictionary
280
     1
281
     1
  3
ADSK_XREC_LAYER_RECONCILED
360
571
  0
DICTIONARY
  5
2D3
330
1F
100
AcDbDictionary
280
     1
281
     1
  3
ACAD_SORTENTS
360
2D4
  0
XRECORD
  5
2C7
102
{ACAD_REACTORS
330
C
102
}
330
C
100
AcDbXrecord
280
     1
300
ACD
300
2019
300
ACD_F_S
  0
DICTIONARY
  5
2BC
102
{ACAD_REACTORS
330
C
102
}
330
C
100
AcDbDictionary
281
     1
  0
DICTIONARY
  5
2C3
102
{ACAD_REACTORS
330
C
102
}
330
C
100
AcDbDictionary
281
     1
  3
Imperial24
350
2C4
  0
DICTIONARY
  5
D
102
{ACAD_REACTORS
330
C
102
}
330
C
100
AcDbDictionary
281
     1
  0
DICTIONARY
  5
1A
102
{ACAD_REACTORS
330
C
102
}
330
C
100
AcDbDictionary
281
     1
  3
Layout1
350
1E
  3
Layout2
350
26
  3
Model
350
22
  0
DICTIONARY
  5
28A
102
{ACAD_REACTORS
330
C
102
}
330
C
100
AcDbDictionary
281
     1
  3
ByBlock
350
293
  3
ByLayer
350
28B
  3
Global
350
29B
  0
DICTIONARY
  5
2BF
102
{ACAD_REACTORS
330
C
102
}
330
C
100
AcDbDictionary
281
     1
  3
Standard
350
2C0
  0
DICTIONARY
  5
17
102
{ACAD_REACTORS
330
C
102
}
330
C
100
AcDbDictionary
281
     1
  3
Standard
350
18
  0
DICTIONARY
  5
19
102
{ACAD_REACTORS
330
C
102
}
330
C
100
AcDbDictionary
281
     1
  0
ACDBDICTIONARYWDFLT
  5
E
102
{ACAD_REACTORS
330
C
102
}
330
C
100
AcDbDictionary
281
     1
  3
Normal
350
F
100
AcDbDictionaryWithDefault
340
F
  0
DICTIONARY
  5
47
102
{ACAD_REACTORS
330
C
102
}
330
C
100
AcDbDictionary
281
     1
  3
A0
350
48
  3
A1
350
49
  3
A2
350
4A
  3
A3
350
4B
  3
A4
350
4C
  3
A5
350
4D
  3
A6
350
4E
  3
A7
350
4F
  3
A8
350
50
  3
A9
350
51
  3
B0
350
52
  3
B1
350
53
  3
B2
350
54
  3
B3
350
55
  3
B4
350
56
  3
B5
350
57
  3
B6
350
58
  3
B7
350
59
  3
B8
350
5A
  3
B9
350
5B
  3
C0
350
5C
  3
C1
350
5D
  3
C2
350
5E
  3
C3
350
5F
  3
C4
350
60
  3
C5
350
61
  3
C6
350
62
  3
C7
350
63
  3
C8
350
64
  3
C9
350
65
  3
D0
350
66
  3
D1
350
67
  3
D2
350
68
  0
DICTIONARY
  5
2C1
102
{ACAD_REACTORS
330
C
102
}
330
C
100
AcDbDictionary
281
     1
  3
Imperial24
350
2C2
  0
DICTIONARY
  5
2BD
102
{ACAD_REACTORS
330
C
102
}
330
C
100
AcDbDictionary
281
     1
  3
Standard
350
2BE
  0
DICTIONARY
  5
2A3
102
{ACAD_REACTORS
330
C
102
}
330
C
100
AcDbDictionary
281
     1
  3
2dWireframe
350
2A9
  3
Basic
350
2A8
  3
Brighten
350
2AF
  3
ColorChange
350
2B3
  3
Conceptual
350
2AC
  3
Dim
350
2AE
  3
EdgeColorOff
350
2BB
  3
Facepattern
350
2B2
  3
Flat
350
2A4
  3
FlatWithEdges
350
2A5
  3
Gouraud
350
2A6
  3
GouraudWithEdges
350
2A7
  3
Hidden
350
2AB
  3
JitterOff
350
2B9
  3
Linepattern
350
2B1
  3
OverhangOff
350
2BA
  3
Realistic
350
2AD
  3
Shaded
350
2B8
  3
Shaded with edges
350
2B7
  3
Shades of Gray
350
2B4
  3
Sketchy
350
2B5
  3
Thicken
350
2B0
  3
Wireframe
350
2AA
  3
X-Ray
350
2B6
  0
XRECORD
  5
5AF
102
{ACAD_REACTORS
330
C
102
}
330
C
100
AcDbXrecord
280
     1
 90
        1
330
2BE
  0
DICTIONARY
  5
585
102
{ACAD_REACTORS
330
C
102
}
330
C
100
AcDbDictionary
281
     1
  3
CANNOSCALE
350
58B
  3
CMLEADERSTYLE
350
587
  3
CTABLESTYLE
350
586
  3
CVIEWDETAILSTYLE
350
588
  3
CVIEWSECTIONSTYLE
350
589
  3
LAYEREVAL
350
58D
  3
LAYERNOTIFY
350
58E
  3
LIGHTINGUNITS
350
58C
  3
MSLTSCALE
350
58A
  0
DICTIONARY
  5
576
102
{ACAD_REACTORS
330
575
102
}
330
575
100
AcDbDictionary
281
     1
  0
XRECORD
  5
521
102
{ACAD_REACTORS
330
520
102
}
330
520
100
AcDbXrecord
280
     1
290
     1
  0
XRECORD
  5
523
102
{ACAD_REACTORS
330
522
102
}
330
522
100
AcDbXrecord
280
     1
290
     1
  0
XRECORD
  5
525
102
{ACAD_REACTORS
330
524
102
}
330
524
100
AcDbXrecord
280
     1
290
     1
  0
XRECORD
  5
527
102
{ACAD_REACTORS
330
526
102
}
330
526
100
AcDbXrecord
280
     1
290
     1
  0
XRECORD
  5
529
102
{ACAD_REACTORS
330
528
102
}
330
528
100
AcDbXrecord
280
     1
290
     1
  0
XRECORD
  5
52B
102
{ACAD_REACTORS
330
52A
102
}
330
52A
100
AcDbXrecord
280
     1
290
     1
  0
XRECORD
  5
52D
102
{ACAD_REACTORS
330
52C
102
}
330
52C
100
AcDbXrecord
280
     1
290
     1
  0
XRECORD
  5
52F
102
{ACAD_REACTORS
330
52E
102
}
330
52E
100
AcDbXrecord
280
     1
290
     1
  0
XRECORD
  5
531
102
{ACAD_REACTORS
330
530
102
}
330
530
100
AcDbXrecord
280
     1
290
     1
  0
XRECORD
  5
533
102
{ACAD_REACTORS
330
532
102
}
330
532
100
AcDbXrecord
280
     1
290
     1
  0
XRECORD
  5
535
102
{ACAD_REACTORS
330
534
102
}
330
534
100
AcDbXrecord
280
     1
290
     1
  0
XRECORD
  5
537
102
{ACAD_REACTORS
330
536
102
}
330
536
100
AcDbXrecord
280
     1
290
     1
  0
XRECORD
  5
539
102
{ACAD_REACTORS
330
538
102
}
330
538
100
AcDbXrecord
280
     1
290
     1
  0
XRECORD
  5
53B
102
{ACAD_REACTORS
330
53A
102
}
330
53A
100
AcDbXrecord
280
     1
290
     1
  0
XRECORD
  5
53D
102
{ACAD_REACTORS
330
53C
102
}
330
53C
100
AcDbXrecord
280
     1
290
     1
  0
XRECORD
  5
53F
102
{ACAD_REACTORS
330
53E
102
}
330
53E
100
AcDbXrecord
280
     1
290
     1
  0
XRECORD
  5
541
102
{ACAD_REACTORS
330
540
102
}
330
540
100
AcDbXrecord
280
     1
290
     1
  0
XRECORD
  5
543
102
{ACAD_REACTORS
330
542
102
}
330
542
100
AcDbXrecord
280
     1
290
     1
  0
XRECORD
  5
545
102
{ACAD_REACTORS
330
544
102
}
330
544
100
AcDbXrecord
280
     1
290
     1
  0
XRECORD
  5
547
102
{ACAD_REACTORS
330
546
102
}
330
546
100
AcDbXrecord
280
     1
290
     1
  0
XRECORD
  5
549
102
{ACAD_REACTORS
330
548
102
}
330
548
100
AcDbXrecord
280
     1
290
     1
  0
XRECORD
  5
54B
102
{ACAD_REACTORS
330
54A
102
}
330
54A
100
AcDbXrecord
280
     1
290
     1
  0
XRECORD
  5
54D
102
{ACAD_REACTORS
330
54C
102
}
330
54C
100
AcDbXrecord
280
     1
290
     1
  0
XRECORD
  5
54F
102
{ACAD_REACTORS
330
54E
102
}
330
54E
100
AcDbXrecord
280
     1
290
     1
  0
XRECORD
  5
551
102
{ACAD_REACTORS
330
550
102
}
330
550
100
AcDbXrecord
280
     1
290
     1
  0
XRECORD
  5
553
102
{ACAD_REACTORS
330
552
102
}
330
552
100
AcDbXrecord
280
     1
290
     1
  0
XRECORD
  5
555
102
{ACAD_REACTORS
330
554
102
}
330
554
100
AcDbXrecord
280
     1
290
     1
  0
XRECORD
  5
557
102
{ACAD_REACTORS
330
556
102
}
330
556
100
AcDbXrecord
280
     1
290
     1
  0
XRECORD
  5
559
102
{ACAD_REACTORS
330
558
102
}
330
558
100
AcDbXrecord
280
     1
290
     1
  0
XRECORD
  5
55B
102
{ACAD_REACTORS
330
55A
102
}
330
55A
100
AcDbXrecord
280
     1
290
     1
  0
XRECORD
  5
55D
102
{ACAD_REACTORS
330
55C
102
}
330
55C
100
AcDbXrecord
280
     1
290
     1
  0
XRECORD
  5
55F
102
{ACAD_REACTORS
330
55E
102
}
330
55E
100
AcDbXrecord
280
     1
290
     1
  0
XRECORD
  5
561
102
{ACAD_REACTORS
330
560
102
}
330
560
100
AcDbXrecord
280
     1
290
     1
  0
XRECORD
  5
563
102
{ACAD_REACTORS
330
562
102
}
330
562
100
AcDbXrecord
280
     1
290
     1
  0
XRECORD
  5
565
102
{ACAD_REACTORS
330
564
102
}
330
564
100
AcDbXrecord
280
     1
290
     1
  0
XRECORD
  5
567
102
{ACAD_REACTORS
330
566
102
}
330
566
100
AcDbXrecord
280
     1
290
     1
  0
XRECORD
  5
569
102
{ACAD_REACTORS
330
568
102
}
330
568
100
AcDbXrecord
280
     1
290
     1
  0
XRECORD
  5
56B
102
{ACAD_REACTORS
330
56A
102
}
330
56A
100
AcDbXrecord
280
     1
290
     1
  0
XRECORD
  5
56D
102
{ACAD_REACTORS
330
56C
102
}
330
56C
100
AcDbXrecord
280
     1
290
     1
  0
XRECORD
  5
56F
102
{ACAD_REACTORS
330
56E
102
}
330
56E
100
AcDbXrecord
280
     1
290
     1
  0
XRECORD
  5
571
102
{ACAD_REACTORS
330
570
102
}
330
570
100
AcDbXrecord
280
     1
290
     1
  0
SORTENTSTABLE
  5
2D4
102
{ACAD_REACTORS
330
2D3
102
}
330
2D3
100
AcDbSortentsTable
330
1F
331
216
  5
218
331
217
  5
219
331
218
  5
21A
331
219
  5
21C
331
21C
  5
220
331
21D
  5
221
331
21E
  5
222
331
21F
  5
223
331
220
  5
224
331
221
  5
225
331
222
  5
226
331
223
  5
227
331
224
  5
228
331
225
  5
229
331
226
  5
22A
331
227
  5
22C
331
228
  5
22D
331
229
  5
22E
331
22A
  5
230
331
22C
  5
231
331
22D
  5
232
331
22E
  5
236
331
22F
  5
237
331
230
  5
238
331
231
  5
239
331
232
  5
23A
331
236
  5
23B
331
237
  5
23C
331
238
  5
23D
331
239
  5
23E
331
23A
  5
23F
331
23B
  5
25F
331
23C
  5
260
331
23D
  5
261
331
23E
  5
262
331
23F
  5
263
331
25F
  5
264
331
260
  5
265
331
261
  5
266
331
262
  5
267
331
263
  5
268
331
264
  5
269
331
265
  5
26A
331
266
  5
26B
331
267
  5
26C
331
268
  5
26E
331
269
  5
26F
331
26A
  5
270
331
26B
  5
271
331
26C
  5
2D7
331
26E
  5
2D8
331
26F
  5
2E7
331
2D0
  5
2E9
331
2D1
  5
2EC
331
2D2
  5
2EB
331
2D5
  5
2D9
331
2D6
  5
2ED
331
2D7
  5
2EA
331
2D8
  5
2EE
331
2E6
  5
2EF
331
2E7
  5
3E4
331
2E8
  5
3EF
331
2E9
  5
3F0
331
2EA
  5
3F1
331
2EB
  5
3F2
331
2EC
  5
3F3
331
2ED
  5
3F4
331
2EE
  5
3F5
331
2EF
  5
3F6
331
3EF
  5
3FC
331
3F0
  5
403
331
3F1
  5
404
331
3F2
  5
405
331
3F3
  5
406
331
3F4
  5
407
331
3F5
  5
408
331
3F6
  5
409
331
3F7
  5
40A
331
3F8
  5
41C
331
3F9
  5
41D
331
3FA
  5
41E
331
3FB
  5
41F
331
3FC
  5
420
331
403
  5
421
331
404
  5
422
331
405
  5
423
331
406
  5
424
331
407
  5
425
331
408
  5
426
331
409
  5
427
331
40A
  5
428
331
41C
  5
429
331
41D
  5
42A
331
41E
  5
42E
331
41F
  5
42F
331
420
  5
430
331
421
  5
431
331
422
  5
435
331
423
  5
436
331
424
  5
437
331
425
  5
43A
331
426
  5
44E
331
427
  5
462
331
428
  5
464
331
429
  5
465
331
42A
  5
466
331
42D
  5
468
331
42E
  5
467
331
44E
  5
469
331
44F
  5
46A
331
450
  5
46B
331
451
  5
46C
331
454
  5
46D
331
455
  5
46E
331
458
  5
471
331
459
  5
470
331
45A
  5
46F
331
462
  5
472
331
463
  5
473
331
464
  5
474
331
465
  5
475
331
468
  5
476
331
469
  5
477
331
46A
  5
478
331
46B
  5
4CB
331
46C
  5
4CC
331
46D
  5
4CD
331
46E
  5
4D0
331
46F
  5
4D1
331
470
  5
4D2
331
492
  5
4D3
331
4BD
  5
4DD
331
4BE
  5
4DE
331
4BF
  5
4DF
331
4C0
  5
4E0
331
4C9
  5
4E1
331
4CA
  5
4E5
331
4CB
  5
4E6
331
4CC
  5
4E4
331
4CF
  5
4E8
331
4D0
  5
4E7
331
4D1
  5
4E3
331
4D3
  5
4E9
331
4D4
  5
4EB
331
4D8
  5
4ED
331
4D9
  5
4EE
331
4DC
  5
4EF
331
4DD
  5
4F0
331
4E2
  5
4D9
331
4E3
  5
4DC
331
4E4
  5
4D4
331
4E5
  5
4D8
331
4E6
  5
504
331
4E7
  5
505
331
4E9
  5
506
331
4EA
  5
507
331
4EB
  5
508
331
4EC
  5
509
331
4ED
  5
50A
331
4EE
  5
50B
331
502
  5
594
331
503
  5
595
331
504
  5
596
331
505
  5
597
331
506
  5
598
331
507
  5
599
331
508
  5
59A
331
509
  5
59B
331
50A
  5
59C
331
50B
  5
59D
331
50C
  5
59E
331
50D
  5
59F
331
50E
  5
5A0
331
50F
  5
5A1
331
510
  5
5A2
331
513
  5
5A3
331
51E
  5
5A4
331
51F
  5
5A5
331
592
  5
51E
331
593
  5
51F
331
594
  5
592
331
595
  5
593
331
596
  5
510
331
597
  5
511
331
598
  5
512
331
599
  5
513
331
59A
  5
50C
331
59B
  5
50D
331
59C
  5
50E
331
59D
  5
50F
331
59E
  5
4F1
331
59F
  5
4F2
331
5A0
  5
4F3
331
5A1
  5
4FF
331
5A2
  5
3F8
331
5A3
  5
3F9
331
5A4
  5
3FA
331
5A5
  5
3FB
  0
ACDBDETAILVIEWSTYLE
  5
2C4
102
{ACAD_REACTORS
330
2C3
102
}
330
2C3
100
AcDbModelDocViewStyle
 70
     0
  3
Imperial24
290
     0
300
Imperial24
 90
        0
100
AcDbDetailViewStyle
 70
     0
 71
     0
 90
        3
 71
     1
340
11
 62
   256
 40
0.24
340
0
 62
   256
 40
0.24
300

 40
0.36
280
     3
 71
     2
340
16
 90
       25
 62
   256
 71
     3
340
11
 62
   256
 40
0.24
 90
        1
 40
0.75
 90
        1
300
%<\AcVar ViewType \f "%tc1">% %<\AcVar ViewDetailId>%\PSCALE %<\AcVar ViewScale \f "%sn">%
 71
     4
340
16
 90
       25
 62
   256
340
16
 90
       25
 62
   256
280
     0
  0
LAYOUT
  5
1E
102
{ACAD_REACTORS
330
1A
102
}
330
1A
100
AcDbPlotSettings
  1

  2
none_device
  4

  6

 40
0.0
 41
0.0
 42
0.0
 43
0.0
 44
0.0
 45
0.0
 46
0.0
 47
0.0
 48
0.0
 49
0.0
140
0.0
141
0.0
142
1.0
143
1.0
 70
   688
 72
     0
 73
     0
 74
     5
  7

 75
    16
147
1.0
 76
     0
 77
     2
 78
   300
148
0.0
149
0.0
100
AcDbLayout
  1
Layout1
 70
     1
 71
     1
 10
0.0
 20
0.0
 11
12.0
 21
9.0
 12
0.0
 22
0.0
 32
0.0
 14
1.000000000000000E+20
 24
1.000000000000000E+20
 34
1.000000000000000E+20
 15
-1.000000000000000E+20
 25
-1.000000000000000E+20
 35
-1.000000000000000E+20
146
0.0
 13
0.0
 23
0.0
 33
0.0
 16
1.0
 26
0.0
 36
0.0
 17
0.0
 27
1.0
 37
0.0
 76
     0
330
1B
  0
LAYOUT
  5
26
102
{ACAD_REACTORS
330
1A
102
}
330
1A
100
AcDbPlotSettings
  1

  2
none_device
  4

  6

 40
0.0
 41
0.0
 42
0.0
 43
0.0
 44
0.0
 45
0.0
 46
0.0
 47
0.0
 48
0.0
 49
0.0
140
0.0
141
0.0
142
1.0
143
1.0
 70
   688
 72
     0
 73
     0
 74
     5
  7

 75
    16
147
1.0
 76
     0
 77
     2
 78
   300
148
0.0
149
0.0
100
AcDbLayout
  1
Layout2
 70
     1
 71
     2
 10
0.0
 20
0.0
 11
0.0
 21
0.0
 12
0.0
 22
0.0
 32
0.0
 14
0.0
 24
0.0
 34
0.0
 15
0.0
 25
0.0
 35
0.0
146
0.0
 13
0.0
 23
0.0
 33
0.0
 16
1.0
 26
0.0
 36
0.0
 17
0.0
 27
1.0
 37
0.0
 76
     0
330
23
  0
LAYOUT
  5
22
102
{ACAD_REACTORS
330
1A
102
}
330
1A
100
AcDbPlotSettings
  1

  2
none_device
  4
Letter_(8.50_x_11.00_Inches)
  6

 40
6.349999999999999
 41
6.349999999999999
 42
6.350005079999999
 43
6.350005079999999
 44
215.9
 45
279.4
 46
0.0
 47
0.0
 48
0.0
 49
0.0
140
0.0
141
0.0
142
1.0
143
1.0
 70
  1712
 72
     0
 73
     0
 74
     0
  7

 75
     0
147
1.0
 76
     0
 77
     2
 78
   300
148
0.0
149
0.0
100
AcDbLayout
  1
Model
 70
     1
 71
     0
 10
0.0
 20
0.0
 11
24.0
 21
24.0
 12
0.0
 22
0.0
 32
0.0
 14
0.0
 24
0.0
 34
0.0
 15
24.0
 25
24.0
 35
0.0
146
0.0
 13
0.0
 23
0.0
 33
0.0
 16
1.0
 26
0.0
 36
0.0
 17
0.0
 27
1.0
 37
0.0
 76
     0
330
1F
331
29
  0
MATERIAL
  5
293
102
{ACAD_XDICTIONARY
360
294
102
}
102
{ACAD_REACTORS
330
28A
102
}
330
28A
100
AcDbMaterial
  1
ByBlock
 72
     0
 43
0.0208333333333333
 43
0.0
 43
0.0
 43
0.0
 43
0.0
 43
0.0208333333333333
 43
0.0
 43
0.0
 43
0.0
 43
0.0
 43
1.0
 43
0.0
 43
0.0
 43
0.0
 43
0.0
 43
1.0
 77
     0
 47
0.0208333333333333
 47
0.0
 47
0.0
 47
0.0
 47
0.0
 47
0.0208333333333333
 47
0.0
 47
0.0
 47
0.0
 47
0.0
 47
1.0
 47
0.0
 47
0.0
 47
0.0
 47
0.0
 47
1.0
171
     0
 49
0.0208333333333333
 49
0.0
 49
0.0
 49
0.0
 49
0.0
 49
0.0208333333333333
 49
0.0
 49
0.0
 49
0.0
 49
0.0
 49
1.0
 49
0.0
 49
0.0
 49
0.0
 49
0.0
 49
1.0
175
     0
142
0.0208333333333333
142
0.0
142
0.0
142
0.0
142
0.0
142
0.0208333333333333
142
0.0
142
0.0
142
0.0
142
0.0
142
1.0
142
0.0
142
0.0
142
0.0
142
0.0
142
1.0
179
     0
144
0.0208333333333333
144
0.0
144
0.0
144
0.0
144
0.0
144
0.0208333333333333
144
0.0
144
0.0
144
0.0
144
0.0
144
1.0
144
0.0
144
0.0
144
0.0
144
0.0
144
1.0
147
0.0208333333333333
147
0.0
147
0.0
147
0.0
147
0.0
147
0.0208333333333333
147
0.0
147
0.0
147
0.0
147
0.0
147
1.0
147
0.0
147
0.0
147
0.0
147
0.0
147
1.0
  0
MATERIAL
  5
28B
102
{ACAD_XDICTIONARY
360
28C
102
}
102
{ACAD_REACTORS
330
28A
102
}
330
28A
100
AcDbMaterial
  1
ByLayer
 72
     0
 43
0.0208333333333333
 43
0.0
 43
0.0
 43
0.0
 43
0.0
 43
0.0208333333333333
 43
0.0
 43
0.0
 43
0.0
 43
0.0
 43
1.0
 43
0.0
 43
0.0
 43
0.0
 43
0.0
 43
1.0
 77
     0
 47
0.0208333333333333
 47
0.0
 47
0.0
 47
0.0
 47
0.0
 47
0.0208333333333333
 47
0.0
 47
0.0
 47
0.0
 47
0.0
 47
1.0
 47
0.0
 47
0.0
 47
0.0
 47
0.0
 47
1.0
171
     0
 49
0.0208333333333333
 49
0.0
 49
0.0
 49
0.0
 49
0.0
 49
0.0208333333333333
 49
0.0
 49
0.0
 49
0.0
 49
0.0
 49
1.0
 49
0.0
 49
0.0
 49
0.0
 49
0.0
 49
1.0
175
     0
142
0.0208333333333333
142
0.0
142
0.0
142
0.0
142
0.0
142
0.0208333333333333
142
0.0
142
0.0
142
0.0
142
0.0
142
1.0
142
0.0
142
0.0
142
0.0
142
0.0
142
1.0
179
     0
144
0.0208333333333333
144
0.0
144
0.0
144
0.0
144
0.0
144
0.0208333333333333
144
0.0
144
0.0
144
0.0
144
0.0
144
1.0
144
0.0
144
0.0
144
0.0
144
0.0
144
1.0
147
0.0208333333333333
147
0.0
147
0.0
147
0.0
147
0.0
147
0.0208333333333333
147
0.0
147
0.0
147
0.0
147
0.0
147
1.0
147
0.0
147
0.0
147
0.0
147
0.0
147
1.0
  0
MATERIAL
  5
29B
102
{ACAD_XDICTIONARY
360
29C
102
}
102
{ACAD_REACTORS
330
28A
102
}
330
28A
100
AcDbMaterial
  1
Global
 72
     0
 43
0.0208333333333333
 43
0.0
 43
0.0
 43
0.0
 43
0.0
 43
0.0208333333333333
 43
0.0
 43
0.0
 43
0.0
 43
0.0
 43
1.0
 43
0.0
 43
0.0
 43
0.0
 43
0.0
 43
1.0
 77
     0
 47
0.0208333333333333
 47
0.0
 47
0.0
 47
0.0
 47
0.0
 47
0.0208333333333333
 47
0.0
 47
0.0
 47
0.0
 47
0.0
 47
1.0
 47
0.0
 47
0.0
 47
0.0
 47
0.0
 47
1.0
171
     0
 49
0.0208333333333333
 49
0.0
 49
0.0
 49
0.0
 49
0.0
 49
0.0208333333333333
 49
0.0
 49
0.0
 49
0.0
 49
0.0
 49
1.0
 49
0.0
 49
0.0
 49
0.0
 49
0.0
 49
1.0
175
     0
142
0.0208333333333333
142
0.0
142
0.0
142
0.0
142
0.0
142
0.0208333333333333
142
0.0
142
0.0
142
0.0
142
0.0
142
1.0
142
0.0
142
0.0
142
0.0
142
0.0
142
1.0
179
     0
144
0.0208333333333333
144
0.0
144
0.0
144
0.0
144
0.0
144
0.0208333333333333
144
0.0
144
0.0
144
0.0
144
0.0
144
1.0
144
0.0
144
0.0
144
0.0
144
0.0
144
1.0
147
0.0208333333333333
147
0.0
147
0.0
147
0.0
147
0.0
147
0.0208333333333333
147
0.0
147
0.0
147
0.0
147
0.0
147
1.0
147
0.0
147
0.0
147
0.0
147
0.0
147
1.0
  0
MLEADERSTYLE
  5
2C0
102
{ACAD_REACTORS
330
2BF
102
}
330
2BF
100
AcDbMLeaderStyle
179
     2
170
     2
171
     1
172
     0
 90
        2
 40
0.0
 41
0.0
173
     1
 91
-1056964608
340
14
 92
       -2
290
     1
 42
0.09
291
     1
 43
0.36
  3
Standard
 44
0.18
300

342
11
174
     1
178
     6
175
     1
176
     0
 93
-1056964608
 45
0.18
292
     0
297
     0
 46
0.18
 94
-1056964608
 47
1.0
 49
1.0
140
1.0
293
     1
141
0.0
294
     1
177
     0
142
1.0
295
     0
296
     0
143
0.125
271
     0
272
     9
273
     9
298
     0
  0
MLINESTYLE
  5
18
102
{ACAD_REACTORS
330
17
102
}
330
17
100
AcDbMlineStyle
  2
STANDARD
 70
     0
  3

 62
   256
 51
90.0
 52
90.0
 71
     2
 49
0.5
 62
   256
  6
BYLAYER
 49
-0.5
 62
   256
  6
BYLAYER
  0
ACDBPLACEHOLDER
  5
F
102
{ACAD_REACTORS
330
E
102
}
330
E
  0
SCALE
  5
48
102
{ACAD_REACTORS
330
47
102
}
330
47
100
AcDbScale
 70
     0
300
1:1
140
1.0
141
1.0
290
     1
  0
SCALE
  5
49
102
{ACAD_REACTORS
330
47
102
}
330
47
100
AcDbScale
 70
     0
300
1:2
140
1.0
141
2.0
290
     0
  0
SCALE
  5
4A
102
{ACAD_REACTORS
330
47
102
}
330
47
100
AcDbScale
 70
     0
300
1:4
140
1.0
141
4.0
290
     0
  0
SCALE
  5
4B
102
{ACAD_REACTORS
330
47
102
}
330
47
100
AcDbScale
 70
     0
300
1:5
140
1.0
141
5.0
290
     0
  0
SCALE
  5
4C
102
{ACAD_REACTORS
330
47
102
}
330
47
100
AcDbScale
 70
     0
300
1:8
140
1.0
141
8.0
290
     0
  0
SCALE
  5
4D
102
{ACAD_REACTORS
330
47
102
}
330
47
100
AcDbScale
 70
     0
300
1:10
140
1.0
141
10.0
290
     0
  0
SCALE
  5
4E
102
{ACAD_REACTORS
330
47
102
}
330
47
100
AcDbScale
 70
     0
300
1:16
140
1.0
141
16.0
290
     0
  0
SCALE
  5
4F
102
{ACAD_REACTORS
330
47
102
}
330
47
100
AcDbScale
 70
     0
300
1:20
140
1.0
141
20.0
290
     0
  0
SCALE
  5
50
102
{ACAD_REACTORS
330
47
102
}
330
47
100
AcDbScale
 70
     0
300
1:30
140
1.0
141
30.0
290
     0
  0
SCALE
  5
51
102
{ACAD_REACTORS
330
47
102
}
330
47
100
AcDbScale
 70
     0
300
1:40
140
1.0
141
40.0
290
     0
  0
SCALE
  5
52
102
{ACAD_REACTORS
330
47
102
}
330
47
100
AcDbScale
 70
     0
300
1:50
140
1.0
141
50.0
290
     0
  0
SCALE
  5
53
102
{ACAD_REACTORS
330
47
102
}
330
47
100
AcDbScale
 70
     0
300
1:100
140
1.0
141
100.0
290
     0
  0
SCALE
  5
54
102
{ACAD_REACTORS
330
47
102
}
330
47
100
AcDbScale
 70
     0
300
2:1
140
2.0
141
1.0
290
     0
  0
SCALE
  5
55
102
{ACAD_REACTORS
330
47
102
}
330
47
100
AcDbScale
 70
     0
300
4:1
140
4.0
141
1.0
290
     0
  0
SCALE
  5
56
102
{ACAD_REACTORS
330
47
102
}
330
47
100
AcDbScale
 70
     0
300
8:1
140
8.0
141
1.0
290
     0
  0
SCALE
  5
57
102
{ACAD_REACTORS
330
47
102
}
330
47
100
AcDbScale
 70
     0
300
10:1
140
10.0
141
1.0
290
     0
  0
SCALE
  5
58
102
{ACAD_REACTORS
330
47
102
}
330
47
100
AcDbScale
 70
     0
300
100:1
140
100.0
141
1.0
290
     0
  0
SCALE
  5
59
102
{ACAD_REACTORS
330
47
102
}
330
47
100
AcDbScale
 70
     0
300
1/128" = 1'-0"
140
0.0078125
141
12.0
290
     0
  0
SCALE
  5
5A
102
{ACAD_REACTORS
330
47
102
}
330
47
100
AcDbScale
 70
     0
300
1/64" = 1'-0"
140
0.015625
141
12.0
290
     0
  0
SCALE
  5
5B
102
{ACAD_REACTORS
330
47
102
}
330
47
100
AcDbScale
 70
     0
300
1/32" = 1'-0"
140
0.03125
141
12.0
290
     0
  0
SCALE
  5
5C
102
{ACAD_REACTORS
330
47
102
}
330
47
100
AcDbScale
 70
     0
300
1/16" = 1'-0"
140
0.0625
141
12.0
290
     0
  0
SCALE
  5
5D
102
{ACAD_REACTORS
330
47
102
}
330
47
100
AcDbScale
 70
     0
300
3/32" = 1'-0"
140
0.09375
141
12.0
290
     0
  0
SCALE
  5
5E
102
{ACAD_REACTORS
330
47
102
}
330
47
100
AcDbScale
 70
     0
300
1/8" = 1'-0"
140
0.125
141
12.0
290
     0
  0
SCALE
  5
5F
102
{ACAD_REACTORS
330
47
102
}
330
47
100
AcDbScale
 70
     0
300
3/16" = 1'-0"
140
0.1875
141
12.0
290
     0
  0
SCALE
  5
60
102
{ACAD_REACTORS
330
47
102
}
330
47
100
AcDbScale
 70
     0
300
1/4" = 1'-0"
140
0.25
141
12.0
290
     0
  0
SCALE
  5
61
102
{ACAD_REACTORS
330
47
102
}
330
47
100
AcDbScale
 70
     0
300
3/8" = 1'-0"
140
0.375
141
12.0
290
     0
  0
SCALE
  5
62
102
{ACAD_REACTORS
330
47
102
}
330
47
100
AcDbScale
 70
     0
300
1/2" = 1'-0"
140
0.5
141
12.0
290
     0
  0
SCALE
  5
63
102
{ACAD_REACTORS
330
47
102
}
330
47
100
AcDbScale
 70
     0
300
3/4" = 1'-0"
140
0.75
141
12.0
290
     0
  0
SCALE
  5
64
102
{ACAD_REACTORS
330
47
102
}
330
47
100
AcDbScale
 70
     0
300
1" = 1'-0"
140
1.0
141
12.0
290
     0
  0
SCALE
  5
65
102
{ACAD_REACTORS
330
47
102
}
330
47
100
AcDbScale
 70
     0
300
1-1/2" = 1'-0"
140
1.5
141
12.0
290
     0
  0
SCALE
  5
66
102
{ACAD_REACTORS
330
47
102
}
330
47
100
AcDbScale
 70
     0
300
3" = 1'-0"
140
3.0
141
12.0
290
     0
  0
SCALE
  5
67
102
{ACAD_REACTORS
330
47
102
}
330
47
100
AcDbScale
 70
     0
300
6" = 1'-0"
140
6.0
141
12.0
290
     0
  0
SCALE
  5
68
102
{ACAD_REACTORS
330
47
102
}
330
47
100
AcDbScale
 70
     0
300
1'-0" = 1'-0"
140
12.0
141
12.0
290
     0
  0
ACDBSECTIONVIEWSTYLE
  5
2C2
102
{ACAD_REACTORS
330
2C1
102
}
330
2C1
100
AcDbModelDocViewStyle
 70
     0
  3
Imperial24
290
     0
300
Imperial24
 90
        0
100
AcDbSectionViewStyle
 70
     0
 71
     0
 90
       78
 71
     1
340
11
 62
   256
 40
0.24
340
0
340
0
 62
   256
 40
0.24
300
I, O, Q, S, X, Z
 40
0.48
 90
        3
 40
0.18
 90
        1
 71
     2
340
16
 90
       25
 62
   256
340
16
 90
       50
 62
   256
 40
0.24
 40
0.0
 40
0.24
 71
     3
340
11
 62
   256
 40
0.24
 90
        1
 40
0.75
 90
        1
300
%<\AcVar ViewType \f "%tc1">% %<\AcVar ViewSectionStartId>%-%<\AcVar ViewSectionEndId>%\PSCALE %<\AcVar ViewScale \f "%sn">%
 71
     4
 62
   256
 62
   257
300
ANSI31
 40
1.0
 90
        0
290
     0
290
     0
 90
        6
 40
0.0
 40
1.570796326794896
 40
0.2617993877991494
 40
1.308996938995747
 40
-0.2617993877991494
 40
1.832595714594046
  0
TABLESTYLE
  5
2BE
102
{ACAD_XDICTIONARY
360
5AD
102
}
102
{ACAD_REACTORS
330
2BD
102
}
330
2BD
100
AcDbTableStyle
280
     0
  3
Standard
 70
     0
 71
     0
 40
0.06
 41
0.06
280
     0
281
     0
  7
Standard
140
0.18
170
     2
 62
     0
 63
     7
283
     0
 90
      512
 91
        0
  1

274
    -2
284
     1
 64
     0
275
    -2
285
     1
 65
     0
276
    -2
286
     1
 66
     0
277
    -2
287
     1
 67
     0
278
    -2
288
     1
 68
     0
279
    -2
289
     1
 69
     0
  7
Standard
140
0.25
170
     5
 62
     0
 63
     7
283
     0
 90
      512
 91
        0
  1

274
    -2
284
     1
 64
     0
275
    -2
285
     1
 65
     0
276
    -2
286
     1
 66
     0
277
    -2
287
     1
 67
     0
278
    -2
288
     1
 68
     0
279
    -2
289
     1
 69
     0
  7
Standard
140
0.18
170
     5
 62
     0
 63
     7
283
     0
 90
      512
 91
        0
  1

274
    -2
284
     1
 64
     0
275
    -2
285
     1
 65
     0
276
    -2
286
     1
 66
     0
277
    -2
287
     1
 67
     0
278
    -2
288
     1
 68
     0
279
    -2
289
     1
 69
     0
  0
VISUALSTYLE
  5
2A9
102
{ACAD_REACTORS
330
2A3
102
}
330
2A3
100
AcDbVisualStyle
  2
2dWireframe
 70
     4
177
     3
291
     0
 70
    58
 90
        0
176
     1
 90
        2
176
     1
 90
        0
176
     1
 90
        0
176
     1
 40
0.6
176
     1
 40
30.0
176
     1
 62
     7
420
 16777215
176
     1
 90
        1
176
     1
 90
        4
176
     1
 62
     7
176
     1
 62
   257
176
     1
 90
        1
176
     1
 90
        1
176
     1
 40
1.0
176
     1
 90
        0
176
     1
 62
   257
176
     1
 40
1.0
176
     1
 90
        1
176
     1
 90
        6
176
     1
 90
        2
176
     1
 62
     7
176
     1
 90
        5
176
     1
 90
        0
176
     1
 90
        0
176
     1
290
     0
176
     1
 90
        1
176
     1
 40
0.0
176
     1
 90
        0
176
     1
290
     1
176
     1
290
     1
176
     1
290
     0
176
     1
290
     0
176
     1
290
     0
176
     1
290
     0
176
     1
290
     0
176
     1
290
     0
176
     1
290
     0
176
     1
 90
       50
176
     1
 40
0.0
176
     1
 40
1.0
176
     1
 90
        0
176
     1
 62
    18
420
        0
176
     1
 90
       50
176
     1
 90
        3
176
     1
 62
     5
420
      255
176
     1
290
     0
176
     1
 90
       50
176
     1
 90
       50
176
     1
 90
       50
176
     1
290
     0
176
     1
 90
       50
176
     1
 62
   256
176
     0
 40
1.0
176
     0
 90
        2
176
     1
  1
strokes_ogs.tif
176
     1
290
     0
176
     1
 40
1.0
176
     1
 40
1.0
176
     1
  0
VISUALSTYLE
  5
2A8
102
{ACAD_REACTORS
330
2A3
102
}
330
2A3
100
AcDbVisualStyle
  2
Basic
 70
     7
177
     3
291
     1
 70
    58
 90
        1
176
     1
 90
        0
176
     1
 90
        1
176
     1
 90
        0
176
     1
 40
0.6
176
     1
 40
30.0
176
     1
 62
     7
420
 16777215
176
     1
 90
        0
176
     1
 90
        4
176
     1
 62
     7
176
     1
 62
   257
176
     1
 90
        1
176
     1
 90
        1
176
     1
 40
1.0
176
     1
 90
        8
176
     1
 62
     7
176
     1
 40
1.0
176
     1
 90
        1
176
     1
 90
        6
176
     1
 90
        2
176
     1
 62
     7
176
     1
 90
        5
176
     1
 90
        0
176
     1
 90
        0
176
     1
290
     0
176
     1
 90
        1
176
     1
 40
0.0
176
     1
 90
        0
176
     1
290
     0
176
     1
290
     1
176
     1
290
     1
176
     1
290
     0
176
     1
290
     0
176
     1
290
     0
176
     1
290
     0
176
     1
290
     0
176
     1
290
     0
176
     1
 90
       50
176
     1
 40
0.0
176
     1
 40
1.0
176
     1
 90
        0
176
     1
 62
    18
420
        0
176
     1
 90
       50
176
     1
 90
        3
176
     1
 62
     5
420
      255
176
     1
290
     0
176
     1
 90
       50
176
     1
 90
       50
176
     1
 90
       50
176
     1
290
     0
176
     1
 90
       50
176
     1
 62
   256
176
     0
 40
1.0
176
     0
 90
        2
176
     1
  1
strokes_ogs.tif
176
     1
290
     0
176
     1
 40
1.0
176
     1
 40
1.0
176
     1
  0
VISUALSTYLE
  5
2AF
102
{ACAD_REACTORS
330
2A3
102
}
330
2A3
100
AcDbVisualStyle
  2
Brighten
 70
    12
177
     3
291
     1
 70
    58
 90
        2
176
     1
 90
        2
176
     1
 90
        0
176
     1
 90
        0
176
     1
 40
0.6
176
     1
 40
30.0
176
     1
 62
     7
420
 16777215
176
     1
 90
        1
176
     1
 90
        4
176
     1
 62
     7
176
     1
 62
   257
176
     1
 90
        1
176
     1
 90
        1
176
     1
 40
1.0
176
     1
 90
        8
176
     1
 62
     7
176
     1
 40
1.0
176
     1
 90
        1
176
     1
 90
        6
176
     1
 90
        2
176
     1
 62
     7
176
     1
 90
        5
176
     1
 90
        0
176
     1
 90
        0
176
     1
290
     0
176
     1
 90
        1
176
     1
 40
50.0
176
     1
 90
        0
176
     1
290
     0
176
     1
290
     1
176
     1
290
     1
176
     1
290
     0
176
     1
290
     0
176
     1
290
     0
176
     1
290
     0
176
     1
290
     0
176
     1
290
     0
176
     1
 90
       50
176
     1
 40
0.0
176
     1
 40
1.0
176
     1
 90
        0
176
     1
 62
    18
420
        0
176
     1
 90
       50
176
     1
 90
        3
176
     1
 62
     5
420
      255
176
     1
290
     0
176
     1
 90
       50
176
     1
 90
       50
176
     1
 90
       50
176
     1
290
     0
176
     1
 90
       50
176
     1
 62
   256
176
     0
 40
1.0
176
     0
 90
        2
176
     1
  1
strokes_ogs.tif
176
     1
290
     0
176
     1
 40
1.0
176
     1
 40
1.0
176
     1
  0
VISUALSTYLE
  5
2B3
102
{ACAD_REACTORS
330
2A3
102
}
330
2A3
100
AcDbVisualStyle
  2
ColorChange
 70
    16
177
     3
291
     1
 70
    58
 90
        2
176
     1
 90
        2
176
     1
 90
        3
176
     1
 90
        0
176
     1
 40
0.6
176
     1
 40
30.0
176
     1
 62
     8
420
  8421504
176
     1
 90
        1
176
     1
 90
        4
176
     1
 62
     7
176
     1
 62
   257
176
     1
 90
        1
176
     1
 90
        1
176
     1
 40
1.0
176
     1
 90
        8
176
     1
 62
     8
420
  8421504
176
     1
 40
1.0
176
     1
 90
        1
176
     1
 90
        6
176
     1
 90
        2
176
     1
 62
     7
176
     1
 90
        5
176
     1
 90
        0
176
     1
 90
        0
176
     1
290
     0
176
     1
 90
        1
176
     1
 40
0.0
176
     1
 90
        0
176
     1
290
     0
176
     1
290
     1
176
     1
290
     1
176
     1
290
     0
176
     1
290
     0
176
     1
290
     0
176
     1
290
     0
176
     1
290
     0
176
     1
290
     0
176
     1
 90
       50
176
     1
 40
0.0
176
     1
 40
1.0
176
     1
 90
        0
176
     1
 62
    18
420
        0
176
     1
 90
       50
176
     1
 90
        3
176
     1
 62
     5
420
      255
176
     1
290
     0
176
     1
 90
       50
176
     1
 90
       50
176
     1
 90
       50
176
     1
290
     0
176
     1
 90
       50
176
     1
 62
   256
176
     0
 40
1.0
176
     0
 90
        2
176
     1
  1
strokes_ogs.tif
176
     1
290
     0
176
     1
 40
1.0
176
     1
 40
1.0
176
     1
  0
VISUALSTYLE
  5
2AC
102
{ACAD_REACTORS
330
2A3
102
}
330
2A3
100
AcDbVisualStyle
  2
Conceptual
 70
     9
177
     3
291
     0
 70
    58
 90
        3
176
     1
 90
        2
176
     1
 90
        0
176
     1
 90
        0
176
     1
 40
0.6
176
     1
 40
30.0
176
     1
 62
     7
420
 16777215
176
     1
 90
        2
176
     1
 90
        2
176
     1
 62
     7
176
     1
 62
   257
176
     1
 90
        1
176
     1
 90
        1
176
     1
 40
179.0
176
     1
 90
        8
176
     1
 62
     7
176
     1
 40
1.0
176
     1
 90
        1
176
     1
 90
        6
176
     1
 90
        2
176
     1
 62
     7
176
     1
 90
        3
176
     1
 90
        0
176
     1
 90
        0
176
     1
290
     0
176
     1
 90
        1
176
     1
 40
0.0
176
     1
 90
        0
176
     1
290
     0
176
     1
290
     1
176
     1
290
     1
176
     1
290
     0
176
     1
290
     0
176
     1
290
     0
176
     1
290
     0
176
     1
290
     0
176
     1
290
     0
176
     1
 90
       50
176
     1
 40
0.0
176
     1
 40
1.0
176
     1
 90
        0
176
     1
 62
    18
420
        0
176
     1
 90
       50
176
     1
 90
        3
176
     1
 62
     5
420
      255
176
     1
290
     0
176
     1
 90
       50
176
     1
 90
       50
176
     1
 90
       50
176
     1
290
     0
176
     1
 90
       50
176
     1
 62
   256
176
     0
 40
1.0
176
     0
 90
        2
176
     1
  1
strokes_ogs.tif
176
     1
290
     0
176
     1
 40
1.0
176
     1
 40
1.0
176
     1
  0
VISUALSTYLE
  5
2AE
102
{ACAD_REACTORS
330
2A3
102
}
330
2A3
100
AcDbVisualStyle
  2
Dim
 70
    11
177
     3
291
     1
 70
    58
 90
        2
176
     1
 90
        2
176
     1
 90
        0
176
     1
 90
        0
176
     1
 40
0.6
176
     1
 40
30.0
176
     1
 62
     7
420
 16777215
176
     1
 90
        1
176
     1
 90
        4
176
     1
 62
     7
176
     1
 62
   257
176
     1
 90
        1
176
     1
 90
        1
176
     1
 40
1.0
176
     1
 90
        8
176
     1
 62
     7
176
     1
 40
1.0
176
     1
 90
        1
176
     1
 90
        6
176
     1
 90
        2
176
     1
 62
     7
176
     1
 90
        5
176
     1
 90
        0
176
     1
 90
        0
176
     1
290
     0
176
     1
 90
        1
176
     1
 40
-50.0
176
     1
 90
        0
176
     1
290
     0
176
     1
290
     1
176
     1
290
     1
176
     1
290
     0
176
     1
290
     0
176
     1
290
     0
176
     1
290
     0
176
     1
290
     0
176
     1
290
     0
176
     1
 90
       50
176
     1
 40
0.0
176
     1
 40
1.0
176
     1
 90
        0
176
     1
 62
    18
420
        0
176
     1
 90
       50
176
     1
 90
        3
176
     1
 62
     5
420
      255
176
     1
290
     0
176
     1
 90
       50
176
     1
 90
       50
176
     1
 90
       50
176
     1
290
     0
176
     1
 90
       50
176
     1
 62
   256
176
     0
 40
1.0
176
     0
 90
        2
176
     1
  1
strokes_ogs.tif
176
     1
290
     0
176
     1
 40
1.0
176
     1
 40
1.0
176
     1
  0
VISUALSTYLE
  5
2BB
102
{ACAD_REACTORS
330
2A3
102
}
330
2A3
100
AcDbVisualStyle
  2
EdgeColorOff
 70
    22
177
     3
291
     1
 70
    58
 90
        2
176
     0
 90
        2
176
     0
 90
        0
176
     0
 90
        0
176
     0
 40
0.6
176
     0
 40
30.0
176
     0
 62
     7
420
 16777215
176
     0
 90
        1
176
     0
 90
        4
176
     0
 62
     7
176
     0
 62
   257
176
     0
 90
        1
176
     0
 90
        1
176
     0
 40
1.0
176
     0
 90
        8
176
     2
 62
     7
176
     0
 40
1.0
176
     0
 90
        1
176
     0
 90
        6
176
     0
 90
        2
176
     0
 62
     7
176
     0
 90
        5
176
     0
 90
        0
176
     0
 90
        0
176
     0
290
     0
176
     0
 90
        1
176
     0
 40
0.0
176
     0
 90
        0
176
     0
290
     0
176
     1
290
     1
176
     1
290
     1
176
     1
290
     0
176
     1
290
     0
176
     1
290
     0
176
     1
290
     0
176
     1
290
     0
176
     1
290
     0
176
     1
 90
       50
176
     0
 40
0.0
176
     0
 40
1.0
176
     0
 90
        0
176
     0
 62
    18
420
        0
176
     0
 90
       50
176
     0
 90
        3
176
     0
 62
     5
420
      255
176
     0
290
     0
176
     1
 90
       50
176
     0
 90
       50
176
     0
 90
       50
176
     0
290
     0
176
     1
 90
       50
176
     0
 62
   256
176
     0
 40
1.0
176
     0
 90
        2
176
     0
  1
strokes_ogs.tif
176
     0
290
     0
176
     1
 40
1.0
176
     0
 40
1.0
176
     0
  0
VISUALSTYLE
  5
2B2
102
{ACAD_REACTORS
330
2A3
102
}
330
2A3
100
AcDbVisualStyle
  2
Facepattern
 70
    15
177
     3
291
     1
 70
    58
 90
        2
176
     1
 90
        2
176
     1
 90
        0
176
     1
 90
        0
176
     1
 40
0.6
176
     1
 40
30.0
176
     1
 62
     7
420
 16777215
176
     1
 90
        1
176
     1
 90
        4
176
     1
 62
     7
176
     1
 62
   257
176
     1
 90
        1
176
     1
 90
        1
176
     1
 40
1.0
176
     1
 90
        8
176
     1
 62
     7
176
     1
 40
1.0
176
     1
 90
        1
176
     1
 90
        6
176
     1
 90
        2
176
     1
 62
     7
176
     1
 90
        5
176
     1
 90
        0
176
     1
 90
        0
176
     1
290
     0
176
     1
 90
        1
176
     1
 40
0.0
176
     1
 90
        0
176
     1
290
     0
176
     1
290
     1
176
     1
290
     1
176
     1
290
     0
176
     1
290
     0
176
     1
290
     0
176
     1
290
     0
176
     1
290
     0
176
     1
290
     0
176
     1
 90
       50
176
     1
 40
0.0
176
     1
 40
1.0
176
     1
 90
        0
176
     1
 62
    18
420
        0
176
     1
 90
       50
176
     1
 90
        3
176
     1
 62
     5
420
      255
176
     1
290
     0
176
     1
 90
       50
176
     1
 90
       50
176
     1
 90
       50
176
     1
290
     0
176
     1
 90
       50
176
     1
 62
   256
176
     0
 40
1.0
176
     0
 90
        2
176
     1
  1
strokes_ogs.tif
176
     1
290
     0
176
     1
 40
1.0
176
     1
 40
1.0
176
     1
  0
VISUALSTYLE
  5
2A4
102
{ACAD_REACTORS
330
2A3
102
}
330
2A3
100
AcDbVisualStyle
  2
Flat
 70
     0
177
     3
291
     1
 70
    58
 90
        2
176
     1
 90
        1
176
     1
 90
        1
176
     1
 90
        2
176
     1
 40
0.6
176
     1
 40
30.0
176
     1
 62
     7
420
 16777215
176
     1
 90
        0
176
     1
 90
        0
176
     1
 62
     7
176
     1
 62
   257
176
     1
 90
        1
176
     1
 90
        1
176
     1
 40
1.0
176
     1
 90
        8
176
     1
 62
     7
176
     1
 40
1.0
176
     1
 90
        1
176
     1
 90
        6
176
     1
 90
        2
176
     1
 62
     7
176
     1
 90
        5
176
     1
 90
        0
176
     1
 90
        0
176
     1
290
     0
176
     1
 90
       13
176
     1
 40
0.0
176
     1
 90
        0
176
     1
290
     0
176
     1
290
     1
176
     1
290
     1
176
     1
290
     0
176
     1
290
     0
176
     1
290
     0
176
     1
290
     0
176
     1
290
     0
176
     1
290
     0
176
     1
 90
       50
176
     1
 40
0.0
176
     1
 40
1.0
176
     1
 90
        0
176
     1
 62
    18
420
        0
176
     1
 90
       50
176
     1
 90
        3
176
     1
 62
     5
420
      255
176
     1
290
     0
176
     1
 90
       50
176
     1
 90
       50
176
     1
 90
       50
176
     1
290
     0
176
     1
 90
       50
176
     1
 62
   256
176
     0
 40
1.0
176
     0
 90
        2
176
     1
  1
strokes_ogs.tif
176
     1
290
     0
176
     1
 40
1.0
176
     1
 40
1.0
176
     1
  0
VISUALSTYLE
  5
2A5
102
{ACAD_REACTORS
330
2A3
102
}
330
2A3
100
AcDbVisualStyle
  2
FlatWithEdges
 70
     1
177
     3
291
     1
 70
    58
 90
        2
176
     1
 90
        1
176
     1
 90
        1
176
     1
 90
        2
176
     1
 40
0.6
176
     1
 40
30.0
176
     1
 62
     7
420
 16777215
176
     1
 90
        1
176
     1
 90
        0
176
     1
 62
     7
176
     1
 62
   257
176
     1
 90
        1
176
     1
 90
        1
176
     1
 40
1.0
176
     1
 90
        0
176
     1
 62
   257
176
     1
 40
1.0
176
     1
 90
        1
176
     1
 90
        6
176
     1
 90
        2
176
     1
 62
     7
176
     1
 90
        5
176
     1
 90
        0
176
     1
 90
        0
176
     1
290
     0
176
     1
 90
       13
176
     1
 40
0.0
176
     1
 90
        0
176
     1
290
     0
176
     1
290
     1
176
     1
290
     1
176
     1
290
     0
176
     1
290
     0
176
     1
290
     0
176
     1
290
     0
176
     1
290
     0
176
     1
290
     0
176
     1
 90
       50
176
     1
 40
0.0
176
     1
 40
1.0
176
     1
 90
        0
176
     1
 62
    18
420
        0
176
     1
 90
       50
176
     1
 90
        3
176
     1
 62
     5
420
      255
176
     1
290
     0
176
     1
 90
       50
176
     1
 90
       50
176
     1
 90
       50
176
     1
290
     0
176
     1
 90
       50
176
     1
 62
   256
176
     0
 40
1.0
176
     0
 90
        2
176
     1
  1
strokes_ogs.tif
176
     1
290
     0
176
     1
 40
1.0
176
     1
 40
1.0
176
     1
  0
VISUALSTYLE
  5
2A6
102
{ACAD_REACTORS
330
2A3
102
}
330
2A3
100
AcDbVisualStyle
  2
Gouraud
 70
     2
177
     3
291
     1
 70
    58
 90
        2
176
     1
 90
        2
176
     1
 90
        1
176
     1
 90
        2
176
     1
 40
0.6
176
     1
 40
30.0
176
     1
 62
     7
420
 16777215
176
     1
 90
        0
176
     1
 90
        0
176
     1
 62
     7
176
     1
 62
   257
176
     1
 90
        1
176
     1
 90
        1
176
     1
 40
1.0
176
     1
 90
        0
176
     1
 62
     7
176
     1
 40
1.0
176
     1
 90
        1
176
     1
 90
        6
176
     1
 90
        2
176
     1
 62
     7
176
     1
 90
        5
176
     1
 90
        0
176
     1
 90
        0
176
     1
290
     0
176
     1
 90
       13
176
     1
 40
0.0
176
     1
 90
        0
176
     1
290
     0
176
     1
290
     1
176
     1
290
     1
176
     1
290
     0
176
     1
290
     0
176
     1
290
     0
176
     1
290
     0
176
     1
290
     0
176
     1
290
     0
176
     1
 90
       50
176
     1
 40
0.0
176
     1
 40
1.0
176
     1
 90
        0
176
     1
 62
    18
420
        0
176
     1
 90
       50
176
     1
 90
        3
176
     1
 62
     5
420
      255
176
     1
290
     0
176
     1
 90
       50
176
     1
 90
       50
176
     1
 90
       50
176
     1
290
     0
176
     1
 90
       50
176
     1
 62
   256
176
     0
 40
1.0
176
     0
 90
        2
176
     1
  1
strokes_ogs.tif
176
     1
290
     0
176
     1
 40
1.0
176
     1
 40
1.0
176
     1
  0
VISUALSTYLE
  5
2A7
102
{ACAD_REACTORS
330
2A3
102
}
330
2A3
100
AcDbVisualStyle
  2
GouraudWithEdges
 70
     3
177
     3
291
     1
 70
    58
 90
        2
176
     1
 90
        2
176
     1
 90
        1
176
     1
 90
        2
176
     1
 40
0.6
176
     1
 40
30.0
176
     1
 62
     7
420
 16777215
176
     1
 90
        1
176
     1
 90
        0
176
     1
 62
     7
176
     1
 62
   257
176
     1
 90
        1
176
     1
 90
        1
176
     1
 40
1.0
176
     1
 90
        0
176
     1
 62
   257
176
     1
 40
1.0
176
     1
 90
        1
176
     1
 90
        6
176
     1
 90
        2
176
     1
 62
     7
176
     1
 90
        5
176
     1
 90
        0
176
     1
 90
        0
176
     1
290
     0
176
     1
 90
       13
176
     1
 40
0.0
176
     1
 90
        0
176
     1
290
     0
176
     1
290
     1
176
     1
290
     1
176
     1
290
     0
176
     1
290
     0
176
     1
290
     0
176
     1
290
     0
176
     1
290
     0
176
     1
290
     0
176
     1
 90
       50
176
     1
 40
0.0
176
     1
 40
1.0
176
     1
 90
        0
176
     1
 62
    18
420
        0
176
     1
 90
       50
176
     1
 90
        3
176
     1
 62
     5
420
      255
176
     1
290
     0
176
     1
 90
       50
176
     1
 90
       50
176
     1
 90
       50
176
     1
290
     0
176
     1
 90
       50
176
     1
 62
   256
176
     0
 40
1.0
176
     0
 90
        2
176
     1
  1
strokes_ogs.tif
176
     1
290
     0
176
     1
 40
1.0
176
     1
 40
1.0
176
     1
  0
VISUALSTYLE
  5
2AB
102
{ACAD_REACTORS
330
2A3
102
}
330
2A3
100
AcDbVisualStyle
  2
Hidden
 70
     6
177
     3
291
     0
 70
    58
 90
        1
176
     1
 90
        2
176
     1
 90
        2
176
     1
 90
        0
176
     1
 40
0.6
176
     1
 40
30.0
176
     1
 62
     7
420
 16777215
176
     1
 90
        2
176
     1
 90
        2
176
     1
 62
     7
176
     1
 62
   257
176
     1
 90
        2
176
     1
 90
        1
176
     1
 40
40.0
176
     1
 90
        0
176
     1
 62
   257
176
     1
 40
1.0
176
     1
 90
        1
176
     1
 90
        6
176
     1
 90
        2
176
     1
 62
     7
176
     1
 90
        3
176
     1
 90
        0
176
     1
 90
        0
176
     1
290
     0
176
     1
 90
        1
176
     1
 40
0.0
176
     1
 90
        0
176
     1
290
     0
176
     1
290
     1
176
     1
290
     1
176
     1
290
     0
176
     1
290
     0
176
     1
290
     0
176
     1
290
     0
176
     1
290
     0
176
     1
290
     0
176
     1
 90
       50
176
     1
 40
0.0
176
     1
 40
1.0
176
     1
 90
        0
176
     1
 62
    18
420
        0
176
     1
 90
       50
176
     1
 90
        3
176
     1
 62
     5
420
      255
176
     1
290
     0
176
     1
 90
       50
176
     1
 90
       50
176
     1
 90
       50
176
     1
290
     0
176
     1
 90
       50
176
     1
 62
   256
176
     0
 40
1.0
176
     0
 90
        2
176
     1
  1
strokes_ogs.tif
176
     1
290
     0
176
     1
 40
1.0
176
     1
 40
1.0
176
     1
  0
VISUALSTYLE
  5
2B9
102
{ACAD_REACTORS
330
2A3
102
}
330
2A3
100
AcDbVisualStyle
  2
JitterOff
 70
    20
177
     3
291
     1
 70
    58
 90
        2
176
     0
 90
        2
176
     0
 90
        0
176
     0
 90
        0
176
     0
 40
0.6
176
     0
 40
30.0
176
     0
 62
     7
420
 16777215
176
     0
 90
        1
176
     0
 90
        4
176
     0
 62
     7
176
     0
 62
   257
176
     0
 90
        1
176
     0
 90
        1
176
     0
 40
1.0
176
     0
 90
       10
176
     2
 62
     7
176
     0
 40
1.0
176
     0
 90
        1
176
     0
 90
        6
176
     0
 90
        2
176
     0
 62
     7
176
     0
 90
        5
176
     0
 90
        0
176
     0
 90
        0
176
     0
290
     0
176
     0
 90
        1
176
     0
 40
0.0
176
     0
 90
        0
176
     0
290
     0
176
     1
290
     1
176
     1
290
     1
176
     1
290
     0
176
     1
290
     0
176
     1
290
     0
176
     1
290
     0
176
     1
290
     0
176
     1
290
     0
176
     1
 90
       50
176
     0
 40
0.0
176
     0
 40
1.0
176
     0
 90
        0
176
     0
 62
    18
420
        0
176
     0
 90
       50
176
     0
 90
        3
176
     0
 62
     5
420
      255
176
     0
290
     0
176
     1
 90
       50
176
     0
 90
       50
176
     0
 90
       50
176
     0
290
     0
176
     1
 90
       50
176
     0
 62
   256
176
     0
 40
1.0
176
     0
 90
        2
176
     0
  1
strokes_ogs.tif
176
     0
290
     0
176
     1
 40
1.0
176
     0
 40
1.0
176
     0
  0
VISUALSTYLE
  5
2B1
102
{ACAD_REACTORS
330
2A3
102
}
330
2A3
100
AcDbVisualStyle
  2
Linepattern
 70
    14
177
     3
291
     1
 70
    58
 90
        2
176
     1
 90
        2
176
     1
 90
        0
176
     1
 90
        0
176
     1
 40
0.6
176
     1
 40
30.0
176
     1
 62
     7
420
 16777215
176
     1
 90
        1
176
     1
 90
        4
176
     1
 62
     7
176
     1
 62
   257
176
     1
 90
        7
176
     1
 90
        7
176
     1
 40
1.0
176
     1
 90
        8
176
     1
 62
     7
176
     1
 40
1.0
176
     1
 90
        1
176
     1
 90
        6
176
     1
 90
        2
176
     1
 62
     7
176
     1
 90
        5
176
     1
 90
        0
176
     1
 90
        0
176
     1
290
     0
176
     1
 90
        1
176
     1
 40
0.0
176
     1
 90
        0
176
     1
290
     0
176
     1
290
     1
176
     1
290
     1
176
     1
290
     0
176
     1
290
     0
176
     1
290
     0
176
     1
290
     0
176
     1
290
     0
176
     1
290
     0
176
     1
 90
       50
176
     1
 40
0.0
176
     1
 40
1.0
176
     1
 90
        0
176
     1
 62
    18
420
        0
176
     1
 90
       50
176
     1
 90
        3
176
     1
 62
     5
420
      255
176
     1
290
     0
176
     1
 90
       50
176
     1
 90
       50
176
     1
 90
       50
176
     1
290
     0
176
     1
 90
       50
176
     1
 62
   256
176
     0
 40
1.0
176
     0
 90
        2
176
     1
  1
strokes_ogs.tif
176
     1
290
     0
176
     1
 40
1.0
176
     1
 40
1.0
176
     1
  0
VISUALSTYLE
  5
2BA
102
{ACAD_REACTORS
330
2A3
102
}
330
2A3
100
AcDbVisualStyle
  2
OverhangOff
 70
    21
177
     3
291
     1
 70
    58
 90
        2
176
     0
 90
        2
176
     0
 90
        0
176
     0
 90
        0
176
     0
 40
0.6
176
     0
 40
30.0
176
     0
 62
     7
420
 16777215
176
     0
 90
        1
176
     0
 90
        4
176
     0
 62
     7
176
     0
 62
   257
176
     0
 90
        1
176
     0
 90
        1
176
     0
 40
1.0
176
     0
 90
        9
176
     2
 62
     7
176
     0
 40
1.0
176
     0
 90
        1
176
     0
 90
        6
176
     0
 90
        2
176
     0
 62
     7
176
     0
 90
        5
176
     0
 90
        0
176
     0
 90
        0
176
     0
290
     0
176
     0
 90
        1
176
     0
 40
0.0
176
     0
 90
        0
176
     0
290
     0
176
     1
290
     1
176
     1
290
     1
176
     1
290
     0
176
     1
290
     0
176
     1
290
     0
176
     1
290
     0
176
     1
290
     0
176
     1
290
     0
176
     1
 90
       50
176
     0
 40
0.0
176
     0
 40
1.0
176
     0
 90
        0
176
     0
 62
    18
420
        0
176
     0
 90
       50
176
     0
 90
        3
176
     0
 62
     5
420
      255
176
     0
290
     0
176
     1
 90
       50
176
     0
 90
       50
176
     0
 90
       50
176
     0
290
     0
176
     1
 90
       50
176
     0
 62
   256
176
     0
 40
1.0
176
     0
 90
        2
176
     0
  1
strokes_ogs.tif
176
     0
290
     0
176
     1
 40
1.0
176
     0
 40
1.0
176
     0
  0
VISUALSTYLE
  5
2AD
102
{ACAD_REACTORS
330
2A3
102
}
330
2A3
100
AcDbVisualStyle
  2
Realistic
 70
     8
177
     3
291
     0
 70
    58
 90
        2
176
     1
 90
        3
176
     1
 90
        0
176
     1
 90
        2
176
     1
 40
0.6
176
     1
 40
30.0
176
     1
 62
     7
420
 16777215
176
     1
 90
        0
176
     1
 90
        0
176
     1
 62
     7
176
     1
 62
   257
176
     1
 90
        1
176
     1
 90
        1
176
     1
 40
1.0
176
     1
 90
        8
176
     1
 62
   257
176
     1
 40
1.0
176
     1
 90
        1
176
     1
 90
        6
176
     1
 90
        2
176
     1
 62
     7
176
     1
 90
        3
176
     1
 90
        0
176
     1
 90
        0
176
     1
290
     0
176
     1
 90
       13
176
     1
 40
0.0
176
     1
 90
        0
176
     1
290
     0
176
     1
290
     1
176
     1
290
     1
176
     1
290
     0
176
     1
290
     0
176
     1
290
     0
176
     1
290
     0
176
     1
290
     0
176
     1
290
     0
176
     1
 90
       50
176
     1
 40
0.0
176
     1
 40
1.0
176
     1
 90
        0
176
     1
 62
    18
420
        0
176
     1
 90
       50
176
     1
 90
        3
176
     1
 62
     5
420
      255
176
     1
290
     0
176
     1
 90
       50
176
     1
 90
       50
176
     1
 90
       50
176
     1
290
     0
176
     1
 90
       50
176
     1
 62
   256
176
     0
 40
1.0
176
     0
 90
        2
176
     1
  1
strokes_ogs.tif
176
     1
290
     0
176
     1
 40
1.0
176
     1
 40
1.0
176
     1
  0
VISUALSTYLE
  5
2B8
102
{ACAD_REACTORS
330
2A3
102
}
330
2A3
100
AcDbVisualStyle
  2
Shaded
 70
    27
177
     3
291
     0
 70
    58
 90
        2
176
     1
 90
        2
176
     1
 90
        1
176
     1
 90
        2
176
     1
 40
0.6
176
     1
 40
30.0
176
     1
 62
     7
420
 16777215
176
     1
 90
        0
176
     1
 90
        4
176
     1
 62
     7
176
     1
 62
   257
176
     1
 90
        1
176
     1
 90
        1
176
     1
 40
1.0
176
     1
 90
        8
176
     1
 62
   257
176
     1
 40
1.0
176
     1
 90
        1
176
     1
 90
        6
176
     1
 90
        2
176
     1
 62
     8
420
  7895160
176
     1
 90
        3
176
     1
 90
        0
176
     1
 90
        0
176
     1
290
     0
176
     1
 90
        5
176
     1
 40
0.0
176
     1
 90
        0
176
     1
290
     0
176
     1
290
     1
176
     1
290
     1
176
     1
290
     0
176
     1
290
     0
176
     1
290
     0
176
     1
290
     0
176
     1
290
     0
176
     1
290
     0
176
     1
 90
       50
176
     1
 40
0.0
176
     1
 40
1.0
176
     1
 90
        0
176
     1
 62
    18
420
        0
176
     1
 90
       50
176
     1
 90
        3
176
     1
 62
     5
420
      255
176
     1
290
     0
176
     1
 90
       50
176
     1
 90
       50
176
     1
 90
       50
176
     1
290
     0
176
     1
 90
       50
176
     1
 62
   256
176
     0
 40
1.0
176
     0
 90
        2
176
     1
  1
strokes_ogs.tif
176
     1
290
     0
176
     1
 40
1.0
176
     1
 40
1.0
176
     1
  0
VISUALSTYLE
  5
2B7
102
{ACAD_REACTORS
330
2A3
102
}
330
2A3
100
AcDbVisualStyle
  2
Shaded with edges
 70
    26
177
     3
291
     0
 70
    58
 90
        2
176
     1
 90
        2
176
     1
 90
        1
176
     1
 90
        2
176
     1
 40
0.6
176
     1
 40
30.0
176
     1
 62
     7
420
 16777215
176
     1
 90
        1
176
     1
 90
        2
176
     1
 62
     7
176
     1
 62
   257
176
     1
 90
        2
176
     1
 90
        1
176
     1
 40
1.0
176
     1
 90
        8
176
     1
 62
   257
176
     1
 40
1.0
176
     1
 90
        1
176
     1
 90
        6
176
     1
 90
        2
176
     1
 62
     7
176
     1
 90
        3
176
     1
 90
        0
176
     1
 90
        0
176
     1
290
     0
176
     1
 90
        5
176
     1
 40
0.0
176
     1
 90
        0
176
     1
290
     0
176
     1
290
     1
176
     1
290
     1
176
     1
290
     0
176
     1
290
     0
176
     1
290
     0
176
     1
290
     0
176
     1
290
     0
176
     1
290
     0
176
     1
 90
       50
176
     1
 40
0.0
176
     1
 40
1.0
176
     1
 90
        0
176
     1
 62
    18
420
        0
176
     1
 90
       50
176
     1
 90
        3
176
     1
 62
     5
420
      255
176
     1
290
     0
176
     1
 90
       50
176
     1
 90
       50
176
     1
 90
       50
176
     1
290
     0
176
     1
 90
       50
176
     1
 62
   256
176
     0
 40
1.0
176
     0
 90
        2
176
     1
  1
strokes_ogs.tif
176
     1
290
     0
176
     1
 40
1.0
176
     1
 40
1.0
176
     1
  0
VISUALSTYLE
  5
2B4
102
{ACAD_REACTORS
330
2A3
102
}
330
2A3
100
AcDbVisualStyle
  2
Shades of Gray
 70
    23
177
     3
291
     0
 70
    58
 90
        2
176
     1
 90
        2
176
     1
 90
        3
176
     1
 90
        0
176
     1
 40
0.6
176
     1
 40
30.0
176
     1
 62
     7
420
 16777215
176
     1
 90
        2
176
     1
 90
        2
176
     1
 62
     7
176
     1
 62
     7
176
     1
 90
        1
176
     1
 90
        1
176
     1
 40
40.0
176
     1
 90
        8
176
     1
 62
     7
176
     1
 40
1.0
176
     1
 90
        1
176
     1
 90
        6
176
     1
 90
        2
176
     1
 62
     7
176
     1
 90
        3
176
     1
 90
        0
176
     1
 90
        0
176
     1
290
     0
176
     1
 90
        1
176
     1
 40
0.0
176
     1
 90
        0
176
     1
290
     0
176
     1
290
     1
176
     1
290
     1
176
     1
290
     0
176
     1
290
     0
176
     1
290
     0
176
     1
290
     0
176
     1
290
     0
176
     1
290
     0
176
     1
 90
       50
176
     1
 40
0.0
176
     1
 40
1.0
176
     1
 90
        0
176
     1
 62
    18
420
        0
176
     1
 90
       50
176
     1
 90
        3
176
     1
 62
     5
420
      255
176
     1
290
     0
176
     1
 90
       50
176
     1
 90
       50
176
     1
 90
       50
176
     1
290
     0
176
     1
 90
       50
176
     1
 62
   256
176
     0
 40
1.0
176
     0
 90
        2
176
     1
  1
strokes_ogs.tif
176
     1
290
     0
176
     1
 40
1.0
176
     1
 40
1.0
176
     1
  0
VISUALSTYLE
  5
2B5
102
{ACAD_REACTORS
330
2A3
102
}
330
2A3
100
AcDbVisualStyle
  2
Sketchy
 70
    24
177
     3
291
     0
 70
    58
 90
        1
176
     1
 90
        2
176
     1
 90
        2
176
     1
 90
        0
176
     1
 40
0.6
176
     1
 40
30.0
176
     1
 62
     7
420
 16777215
176
     1
 90
        2
176
     1
 90
        2
176
     1
 62
     7
176
     1
 62
     7
176
     1
 90
        1
176
     1
 90
        1
176
     1
 40
40.0
176
     1
 90
       11
176
     1
 62
     7
176
     1
 40
1.0
176
     1
 90
        1
176
     1
 90
        6
176
     1
 90
        2
176
     1
 62
     7
176
     1
 90
        6
176
     1
 90
        0
176
     1
 90
        0
176
     1
290
     0
176
     1
 90
        1
176
     1
 40
0.0
176
     1
 90
        0
176
     1
290
     0
176
     1
290
     1
176
     1
290
     1
176
     1
290
     0
176
     1
290
     0
176
     1
290
     0
176
     1
290
     0
176
     1
290
     0
176
     1
290
     0
176
     1
 90
       50
176
     1
 40
0.0
176
     1
 40
1.0
176
     1
 90
        0
176
     1
 62
    18
420
        0
176
     1
 90
       50
176
     1
 90
        3
176
     1
 62
     5
420
      255
176
     1
290
     0
176
     1
 90
       50
176
     1
 90
       50
176
     1
 90
       50
176
     1
290
     0
176
     1
 90
       50
176
     1
 62
   256
176
     0
 40
1.0
176
     0
 90
        2
176
     1
  1
strokes_ogs.tif
176
     1
290
     0
176
     1
 40
1.0
176
     1
 40
1.0
176
     1
  0
VISUALSTYLE
  5
2B0
102
{ACAD_REACTORS
330
2A3
102
}
330
2A3
100
AcDbVisualStyle
  2
Thicken
 70
    13
177
     3
291
     1
 70
    58
 90
        2
176
     1
 90
        2
176
     1
 90
        0
176
     1
 90
        0
176
     1
 40
0.6
176
     1
 40
30.0
176
     1
 62
     7
420
 16777215
176
     1
 90
        1
176
     1
 90
        4
176
     1
 62
     7
176
     1
 62
   257
176
     1
 90
        1
176
     1
 90
        1
176
     1
 40
1.0
176
     1
 90
       12
176
     1
 62
     7
176
     1
 40
1.0
176
     1
 90
        1
176
     1
 90
        6
176
     1
 90
        2
176
     1
 62
     7
176
     1
 90
        5
176
     1
 90
        0
176
     1
 90
        0
176
     1
290
     0
176
     1
 90
        1
176
     1
 40
0.0
176
     1
 90
        0
176
     1
290
     0
176
     1
290
     1
176
     1
290
     1
176
     1
290
     0
176
     1
290
     0
176
     1
290
     0
176
     1
290
     0
176
     1
290
     0
176
     1
290
     0
176
     1
 90
       50
176
     1
 40
0.0
176
     1
 40
1.0
176
     1
 90
        0
176
     1
 62
    18
420
        0
176
     1
 90
       50
176
     1
 90
        3
176
     1
 62
     5
420
      255
176
     1
290
     0
176
     1
 90
       50
176
     1
 90
       50
176
     1
 90
       50
176
     1
290
     0
176
     1
 90
       50
176
     1
 62
   256
176
     0
 40
1.0
176
     0
 90
        2
176
     1
  1
strokes_ogs.tif
176
     1
290
     0
176
     1
 40
1.0
176
     1
 40
1.0
176
     1
  0
VISUALSTYLE
  5
2AA
102
{ACAD_REACTORS
330
2A3
102
}
330
2A3
100
AcDbVisualStyle
  2
Wireframe
 70
     5
177
     3
291
     0
 70
    58
 90
        0
176
     1
 90
        2
176
     1
 90
        0
176
     1
 90
        0
176
     1
 40
0.6
176
     1
 40
30.0
176
     1
 62
     7
420
 16777215
176
     1
 90
        1
176
     1
 90
        4
176
     1
 62
     7
176
     1
 62
   257
176
     1
 90
        1
176
     1
 90
        1
176
     1
 40
1.0
176
     1
 90
        0
176
     1
 62
   257
176
     1
 40
1.0
176
     1
 90
        1
176
     1
 90
        6
176
     1
 90
        2
176
     1
 62
     7
176
     1
 90
        3
176
     1
 90
        0
176
     1
 90
        0
176
     1
290
     0
176
     1
 90
        1
176
     1
 40
0.0
176
     1
 90
        0
176
     1
290
     0
176
     1
290
     1
176
     1
290
     1
176
     1
290
     0
176
     1
290
     0
176
     1
290
     0
176
     1
290
     0
176
     1
290
     0
176
     1
290
     0
176
     1
 90
       50
176
     1
 40
0.0
176
     1
 40
1.0
176
     1
 90
        0
176
     1
 62
    18
420
        0
176
     1
 90
       50
176
     1
 90
        3
176
     1
 62
     5
420
      255
176
     1
290
     0
176
     1
 90
       50
176
     1
 90
       50
176
     1
 90
       50
176
     1
290
     0
176
     1
 90
       50
176
     1
 62
   256
176
     0
 40
1.0
176
     0
 90
        2
176
     1
  1
strokes_ogs.tif
176
     1
290
     0
176
     1
 40
1.0
176
     1
 40
1.0
176
     1
  0
VISUALSTYLE
  5
2B6
102
{ACAD_REACTORS
330
2A3
102
}
330
2A3
100
AcDbVisualStyle
  2
X-Ray
 70
    25
177
     3
291
     0
 70
    58
 90
        2
176
     1
 90
        2
176
     1
 90
        1
176
     1
 90
        1
176
     1
 40
0.5
176
     1
 40
30.0
176
     1
 62
     7
420
 16777215
176
     1
 90
        1
176
     1
 90
        0
176
     1
 62
     7
176
     1
 62
   257
176
     1
 90
        1
176
     1
 90
        1
176
     1
 40
1.0
176
     1
 90
        8
176
     1
 62
     7
176
     1
 40
1.0
176
     1
 90
        1
176
     1
 90
        6
176
     1
 90
        2
176
     1
 62
     7
176
     1
 90
        3
176
     1
 90
        0
176
     1
 90
        0
176
     1
290
     0
176
     1
 90
       13
176
     1
 40
0.0
176
     1
 90
        0
176
     1
290
     0
176
     1
290
     1
176
     1
290
     1
176
     1
290
     0
176
     1
290
     0
176
     1
290
     0
176
     1
290
     0
176
     1
290
     0
176
     1
290
     0
176
     1
 90
       50
176
     1
 40
0.0
176
     1
 40
1.0
176
     1
 90
        0
176
     1
 62
    18
420
        0
176
     1
 90
       50
176
     1
 90
        3
176
     1
 62
     5
420
      255
176
     1
290
     0
176
     1
 90
       50
176
     1
 90
       50
176
     1
 90
       50
176
     1
290
     0
176
     1
 90
       50
176
     1
 62
   256
176
     0
 40
1.0
176
     0
 90
        2
176
     1
  1
strokes_ogs.tif
176
     1
290
     0
176
     1
 40
1.0
176
     1
 40
1.0
176
     1
  0
DICTIONARYVAR
  5
58B
102
{ACAD_REACTORS
330
585
102
}
330
585
100
DictionaryVariables
280
     0
  1
1:1
  0
DICTIONARYVAR
  5
587
102
{ACAD_REACTORS
330
585
102
}
330
585
100
DictionaryVariables
280
     0
  1
STANDARD
  0
DICTIONARYVAR
  5
586
102
{ACAD_REACTORS
330
585
102
}
330
585
100
DictionaryVariables
280
     0
  1
STANDARD
  0
DICTIONARYVAR
  5
588
102
{ACAD_REACTORS
330
585
102
}
330
585
100
DictionaryVariables
280
     0
  1
Imperial24
  0
DICTIONARYVAR
  5
589
102
{ACAD_REACTORS
330
585
102
}
330
585
100
DictionaryVariables
280
     0
  1
Imperial24
  0
DICTIONARYVAR
  5
58D
102
{ACAD_REACTORS
330
585
102
}
330
585
100
DictionaryVariables
280
     0
  1
1
  0
DICTIONARYVAR
  5
58E
102
{ACAD_REACTORS
330
585
102
}
330
585
100
DictionaryVariables
280
     0
  1
15
  0
DICTIONARYVAR
  5
58C
102
{ACAD_REACTORS
330
585
102
}
330
585
100
DictionaryVariables
280
     0
  1
1
  0
DICTIONARYVAR
  5
58A
102
{ACAD_REACTORS
330
585
102
}
330
585
100
DictionaryVariables
280
     0
  1
0
  0
DICTIONARY
  5
294
330
293
100
AcDbDictionary
280
     1
281
     1
  3
BUMPTILE
360
296
  3
DIFFUSETILE
360
295
  3
OPACITYTILE
360
299
  3
REFLECTIONTILE
360
298
  3
REFRACTIONTILE
360
29A
  3
SPECULARTILE
360
297
  0
DICTIONARY
  5
28C
330
28B
100
AcDbDictionary
280
     1
281
     1
  3
BUMPTILE
360
28E
  3
DIFFUSETILE
360
28D
  3
OPACITYTILE
360
291
  3
REFLECTIONTILE
360
290
  3
REFRACTIONTILE
360
292
  3
SPECULARTILE
360
28F
  0
DICTIONARY
  5
29C
330
29B
100
AcDbDictionary
280
     1
281
     1
  3
BUMPTILE
360
29E
  3
DIFFUSETILE
360
29D
  3
OPACITYTILE
360
2A1
  3
REFLECTIONTILE
360
2A0
  3
REFRACTIONTILE
360
2A2
  3
SPECULARTILE
360
29F
  0
DICTIONARY
  5
5AD
330
2BE
100
AcDbDictionary
280
     1
281
     1
  3
ACAD_ROUNDTRIP_2008_TABLESTYLE_CELLSTYLEMAP
360
5AE
  0
XRECORD
  5
296
102
{ACAD_REACTORS
330
294
102
}
330
294
100
AcDbXrecord
280
     1
270
     1
271
     1
  0
XRECORD
  5
295
102
{ACAD_REACTORS
330
294
102
}
330
294
100
AcDbXrecord
280
     1
270
     1
271
     1
  0
XRECORD
  5
299
102
{ACAD_REACTORS
330
294
102
}
330
294
100
AcDbXrecord
280
     1
270
     1
271
     1
  0
XRECORD
  5
298
102
{ACAD_REACTORS
330
294
102
}
330
294
100
AcDbXrecord
280
     1
270
     1
271
     1
  0
XRECORD
  5
29A
102
{ACAD_REACTORS
330
294
102
}
330
294
100
AcDbXrecord
280
     1
270
     1
271
     1
  0
XRECORD
  5
297
102
{ACAD_REACTORS
330
294
102
}
330
294
100
AcDbXrecord
280
     1
270
     1
271
     1
  0
XRECORD
  5
28E
102
{ACAD_REACTORS
330
28C
102
}
330
28C
100
AcDbXrecord
280
     1
270
     1
271
     1
  0
XRECORD
  5
28D
102
{ACAD_REACTORS
330
28C
102
}
330
28C
100
AcDbXrecord
280
     1
270
     1
271
     1
  0
XRECORD
  5
291
102
{ACAD_REACTORS
330
28C
102
}
330
28C
100
AcDbXrecord
280
     1
270
     1
271
     1
  0
XRECORD
  5
290
102
{ACAD_REACTORS
330
28C
102
}
330
28C
100
AcDbXrecord
280
     1
270
     1
271
     1
  0
XRECORD
  5
292
102
{ACAD_REACTORS
330
28C
102
}
330
28C
100
AcDbXrecord
280
     1
270
     1
271
     1
  0
XRECORD
  5
28F
102
{ACAD_REACTORS
330
28C
102
}
330
28C
100
AcDbXrecord
280
     1
270
     1
271
     1
  0
XRECORD
  5
29E
102
{ACAD_REACTORS
330
29C
102
}
330
29C
100
AcDbXrecord
280
     1
270
     1
271
     1
  0
XRECORD
  5
29D
102
{ACAD_REACTORS
330
29C
102
}
330
29C
100
AcDbXrecord
280
     1
270
     1
271
     1
  0
XRECORD
  5
2A1
102
{ACAD_REACTORS
330
29C
102
}
330
29C
100
AcDbXrecord
280
     1
270
     1
271
     1
  0
XRECORD
  5
2A0
102
{ACAD_REACTORS
330
29C
102
}
330
29C
100
AcDbXrecord
280
     1
270
     1
271
     1
  0
XRECORD
  5
2A2
102
{ACAD_REACTORS
330
29C
102
}
330
29C
100
AcDbXrecord
280
     1
270
     1
271
     1
  0
XRECORD
  5
29F
102
{ACAD_REACTORS
330
29C
102
}
330
29C
100
AcDbXrecord
280
     1
270
     1
271
     1
  0
CELLSTYLEMAP
  5
5AE
102
{ACAD_REACTORS
330
5AD
102
}
330
5AD
100
AcDbCellStyleMap
 90
        3
300
CELLSTYLE
  1
TABLEFORMAT_BEGIN
 90
        5
170
     1
 91
        0
 92
    32768
 62
   257
 93
        1
300
CONTENTFORMAT
  1
CONTENTFORMAT_BEGIN
 90
        0
 91
        0
 92
      512
 93
        0
300

 40
0.0
140
1.0
 94
        5
 62
     0
340
11
144
0.25
309
CONTENTFORMAT_END
171
     0
 94
        0
309
TABLEFORMAT_END
  1
CELLSTYLE_BEGIN
 90
        1
 91
        1
300
_TITLE
309
CELLSTYLE_END
300
CELLSTYLE
  1
TABLEFORMAT_BEGIN
 90
        5
170
     1
 91
        0
 92
        0
 62
   257
 93
        1
300
CONTENTFORMAT
  1
CONTENTFORMAT_BEGIN
 90
        0
 91
        0
 92
      512
 93
        0
300

 40
0.0
140
1.0
 94
        5
 62
     0
340
11
144
0.18
309
CONTENTFORMAT_END
171
     0
 94
        0
309
TABLEFORMAT_END
  1
CELLSTYLE_BEGIN
 90
        2
 91
        1
300
_HEADER
309
CELLSTYLE_END
300
CELLSTYLE
  1
TABLEFORMAT_BEGIN
 90
        5
170
     1
 91
        0
 92
        0
 62
   257
 93
        1
300
CONTENTFORMAT
  1
CONTENTFORMAT_BEGIN
 90
        0
 91
        0
 92
      512
 93
        0
300

 40
0.0
140
1.0
 94
        2
 62
     0
340
11
144
0.18
309
CONTENTFORMAT_END
171
     0
 94
        0
309
TABLEFORMAT_END
  1
CELLSTYLE_BEGIN
 90
        3
 91
        2
300
_DATA
309
CELLSTYLE_END
  0
ENDSEC
  0
SECTION
  2
ACDSDATA
 70
     2
 71
     8
  0
ACDSSCHEMA
 90
        0
  1
AcDb_Thumbnail_Schema
  2
AcDbDs::ID
280
    10
 91
        8
  2
Thumbnail_Data
280
    15
 91
        0
101
ACDSRECORD
 95
        0
 90
        1
  2
AcDbDs::TreatedAsObjectData
280
     1
291
     1
101
ACDSRECORD
 95
        0
 90
        2
  2
AcDbDs::Legacy
280
     1
291
     1
101
ACDSRECORD
  1
AcDbDs::ID
 90
        3
  2
AcDs:Indexable
280
     1
291
     1
101
ACDSRECORD
  1
AcDbDs::ID
 90
        4
  2
AcDbDs::HandleAttribute
280
     7
282
     1
  0
ACDSSCHEMA
 90
        1
  1
AcDbDs::TreatedAsObjectDataSchema
  2
AcDbDs::TreatedAsObjectData
280
     1
 91
        0
  0
ACDSSCHEMA
 90
        2
  1
AcDbDs::LegacySchema
  2
AcDbDs::Legacy
280
     1
 91
        0
  0
ACDSSCHEMA
 90
        3
  1
AcDbDs::IndexedPropertySchema
  2
AcDs:Indexable
280
     1
 91
        0
  0
ACDSSCHEMA
 90
        4
  1
AcDbDs::HandleAttributeSchema
  2
AcDbDs::HandleAttribute
280
     7
 91
        1
284
     1
  0
ACDSRECORD
 90
        0
  2
AcDbDs::ID
280
    10
320
22
  2
Thumbnail_Data
280
    15
 94
     1748
310
89504E470D0A1A0A0000000D49484452000001000000007E0803000000FCF33F5100000300504C5445212830FFFFFF2128300000000000000000000000000000000000000000000000000000330000660000990000CC0000FF0033000033330033660033990033CC0033FF0066000066330066660066990066CC0066FF0099
310
000099330099660099990099CC0099FF00CC0000CC3300CC6600CC9900CCCC00CCFF00FF0000FF3300FF6600FF9900FFCC00FFFF3300003300333300663300993300CC3300FF3333003333333333663333993333CC3333FF3366003366333366663366993366CC3366FF3399003399333399663399993399CC3399FF33CC00
310
33CC3333CC6633CC9933CCCC33CCFF33FF0033FF3333FF6633FF9933FFCC33FFFF6600006600336600666600996600CC6600FF6633006633336633666633996633CC6633FF6666006666336666666666996666CC6666FF6699006699336699666699996699CC6699FF66CC0066CC3366CC6666CC9966CCCC66CCFF66FF0066
310
FF3366FF6666FF9966FFCC66FFFF9900009900339900669900999900CC9900FF9933009933339933669933999933CC9933FF9966009966339966669966999966CC9966FF9999009999339999669999999999CC9999FF99CC0099CC3399CC6699CC9999CCCC99CCFF99FF0099FF3399FF6699FF9999FFCC99FFFFCC0000CC00
310
33CC0066CC0099CC00CCCC00FFCC3300CC3333CC3366CC3399CC33CCCC33FFCC6600CC6633CC6666CC6699CC66CCCC66FFCC9900CC9933CC9966CC9999CC99CCCC99FFCCCC00CCCC33CCCC66CCCC99CCCCCCCCCCFFCCFF00CCFF33CCFF66CCFF99CCFFCCCCFFFFFF0000FF0033FF0066FF0099FF00CCFF00FFFF3300FF3333
310
FF3366FF3399FF33CCFF33FFFF6600FF6633FF6666FF6699FF66CCFF66FFFF9900FF9933FF9966FF9999FF99CCFF99FFFFCC00FFCC33FFCC66FFCC99FFCCCCFFCCFFFFFF00FFFF33FFFF66FFFF99FFFFCCFFFFFF0000000D0D0D1A1A1A2828283535354343435050505D5D5D6B6B6B787878868686939393A1A1A1AEAEAEBB
310
BBBBC9C9C9D6D6D6E4E4E4F1F1F1FFFFFF0000000000000000000000000000000000000000000000000000000000002E4550F10000038F4944415478DAED9DDB6E63310845F9FFFF5DEF55ABA4071B3897AA0FF1C68C66224DA32A5EC5B0C1F8D46CDBB66DDBB66DFB37039A03B0DE04BE57DF1B80B5F780F67BE0E74FEF3D
310
D03B0A60A90BF4D916A49BA0516E205F6D4A40523431BC9C470614E325D9C2C8A088260C5E6290E815D12D5E6FE3C2960B821300AC00F0D24CCC81615E342B7B007EFF9305416E079625C21FEFA48F170039062900C19F49B63FEE8DF5EA604900EE6F9E0F9D17A803F809628414C00CA0D802CB0360547EEF900E1600DCD4
310
C80B029812A1DBF7B888A009000B00C650A00E20F180EC8DBF7EA109A04EF0D74170790046B2323A01483EF698169F2AFDE500841FADDBEB0D00107B02532580ABFB54B3C09006B014C069B6585D077845CBEC07C20048006015000401580090EC7F2784043D608C01A121D24007F82C903444B2A020AC03FED01011134227
310
0D911E42E8B715101B22B200462144D9101155825108950D912E4AB06A88280AA147001485908B01972D317521740D405C08DD00202B84CE3E75BBA3B1AC26E6747122476361EC210790AC4D02C02483704784361C1BDE01B0C42851381AF36310F88120BB4A94D937FFFC41A17834E67F7E8C5FE0B963AF0660E888BACAD0
310
0EF1F760492B0C14CE59608CFAB85E400300165E21F604A53DA01815EA0100B233814E00AC023066016D0F281DA0490C0821902E00A00E7D3D00D83C0D92AD5BDB03188F458F7F337F908C014C73C2740330E7004209D404C054107701701442A4152DA65D0C850A3E8A02774CAC0F8043181F407A002053025125890328E7
310
6305014C1DDE78676A03100760E97907E5FABB00982F52DE0000EB031826E5E753007A0108FF1589B402C0B512140040CC0CEEB5412DE0CF87496E51AB03A82E8EFB6745583940908C17AD0D60BC30704C473E0060B6148034ED4528BA1E7005007BFA64A5B500244F4E98DA836802200D7E8973887A40D037D938681D0374
310
CAE1F919313401904E3E0521280DE02C5F7B21FC56411B8024002CD6414566900610A645BB00A816DE2608863AB759168899B03D809312591040D6ECDC00E6AF09EB80B4DF1FFA42FA004E9E20D5A118B2EA4E587B00A171AE0BC0B70486454877844602211F0C77E69007305F1B227B9694AC0E483E7D1A277A00084F09AF
310
4E86340124473CD5D9A05231542E7F9403E200A81F21C2E3ABB3AB7584CEEE45FBDFC48428808BDF09019CA78DAB54F2E104AE3F2A5789F36E82FD48003C7CFB4DB36DDBB66DDBB66DDBBFDB17F6B2D9180A6C7A720000000049454E44AE426082
  0
ENDSEC
  0
EOF
