0
SECTION
2
HEADER
9
$INSUNITS
70
1
9
$ACADVER
1
AC1014
9
$HANDSEED
5
FFFF
0
ENDSEC
0
SECTION
2
TABLES
0
TABLE
2
VPORT
5
8
100
AcDbSymbolTable
0
ENDTAB
0
TABLE
2
LTYPE
5
5
100
AcDbSymbolTable
0
LTYPE
5
14
100
AcDbSymbolTableRecord
100
AcDbLinetypeTableRecord
2
BYBLOCK
70
0
0
LTYPE
5
15
100
AcDbSymbolTableRecord
100
AcDbLinetypeTableRecord
2
BYLAYER
70
0
0
ENDTAB
0
TABLE
2
LAYER
5
2
100
AcDbSymbolTable
70
2
0
LAYER
5
50
100
AcDbSymbolTableRecord
100
AcDbLayerTableRecord
2
0
70
0
6
CONTINUOUS
0
ENDTAB
0
TABLE
2
STYLE
5
3
100
AcDbSymbolTable
70
1
0
STYLE
5
11
100
AcDbSymbolTableRecord
100
AcDbTextStyleTableRecord
2
STANDARD
70
0
0
ENDTAB
0
TABLE
2
VIEW
5
6
100
AcDbSymbolTable
70
0
0
ENDTAB
0
TABLE
2
UCS
5
7
100
AcDbSymbolTable
70
0
0
ENDTAB
0
TABLE
2
APPID
5
9
100
AcDbSymbolTable
70
2
0
APPID
5
12
100
AcDbSymbolTableRecord
100
AcDbRegAppTableRecord
2
ACAD
70
0
0
ENDTAB
0
TABLE
2
DIMSTYLE
5
A
100
AcDbSymbolTable
70
1
0
ENDTAB
0
TABLE
2
BLOCK_RECORD
5
1
100
AcDbSymbolTable
70
1
0
BLOCK_RECORD
5
1F
100
AcDbSymbolTableRecord
100
AcDbBlockTableRecord
2
*MODEL_SPACE
0
BLOCK_RECORD
5
1B
100
AcDbSymbolTableRecord
100
AcDbBlockTableRecord
2
*PAPER_SPACE
0
ENDTAB
0
ENDSEC
0
SECTION
2
BLOCKS
0
BLOCK
5
20
100
AcDbEntity
100
AcDbBlockBegin
2
*MODEL_SPACE
0
ENDBLK
5
21
100
AcDbEntity
100
AcDbBlockEnd
0
BLOCK
5
1C
100
AcDbEntity
100
AcDbBlockBegin
2
*PAPER_SPACE
0
ENDBLK
5
1D
100
AcDbEntity
100
AcDbBlockEnd
0
ENDSEC
0
SECTION
2
ENTITIES
0
LWPOLYLINE
5
100
100
AcDbEntity
8
0
100
AcDbPolyline
90
8
70
1
43
0.0
10
-2.8102137545963015
20
32.075000000000003
42
0.41421356237309426
10
-3.1852137545963006
20
31.700000000000003
10
-3.1852137545962962
20
0.45000000000000023
42
0.41421356237309598
10
-2.8102137545962966
20
0.074999999999999914
10
18.189786245403702
20
0.075000000000002842
42
0.41421356237308876
10
18.564786245403702
20
0.45000000000000295
10
18.564786245403692
20
31.700000000000003
42
0.41421356237308848
10
18.189786245403695
20
32.075000000000003
0
LWPOLYLINE
5
101
100
AcDbEntity
8
0
100
AcDbPolyline
90
5
70
1
43
0.0
10
14.67993604938798
20
12.749441818997497
42
0.00091835904188048367
10
14.659422358265632
20
12.874999999999979
10
12.232216797208991
20
12.875000000000005
10
12.191054799527416
20
10.15337240592469
42
0.12552232598353322
10
13.042550630762005
20
10.381754146171145
42
-0.063122297410341366
0
LWPOLYLINE
5
102
100
AcDbEntity
8
0
100
AcDbPolyline
90
4
70
1
43
0.0
10
11.361073956458483
20
5.5319921457940824
42
0.0044564930279789375
10
11.885199943414488
20
6.4522324738593726
10
11.926785420481931
20
9.2018604869381004
42
0.034726560125951947
10
11.41926468275946
20
9.3795577485423998
0
LWPOLYLINE
5
103
100
AcDbEntity
8
0
100
AcDbPolyline
90
3
70
1
43
0.0
10
11.28880597708325
20
17.285507801805082
10
11.225882301241306
20
13.125000000000002
10
9.1931064255635491
20
13.125000000000002
42
0.061868959075130972
0
LWPOLYLINE
5
104
100
AcDbEntity
8
0
100
AcDbPolyline
90
4
70
1
43
0.0
10
6.9842014029806583
20
9.7423289215825974
10
6.9633319287042799
20
12.875000000000005
10
8.3287093447131841
20
12.875000000000005
10
8.3963955305455169
20
9.124701673887861
42
0.046081783987357412
0
LWPOLYLINE
5
105
100
AcDbEntity
8
0
100
AcDbPolyline
90
4
70
1
43
0.0
10
8.4016280614338985
20
8.8347820752176567
42
0.047924568562404492
10
6.9859630539907673
20
9.4778913465602503
10
7.0264358133597549
20
3.4026140750812095
42
-0.060555556120646628
10
8.4881228681340595
20
4.0423517617630322
0
LWPOLYLINE
5
106
100
AcDbEntity
8
0
100
AcDbPolyline
90
4
70
1
43
0.0
10
8.4928156679867062
20
3.7823371189559043
42
0.063560323302024796
10
7.0283755080546531
20
3.1114507524601693
10
7.0436075652889532
20
0.82500000000000162
10
8.5461903204533645
20
0.82499999999999907
0
LWPOLYLINE
5
107
100
AcDbEntity
8
0
100
AcDbPolyline
90
8
70
1
43
0.0
10
8.7962310343905763
20
0.82500000000000195
10
8.7630078848019046
20
2.6657998730969812
42
0.014135684845718517
10
10.294233548277138
20
4.6073708682282017
42
-0.00094477057008820293
10
10.724682367429924
20
4.3923403592612456
42
0.077535251060479385
10
10.016748589929859
20
3.1634059047662468
42
0.17157584106349644
10
10.101616093183173
20
2.4058848572089273
42
0.33358438982543537
10
11.129088461505267
20
1.9789266149218381
10
11.129088461505267
20
0.82500000000000218
0
LWPOLYLINE
5
108
100
AcDbEntity
8
0
100
AcDbPolyline
90
4
70
1
43
0.0
10
11.289885230927414
20
0.8250000000000024
10
11.310062045847365
20
2.1590891924512787
42
-0.23573705146469245
10
11.821033636935569
20
2.2095620458137741
10
11.800093468690706
20
0.82500000000000151
0
LWPOLYLINE
5
109
100
AcDbEntity
8
0
100
AcDbPolyline
90
3
70
1
43
0.0
10
9.71856474442985
20
8.1531305839841135
42
0.040878357455181737
10
11.136508836529863
20
7.2156345309469589
10
11.210620636501538
20
12.115900096525735
42
-0.036541674234735887
0
LWPOLYLINE
5
110
100
AcDbEntity
8
0
100
AcDbPolyline
90
4
70
1
43
0.0
10
8.6909370606569318
20
6.6590384908250124
42
0.05835696018946409
10
11.164773304236537
20
12.874999999999988
10
9.022732463679997
20
12.875000000000069
42
-0.0097851320945001215
10
8.5895681812576896
20
12.27559870995986
0
LWPOLYLINE
5
111
100
AcDbEntity
8
0
100
AcDbPolyline
90
3
70
1
43
0.0
10
10.498507730719041
20
4.8842787892119421
42
0.0012912086458216642
10
11.129088461501853
20
4.5374299769621071
10
11.129088461505349
20
5.7690016961690818
42
-0.0062098363407645648
0
LWPOLYLINE
5
112
100
AcDbEntity
8
0
100
AcDbPolyline
90
3
70
1
43
0.0
10
11.09822800041939
20
22.982144388686681
42
0.010704839422976209
10
11.364184217374788
20
22.269510287722522
10
11.380995084666298
20
23.38104332493916
42
-0.028070720693613667
0
LWPOLYLINE
5
113
100
AcDbEntity
8
0
100
AcDbPolyline
90
5
70
1
43
0.0
10
11.686632126109615
20
27.057869117399566
42
0.10897022516545378
10
12.225321502617991
20
27.279631955990833
42
0.079141380826840205
10
12.19816050694407
20
27.145156858843521
10
12.11935849387039
20
21.934774823714378
42
0.12452267835320817
10
11.610985369424345
20
22.056112351617944
0
LWPOLYLINE
5
114
100
AcDbEntity
8
0
100
AcDbPolyline
90
4
70
1
43
0.0
10
14.649739079481007
20
28.346643226366275
42
0.29044019121139009
10
15.099205391762315
20
27.553664289218258
42
-0.064831856183719241
10
15.775419102956286
20
28.144043036359857
42
-0.051427880546227427
10
15.443001702232415
20
28.598222632089371
42
-0.057026713419024169
0
LWPOLYLINE
5
115
100
AcDbEntity
8
0
100
AcDbPolyline
90
5
70
1
43
0.0
10
12.358588033000478
20
21.230654773806624
10
12.384491789509974
20
22.94340883039618
42
0.055026723424055325
10
12.872269845303016
20
24.033728965130557
42
-0.066132556368832765
10
12.772059716297745
20
21.35626793949417
42
0.009964782670854995
10
12.759608907817055
20
21.273636474043879
42
0.081210476113237284
0
LWPOLYLINE
5
116
100
AcDbEntity
8
0
100
AcDbPolyline
90
5
70
1
43
0.0
10
12.74212986161587
20
21.024214534263042
42
0.098896200392387806
10
12.354606822019194
20
20.967417460877144
10
12.329010636945036
20
19.274999999999999
10
13.2805626511312
20
19.274999999999999
42
0.074224579231169138
10
13.013602345472449
20
19.970576014228772
42
-0.13199399123586916
0
LWPOLYLINE
5
117
100
AcDbEntity
8
0
100
AcDbPolyline
90
7
70
1
43
0.0
10
2.2520423012265569
20
6.975000000000005
10
0.88312764061595239
20
6.9749999999999686
42
-0.011746538121479425
10
1.201820252499407
20
8.2682292917539275
42
0.02582117031856478
10
1.5592113779526631
20
9.7389282359771965
42
0.015000954678283324
10
2.1391468328730001
20
10.31422764465521
42
-0.018914009383417214
10
2.3363691770413575
20
10.506835401079005
42
-0.0077311944708198669
10
2.2528208610732183
20
7.0504145915426228
42
-0.0010760428888878667
0
LWPOLYLINE
5
118
100
AcDbEntity
8
0
100
AcDbPolyline
90
4
70
1
43
0.0
10
8.3241972912745901
20
13.125000000000002
10
6.961666459065591
20
13.125000000000002
10
6.9267440769178279
20
18.367122302408728
42
0.035965404072539675
10
8.2301333558000671
20
18.336814130455984
0
LWPOLYLINE
5
119
100
AcDbEntity
8
0
100
AcDbPolyline
90
6
70
1
43
0.0
10
9.8835497708887381
20
22.224635206205839
42
0.075541875816357046
10
10.816258399687044
20
23.033049649931158
42
-0.022901490963335814
10
10.356975919670225
20
24.617333995535429
42
-0.075683621998511405
10
10.239155472766548
20
25.995391384385581
42
0.016361194738669683
10
9.7924384450712711
20
26.147657401268891
42
-0.058752027893912831
10
9.8361563339507754
20
23.59480114736505
42
0.042898793363063549
0
LWPOLYLINE
5
120
100
AcDbEntity
8
0
100
AcDbPolyline
90
5
70
1
43
0.0
10
10.76341240922557
20
27.11764629125619
42
0.18380791564118718
10
7.6897862454036989
20
29.806062531287537
42
0.18380791564118787
10
4.6161600815818318
20
27.117646291256182
42
-0.065683335291461115
10
5.0562333049127632
20
26.230832068483238
42
-0.18229361279059583
10
10.323339185894632
20
26.230832068483238
42
-0.06568333529146124
0
LWPOLYLINE
5
121
100
AcDbEntity
8
0
100
AcDbPolyline
90
7
70
1
43
0.0
10
10.600024569317444
20
24.675877602399531
42
0.020622359432645041
10
11.001486746138101
20
23.267072771379564
42
0.045845443432154735
10
11.389014176888502
20
23.91126498327996
10
11.441353838803099
20
27.371958733697323
42
0.24454942667689014
10
8.4726015990714689
20
29.730788696504359
42
-0.15770786061143649
10
11.054882219323428
20
27.097713800639696
42
0.094840947012060639
10
10.48402641492741
20
25.897728980518288
42
0.070977127336192478
0
LWPOLYLINE
5
122
100
AcDbEntity
8
0
100
AcDbPolyline
90
5
70
1
43
0.0
10
6.9069708917359538
20
29.730788696504376
42
0.15770786061143766
10
4.3246902714839663
20
27.097713800639699
42
-0.094840947012061791
10
4.8955460758799747
20
25.897728980518281
42
-0.070977127336192117
10
4.7795479214899563
20
24.675877602399549
42
-0.020622359432647709
10
4.3780857446692796
20
23.267072771379443
42
-0.55029242632424125
0
LWPOLYLINE
5
123
100
AcDbEntity
8
0
100
AcDbPolyline
90
6
70
1
43
0.0
10
4.5633140911203292
20
23.033049649931051
42
0.022901490963337365
10
5.0225965711371829
20
24.617333995535425
42
0.075683621998511336
10
5.1404170180408437
20
25.995391384385581
42
-0.016361194738671016
10
5.5871340457361205
20
26.147657401268901
42
0.058752027893913143
10
5.5434161568566207
20
23.59480114736504
42
-0.042898793363066186
10
5.496022719918658
20
22.224635206205736
42
-0.075541875816355131
0
LWPOLYLINE
5
124
100
AcDbEntity
8
0
100
AcDbPolyline
90
7
70
1
43
0.0
10
1.9357548496706247
20
19.274999999999991
10
-0.62271375459629896
20
19.274999999999995
10
-0.62271375459629996
20
25.174999999999994
10
2.2718251501599633
20
25.174999999999994
42
0.052916900268133643
10
2.5022862454036994
20
24.049431932022081
10
2.5022862454037016
20
20.889663493576478
42
0.079401172728328709
10
2.0387225899358996
20
19.724449723101248
42
-0.0025207913294077013
0
LWPOLYLINE
5
125
100
AcDbEntity
8
0
100
AcDbPolyline
90
3
70
1
43
0.0
10
2.4540491882834203
20
13.124999999999995
10
2.1920541810391119
20
13.125000000000004
42
-0.023473118471914179
10
2.565875358308856
20
14.15213660713454
42
0.0046328607205507345
0
LWPOLYLINE
5
126
100
AcDbEntity
8
0
100
AcDbPolyline
90
3
70
1
43
0.0
10
2.7524923100413976
20
13.578406294371616
42
0.00205321730102689
10
2.705289409070323
20
13.125000000000023
10
2.8132787295898711
20
13.124999999999993
42
0.0019482968062321665
0
LWPOLYLINE
5
127
100
AcDbEntity
8
0
100
AcDbPolyline
90
4
70
1
43
0.0
10
3.0654781978508652
20
13.125000000000004
42
0.0039832576137992888
10
2.9373993305025623
20
14.055474435631469
42
-0.13411261811002362
10
3.0247001738631658
20
14.768218885090679
42
-0.0087228322485221384
10
3.3666311849531518
20
13.124999999999995
0
LWPOLYLINE
5
128
100
AcDbEntity
8
0
100
AcDbPolyline
90
3
70
1
43
0.0
10
5.2243738077379414
20
15.552980412290129
42
0.1050323294384489
10
4.738905581593241
20
13.125000000000002
10
6.3401656535933304
20
13.125000000000004
42
-0.076464777467171577
0
LWPOLYLINE
5
129
100
AcDbEntity
8
0
100
AcDbPolyline
90
5
70
1
43
0.0
10
5.1479734398260089
20
18.405185072315945
42
0.16506420179175624
10
6.6416488436213958
20
13.125000000000002
10
6.7116609115489068
20
13.125000000000002
10
6.6765561043763269
20
18.394505723366212
42
-0.0072597514403281421
10
6.4155479326206626
20
18.43059701328821
42
0.086197235430732419
0
LWPOLYLINE
5
130
100
AcDbEntity
8
0
100
AcDbPolyline
90
5
70
1
43
0.0
10
8.8912930122797906
20
13.124999999999995
42
0.074685350878385903
10
11.301317315987404
20
18.112756407759086
10
11.311000970311705
20
18.753038762963175
42
-0.034991783157240573
10
8.4798967452699152
20
18.352179887485494
10
8.5742380052118072
20
13.125000000000002
0
LWPOLYLINE
5
131
100
AcDbEntity
8
0
100
AcDbPolyline
90
3
70
1
43
0.0
10
3.6231921242148544
20
21.323184195528601
42
0.014029847627918601
10
4.7823271094858315
20
21.096382829779397
42
-0.043830068742826099
10
4.0247252420758786
20
21.673639802709445
42
-0.14336040328415317
0
LWPOLYLINE
5
132
100
AcDbEntity
8
0
100
AcDbPolyline
90
3
70
1
43
0.0
10
2.2972578524530904
20
19.024999999999995
42
0.075600235633818694
10
2.0285224329155511
20
18.594908594287087
42
0.002407155512267156
10
2.1334899704099448
20
19.02499999999997
0
LWPOLYLINE
5
133
100
AcDbEntity
8
0
100
AcDbPolyline
90
10
70
1
43
0.0
10
1.7623153258592723
20
18.560967983615804
42
0.0026124155417360773
10
1.876410979750422
20
19.024999999999981
10
-0.62271375459629885
20
19.024999999999995
10
-0.62271375459629841
20
13.124999999999998
10
-0.16836127785213192
20
13.124999999999995
42
0.035923263337320897
10
0.33728698766801279
20
14.416875155736694
42
0.045312801226230388
10
0.49040129421981116
20
15.132793530726262
42
-0.036332896101452405
10
0.81900146287153097
20
16.816274742969082
42
-0.34451469930058015
10
1.3679810148249383
20
17.226582652503172
42
-0.0010926037033276396
10
1.3636692942819255
20
17.240635416516142
42
0.023456361482943416
0
LWPOLYLINE
5
134
100
AcDbEntity
8
0
100
AcDbPolyline
90
7
70
1
43
0.0
10
1.6272519611459804
20
17.236798812671374
42
0.16294762586489026
10
2.814766770356453
20
15.656454159428186
42
0.00083878301864174544
10
2.7758897807232454
20
15.813110136633711
42
0.14039651675684051
10
2.6157888993744036
20
16.18760279789009
42
-0.013468243377290042
10
2.1214933210295297
20
16.829738750087447
42
-0.10283303153465065
10
1.9765643157632011
20
17.479501280378148
42
-0.019614967363904421
10
2.0014658284986009
20
18.486894571281681
42
-0.021820235043966841
0
LWPOLYLINE
5
135
100
AcDbEntity
8
0
100
AcDbPolyline
90
7
70
1
43
0.0
10
0.23612390073444264
20
13.440409738349683
42
0.061032219734935535
10
2.060505291359874
20
14.841492494783465
42
0.26502918813700094
10
2.3137194370923164
20
15.7361011986088
42
-0.11295399484275506
10
1.4590848150277371
20
16.969412571957754
42
0.4339290249452179
10
1.0505984386224536
20
16.753323644304917
42
0.036332896101452357
10
0.72867153459026879
20
15.104030836959103
42
-0.045312801226229327
10
0.56647815390238576
20
14.345661327582356
42
-0.02433141892100181
0
LWPOLYLINE
5
136
100
AcDbEntity
8
0
100
AcDbPolyline
90
5
70
1
43
0.0
10
0.18942255083605478
20
13.124999999999998
42
0.066216663222658512
10
2.2357591916558279
20
14.663206010632098
42
0.11450274234480527
10
2.5239080683430082
20
15.116778051800136
42
-0.091242204353170292
10
2.3352207157374023
20
14.248565004716548
42
0.025109510431840579
10
1.9304617707600025
20
13.125000000000004
0
LWPOLYLINE
5
137
100
AcDbEntity
8
0
100
AcDbPolyline
90
12
70
1
43
0.0
10
2.5020614833730455
20
6.9750000000000023
42
0.011064099793505915
10
2.4943333741021205
20
7.7614008102424581
42
-0.019913126697045258
10
2.5171359497450392
20
10.660091974366912
42
-0.043543646909805847
10
3.045898629881393
20
11.009306111385138
42
-0.0026557161535195779
10
3.2040177439774147
20
6.8745884550014589
42
-0.0083816293772724995
10
3.2547485301195116
20
5.2816464412748472
42
0.036897643500411435
10
3.4782065018059911
20
2.7728518129344466
42
-0.023473452739480653
10
2.220918427776494
20
3.2350061594299642
42
-0.024737030697360763
10
2.3543691910470188
20
4.8968081793342426
42
0.025812551340065781
10
2.4972271897930107
20
6.7249999999999917
10
2.5022862454037011
20
6.7250000000000032
10
2.5022862454037003
20
6.975000000000005
0
LWPOLYLINE
5
138
100
AcDbEntity
8
0
100
AcDbPolyline
90
7
70
1
43
0.0
10
2.1064656727219102
20
4.9291167788400703
42
0.025718409029297295
10
2.2471390041029347
20
6.7249999999999988
10
0.82889679901021296
20
6.7250000000000014
42
0.012922085996917927
10
0.56189100136081083
20
5.2843650961140654
42
0.076265613515853051
10
0.55916685688721368
20
4.7584981538707209
42
0.0050543066767976203
10
0.67975978108832025
20
3.9975239902347734
42
0.025432903601542715
10
1.9743631259567775
20
3.3417564707793739
42
-0.02328754324289347
0
LWPOLYLINE
5
139
100
AcDbEntity
8
0
100
AcDbPolyline
90
3
70
1
43
0.0
10
0.57338023436093433
20
6.7250000000000068
42
0.002160546792303571
10
0.52356565055316839
20
6.4828981134124692
42
-0.019147869682258036
10
0.45901346090894191
20
6.7250000000000032
0
LWPOLYLINE
5
140
100
AcDbEntity
8
0
100
AcDbPolyline
90
7
70
1
43
0.0
10
0.20070604550473192
20
6.7250000000000068
42
0.0058783626961731797
10
0.38336008496718621
20
5.7349442948150591
42
0.0036453049868748122
10
0.31498211525845099
20
5.3235569570511387
42
0.076265613515863209
10
0.31186518254581597
20
4.7218664480963328
42
0.025924455225452409
10
1.097311458375396
20
0.82500000000000528
10
-0.62271375459629719
20
0.8250000000000004
10
-0.62271375459629763
20
6.7250000000000014
0
LWPOLYLINE
5
141
100
AcDbEntity
8
0
100
AcDbPolyline
90
4
70
1
43
0.0
10
0.73481490651500647
20
3.6796670431633416
42
0.019170703802224125
10
1.3554364957015161
20
0.82500000000000284
10
2.0680408695981676
20
0.82500000000000007
42
-0.032902817749307388
10
1.9666527374294409
20
3.0720233080187014
42
-0.023655484627504813
0
LWPOLYLINE
5
142
100
AcDbEntity
8
0
100
AcDbPolyline
90
5
70
1
43
0.0
10
2.2148229435696494
20
2.9666083808060613
42
0.031827736927520577
10
2.3196084857898684
20
0.82500000000001306
10
3.9945477450468712
20
0.82500000000000562
42
-0.049486622135328007
10
3.6368544222531947
20
1.9366765114992404
42
-0.0083467620625361696
10
3.5259101088003741
20
2.4962921841400254
42
-0.023988868468541188
0
LWPOLYLINE
5
143
100
AcDbEntity
8
0
100
AcDbPolyline
90
10
70
1
43
0.0
10
3.8813345252827611
20
1.9894009359569771
42
0.05432060447590268
10
4.2684208753841224
20
0.82500000000000162
10
4.3540010131402189
20
0.82499999999999762
42
-0.077838169288922093
10
5.7447582016152436
20
2.2159953630013014
42
-0.01155384299929405
10
5.3378047037072403
20
3.0901032832839914
42
-0.058941208920628783
10
4.5080124040000884
20
5.8221738968483763
42
-0.016084034850100456
10
4.2326032416618977
20
7.0679039669560817
42
0.04713105808796527
10
3.423593241059304
20
7.7748033253835462
42
-0.00057120464836336524
10
3.453918570219781
20
6.8847766834139064
42
-0.0083713544537680727
10
3.5048208686544071
20
5.2854162173206856
42
0.049373238049860747
0
LWPOLYLINE
5
144
100
AcDbEntity
8
0
100
AcDbPolyline
90
3
70
1
43
0.0
10
5.8584547747429045
20
1.9893152813688484
42
0.068534176540315225
10
4.6668274980748912
20
0.82500000000000284
10
6.4988057959962653
20
0.8250000000000004
42
-0.015924609257109052
0
LWPOLYLINE
5
145
100
AcDbEntity
8
0
100
AcDbPolyline
90
8
70
1
43
0.0
10
5.5668235405327549
20
3.190354828804332
42
0.032325490460976783
10
6.7899772505371931
20
0.82500000000000218
10
6.7936020177722671
20
0.82500000000000184
10
6.7592033864132519
20
5.9885032185505249
42
-0.059472455423544207
10
4.9131797321186612
20
10.654596746813604
42
0.040652673936499302
10
4.7866483071894317
20
8.6046405295359456
42
-0.030245554603601371
10
4.6860214445139903
20
6.143157202078374
42
0.0035247734433673833
10
4.752507458126896
20
5.8751460377696185
42
0.059132243590563724
0
LWPOLYLINE
5
146
100
AcDbEntity
8
0
100
AcDbPolyline
90
3
70
1
43
0.0
10
8.5821599025564481
20
12.686070283605348
42
0.0031163224241238107
10
8.7175417896669973
20
12.874999999999993
10
8.5787500586503977
20
12.875000000000005
0
LWPOLYLINE
5
147
100
AcDbEntity
8
0
100
AcDbPolyline
90
4
70
1
43
0.0
10
6.7133263811875938
20
12.875000000000002
10
6.7555788841441968
20
6.5325693163135936
42
-0.070202710694862946
10
4.8482191073398226
20
12.057917292503431
42
-0.03458466361111126
10
4.7471444612226676
20
12.875000000000002
0
LWPOLYLINE
5
148
100
AcDbEntity
8
0
100
AcDbPolyline
90
8
70
1
43
0.0
10
4.4967950890788995
20
12.875000000000002
42
0.035128770428854858
10
4.602823393044563
20
12.010158069252636
42
0.0089967515109652292
10
4.7617699045618647
20
11.265201505327957
42
0.051974545973560667
10
4.5366963984193829
20
8.5997371325290786
42
-0.020094603987486404
10
4.5034288545023875
20
6.9825984125721883
42
-0.010472550203709784
10
4.3635863059165967
20
7.790942843262159
42
-0.016697565673504281
10
4.0691741132155048
20
10.296510665321449
42
0.013493391629127348
10
3.6676302212354512
20
12.875000000000007
0
LWPOLYLINE
5
149
100
AcDbEntity
8
0
100
AcDbPolyline
90
7
70
1
43
0.0
10
3.8205068899391992
20
10.270152542121684
42
0.013703381845312983
10
3.4134341888708613
20
12.875000000000005
10
3.0973200668722982
20
12.875000000000222
42
-0.0075724279396143512
10
3.2922697640292702
20
11.10017807288895
42
-0.0019341911764958013
10
3.4124713626854049
20
8.0870621972507433
42
-0.039971271933226832
10
4.1573419928221336
20
7.4948407396623482
42
-0.0033005923822214123
10
4.1164069591223749
20
7.7534946054079841
42
-0.016661349840894853
0
LWPOLYLINE
5
150
100
AcDbEntity
8
0
100
AcDbPolyline
90
5
70
1
43
0.0
10
3.0237078323947935
20
11.279885268126273
42
0.0068361359335728077
10
2.8452584804604832
20
12.874999999999973
10
2.6808710944123622
20
12.875000000000016
42
0.006478771956951174
10
2.5628502482196871
20
11.441482882028671
42
0.0031402396229203871
10
2.5341017232518972
20
10.985081718310592
42
-0.036731357122491738
0
LWPOLYLINE
5
151
100
AcDbEntity
8
0
100
AcDbPolyline
90
7
70
1
43
0.0
10
2.4297414001823849
20
12.875000000000011
42
0.0063718412848276897
10
2.3134483637383729
20
11.458765822090253
42
0.0046151301084995577
10
2.2729000629822123
20
10.783283891916584
42
0.027809152228002371
10
1.9578365142353895
20
10.486351345392569
42
-0.0087059040342885499
10
1.6315495605779622
20
10.154419875205571
42
0.012823702746164851
10
1.7307889782136892
20
10.899878389558696
42
-0.043276835787277514
10
2.1172049416732466
20
12.875000000000002
0
LWPOLYLINE
5
152
100
AcDbEntity
8
0
100
AcDbPolyline
90
7
70
1
43
0.0
10
1.8573216834535704
20
12.875000000000005
42
0.041766574520968575
10
1.4822111133265179
20
10.92650316736111
42
-0.018594565724721561
10
1.3285428726934916
20
9.8659009426183157
42
-0.027017538464227733
10
0.21638195235032229
20
8.9456776813829411
42
-5.239264871679216e-05
10
0.21626778232152827
20
8.948932926542744
42
-0.0060738466835778436
10
0.21630218554838082
20
10.125075379700915
42
0.0392144640868465
10
0.033957718178407148
20
12.875
0
LWPOLYLINE
5
153
100
AcDbEntity
8
0
100
AcDbPolyline
90
6
70
1
43
0.0
10
-0.033679280388912457
20
10.128119503194315
42
0.039740015368745794
10
-0.21871753340026029
20
12.875
10
-0.62271375459629852
20
12.875
10
-0.62271375459629719
20
6.9750000000000032
10
0.15865767774021569
20
6.9750000000000147
42
-0.031334130859418614
10
-0.033679280388916676
20
8.9430568285658456
42
-0.0060884726750920727
0
LWPOLYLINE
5
154
100
AcDbEntity
8
0
100
AcDbPolyline
90
4
70
1
43
0.0
10
5.2772495368213868
20
21.09921808872944
42
0.027320794974240385
10
5.4586481032342071
20
21.954276963412937
42
-0.073697062502683458
10
4.4687745180739435
20
22.762280296602711
42
-0.012700060726504698
10
4.1384866608488
20
21.9088936821422
42
0.067572161396611458
0
LWPOLYLINE
5
155
100
AcDbEntity
8
0
100
AcDbPolyline
90
7
70
1
43
0.0
10
2.5230433725076566
20
25.175000000000001
42
0.16777596381107823
10
3.9463640063927707
20
22.098579454503071
42
0.013299233532402428
10
4.2813444903879976
20
22.982144388686674
42
-0.1953788303569936
10
3.353023515708768
20
26.128757689972943
10
2.5245032320174423
20
26.235137515999455
42
0.037577766702353299
10
2.5022862454036994
20
25.455968330519639
10
2.5022862454036998
20
25.174999999999994
0
LWPOLYLINE
5
156
100
AcDbEntity
8
0
100
AcDbPolyline
90
4
70
1
43
0.0
10
-0.87271375459629819
20
6.9750000000000032
10
-2.4352137545962975
20
6.9750000000000023
10
-2.435213754596298
20
12.875
10
-0.87271375459629918
20
12.875
0
LWPOLYLINE
5
157
100
AcDbEntity
8
0
100
AcDbPolyline
90
4
70
1
43
0.0
10
-0.87271375459629885
20
13.124999999999998
10
-2.435213754596298
20
13.124999999999998
10
-2.4352137545962993
20
19.024999999999995
10
-0.87271375459629907
20
19.024999999999995
0
LWPOLYLINE
5
158
100
AcDbEntity
8
0
100
AcDbPolyline
90
4
70
1
43
0.0
10
-0.87271375459629885
20
19.274999999999995
10
-2.4352137545962989
20
19.274999999999995
10
-2.4352137545963002
20
25.174999999999994
10
-0.87271375459629974
20
25.174999999999994
0
LWPOLYLINE
5
159
100
AcDbEntity
8
0
100
AcDbPolyline
90
7
70
1
43
0.0
10
12.627286245403697
20
27.313102553872724
42
0.39948899402312621
10
12.447809147842676
20
27.129946883172721
10
12.392844560425541
20
23.495693294008884
42
0.084466021443096909
10
12.856529118299738
20
25.174999999999997
10
12.877286245403697
20
25.174999999999997
10
12.877286245403699
20
25.455968330519671
42
0.090669395373177419
10
12.627286245403695
20
27.3072428018036
0
LWPOLYLINE
5
160
100
AcDbEntity
8
0
100
AcDbPolyline
90
10
70
1
43
0.0
10
13.107747340647446
20
25.17499999999999
10
13.303028442048385
20
25.17499999999999
42
0.043547816942345483
10
13.231736732318428
20
24.386666181740004
42
0.20349761441806399
10
13.881227024195052
20
22.843448785835793
42
0.10827034975100988
10
16.002286245403699
20
22.10971983549025
10
16.002286245403695
20
19.274999999999999
10
13.536073737500994
20
19.274999999999999
42
0.079242292419907601
10
13.231220018015982
20
20.093631077500195
42
-0.17271766535036093
10
13.018477757448846
20
21.31409983549063
42
0.081704131808015265
10
13.040257576983409
20
24.697834520352657
42
0.022144888905409915
0
LWPOLYLINE
5
161
100
AcDbEntity
8
0
100
AcDbPolyline
90
5
70
1
43
0.0
10
17.439786245403699
20
0.82500000000000251
10
16.252286245403699
20
0.82500000000000306
10
16.252286245403695
20
6.7250000000000041
10
17.814786245403702
20
6.7250000000000041
10
17.814786245403699
20
1.2000000000000026
42
-0.41421356237309503
0
LWPOLYLINE
5
162
100
AcDbEntity
8
0
100
AcDbPolyline
90
5
70
1
43
0.0
10
16.252286245403695
20
25.425000000000001
10
16.252286245403695
20
31.325000000000003
10
17.439786245403695
20
31.32500000000001
42
-0.41421356237309287
10
17.814786245403692
20
30.95000000000001
10
17.814786245403702
20
25.425000000000001
0
LWPOLYLINE
5
163
100
AcDbEntity
8
0
100
AcDbPolyline
90
4
70
1
43
0.0
10
17.814786245403699
20
19.274999999999999
10
16.252286245403695
20
19.274999999999999
10
16.252286245403695
20
25.174999999999997
10
17.814786245403699
20
25.174999999999997
0
LWPOLYLINE
5
164
100
AcDbEntity
8
0
100
AcDbPolyline
90
5
70
1
43
0.0
10
-0.87271375459629819
20
0.8250000000000004
10
-2.0602137545962966
20
0.82500000000000007
42
-0.41421356237309453
10
-2.4352137545962957
20
1.2
10
-2.4352137545962975
20
6.7250000000000005
10
-0.87271375459629785
20
6.7250000000000014
0
LWPOLYLINE
5
165
100
AcDbEntity
8
0
100
AcDbPolyline
90
4
70
1
43
0.0
10
17.814786245403702
20
6.9750000000000068
10
16.252286245403699
20
6.9750000000000068
10
16.252286245403699
20
12.875000000000005
10
17.814786245403702
20
12.875000000000002
0
LWPOLYLINE
5
166
100
AcDbEntity
8
0
100
AcDbPolyline
90
4
70
1
43
0.0
10
17.814786245403702
20
13.125000000000002
10
16.252286245403699
20
13.125000000000002
10
16.252286245403695
20
19.024999999999999
10
17.814786245403699
20
19.024999999999999
0
LWPOLYLINE
5
167
100
AcDbEntity
8
0
100
AcDbPolyline
90
6
70
1
43
0.0
10
14.672648215158588
20
14.676228339284364
42
0.016004957700319983
10
14.871614740351719
20
13.125000000000009
10
16.002286245403699
20
13.125000000000002
10
16.002286245403695
20
19.024999999999999
10
13.576771169943505
20
19.024999999999999
42
0.058423795590145135
10
13.906388215051106
20
17.847923264273881
42
-0.070863629154731697
0
LWPOLYLINE
5
168
100
AcDbEntity
8
0
100
AcDbPolyline
90
4
70
1
43
0.0
10
16.002286245403695
20
27.992809577685552
42
0.23793779791303465
10
14.488727798333654
20
25.512192763563448
42
0.0075558042740791354
10
14.48055490837862
20
25.425000000000001
10
16.002286245403695
20
25.425000000000001
0
LWPOLYLINE
5
169
100
AcDbEntity
8
0
100
AcDbPolyline
90
5
70
1
43
0.0
10
0.22982746389178266
20
8.6458732350029965
42
0.02705487752507239
10
0.41194804957758874
20
6.9749999999999996
10
0.62711503485364084
20
6.9749999999999082
42
-0.012258264728623647
10
0.9613755928551625
20
8.3367573977293787
42
0.020055311108727089
10
1.2474674482831691
20
9.4565899126231621
42
-0.023901216410434651
0
LWPOLYLINE
5
170
100
AcDbEntity
8
0
100
AcDbPolyline
90
5
70
1
43
0.0
10
12.877286245403694
20
28.70069715013955
10
12.877286245403694
20
31.324999999999996
10
16.002286245403695
20
31.325000000000003
10
16.002286245403695
20
28.266951016193225
42
-0.08088620488443457
10
15.551365093318685
20
28.929502968004424
42
-0.20502470161267583
0
LWPOLYLINE
5
171
100
AcDbEntity
8
0
100
AcDbPolyline
90
5
70
1
43
0.0
10
-0.62271375459630041
20
25.424999999999997
10
-0.62271375459630129
20
31.324999999999996
10
2.5022862454036985
20
31.324999999999996
10
2.502286245403698
20
27.346477895571088
42
0.089705051579558381
10
2.2534934013349597
20
25.424999999999997
0
LWPOLYLINE
5
172
100
AcDbEntity
8
0
100
AcDbPolyline
90
5
70
1
43
0.0
10
-2.4352137545962997
20
25.424999999999997
10
-2.4352137545963011
20
30.949999999999996
42
-0.41421356237309503
10
-2.0602137545963011
20
31.324999999999996
10
-0.87271375459630063
20
31.324999999999996
10
-0.87271375459629974
20
25.424999999999997
0
LWPOLYLINE
5
173
100
AcDbEntity
8
0
100
AcDbPolyline
90
4
70
1
43
0.0
10
9.7686939706719702
20
30.456826253337709
42
0.20889320150472326
10
5.6108785201354241
20
30.456826253337709
10
5.9636009788397626
20
29.699627867840917
42
-0.20648691096528729
10
9.4159715119676317
20
29.699627867840917
0
LWPOLYLINE
5
174
100
AcDbEntity
8
0
100
AcDbPolyline
90
4
70
1
43
0.0
10
11.469890304247011
20
29.258787268850995
10
11.449372931025289
20
27.902180392038115
42
0.14497629066528508
10
9.642590276004908
20
29.594063026221079
10
9.9953127347092394
20
30.351261411717875
42
-0.089046775695274444
0
LWPOLYLINE
5
175
100
AcDbEntity
8
0
100
AcDbPolyline
90
4
70
1
43
0.0
10
12.029275161123488
20
15.978472943834866
42
0.16296290589767751
10
11.51707592930831
20
15.846828595734445
10
11.475910891670109
20
13.125000000000002
10
11.986119129433407
20
13.125000000000002
0
LWPOLYLINE
5
176
100
AcDbEntity
8
0
100
AcDbPolyline
90
4
70
1
43
0.0
10
6.127286245403698
20
31.324999999999996
10
7.5647862454036963
20
31.324999999999996
10
7.5647862454036963
20
31.139660461824583
42
0.067147646343484524
10
6.1272862454037016
20
30.912010726831074
0
LWPOLYLINE
5
177
100
AcDbEntity
8
0
100
AcDbPolyline
90
4
70
1
43
0.0
10
2.7522862454036989
20
27.988997912397597
10
2.7522862454036985
20
31.324999999999996
10
5.8772862454036998
20
31.324999999999996
10
5.8772862454036998
20
30.830461905651411
42
0.2018990212040753
0
LWPOLYLINE
5
178
100
AcDbEntity
8
0
100
AcDbPolyline
90
4
70
1
43
0.0
10
7.8147862454036972
20
31.139660461824583
10
7.8147862454036972
20
31.324999999999996
10
9.2522862454036972
20
31.324999999999996
10
9.2522862454036954
20
30.91201072683107
42
0.067147646343484635
0
LWPOLYLINE
5
179
100
AcDbEntity
8
0
100
AcDbPolyline
90
5
70
1
43
0.0
10
9.5022862454036954
20
30.830461905651415
10
9.5022862454036954
20
31.324999999999996
10
12.627286245403695
20
31.324999999999996
10
12.62728624540369
20
28.794295319771052
42
-0.078587456097814284
10
11.721374234256313
20
29.355014191355263
42
0.12428432594899712
0
LWPOLYLINE
5
180
100
AcDbEntity
8
0
100
AcDbPolyline
90
4
70
1
43
0.0
10
5.3842597560981531
20
30.351261411717879
10
5.7369822148024916
20
29.594063026221079
42
0.24201278016481251
10
3.3848614925908955
20
26.376722089087121
10
2.5563412088995667
20
26.48310191511364
42
-0.24445604341677538
0
LWPOLYLINE
5
181
100
AcDbEntity
8
0
100
AcDbPolyline
90
4
70
1
43
0.0
10
3.359502448472504
20
21.498725864828884
42
0.22360642750931473
10
3.8391681011543897
20
21.85080997519384
42
-0.087851130258472895
10
2.7522862454036998
20
23.406911915195575
10
2.7522862454036967
20
21.386442642746456
42
0.0051853233471810482
0
LWPOLYLINE
5
182
100
AcDbEntity
8
0
100
AcDbPolyline
90
5
70
1
43
0.0
10
14.471758162958311
20
25.175000000000001
42
0.1533831702862182
10
15.005614294042184
20
23.522061123327077
42
-0.30619667091810382
10
14.219031177033663
20
22.936685222958722
42
0.094655445153913872
10
16.002286245403695
20
22.361538486753702
10
16.002286245403695
20
25.174999999999997
0
LWPOLYLINE
5
183
100
AcDbEntity
8
0
100
AcDbPolyline
90
7
70
1
43
0.0
10
14.811660577500358
20
2.5951004706837124
42
0.029921011346510807
10
15.119265720579975
20
6.7250000000000014
10
13.457538927367473
20
6.7250000000000059
42
-0.094735599940226262
10
13.933062701120868
20
5.9032155238489796
42
-0.10723842798789421
10
13.982101128597472
20
4.3440855318150016
42
0.0051364104510200808
10
13.814040131123839
20
3.3763286064541513
42
-0.020563408281393098
10
13.80152420536823
20
3.113935827273111
42
0.0020374225659698553
0
LWPOLYLINE
5
184
100
AcDbEntity
8
0
100
AcDbPolyline
90
3
70
1
43
0.0
10
15.120374423190114
20
7.6475493363355493
42
0.034666141025768378
10
14.730253865107086
20
12.428297883546612
42
0.10373134065333184
10
12.502330173960919
20
8.4079913781951081
42
-0.29459750602137952
0
LWPOLYLINE
5
185
100
AcDbEntity
8
0
100
AcDbPolyline
90
4
70
1
43
0.0
10
11.423160977396893
20
9.6371804004343069
10
11.472129882305421
20
12.875000000000005
10
11.982338120068716
20
12.875000000000002
10
11.930853916308063
20
9.4708690659780839
42
0.032405529332081379
0
LWPOLYLINE
5
186
100
AcDbEntity
8
0
100
AcDbPolyline
90
4
70
1
43
0.0
10
15.37200033456687
20
6.9750000000000068
42
0.042488356734826989
10
14.912788681475771
20
12.875
10
16.002286245403699
20
12.875000000000002
10
16.002286245403699
20
6.975000000000005
0
LWPOLYLINE
5
187
100
AcDbEntity
8
0
100
AcDbPolyline
90
6
70
1
43
0.0
10
15.12199371713908
20
6.9750000000000068
10
13.174024130755742
20
6.9750000000000068
42
0.26590961691525
10
12.32459289320836
20
6.9750000000000068
10
12.161524825093617
20
6.9750000000000032
42
-0.026098899133563242
10
12.416269636210501
20
8.1149793533135686
42
-0.35378606845275773
10
15.122917015868621
20
7.229243245134608
42
-0.0018352725596684886
0
LWPOLYLINE
5
188
100
AcDbEntity
8
0
100
AcDbPolyline
90
4
70
1
43
0.0
10
14.780250181152939
20
0.82499999999999618
42
0.042571132985976715
10
15.369291891471441
20
6.7249999999999988
10
16.002286245403699
20
6.7250000000000041
10
16.002286245403702
20
0.82500000000000318
0
LWPOLYLINE
5
189
100
AcDbEntity
8
0
100
AcDbPolyline
90
4
70
1
43
0.0
10
13.762855726190063
20
2.8159661610444884
42
0.033119303150164696
10
13.608513937080609
20
0.82500000000000218
10
14.525897253069651
20
0.82499999999999762
42
0.010590917891684379
10
14.766520802876007
20
2.2721586457937453
42
0.0022413710683042349
0
LWPOLYLINE
5
190
100
AcDbEntity
8
0
100
AcDbPolyline
90
3
70
1
43
0.0
10
12.40815554674594
20
2.3034716526176533
42
0.67157786295469812
10
12.070333957867442
20
2.1713211851987881
10
12.04997214583098
20
0.82500000000000184
42
0.17667514988647157
0
LWPOLYLINE
5
191
100
AcDbEntity
8
0
100
AcDbPolyline
90
5
70
1
43
0.0
10
13.126079089472437
20
25.425000000000008
42
0.084091157466051919
10
12.91273588754931
20
27.23046308899491
42
0.069240721338158645
10
13.640209083719629
20
27.127831489581272
42
-0.58185635923653745
10
13.877158112443164
20
26.709110381671167
42
0.076563861009280962
10
13.355080906592367
20
25.425000000000008
0
LWPOLYLINE
5
192
100
AcDbEntity
8
0
100
AcDbPolyline
90
6
70
1
43
0.0
10
11.690496960533542
20
27.3134116227967
42
0.39582455952889839
10
12.542609288039442
20
28.558733492430605
42
-0.024099003155523199
10
12.223877199773472
20
28.709566357681883
42
0.00016683296295773677
10
12.221866446114857
20
28.712591430154831
10
12.221837171732336
20
28.710655810608813
42
-0.0411432471789017
10
11.716560183002246
20
29.036709554303229
0
LWPOLYLINE
5
193
100
AcDbEntity
8
0
100
AcDbPolyline
90
7
70
1
43
0.0
10
14.64359031687893
20
26.899996441310183
42
0.032027499820640015
10
14.165868897995161
20
26.874462160971031
42
-0.14686637089815405
10
14.091715699618058
20
26.580794202700279
42
0.13476636057200728
10
13.481735494023747
20
24.385879323553372
42
0.17556667920311705
10
13.917007545730678
20
23.172558030258291
42
0.31701270955635974
10
14.72971272561275
20
23.483457632787832
42
-0.17257005085906496
10
14.239822964908685
20
25.535807032980475
42
-0.10341404120716936
0
LWPOLYLINE
5
194
100
AcDbEntity
8
0
100
AcDbPolyline
90
8
70
1
43
0.0
10
14.094068990318309
20
27.117493710151933
42
0.26567021299994292
10
13.64068253891473
20
27.377831041261221
42
-0.090418420596888163
10
12.788551440400532
20
27.534865948056357
42
0.16461201393648314
10
12.509170668727997
20
27.545008823521595
42
0.18402518215465696
10
12.803702536068929
20
28.46172089714139
42
0.11080093931762444
10
14.39869182472159
20
28.306529928545469
42
0.26541011698343286
10
14.938228996912953
20
27.357451134853907
42
0.018613073691440756
10
14.789315595363988
20
27.145892545368486
42
0.043701699629215739
0
LWPOLYLINE
5
195
100
AcDbEntity
8
0
100
AcDbPolyline
90
5
70
1
43
0.0
10
12.396189197875769
20
13.124999999999995
42
0.072878521504471008
10
13.454786060972094
20
18.401742133266463
42
-0.028981190806178496
10
13.323827957231725
20
19.024999999999999
10
12.325229627580345
20
19.024999999999999
10
12.235997806573682
20
13.125000000000002
0
LWPOLYLINE
5
196
100
AcDbEntity
8
0
100
AcDbPolyline
90
4
70
1
43
0.0
10
11.52141032870111
20
16.133418694748421
10
11.60720277143445
20
21.806007311861649
42
-0.16808924484656151
10
12.114944237841094
20
21.642904611058587
10
12.033060365000049
20
16.228750284583612
42
0.12194625640462256
0
LWPOLYLINE
5
197
100
AcDbEntity
8
0
100
AcDbPolyline
90
5
70
1
43
0.0
10
13.662828440991508
20
17.783154076000386
42
0.0014191776598287023
10
13.674598581082067
20
17.754245496298321
42
-0.070832901269126489
10
14.423788814605057
20
14.65237464447336
42
0.015597420718235482
10
14.618430816476435
20
13.125000000000018
10
12.661473339699919
20
13.125000000000004
42
0.063581358360081955
0
LWPOLYLINE
5
198
100
AcDbEntity
8
0
100
AcDbPolyline
90
7
70
1
43
0.0
10
10.102322953986011
20
21.099218088729451
42
0.0092853434692533911
10
10.207185912964016
20
20.737606524983494
42
0.047673528373287262
10
11.345410652580965
20
21.028203867725331
10
11.355164737801504
20
21.673143107470615
42
-0.042200874421721594
10
11.280693471762911
20
21.814560040024489
42
-0.014120040965237937
10
10.910797972733457
20
22.762280296602714
42
-0.073697062502684235
10
9.9209243875731818
20
21.954276963412937
42
0.027320794974240385
0
LWPOLYLINE
5
199
100
AcDbEntity
8
0
100
AcDbPolyline
90
6
70
1
43
0.0
10
11.132244114134574
20
6.9336514687568114
10
11.129088461505267
20
6.7250000000000041
10
11.12908846150532
20
6.2100537059718315
42
-0.022733302427237392
10
8.7560931523575931
20
3.0489254576239193
10
8.700001294383453
20
6.1568151766577328
42
0.017110773246744187
10
9.6098752889141235
20
7.9207984756969347
42
0.042616573250774864
0
SPLINE
5
200
100
AcDbEntity
8
0
100
AcDbSpline
70
4
71
5
72
14
73
8
74
0
42
0.000000001
43
0.0000000001
44
0.0000000001
40
-0.67735142568438511
40
-0.67735142568438511
40
-0.67735142568438511
40
-0.67735142568438511
40
-0.67735142568438511
40
-0.67735142568438511
40
-0.66666666666666663
40
-0.59999999999999998
40
-0.59681868075566002
40
-0.59681868075566002
40
-0.59681868075566002
40
-0.59681868075566002
40
-0.59681868075566002
40
-0.59681868075566002
41
1
41
1
41
1
41
1
41
1
41
1
41
1
41
1
10
12.08028847475282
20
2.8295129486428712
30
0
10
12.078889992331302
20
2.8283311523672592
30
0
10
12.0687475819021
20
2.8197596916627083
30
0
10
12.058052644135225
20
2.8107173829287508
30
0
10
12.047231594865023
20
2.8015665009225925
30
0
10
12.036304832219614
20
2.7923270237527889
30
0
10
12.026763188567738
20
2.7842613490563415
30
0
10
12.026328469147462
20
2.7838938805956275
30
0
0
SPLINE
5
201
100
AcDbEntity
8
0
100
AcDbSpline
70
4
71
5
72
51
73
45
74
0
42
0.000000001
43
0.0000000001
44
0.0000000001
40
0
40
0
40
0
40
0
40
0
40
0
40
0.025000000000000001
40
0.050000000000000003
40
0.075000000000000011
40
0.10000000000000001
40
0.125
40
0.14999999999999999
40
0.17499999999999999
40
0.19999999999999998
40
0.22499999999999998
40
0.24999999999999997
40
0.27499999999999997
40
0.29999999999999999
40
0.32500000000000001
40
0.35000000000000003
40
0.37500000000000006
40
0.40000000000000008
40
0.4250000000000001
40
0.45000000000000012
40
0.47500000000000014
40
0.50000000000000011
40
0.52500000000000013
40
0.55000000000000016
40
0.57500000000000018
40
0.6000000000000002
40
0.62500000000000022
40
0.65000000000000024
40
0.67500000000000027
40
0.70000000000000029
40
0.72500000000000031
40
0.75000000000000033
40
0.77500000000000036
40
0.80000000000000038
40
0.8250000000000004
40
0.85000000000000042
40
0.87500000000000044
40
0.90000000000000047
40
0.92500000000000049
40
0.95000000000000051
40
0.97500000000000053
40
1
40
1
40
1
40
1
40
1
40
1
41
1
41
1
41
1
41
1
41
1
41
1
41
1
41
1
41
1
41
1
41
1
41
1
41
1
41
1
41
1
41
1
41
1
41
1
41
1
41
1
41
1
41
1
41
1
41
1
41
1
41
1
41
1
41
1
41
1
41
1
41
1
41
1
41
1
41
1
41
1
41
1
41
1
41
1
41
1
41
1
41
1
41
1
41
1
41
1
41
1
10
12.833460004382646
20
3.9746388204758598
30
0
10
12.826141073040311
20
3.9689562940858401
30
0
10
12.811265605196406
20
3.9572189885005122
30
-1.3987061727561026e-15
10
12.788239563171043
20
3.9384962809232174
30
-1.3987061727561026e-15
10
12.756111256435307
20
3.9112968189106394
30
0
10
12.713611913097802
20
3.8735578362400145
30
0
10
12.668910100461398
20
3.8320609280091888
30
-1.3987061727561026e-15
10
12.622283248725386
20
3.7867895312185906
30
0
10
12.574220820474016
20
3.7377258988855973
30
0
10
12.525407093491058
20
3.6848811023078163
30
-1.3987061727561026e-15
10
12.476563368442731
20
3.6283786531843272
30
0
10
12.428327422227772
20
3.568522852443921
30
0
10
12.38110951237419
20
3.5058811725164274
30
0
10
12.33497656424588
20
3.4413459339445525
30
-1.3987061727561026e-15
10
12.289476418921076
20
3.3762454977331395
30
0
10
12.243653636211878
20
3.3122946855089284
30
-1.3987061727561026e-15
10
12.196336587673549
20
3.2513159607790953
30
0
10
12.14635345949559
20
3.1950210036860445
30
0
10
12.092785326427077
20
3.144759048376784
30
1.3987061727561026e-15
10
12.035184716984105
20
3.1012973212869506
30
0
10
11.97385821863482
20
3.0645382447546257
30
0
10
11.909972823653266
20
3.0334099916047799
30
0
10
11.845178071066883
20
3.0062258653435161
30
0
10
11.781330954906597
20
2.9809523223353813
30
0
10
11.720158091940704
20
2.9555150726346531
30
0
10
11.662998416097521
20
2.9280789113994725
30
1.3987061727561026e-15
10
11.610373199733742
20
2.8973631041625127
30
0
10
11.562341470633211
20
2.8628156605773181
30
0
10
11.519206231479263
20
2.8247161394625437
30
1.3987061727561026e-15
10
11.482140926898465
20
2.7843187035811976
30
0
10
11.453782174344672
20
2.7439507032693009
30
1.3987061727561026e-15
10
11.439024553647556
20
2.7072189407998781
30
0
10
11.442998021259159
20
2.6779302640675184
30
0
10
11.468959376106211
20
2.6589837892896182
30
0
10
11.515868793685302
20
2.6510990267878576
30
-1.3987061727561026e-15
10
11.579326472620263
20
2.6532400362565141
30
0
10
11.653114186726825
20
2.6633420335170723
30
1.3987061727561026e-15
10
11.730474338698709
20
2.6789084632861915
30
0
10
11.80558573514444
20
2.6976998634359965
30
0
10
11.874685749045209
20
2.7182625990046194
30
0
10
11.935517971147581
20
2.7397130780762571
30
1.3987061727561026e-15
10
11.976695114366336
20
2.7572340156491664
30
0
10
12.003208942645976
20
2.7705109430757187
30
0
10
12.018945234441489
20
2.7794228084345356
30
-1.3987061727561026e-15
10
12.026328469147463
20
2.783893880595627
30
0
0
ARC
5
202
100
AcDbEntity
8
0
100
AcDbCircle
10
12.7435926584761
20
3.983991062980119
30
-2.7974123455122052e-15
40
0.090352666259194511
210
-3.0795088895004336e-14
220
3.2013112949499264e-15
230
1
100
AcDbArc
50
-5.9412248000673005
51
81.593809877109635
0
SPLINE
5
203
100
AcDbEntity
8
0
100
AcDbSpline
70
0
71
3
72
35
73
31
74
0
42
0.000000001
43
0.0000000001
44
0.0000000001
40
0
40
0
40
0
40
0
40
0.125
40
0.125
40
0.125
40
0.234375
40
0.234375
40
0.234375
40
0.330078125
40
0.330078125
40
0.330078125
40
0.41342879088014661
40
0.41342879088014661
40
0.41342879088014661
40
0.49570489058241352
40
0.49570489058241352
40
0.49570489058241352
40
0.58782804230998464
40
0.58782804230998464
40
0.58782804230998464
40
0.65671947387860563
40
0.65671947387860563
40
0.65671947387860563
40
0.69962953964377994
40
0.69962953964377994
40
0.69962953964377994
40
0.72529254298800272
40
0.72529254298800272
40
0.72529254298800272
40
0.72625160641385977
40
0.72625160641385977
40
0.72625160641385977
40
0.72625160641385977
10
12.756801306330171
20
4.073373029405186
30
0
10
12.690542204910603
20
4.0219284844594023
30
0
10
12.616217957755095
20
3.9566868878067507
30
0
10
12.533657424573212
20
3.8743496921592562
30
-1.3987061727561026e-15
10
12.461416958039061
20
3.8023046459676979
30
1.3987061727561026e-15
10
12.383574125719573
20
3.7153258055762559
30
-1.3987061727561026e-15
10
12.311309746235024
20
3.6204279353070432
30
0
10
12.248078414186041
20
3.5373922988214823
30
1.3987061727561026e-15
10
12.190089156390409
20
3.449369054001564
30
0
10
12.134339280561047
20
3.3761973187637286
30
0
10
12.085785074278727
20
3.3124699028023441
30
-2.7974123455122052e-15
10
12.038667803415514
20
3.2614675929744998
30
0
10
11.986389515579985
20
3.2222827179271247
30
0
10
11.93478520532282
20
3.1836030187048707
30
0
10
11.875616487668021
20
3.1546332350264565
30
0
10
11.808429222743179
20
3.1266762125808105
30
0
10
11.733200783096311
20
3.0953732092793507
30
0
10
11.649421458060361
20
3.0644048949814193
30
0
10
11.573243150432813
20
3.0196458487866393
30
0
10
11.516275574220741
20
2.9861741892723939
30
0
10
11.464083284999932
20
2.945808547068788
30
0
10
11.420236872146891
20
2.9003197148168893
30
0
10
11.392926473505851
20
2.8719863105158669
30
1.3987061727561026e-15
10
11.36853453216411
20
2.8425681968055532
30
-1.3987061727561026e-15
10
11.34831084547706
20
2.8062800181264871
30
0
10
11.336215768719953
20
2.7845773328895782
30
0
10
11.324890054508929
20
2.7601925939498551
30
1.3987061727561026e-15
10
11.319978313287313
20
2.72697292209146
30
0
10
11.319794754438034
20
2.7257314550709784
30
0
10
11.319622517906067
20
2.7244737522972047
30
0
10
11.3194624722932
20
2.7232006675040239
30
1.3987061727561026e-15
0
SPLINE
5
204
100
AcDbEntity
8
0
100
AcDbSpline
70
4
71
5
72
46
73
40
74
0
42
0.000000001
43
0.0000000001
44
0.0000000001
40
0
40
0
40
0
40
0
40
0
40
0
40
0.028571428571428571
40
0.057142857142857141
40
0.085714285714285715
40
0.11428571428571428
40
0.14285714285714285
40
0.17142857142857143
40
0.20000000000000001
40
0.22857142857142859
40
0.25714285714285717
40
0.28571428571428575
40
0.31428571428571433
40
0.34285714285714292
40
0.3714285714285715
40
0.40000000000000008
40
0.42857142857142866
40
0.45714285714285724
40
0.48571428571428582
40
0.51428571428571435
40
0.54285714285714293
40
0.57142857142857151
40
0.60000000000000009
40
0.62857142857142867
40
0.65714285714285725
40
0.68571428571428583
40
0.71428571428571441
40
0.74285714285714299
40
0.77142857142857157
40
0.80000000000000016
40
0.82857142857142874
40
0.85714285714285732
40
0.8857142857142859
40
0.91428571428571448
40
0.94285714285714306
40
0.97142857142857164
40
1
40
1
40
1
40
1
40
1
40
1
41
1
41
1
41
1
41
1
41
1
41
1
41
1
41
1
41
1
41
1
41
1
41
1
41
1
41
1
41
1
41
1
41
1
41
1
41
1
41
1
41
1
41
1
41
1
41
1
41
1
41
1
41
1
41
1
41
1
41
1
41
1
41
1
41
1
41
1
41
1
41
1
41
1
41
1
41
1
41
1
10
12.625908728769915
20
4.3260272213836011
30
0
10
12.608944099366688
20
4.3174549260746309
30
0
10
12.575634291374369
20
4.2996488523947729
30
0
10
12.527527911558666
20
4.2709553296927512
30
0
10
12.467107855610548
20
4.2287228746761327
30
0
10
12.397730866246063
20
4.1693973287374408
30
0
10
12.334290259523419
20
4.1038518483315007
30
-1.3987061727561026e-15
10
12.276317984891557
20
4.0327689132624336
30
0
10
12.223009217592841
20
3.9573039026838255
30
-1.3987061727561026e-15
10
12.173090471897591
20
3.8792843012681848
30
0
10
12.1248560427324
20
3.8010978970655587
30
0
10
12.076430717710901
20
3.7251620393761007
30
0
10
12.025973940965901
20
3.6535010772496048
30
0
10
11.97190975793924
20
3.5872709761249313
30
-2.7974123455122052e-15
10
11.913141810314196
20
3.526318978715242
30
-1.3987061727561026e-15
10
11.849291581597955
20
3.4686750047114505
30
1.3987061727561026e-15
10
11.780530083067685
20
3.4113502863928029
30
0
10
11.7073984466721
20
3.3511722582304988
30
0
10
11.630628342852503
20
3.2856352077171618
30
0
10
11.550980231490232
20
3.213676184309052
30
0
10
11.469036896464733
20
3.136659715239146
30
1.3987061727561026e-15
10
11.38513466440061
20
3.0587555168440246
30
1.3987061727561026e-15
10
11.299731835832558
20
2.985364178039362
30
0
10
11.213707700840354
20
2.9218700039561067
30
0
10
11.128681913122865
20
2.8722900458323792
30
0
10
11.047349575245253
20
2.8379072673562398
30
0
10
10.973766624235404
20
2.8160218937970192
30
0
10
10.913789621406426
20
2.7982997916721142
30
0
10
10.873404465920231
20
2.7748024057654859
30
-1.3987061727561026e-15
10
10.857122084516575
20
2.7379077400749288
30
0
10
10.865925625577253
20
2.6872421709649292
30
0
10
10.89680240084328
20
2.6309450650077588
30
0
10
10.944945609331311
20
2.5807443845375095
30
0
10
11.005277739554399
20
2.5485962595398788
30
0
10
11.074354717982667
20
2.5424414002989595
30
0
10
11.150111777319504
20
2.5668880541288499
30
0
10
11.215220081636485
20
2.6126935608552158
30
0
10
11.26642103194647
20
2.6621007321042582
30
1.3987061727561026e-15
10
11.301606703865779
20
2.7017204335508263
30
0
10
11.319462472293196
20
2.7232006675040239
30
0
0
ARC
5
205
100
AcDbEntity
8
0
100
AcDbCircle
10
12.524966492587398
20
4.3450467080872706
30
0
40
0.1027184302839478
210
2.8730350927781066e-18
220
1.5248076428892634e-17
230
1
100
AcDbArc
50
-10.670541573460701
51
64.28584766537287
0
SPLINE
5
206
100
AcDbEntity
8
0
100
AcDbSpline
70
0
71
3
72
38
73
34
74
0
42
0.000000001
43
0.0000000001
44
0.0000000001
40
0
40
0
40
0
40
0
40
0.11026888258422095
40
0.11026888258422095
40
0.11026888258422095
40
0.22148527226119333
40
0.22148527226119333
40
0.22148527226119333
40
0.30263367282851494
40
0.30263367282851494
40
0.30263367282851494
40
0.38980446372495059
40
0.38980446372495059
40
0.38980446372495059
40
0.47181257814810723
40
0.47181257814810723
40
0.47181257814810723
40
0.58057700584680894
40
0.58057700584680894
40
0.58057700584680894
40
0.64386388834979325
40
0.64386388834979325
40
0.64386388834979325
40
0.68838090230606908
40
0.68838090230606908
40
0.68838090230606908
40
0.72520486833005771
40
0.72520486833005771
40
0.72520486833005771
40
0.75012800446724071
40
0.75012800446724071
40
0.75012800446724071
40
0.75829392749477975
40
0.75829392749477975
40
0.75829392749477975
40
0.75829392749477975
10
12.569534133755765
20
4.4375929196828103
30
-1.3987061727561026e-15
10
12.44727647707121
20
4.3758156351944661
30
0
10
12.340331694791958
20
4.2932124427609732
30
-1.3987061727561026e-15
10
12.251892976626506
20
4.1962429473899423
30
0
10
12.16269433135585
20
4.0984402225303072
30
1.3987061727561026e-15
10
12.093258921834375
20
3.9866019410239213
30
-1.3987061727561026e-15
10
12.030927078613471
20
3.8871856678718943
30
-1.3987061727561026e-15
10
11.985447006867927
20
3.814647154617842
30
0
10
11.943189370084903
20
3.7501095647614164
30
0
10
11.897274543071145
20
3.6948738911593653
30
0
10
11.847952168795363
20
3.6355389280556416
30
0
10
11.792805601565973
20
3.584978587924343
30
0
10
11.724075556628497
20
3.5272679006975252
30
0
10
11.659416037865643
20
3.4729751199063239
30
-1.3987061727561026e-15
10
11.583838029423426
20
3.4112708426699929
30
0
10
11.505698527101105
20
3.3408040860350576
30
0
10
11.402064901202873
20
3.2473465481914818
30
-1.3987061727561026e-15
10
11.295089245865039
20
3.1405220072924078
30
0
10
11.196820293765397
20
3.0663081061012791
30
-1.3987061727561026e-15
10
11.139640425707343
20
3.0231251781518766
30
-1.3987061727561026e-15
10
11.086049322411633
20
2.9917042195079868
30
1.3987061727561026e-15
10
11.036580985593639
20
2.9704635046181012
30
0
10
11.001784159562328
20
2.9555224431564349
30
0
10
10.968824058528384
20
2.9453773486968626
30
0
10
10.933871338296026
20
2.9344909429777006
30
0
10
10.904958846915843
20
2.9254858323761783
30
0
10
10.874385317794324
20
2.9169576081429653
30
0
10
10.839056309796725
20
2.8967474857451956
30
0
10
10.815144988692895
20
2.8830689039340833
30
0
10
10.788226406352848
20
2.86210214797888
30
0
10
10.768368190428754
20
2.8317040010075205
30
0
10
10.761861759544299
20
2.821744221990079
30
-1.3987061727561026e-15
10
10.756407015097798
20
2.8110064667096961
30
0
10
10.752001160628044
20
2.7999205775067986
30
-1.3987061727561026e-15
0
SPLINE
5
207
100
AcDbEntity
8
0
100
AcDbSpline
70
4
71
5
72
46
73
40
74
0
42
0.000000001
43
0.0000000001
44
0.0000000001
40
0
40
0
40
0
40
0
40
0
40
0
40
0.028571428571428571
40
0.057142857142857141
40
0.085714285714285715
40
0.11428571428571428
40
0.14285714285714285
40
0.17142857142857143
40
0.20000000000000001
40
0.22857142857142859
40
0.25714285714285717
40
0.28571428571428575
40
0.31428571428571433
40
0.34285714285714292
40
0.3714285714285715
40
0.40000000000000008
40
0.42857142857142866
40
0.45714285714285724
40
0.48571428571428582
40
0.51428571428571435
40
0.54285714285714293
40
0.57142857142857151
40
0.60000000000000009
40
0.62857142857142867
40
0.65714285714285725
40
0.68571428571428583
40
0.71428571428571441
40
0.74285714285714299
40
0.77142857142857157
40
0.80000000000000016
40
0.82857142857142874
40
0.85714285714285732
40
0.8857142857142859
40
0.91428571428571448
40
0.94285714285714306
40
0.97142857142857164
40
1
40
1
40
1
40
1
40
1
40
1
41
1
41
1
41
1
41
1
41
1
41
1
41
1
41
1
41
1
41
1
41
1
41
1
41
1
41
1
41
1
41
1
41
1
41
1
41
1
41
1
41
1
41
1
41
1
41
1
41
1
41
1
41
1
41
1
41
1
41
1
41
1
41
1
41
1
41
1
41
1
41
1
41
1
41
1
41
1
41
1
10
12.323011684875816
20
4.6228051330778204
30
-1.3987061727561026e-15
10
12.310333305301958
20
4.6125607378792139
30
-1.3987061727561026e-15
10
12.285005148598991
20
4.5917461120345502
30
-2.7974123455122052e-15
10
12.247098717989074
20
4.5595466795777124
30
-1.3987061727561026e-15
10
12.196728672757587
20
4.5146564054518121
30
-1.3987061727561026e-15
10
12.134047264453459
20
4.455310271753155
30
-2.7974123455122052e-15
10
12.07162927145116
20
4.3928438756208692
30
0
10
12.009436580040335
20
4.3275073349969242
30
1.3987061727561026e-15
10
11.947405640311635
20
4.2597293222592123
30
1.3987061727561026e-15
10
11.885435017413885
20
4.1901909816860723
30
0
10
11.823400885371576
20
4.1197800947892578
30
-1.3987061727561026e-15
10
11.761198640722244
20
4.0494371986827593
30
0
10
11.698774998799557
20
3.9800366057171908
30
-1.3987061727561026e-15
10
11.636169147304175
20
3.9122441045709357
30
-1.3987061727561026e-15
10
11.573539113926618
20
3.8464041878714492
30
1.3987061727561026e-15
10
11.511224071802308
20
3.7823605102982856
30
0
10
11.44963678298274
20
3.7195841840410173
30
0
10
11.389083368927006
20
3.6574355469378319
30
0
10
11.3295998388417
20
3.5953881458546988
30
1.3987061727561026e-15
10
11.270793569461038
20
3.5332558106511036
30
0
10
11.211648830407739
20
3.4714503003184531
30
-1.3987061727561026e-15
10
11.150438739181123
20
3.4111379162159765
30
-1.3987061727561026e-15
10
11.08532786868698
20
3.3537289988197574
30
0
10
11.014875871471533
20
3.3004645549304605
30
1.3987061727561026e-15
10
10.93861899988449
20
3.2519268025567141
30
-2.7974123455122052e-15
10
10.857536685096271
20
3.2076658795291872
30
-1.3987061727561026e-15
10
10.774794801038414
20
3.1655512256288345
30
0
10
10.695288660560216
20
3.1223240902376488
30
0
10
10.624578898841152
20
3.0747484387602526
30
0
10
10.567982994253068
20
3.0206294262536191
30
-1.3987061727561026e-15
10
10.529684585248701
20
2.9597702233396199
30
0
10
10.511628526713823
20
2.8952578986046551
30
-1.3987061727561026e-15
10
10.513171950167479
20
2.8336334610357716
30
-1.3987061727561026e-15
10
10.532367753478443
20
2.7826236657437033
30
0
10
10.566814391588723
20
2.7495649652141525
30
0
10
10.614849666644274
20
2.7391666126289973
30
-1.3987061727561026e-15
10
10.663490705947186
20
2.7507132277372119
30
0
10
10.705570643463629
20
2.7708581141550983
30
-1.3987061727561026e-15
10
10.736110009121354
20
2.7893837328884405
30
0
10
10.752001160628044
20
2.7999205775067995
30
-1.3987061727561026e-15
0
ARC
5
208
100
AcDbEntity
8
0
100
AcDbCircle
10
12.29069150245448
20
4.6770429199529939
30
-1.3987061727561026e-15
40
0.063137403469458647
210
2.1357753164495632e-17
220
1.2727039913612539e-17
230
1
100
AcDbArc
50
-59.209375345707492
51
137.08724413296815
0
SPLINE
5
209
100
AcDbEntity
8
0
100
AcDbSpline
70
0
71
3
72
26
73
22
74
0
42
0.000000001
43
0.0000000001
44
0.0000000001
40
0
40
0
40
0
40
0
40
0.1492310723274396
40
0.1492310723274396
40
0.1492310723274396
40
0.28238331864670591
40
0.28238331864670591
40
0.28238331864670591
40
0.42888256288914806
40
0.42888256288914806
40
0.42888256288914806
40
0.53439119842618554
40
0.53439119842618554
40
0.53439119842618554
40
0.62754479180759892
40
0.62754479180759892
40
0.62754479180759892
40
0.7037727971735549
40
0.7037727971735549
40
0.7037727971735549
40
0.7491896548700635
40
0.7491896548700635
40
0.7491896548700635
40
0.7491896548700635
10
12.244450215525154
20
4.7200321639564065
30
0
10
12.128445753092628
20
4.6262981381656481
30
0
10
12.014667090036145
20
4.5165170370257286
30
-1.3987061727561026e-15
10
11.90391567919391
20
4.3969429516016136
30
0
10
11.805097122798939
20
4.2902523152115046
30
1.3987061727561026e-15
10
11.709003224249949
20
4.177544590277348
30
0
10
11.613526171210566
20
4.0725251536592699
30
0
10
11.508478629772723
20
3.9569787132452978
30
0
10
11.402431800511581
20
3.8509078546391966
30
0
10
11.298796410140771
20
3.743640464545861
30
-1.3987061727561026e-15
10
11.224158287002901
20
3.6663865781869847
30
-1.3987061727561026e-15
10
11.152967421070905
20
3.5879471921353385
30
0
10
11.081646859539303
20
3.5197102590816098
30
0
10
11.01867792287519
20
3.459463858557831
30
0
10
10.95400797748537
20
3.4083372530038543
30
0
10
10.87628961154061
20
3.3620533453753083
30
0
10
10.812692322362363
20
3.3241790151321311
30
0
10
10.738962847479243
20
3.2894292881140461
30
0
10
10.663491994618202
20
3.2463094073837859
30
0
10
10.618526250490849
20
3.2206184624664296
30
0
10
10.573016773041697
20
3.1914190708169068
30
-1.3987061727561026e-15
10
10.532130484294099
20
3.1557583432346763
30
-1.3987061727561026e-15
0
ARC
5
210
100
AcDbEntity
8
0
100
AcDbCircle
10
10.539907085984225
20
3.2385316176836652
30
1.3987061727561026e-15
40
0.083137780201632719
210
4.4165747122255213e-17
220
6.3397729507038879e-18
230
1
100
AcDbArc
50
151.33744541147868
51
264.63277978947974
0
ARC
5
211
100
AcDbEntity
8
0
100
AcDbCircle
10
57.459448046800858
20
-25.024423335425819
30
-1.3987061729758447e-15
40
54.857492759039133
210
-3.8367795911812425e-17
220
-1.4288131074099707e-17
230
1
100
AcDbArc
50
148.68532423218383
51
148.94011136395906
0
ARC
5
212
100
AcDbEntity
8
0
100
AcDbCircle
10
2.0563225283168132
20
10.670770997874989
30
-1.3987061727561026e-15
40
11.157276071972484
210
1.3698554397722966e-16
220
-3.0810893706176787e-17
230
1
100
AcDbArc
50
319.92008379165287
51
334.49406872985344
0
SPLINE
5
213
100
AcDbEntity
8
0
100
AcDbSpline
70
4
71
5
72
23
73
17
74
0
42
0.000000001
43
0.0000000001
44
0.0000000001
40
0
40
0
40
0
40
0
40
0
40
0
40
0.066666666666666666
40
0.13333333333333333
40
0.20000000000000001
40
0.26666666666666666
40
0.33333333333333331
40
0.39999999999999997
40
0.46666666666666662
40
0.53333333333333333
40
0.59999999999999998
40
0.66666666666666663
40
0.73333333333333328
40
0.75036010371374817
40
0.75036010371374817
40
0.75036010371374817
40
0.75036010371374817
40
0.75036010371374817
40
0.75036010371374817
41
1
41
1
41
1
41
1
41
1
41
1
41
1
41
1
41
1
41
1
41
1
41
1
41
1
41
1
41
1
41
1
41
1
10
12.126218428581463
20
5.8663973754302585
30
-1.3987061727561026e-15
10
12.130953607105559
20
5.8761038175706108
30
-1.3987061727561026e-15
10
12.140683790950323
20
5.8954806277229048
30
0
10
12.156058533850191
20
5.9244376202666933
30
0
10
12.1781285765598
20
5.9628289286129625
30
0
10
12.208339436829991
20
6.0104305924442158
30
-1.3987061727561026e-15
10
12.241072414459268
20
6.0575888426766609
30
0
10
12.276021731561313
20
6.104204100741895
30
-1.3987061727561026e-15
10
12.312577899408589
20
6.1501225111285134
30
0
10
12.34969576420211
20
6.1951231214537588
30
-1.3987061727561026e-15
10
12.385809273471352
20
6.2389121859280108
30
0
10
12.4190803534779
20
6.2811585847517701
30
-1.3987061727561026e-15
10
12.443349929597947
20
6.3155138850361139
30
-1.3987061727561026e-15
10
12.458468044403505
20
6.3406393874446065
30
-1.3987061727561026e-15
10
12.467022067107546
20
6.3574474901638647
30
-1.3987061727561026e-15
10
12.471157119349245
20
6.3666127074483221
30
-1.3987061727561026e-15
10
12.471972200600689
20
6.368469377599328
30
-1.3987061727561026e-15
0
ARC
5
214
100
AcDbEntity
8
0
100
AcDbCircle
10
12.350053620086754
20
6.4293223589185891
30
-1.3987061727561026e-15
40
0.13626160724861525
210
9.0087804961344683e-17
220
-2.1718284860666064e-17
230
1
100
AcDbArc
50
240.44050549588488
51
333.4749307692984
0
SPLINE
5
215
100
AcDbEntity
8
0
100
AcDbSpline
70
0
71
3
72
11
73
7
74
0
42
0.000000001
43
0.0000000001
44
0.0000000001
40
0.2476905398152553
40
0.2476905398152553
40
0.2476905398152553
40
0.2476905398152553
40
0.28936116574983062
40
0.28936116574983062
40
0.28936116574983062
40
0.52347245899342854
40
0.52347245899342854
40
0.52347245899342854
40
0.52347245899342854
10
12.1299958161903
20
6.1161579052579267
30
0
10
12.137442917108771
20
6.1267435723276105
30
-1.3987061727561026e-15
10
12.145027710581498
20
6.1372561399880912
30
1.3987061727561026e-15
10
12.152740290381114
20
6.1476881921439359
30
0
10
12.19607062177494
20
6.2062968923161845
30
0
10
12.243909631071809
20
6.2625255033095808
30
0
10
12.282832083347376
20
6.3107960301623471
30
-1.3987061727561026e-15
0
LINE
5
216
100
AcDbEntity
8
0
100
AcDbLine
10
12.1299958161903
20
6.1161579052579267
30
0
11
12.134572781538333
21
6.4187864434719852
31
2.9186132588576357e-19
0
ARC
5
217
100
AcDbEntity
8
0
100
AcDbCircle
10
13.675559388934035
20
4.8324709961305299
30
-1.3987061727561026e-15
40
2.2115687695947925
210
3.8662137699640683e-17
220
-1.4221937677990004e-17
230
1
100
AcDbArc
50
121.15835947811206
51
134.16958153822719
0
LINE
5
218
100
AcDbEntity
8
0
100
AcDbLine
10
12.531282153225906
20
6.7250000000000041
30
-1.3275505391557705e-15
11
13.073687024874372
21
6.7250000000000041
31
-1.3987061727561026e-15
0
ARC
5
219
100
AcDbEntity
8
0
100
AcDbCircle
10
12.304199777758202
20
5.7436207120606886
30
0
40
1.2470829684791236
210
1.8354466661404424e-17
220
5.4610163153373573e-18
230
1
100
AcDbArc
50
6.9056322704164685
51
51.90044859887724
0
ARC
5
220
100
AcDbEntity
8
0
100
AcDbCircle
10
8.1789764748063227
20
5.2440024973343151
30
0
40
5.4024512625901933
210
-2.7174865116994289e-17
220
-7.292056332942136e-18
230
1
100
AcDbArc
50
-9.3915009892708774
51
6.9056310413863029
0
ARC
5
221
100
AcDbEntity
8
0
100
AcDbCircle
10
12.936145387474429
20
4.45718327065459
30
-1.3987061727561026e-15
40
0.58065278493387795
210
7.1945579912204278e-17
220
-6.026737049525576e-17
230
1
100
AcDbArc
50
302.35720839251906
51
350.60849901072902
0
LINE
5
222
100
AcDbEntity
8
0
100
AcDbLine
10
13.246908467606735
20
3.9666896777523477
30
-1.4506249618605127e-15
11
13.244451023401684
21
3.8042036873712095
31
2.4220887252453146e-19
0
LINE
5
223
100
AcDbEntity
8
0
100
AcDbLine
10
13.244451023401684
20
3.8042036873712095
30
2.4220887252453146e-19
11
12.08028847475282
21
2.8295129486428712
31
0
0
LWPOLYLINE
5
224
100
AcDbEntity
8
0
100
AcDbPolyline
90
4
70
1
43
0.0
10
8.5941911951712804
20
20.727754078769365
42
0.010309695172055208
10
9.9152860506199634
20
20.707626177232761
42
-0.0065440645218570702
10
9.8261334574992958
20
20.964590957173623
42
-0.025710642308222034
10
9.6404629477561539
20
21.797830771798612
42
0.089880112402976192
0
LWPOLYLINE
5
225
100
AcDbEntity
8
0
100
AcDbPolyline
90
9
70
1
43
0.0
10
6.3303326173218641
20
18.694583787432205
42
0.12955566392023113
10
6.4620234533049343
20
19.099379344957999
42
0.59480448449107859
10
6.0987522970518704
20
20.288379266218755
42
0.13803394280316741
10
6.0091990314813266
20
20.673721211309232
42
0.031046126901188961
10
10.00975292346155
20
20.458265447961118
42
0.053300136087810292
10
11.34138167451443
20
20.761808199404356
10
11.314881223321477
20
19.009600743873264
42
-0.036806579398119418
10
8.3734024198728623
20
18.595460903321772
42
-0.054608720669525726
10
6.4533830933970036
20
18.677717430512342
42
0.0078524870287032637
0
LWPOLYLINE
5
226
100
AcDbEntity
8
0
100
AcDbPolyline
90
4
70
1
43
0.0
10
6.4988242763787056
20
20.871791823554496
42
0.16699605918867833
10
5.7457441247144647
20
21.837573654987377
42
-0.026384363648115399
10
5.5582125377074929
20
20.981867193552716
42
-4.945391273088255e-06
10
5.5581353949563415
20
20.981586831813839
42
0.0073896389722172559
0
LWPOLYLINE
5
227
100
AcDbEntity
8
0
100
AcDbPolyline
90
4
70
1
43
0.0
10
9.310898255472738
20
22.332188264713739
42
0.17898171621837417
10
9.0222119018852354
20
21.613836102798953
42
-0.041491856654897824
10
9.5986281972150174
20
22.072573540372225
42
-0.0052269290056170406
10
9.5771623870794507
20
22.244902523802502
42
-0.093580098270632767
0
SPLINE
5
228
100
AcDbEntity
8
0
100
AcDbSpline
70
0
71
3
72
44
73
40
74
0
42
0.000000001
43
0.0000000001
44
0.0000000001
40
-0.46376795326992037
40
-0.46376795326992037
40
-0.46376795326992037
40
-0.46376795326992037
40
-0.45100884143451342
40
-0.45100884143451342
40
-0.45100884143451342
40
-0.43829030443795897
40
-0.43829030443795897
40
-0.43829030443795897
40
-0.42542897422240217
40
-0.42542897422240217
40
-0.42542897422240217
40
-0.40750410601094789
40
-0.40750410601094789
40
-0.40750410601094789
40
-0.38715421367144681
40
-0.38715421367144681
40
-0.38715421367144681
40
-0.36621394569444327
40
-0.36621394569444327
40
-0.36621394569444327
40
-0.34362441815532813
40
-0.34362441815532813
40
-0.34362441815532813
40
-0.32319120878203067
40
-0.32319120878203067
40
-0.32319120878203067
40
-0.3020541249190028
40
-0.3020541249190028
40
-0.3020541249190028
40
-0.27826845947465306
40
-0.27826845947465306
40
-0.27826845947465306
40
-0.27019160926290836
40
-0.27019160926290836
40
-0.27019160926290836
40
-0.26648665396228405
40
-0.26648665396228405
40
-0.26648665396228405
40
-0.26595307806987933
40
-0.26595307806987933
40
-0.26595307806987933
40
-0.26595307806987933
10
3.4355638453820467
20
16.975472131939917
30
0
10
3.4317150382504042
20
16.972364983766699
30
0
10
3.4218616714431001
20
16.967422305577962
30
0
10
3.414144252100396
20
16.965713621308677
30
0
10
3.4064513746733236
20
16.964010370770968
30
0
10
3.4028827378570714
20
16.964092022639274
30
0
10
3.3959728227460575
20
16.965696689529729
30
0
10
3.388985328820592
20
16.967319372293453
30
-1.3987061727561026e-15
10
3.3758706764127178
20
16.972430036415602
30
0
10
3.355892001899146
20
16.982521217498117
30
0
10
3.3280476730705351
20
16.996585321908036
30
0
10
3.2906442387564541
20
17.016693025454238
30
0
10
3.2550075724528216
20
17.03653461926805
30
0
10
3.2145496837775656
20
17.059060547670533
30
0
10
3.1767826871143305
20
17.082409827906535
30
0
10
3.1355470647222967
20
17.111915360503954
30
0
10
3.0931151457380577
20
17.142276885227837
30
-1.3987061727561026e-15
10
3.0448131654918327
20
17.180221822786098
30
0
10
2.9871134679638707
20
17.218585967570213
30
0
10
2.9248693310818656
20
17.259971679828865
30
0
10
2.8522222783396529
20
17.299417687447708
30
0
10
2.7861357659500388
20
17.33071914430915
30
-1.3987061727561026e-15
10
2.7263576434519132
20
17.359032672364645
30
0
10
2.6737831312726104
20
17.381255523068614
30
0
10
2.6351334602603376
20
17.399568534980837
30
0
10
2.5951524018499796
20
17.418512385724085
30
0
10
2.5679644928725485
20
17.433820183980099
30
0
10
2.534627428918006
20
17.454842294739382
30
0
10
2.497113065287806
20
17.4784985803791
30
0
10
2.4519082720177581
20
17.509809503243194
30
0
10
2.410161730609933
20
17.537312710702842
30
0
10
2.3959859421461482
20
17.54665191912288
30
0
10
2.3833862603713922
20
17.555062345759922
30
0
10
2.3666926922995839
20
17.564029903954111
30
0
10
2.3590351374492982
20
17.568143438487276
30
0
10
2.3514024242594247
20
17.572638562559789
30
0
10
2.3343434403061782
20
17.577910940563697
30
0
10
2.3318866596306229
20
17.578670251694405
30
0
10
2.3292376124770846
20
17.579521902682618
30
0
10
2.3262297475524001
20
17.580346367426539
30
0
0
SPLINE
5
229
100
AcDbEntity
8
0
100
AcDbSpline
70
4
71
5
72
41
73
35
74
0
42
0.000000001
43
0.0000000001
44
0.0000000001
40
0
40
0
40
0
40
0
40
0
40
0
40
0.033333333333333333
40
0.066666666666666666
40
0.10000000000000001
40
0.13333333333333333
40
0.16666666666666666
40
0.19999999999999998
40
0.23333333333333331
40
0.26666666666666666
40
0.29999999999999999
40
0.33333333333333331
40
0.36666666666666664
40
0.39999999999999997
40
0.43333333333333329
40
0.46666666666666662
40
0.49999999999999994
40
0.53333333333333333
40
0.56666666666666665
40
0.59999999999999998
40
0.6333333333333333
40
0.66666666666666663
40
0.69999999999999996
40
0.73333333333333328
40
0.76666666666666661
40
0.79999999999999993
40
0.83333333333333326
40
0.86666666666666659
40
0.89999999999999991
40
0.93333333333333324
40
0.96666666666666656
40
1
40
1
40
1
40
1
40
1
40
1
41
1
41
1
41
1
41
1
41
1
41
1
41
1
41
1
41
1
41
1
41
1
41
1
41
1
41
1
41
1
41
1
41
1
41
1
41
1
41
1
41
1
41
1
41
1
41
1
41
1
41
1
41
1
41
1
41
1
41
1
41
1
41
1
41
1
41
1
41
1
10
2.3262297475524014
20
17.580346367426543
30
0
10
2.3243915249094695
20
17.584062314664152
30
0
10
2.3208481251645612
20
17.592354183384561
30
0
10
2.3159321529129904
20
17.607371976291489
30
0
10
2.3101773023448406
20
17.632564448226773
30
0
10
2.3043965083928781
20
17.672311989461999
30
0
10
2.3002551119107246
20
17.719135700497713
30
0
10
2.2981936659965547
20
17.770614533941746
30
0
10
2.2989454908298952
20
17.822580571490469
30
0
10
2.3034339647992863
20
17.870039255803817
30
0
10
2.3126572201630111
20
17.908210996182017
30
0
10
2.3275781716312784
20
17.933480834106462
30
0
10
2.3490096294925324
20
17.944507422209533
30
0
10
2.3775035612145241
20
17.942943695293749
30
0
10
2.4132365125744899
20
17.931950200894789
30
0
10
2.4559108343424314
20
17.915083895135893
30
0
10
2.5046026174506482
20
17.894849508288306
30
0
10
2.5578887133062778
20
17.872625748871741
30
0
10
2.6140679580618289
20
17.849018921745934
30
0
10
2.6713442214548202
20
17.824067959133298
30
0
10
2.7280315758712947
20
17.797514845166976
30
0
10
2.7827312636871095
20
17.769026021068026
30
0
10
2.8345691083787652
20
17.738479637307449
30
0
10
2.8832182073469266
20
17.706037370325216
30
0
10
2.9287365038976514
20
17.672035432281987
30
0
10
2.9714613495475515
20
17.636928867553536
30
0
10
3.0118805351911542
20
17.601213252730457
30
0
10
3.0505229072769025
20
17.565361800289271
30
0
10
3.0878235723313847
20
17.529743865786891
30
-1.3987061727561026e-15
10
3.1240652426077671
20
17.494594524202224
30
0
10
3.1594241134951075
20
17.460053520037963
30
0
10
3.1870766943813358
20
17.432960039463143
30
0
10
3.2074741350368821
20
17.412952168822578
30
0
10
3.2209206769817897
20
17.39975209126418
30
-1.3987061727561026e-15
10
3.2276060116493355
20
17.393186679323392
30
0
0
SPLINE
5
230
100
AcDbEntity
8
0
100
AcDbSpline
70
4
71
5
72
31
73
25
74
0
42
0.000000001
43
0.0000000001
44
0.0000000001
40
-1
40
-1
40
-1
40
-1
40
-1
40
-1
40
-0.95000000000000029
40
-0.90000000000000024
40
-0.8500000000000002
40
-0.80000000000000016
40
-0.75000000000000011
40
-0.70000000000000007
40
-0.65000000000000002
40
-0.59999999999999998
40
-0.54999999999999993
40
-0.49999999999999994
40
-0.44999999999999996
40
-0.39999999999999997
40
-0.34999999999999998
40
-0.29999999999999999
40
-0.25
40
-0.20000000000000001
40
-0.15000000000000002
40
-0.10000000000000001
40
-0.050000000000000003
40
0
40
0
40
0
40
0
40
0
40
0
41
1
41
1
41
1
41
1
41
1
41
1
41
1
41
1
41
1
41
1
41
1
41
1
41
1
41
1
41
1
41
1
41
1
41
1
41
1
41
1
41
1
41
1
41
1
41
1
41
1
10
3.2276060116493355
20
17.393186679323392
30
0
10
3.2304027142995553
20
17.388666866898213
30
0
10
3.2360842326750174
20
17.379574908355181
30
0
10
3.2448708484325093
20
17.365779969741361
30
0
10
3.2571171790546303
20
17.347071432919019
30
0
10
3.2733091074833616
20
17.323156461509811
30
0
10
3.2903605980510835
20
17.29871395296367
30
0
10
3.3082046464544419
20
17.273757936711593
30
0
10
3.3267122340620414
20
17.248321970509355
30
0
10
3.3456702232448157
20
17.222466982951325
30
0
10
3.3647612332242245
20
17.196289971245772
30
0
10
3.3835864311393844
20
17.169934481891623
30
0
10
3.4016843419537666
20
17.143602144661436
30
0
10
3.4185501797904867
20
17.117564347579357
30
-1.3987061727561026e-15
10
3.4336548293600324
20
17.092176420293434
30
0
10
3.4464645277172594
20
17.067888625447079
30
0
10
3.4564621849123709
20
17.045268088746099
30
0
10
3.4631693448735423
20
17.024941136887147
30
0
10
3.4661723702251352
20
17.0075154207282
30
0
10
3.4651480564139772
20
16.993512306448903
30
0
10
3.4599027247806768
20
16.98327805304087
30
0
10
3.4522906854591828
20
16.978205484938986
30
0
10
3.4446682553432058
20
16.976158335463332
30
-1.3987061727561026e-15
10
3.4387397930041792
20
16.97557124728954
30
0
10
3.4355638453820467
20
16.975472131939917
30
0
0
SPLINE
5
231
100
AcDbEntity
8
0
100
AcDbSpline
70
0
71
3
72
20
73
16
74
0
42
0.000000001
43
0.0000000001
44
0.0000000001
40
-0.6967549252664762
40
-0.6967549252664762
40
-0.6967549252664762
40
-0.6967549252664762
40
-0.63182593551470734
40
-0.63182593551470734
40
-0.63182593551470734
40
-0.50910124735294315
40
-0.50910124735294315
40
-0.50910124735294315
40
-0.41718752082264943
40
-0.41718752082264943
40
-0.41718752082264943
40
-0.33870811332800249
40
-0.33870811332800249
40
-0.33870811332800249
40
-0.32852620588375409
40
-0.32852620588375409
40
-0.32852620588375409
40
-0.32852620588375409
10
3.8636100438341896
20
18.384377849175241
30
0
10
3.8220656681250311
20
18.428970108109024
30
0
10
3.776613720750515
20
18.47101756549166
30
0
10
3.7268754482271311
20
18.510113257140546
30
0
10
3.6328632972838637
20
18.584009471827098
30
0
10
3.5243268300522899
20
18.649173110158205
30
0
10
3.4202710584822369
20
18.715282896426476
30
0
10
3.34233927576398
20
18.76479532059356
30
0
10
3.2686978778310247
20
18.814699594162295
30
0
10
3.1998104471981756
20
18.861031962022935
30
0
10
3.1409917598923944
20
18.900592285761181
30
0
10
3.0853448460404573
20
18.938273963510316
30
0
10
3.0192953839545678
20
18.962670377410785
30
0
10
3.010726135903774
20
18.965835564766753
30
0
10
3.0019128968760387
20
18.968711813153153
30
0
10
2.9929183589656612
20
18.971255752017228
30
0
0
SPLINE
5
232
100
AcDbEntity
8
0
100
AcDbSpline
70
4
71
5
72
55
73
49
74
0
42
0.000000001
43
0.0000000001
44
0.0000000001
40
0.015060670115774789
40
0.015060670115774789
40
0.015060670115774789
40
0.015060670115774789
40
0.015060670115774789
40
0.015060670115774789
40
0.022222222222222223
40
0.044444444444444446
40
0.066666666666666666
40
0.088888888888888892
40
0.11111111111111112
40
0.13333333333333333
40
0.15555555555555556
40
0.17777777777777778
40
0.20000000000000001
40
0.22222222222222224
40
0.24444444444444446
40
0.26666666666666666
40
0.28888888888888886
40
0.31111111111111106
40
0.33333333333333326
40
0.35555555555555546
40
0.37777777777777766
40
0.39999999999999986
40
0.42222222222222205
40
0.44444444444444425
40
0.46666666666666645
40
0.48888888888888865
40
0.51111111111111085
40
0.5333333333333331
40
0.55555555555555536
40
0.57777777777777761
40
0.59999999999999987
40
0.62222222222222212
40
0.64444444444444438
40
0.66666666666666663
40
0.68888888888888888
40
0.71111111111111114
40
0.73333333333333339
40
0.75555555555555565
40
0.7777777777777779
40
0.80000000000000016
40
0.82222222222222241
40
0.84444444444444466
40
0.86666666666666692
40
0.88888888888888917
40
0.91111111111111143
40
0.93333333333333368
40
0.95555555555555594
40
0.96169376723434774
40
0.96169376723434774
40
0.96169376723434774
40
0.96169376723434774
40
0.96169376723434774
40
0.96169376723434774
41
1
41
1
41
1
41
1
41
1
41
1
41
1
41
1
41
1
41
1
41
1
41
1
41
1
41
1
41
1
41
1
41
1
41
1
41
1
41
1
41
1
41
1
41
1
41
1
41
1
41
1
41
1
41
1
41
1
41
1
41
1
41
1
41
1
41
1
41
1
41
1
41
1
41
1
41
1
41
1
41
1
41
1
41
1
41
1
41
1
41
1
41
1
41
1
41
1
10
2.9929183589652126
20
18.971255752017374
30
0
10
2.992734493377911
20
18.973660430984378
30
0
10
2.99226308136994
20
18.983491184909749
30
0
10
2.9934736119032492
20
19.000499556089029
30
0
10
3.000314830723827
20
19.024178766791785
30
0
10
3.0185826435554599
20
19.05370086234015
30
0
10
3.0519706241585118
20
19.085715583348531
30
0
10
3.0959011299657559
20
19.114873971055996
30
0
10
3.1477742914397111
20
19.140095274536044
30
0
10
3.2046557366145265
20
19.160146794477182
30
0
10
3.2637126482708578
20
19.173807118322042
30
0
10
3.3226617890436199
20
19.180038015386629
30
0
10
3.3802969006176937
20
19.178177141802866
30
0
10
3.4367128401387141
20
19.168045419977584
30
0
10
3.4927840406871589
20
19.149842922579907
30
0
10
3.5498005132397914
20
19.124088712182569
30
0
10
3.6090303078204986
20
19.091544340041644
30
0
10
3.6713428343355936
20
19.05314628092998
30
0
10
3.7367293910618766
20
19.009933651305086
30
0
10
3.8044145807055187
20
18.962992421345678
30
0
10
3.8731177541434905
20
18.913403630975861
30
0
10
3.9412644279421949
20
18.86218971998418
30
0
10
4.0072117421404956
20
18.810263350597324
30
0
10
4.0694804442358725
20
18.758370938039061
30
0
10
4.1269540664831554
20
18.707047282497516
30
0
10
4.1791680891527498
20
18.656541925797345
30
0
10
4.2262838026138745
20
18.606841624361042
30
0
10
4.2686511066622383
20
18.557815548716196
30
0
10
4.3064931281861165
20
18.509326882273527
30
0
10
4.339505574410512
20
18.46136233827762
30
0
10
4.366574364355615
20
18.41414402441832
30
0
10
4.3852340136294981
20
18.368274807513096
30
0
10
4.3920824034316261
20
18.324772022525796
30
0
10
4.3842068514503092
20
18.285014004817736
30
0
10
4.3601737863010328
20
18.250686553158882
30
0
10
4.3215703223553525
20
18.223788281363699
30
0
10
4.272870957353768
20
18.206382566635494
30
0
10
4.2196633465801279
20
18.200074440511095
30
0
10
4.1673595263972985
20
18.205580496726487
30
0
10
4.1196230187185003
20
18.222214207571312
30
0
10
4.0771629685715505
20
18.24752730360926
30
0
10
4.038731510458101
20
18.278038543622674
30
0
10
4.0019481401973422
20
18.30988491647491
30
0
10
3.9641220241206603
20
18.339445023394504
30
0
10
3.9291473556100369
20
18.360539591598716
30
0
10
3.9000899799247519
20
18.3732702022551
30
0
10
3.8786952570286521
20
18.380310903624576
30
0
10
3.8663092181620402
20
18.383676738339556
30
0
10
3.8636100438341896
20
18.384377849175248
30
0
0
SPLINE
5
233
100
AcDbEntity
8
0
100
AcDbSpline
70
0
71
3
72
8
73
4
74
0
42
0.000000001
43
0.0000000001
44
0.0000000001
40
0.64264524450570981
40
0.64264524450570981
40
0.64264524450570981
40
0.64264524450570981
40
0.64394621043316291
40
0.64394621043316291
40
0.64394621043316291
40
0.64394621043316291
10
4.5011929931012311
20
18.408310395750963
30
0
10
4.501603215524578
20
18.406922240068425
30
0
10
4.5020052871409471
20
18.405527145737238
30
0
10
4.5023989230072967
20
18.40412495423573
30
0
0
SPLINE
5
234
100
AcDbEntity
8
0
100
AcDbSpline
70
4
71
5
72
12
73
6
74
0
42
0.000000001
43
0.0000000001
44
0.0000000001
40
0
40
0
40
0
40
0
40
0
40
0
40
0.0020449910073026575
40
0.0020449910073026575
40
0.0020449910073026575
40
0.0020449910073026575
40
0.0020449910073026575
40
0.0020449910073026575
41
1
41
1
41
1
41
1
41
1
41
1
10
4.5023989230072967
20
18.40412495423573
30
0
10
4.5020978563549976
20
18.404979626695351
30
0
10
4.5018267326998602
20
18.405825508097791
30
0
10
4.5015855489495635
20
18.40666259726865
30
0
10
4.5013743039340177
20
18.407490893694892
30
0
10
4.5011929931011831
20
18.408310395750942
30
1.3987061727561026e-15
0
SPLINE
5
235
100
AcDbEntity
8
0
100
AcDbSpline
70
0
71
3
72
26
73
22
74
0
42
0.000000001
43
0.0000000001
44
0.0000000001
40
-0.92748234014970432
40
-0.92748234014970432
40
-0.92748234014970432
40
-0.92748234014970432
40
-0.8174936857738675
40
-0.8174936857738675
40
-0.8174936857738675
40
-0.71909197852395623
40
-0.71909197852395623
40
-0.71909197852395623
40
-0.60571317020951065
40
-0.60571317020951065
40
-0.60571317020951065
40
-0.53294655438003224
40
-0.53294655438003224
40
-0.53294655438003224
40
-0.45817113778096485
40
-0.45817113778096485
40
-0.45817113778096485
40
-0.38076701460681694
40
-0.38076701460681694
40
-0.38076701460681694
40
-0.33029401150688936
40
-0.33029401150688936
40
-0.33029401150688936
40
-0.33029401150688936
10
3.8125374967972858
20
17.734332226538733
30
0
10
3.7638253243925659
20
17.792309096570232
30
0
10
3.7136616041628088
20
17.849155548832364
30
0
10
3.6549275896697462
20
17.908992530123516
30
0
10
3.6023810126381797
20
17.962525879987133
30
0
10
3.5412053482790253
20
18.019403056610223
30
0
10
3.4726270171125417
20
18.076243104423206
30
0
10
3.3936108121995292
20
18.141734416166457
30
0
10
3.3072249179464928
20
18.20468236499724
30
0
10
3.2318632411431216
20
18.249927363479351
30
0
10
3.1834960527263272
20
18.278965642075665
30
0
10
3.1403613762623612
20
18.300424196527366
30
0
10
3.1011855872923451
20
18.320207877281323
30
0
10
3.0609283084916545
20
18.340537707841349
30
0
10
3.0221211982896588
20
18.361265165552457
30
0
10
2.9712176272398212
20
18.39139524943802
30
0
10
2.9185245569400982
20
18.422584547076177
30
0
10
2.8540250675494008
20
18.46341449319187
30
0
10
2.7843989632702266
20
18.498825803637395
30
0
10
2.7389977826482053
20
18.521916500987825
30
0
10
2.6915811388831292
20
18.543066869233769
30
0
10
2.6411286925586386
20
18.55481726177738
30
0
0
SPLINE
5
236
100
AcDbEntity
8
0
100
AcDbSpline
70
4
71
5
72
45
73
39
74
0
42
0.000000001
43
0.0000000001
44
0.0000000001
40
0.037620173034854251
40
0.037620173034854251
40
0.037620173034854251
40
0.037620173034854251
40
0.037620173034854251
40
0.037620173034854251
40
0.050000000000000003
40
0.075000000000000011
40
0.10000000000000001
40
0.125
40
0.14999999999999999
40
0.17499999999999999
40
0.19999999999999998
40
0.22499999999999998
40
0.24999999999999997
40
0.27499999999999997
40
0.29999999999999999
40
0.32500000000000001
40
0.35000000000000003
40
0.37500000000000006
40
0.40000000000000008
40
0.4250000000000001
40
0.45000000000000012
40
0.47500000000000014
40
0.50000000000000011
40
0.52500000000000013
40
0.55000000000000016
40
0.57500000000000018
40
0.6000000000000002
40
0.62500000000000022
40
0.65000000000000024
40
0.67500000000000027
40
0.70000000000000029
40
0.72500000000000031
40
0.75000000000000033
40
0.77500000000000036
40
0.80000000000000038
40
0.8250000000000004
40
0.85000000000000042
40
0.86277849612824464
40
0.86277849612824464
40
0.86277849612824464
40
0.86277849612824464
40
0.86277849612824464
40
0.86277849612824464
41
1
41
1
41
1
41
1
41
1
41
1
41
1
41
1
41
1
41
1
41
1
41
1
41
1
41
1
41
1
41
1
41
1
41
1
41
1
41
1
41
1
41
1
41
1
41
1
41
1
41
1
41
1
41
1
41
1
41
1
41
1
41
1
41
1
41
1
41
1
41
1
41
1
41
1
41
1
10
2.641128692558036
20
18.554817261777526
30
0
10
2.6394716939346088
20
18.559061525206946
30
0
10
2.6349381064600514
20
18.571830985894646
30
0
10
2.6297326942006061
20
18.592908946978408
30
0
10
2.6279015360970401
20
18.621879245469401
30
0
10
2.6350133060065595
20
18.658061753026615
30
0
10
2.6537954696951265
20
18.696709165921888
30
0
10
2.6813850066692808
20
18.733381721764953
30
0
10
2.7152141104924317
20
18.76751151142534
30
0
10
2.752710276140935
20
18.79828209722691
30
0
10
2.7917079347345615
20
18.824599323216425
30
0
10
2.8310054594226548
20
18.8449921490101
30
0
10
2.8704153394022032
20
18.857785318363348
30
0
10
2.9103806829041181
20
18.861534577171977
30
0
10
2.9517288866602156
20
18.855344535187026
30
0
10
2.9953418738956152
20
18.839340570927796
30
0
10
3.0419860889650905
20
18.814644622521438
30
0
10
3.0922468199383788
20
18.782975036152948
30
0
10
3.1464280145338077
20
18.746348811581147
30
0
10
3.2044760141691633
20
18.706761245938143
30
0
10
3.2658645739781793
20
18.66583445508433
30
0
10
3.3295837605180241
20
18.624617351707339
30
0
10
3.3943340995822178
20
18.583712901486077
30
0
10
3.4586778028562
20
18.543333495000574
30
0
10
3.5212026624088137
20
18.503383510155711
30
0
10
3.5806887027062442
20
18.463528447240847
30
0
10
3.6362550436213423
20
18.423269447482916
30
0
10
3.6875647511066658
20
18.382012743080256
30
0
10
3.7348081508063591
20
18.339149130327545
30
0
10
3.7784907785027069
20
18.294143015021323
30
0
10
3.8192812083106178
20
18.246616349631655
30
0
10
3.857828337822637
20
18.196441430385228
30
0
10
3.89460865228097
20
18.143816978860425
30
0
10
3.9297186861764439
20
18.089388241062263
30
0
10
3.959642017630054
20
18.039581636057065
30
0
10
3.9814247014756177
20
18.00110016382094
30
0
10
3.9960665585167274
20
17.974068153967384
30
0
10
4.0045018527629823
20
17.958049437275911
30
0
10
4.0073106911848537
20
17.952662227233567
30
0
0
SPLINE
5
237
100
AcDbEntity
8
0
100
AcDbSpline
70
4
71
5
72
31
73
25
74
0
42
0.000000001
43
0.0000000001
44
0.0000000001
40
-1
40
-1
40
-1
40
-1
40
-1
40
-1
40
-0.95000000000000029
40
-0.90000000000000024
40
-0.8500000000000002
40
-0.80000000000000016
40
-0.75000000000000011
40
-0.70000000000000007
40
-0.65000000000000002
40
-0.59999999999999998
40
-0.54999999999999993
40
-0.49999999999999994
40
-0.44999999999999996
40
-0.39999999999999997
40
-0.34999999999999998
40
-0.29999999999999999
40
-0.25
40
-0.20000000000000001
40
-0.15000000000000002
40
-0.10000000000000001
40
-0.050000000000000003
40
0
40
0
40
0
40
0
40
0
40
0
41
1
41
1
41
1
41
1
41
1
41
1
41
1
41
1
41
1
41
1
41
1
41
1
41
1
41
1
41
1
41
1
41
1
41
1
41
1
41
1
41
1
41
1
41
1
41
1
41
1
10
4.0073106911849754
20
17.952662227233347
30
0
10
4.0093352226691481
20
17.949985870790325
30
0
10
4.0131531070585078
20
17.944350461424705
30
0
10
4.0181863953070938
20
17.935049237056081
30
0
10
4.0235047324968916
20
17.920944641607157
30
0
10
4.0278033267891145
20
17.900500385429183
30
0
10
4.0297271414453286
20
17.877392574715657
30
0
10
4.0292701795750485
20
17.851973142226729
30
0
10
4.0264689659304089
20
17.824901338970935
30
0
10
4.0214153044686531
20
17.797181949218103
30
0
10
4.0142356118868374
20
17.770000261589413
30
0
10
4.0050789829278903
20
17.744600668886566
30
0
10
3.9941044921598077
20
17.72214271946822
30
0
10
3.9814715677165582
20
17.703579818014983
30
0
10
3.9673305551731617
20
17.68948406349093
30
0
10
3.9518178210954402
20
17.680055923072217
30
0
10
3.9350539950876895
20
17.675261105833584
30
0
10
3.917142462003151
20
17.674918427558612
30
0
10
3.8981689203472163
20
17.678805879704164
30
0
10
3.8782013854591346
20
17.686733801356265
30
0
10
3.8572904249207189
20
17.698545913439371
30
0
10
3.8398340957022654
20
17.711011891799501
30
0
10
3.8263410340232076
20
17.722026959381147
30
0
10
3.8171682450234123
20
17.730107594850931
30
0
10
3.8125374967972858
20
17.734332226538733
30
0
0
SPLINE
5
238
100
AcDbEntity
8
0
100
AcDbSpline
70
0
71
3
72
26
73
22
74
0
42
0.000000001
43
0.0000000001
44
0.0000000001
40
-1.0047079964052954
40
-1.0047079964052954
40
-1.0047079964052954
40
-1.0047079964052954
40
-1
40
-1
40
-1
40
-0.8477831120746101
40
-0.8477831120746101
40
-0.8477831120746101
40
-0.70029000533608488
40
-0.70029000533608488
40
-0.70029000533608488
40
-0.57457438179774067
40
-0.57457438179774067
40
-0.57457438179774067
40
-0.451705513681049
40
-0.451705513681049
40
-0.451705513681049
40
-0.38362641901401562
40
-0.38362641901401562
40
-0.38362641901401562
40
-0.34552260839299836
40
-0.34552260839299836
40
-0.34552260839299836
40
-0.34552260839299836
10
3.3165132942798761
20
17.481072575083392
30
0
10
3.3160724744409795
20
17.48150548749069
30
0
10
3.3156316546020816
20
17.481938399897988
30
0
10
3.3151908347631842
20
17.48237131230529
30
0
10
3.264201091897911
20
17.532446392060141
30
0
10
3.2112642386880497
20
17.584849074235322
30
0
10
3.1526585354487149
20
17.640560276343134
30
0
10
3.0958715562824972
20
17.694542580087553
30
0
10
3.032256121879922
20
17.752941785287703
30
0
10
2.9548956327870886
20
17.807506910794825
30
0
10
2.8889574859909923
20
17.85401544891069
30
0
10
2.8126802249443292
20
17.896084911187177
30
0
10
2.737062303264501
20
17.930995088236859
30
0
10
2.6631567043847961
20
17.96511474511896
30
0
10
2.5921116877816046
20
17.993970431331874
30
0
10
2.5310880680600891
20
18.019154327779557
30
0
10
2.4972761444408329
20
18.033108203131597
30
0
10
2.4674046378696408
20
18.046047335800441
30
0
10
2.4312646438882926
20
18.056488513338188
30
0
10
2.4110371203989578
20
18.062332431408848
30
0
10
2.387844584127548
20
18.068329012928587
30
0
10
2.3576449977484808
20
18.067409474021428
30
0
0
SPLINE
5
239
100
AcDbEntity
8
0
100
AcDbSpline
70
4
71
5
72
45
73
39
74
0
42
0.000000001
43
0.0000000001
44
0.0000000001
40
0.02060925106905374
40
0.02060925106905374
40
0.02060925106905374
40
0.02060925106905374
40
0.02060925106905374
40
0.02060925106905374
40
0.025000000000000001
40
0.050000000000000003
40
0.075000000000000011
40
0.10000000000000001
40
0.125
40
0.14999999999999999
40
0.17499999999999999
40
0.19999999999999998
40
0.22499999999999998
40
0.24999999999999997
40
0.27499999999999997
40
0.29999999999999999
40
0.32500000000000001
40
0.35000000000000003
40
0.37500000000000006
40
0.40000000000000008
40
0.4250000000000001
40
0.45000000000000012
40
0.47500000000000014
40
0.50000000000000011
40
0.52500000000000013
40
0.55000000000000016
40
0.57500000000000018
40
0.6000000000000002
40
0.62500000000000022
40
0.65000000000000024
40
0.67500000000000027
40
0.70000000000000029
40
0.72500000000000031
40
0.75000000000000033
40
0.77500000000000036
40
0.80000000000000038
40
0.8250000000000004
40
0.84542768897657827
40
0.84542768897657827
40
0.84542768897657827
40
0.84542768897657827
40
0.84542768897657827
40
0.84542768897657827
41
1
41
1
41
1
41
1
41
1
41
1
41
1
41
1
41
1
41
1
41
1
41
1
41
1
41
1
41
1
41
1
41
1
41
1
41
1
41
1
41
1
41
1
41
1
41
1
41
1
41
1
41
1
41
1
41
1
41
1
41
1
41
1
41
1
41
1
41
1
41
1
41
1
41
1
41
1
10
2.3576449977484808
20
18.067409474021424
30
0
10
2.3571685154558497
20
18.068914136310021
30
0
10
2.3540499496151779
20
18.078978657097633
30
0
10
2.349156963258979
20
18.097512784663898
30
0
10
2.344384882453078
20
18.12431837893886
30
0
10
2.3426309560469436
20
18.15908401599939
30
0
10
2.3471265846329272
20
18.199958561475398
30
0
10
2.3577537421523651
20
18.240016786212166
30
0
10
2.3736726500123515
20
18.279175039481334
30
0
10
2.3938829507067938
20
18.317166441808585
30
0
10
2.417576396264455
20
18.353293673592724
30
0
10
2.4443920015524792
20
18.386265408147544
30
0
10
2.4748363989962092
20
18.413861286517893
30
0
10
2.5101342546710224
20
18.433216739410696
30
0
10
2.5515112873850563
20
18.44174195265802
30
0
10
2.5996967482782782
20
18.43778177159906
30
0
10
2.6541893865231763
20
18.421580952141785
30
0
10
2.7131538853196226
20
18.39540579640914
30
0
10
2.7740680391125827
20
18.36265140881396
30
0
10
2.8341684433113703
20
18.327221815504473
30
0
10
2.8909964762505438
20
18.2927772706437
30
0
10
2.9428550392318855
20
18.262097619366951
30
0
10
2.989420066387972
20
18.236250001035796
30
0
10
3.0319164010592266
20
18.214305559535696
30
0
10
3.0723882033109948
20
18.194199341248272
30
0
10
3.113135763779844
20
18.173375459047872
30
0
10
3.1561376805574057
20
18.149461430521448
30
0
10
3.2023584206349187
20
18.121059023550089
30
0
10
3.2515425208880897
20
18.088015242790934
30
0
10
3.3026782793694451
20
18.050974687017366
30
0
10
3.3542839949655909
20
18.011121297518947
30
0
10
3.4047764108487493
20
17.969835256309892
30
0
10
3.4527736141381484
20
17.928412901668359
30
0
10
3.4974994091899485
20
17.887697300868414
30
0
10
3.537338262435286
20
17.849451174393224
30
0
10
3.5666936017981934
20
17.819854635656434
30
0
10
3.5873865472990745
20
17.798290401721857
30
0
10
3.6004022429272688
20
17.784457614566413
30
0
10
3.6061944782384434
20
17.778249255039313
30
-1.3987061727561026e-15
0
SPLINE
5
240
100
AcDbEntity
8
0
100
AcDbSpline
70
4
71
5
72
21
73
15
74
0
42
0.000000001
43
0.0000000001
44
0.0000000001
40
-1
40
-1
40
-1
40
-1
40
-1
40
-1
40
-0.89999999999999991
40
-0.79999999999999993
40
-0.69999999999999996
40
-0.59999999999999998
40
-0.5
40
-0.40000000000000002
40
-0.30000000000000004
40
-0.20000000000000001
40
-0.10000000000000001
40
0
40
0
40
0
40
0
40
0
40
0
41
1
41
1
41
1
41
1
41
1
41
1
41
1
41
1
41
1
41
1
41
1
41
1
41
1
41
1
41
1
10
3.6061944782384727
20
17.778249255039267
30
0
10
3.6120934798501341
20
17.769523778431793
30
0
10
3.6237217244257969
20
17.752187039223042
30
0
10
3.640654848830891
20
17.726524549900134
30
0
10
3.6621968180420814
20
17.693004604418288
30
0
10
3.6872741229950714
20
17.652349462132666
30
0
10
3.7103118772893349
20
17.613066534198804
30
0
10
3.7311008770367784
20
17.575296573474485
30
0
10
3.7494633201826444
20
17.539159205592103
30
0
10
3.7653790126469833
20
17.504668017177536
30
0
10
3.778982989515181
20
17.471732156318492
30
0
10
3.7881442852973635
20
17.446541956290506
30
0
10
3.7941045241071802
20
17.428262049541505
30
0
10
3.7976797314713777
20
17.416343412223302
30
0
10
3.7993677677559474
20
17.410451082737964
30
0
0
SPLINE
5
241
100
AcDbEntity
8
0
100
AcDbSpline
70
0
71
3
72
41
73
37
74
0
42
0.000000001
43
0.0000000001
44
0.0000000001
40
-0.68492158101939626
40
-0.68492158101939626
40
-0.68492158101939626
40
-0.68492158101939626
40
-0.68117200664264299
40
-0.68117200664264299
40
-0.68117200664264299
40
-0.67000141868699681
40
-0.67000141868699681
40
-0.67000141868699681
40
-0.65753589627212095
40
-0.65753589627212095
40
-0.65753589627212095
40
-0.64416248361754702
40
-0.64416248361754702
40
-0.64416248361754702
40
-0.63096273378366496
40
-0.63096273378366496
40
-0.63096273378366496
40
-0.61759296775929295
40
-0.61759296775929295
40
-0.61759296775929295
40
-0.60022160621740495
40
-0.60022160621740495
40
-0.60022160621740495
40
-0.58463341815237546
40
-0.58463341815237546
40
-0.58463341815237546
40
-0.56991071652740566
40
-0.56991071652740566
40
-0.56991071652740566
40
-0.56033468230568118
40
-0.56033468230568118
40
-0.56033468230568118
40
-0.55627743948488284
40
-0.55627743948488284
40
-0.55627743948488284
40
-0.55493114226694529
40
-0.55493114226694529
40
-0.55493114226694529
40
-0.55493114226694529
10
3.7993677677559474
20
17.410451082737968
30
0
10
3.8016593994300365
20
17.40257732313199
30
0
10
3.8036656577339212
20
17.394916020705335
30
0
10
3.8051977531333829
20
17.38771692893425
30
0
10
3.8097621128970491
20
17.366269671259285
30
0
10
3.8095306838486489
20
17.351355592796033
30
0
10
3.8080001834945354
20
17.343544357262147
30
0
10
3.8062922620721422
20
17.334827615401988
30
0
10
3.8044386975214275
20
17.331388598656062
30
0
10
3.7972418858234951
20
17.323670514259959
30
0
10
3.7895209151789877
20
17.315390305529291
30
0
10
3.7742396502092173
20
17.304480871942179
30
0
10
3.7598613461655783
20
17.297480416995253
30
0
10
3.7456697541378956
20
17.290570867696985
30
0
10
3.7345623092119058
20
17.287479067817358
30
0
10
3.7232645554984289
20
17.286391744252729
30
0
10
3.7118212837962314
20
17.285290415679473
30
0
10
3.6971072138993408
20
17.286153933560897
30
0
10
3.6759312429555098
20
17.291433495035182
30
0
10
3.6484172650298512
20
17.29829323895181
30
0
10
3.6132673259132195
20
17.31273639998669
30
0
10
3.5843137993990823
20
17.328493205071375
30
0
10
3.5583323577394932
20
17.342632571198305
30
0
10
3.538330530759473
20
17.356606176953878
30
0
10
3.5151376827555496
20
17.373980661907034
30
0
10
3.4932325466633651
20
17.390390481751755
30
0
10
3.4662274475739685
20
17.411224187694099
30
0
10
3.4354297063745314
20
17.430751759161343
30
0
10
3.4153980415897576
20
17.44345300770939
30
0
10
3.3954675230627189
20
17.455028634796982
30
0
10
3.3731714472390149
20
17.464939159125482
30
0
10
3.3637248860140692
20
17.469138121112369
30
0
10
3.3546749126363631
20
17.473260698525301
30
0
10
3.3377694605596204
20
17.47729158051909
30
0
10
3.3321597980118853
20
17.478629130538589
30
0
10
3.3258369198714699
20
17.480349311449007
30
0
10
3.316513294279877
20
17.481072575083395
30
0
0
LINE
5
242
100
AcDbEntity
8
0
100
AcDbLine
10
3.9719017480756191
20
13.124999999999998
30
1.3987061727561026e-15
11
3.6210775935596176
21
13.125000000000002
31
1.376851388806788e-15
0
ARC
5
243
100
AcDbEntity
8
0
100
AcDbCircle
10
-43.896087588435826
20
4.1474701099994489
30
2.7974123455122052e-15
40
48.357802161170369
210
2.5987471112885948e-17
220
2.0686090878843001e-17
230
1
100
AcDbArc
50
10.698915310803706
51
13.010326209647518
0
SPLINE
5
244
100
AcDbEntity
8
0
100
AcDbSpline
70
4
71
5
72
179
73
173
74
0
42
0.000000001
43
0.0000000001
44
0.0000000001
40
0.015059648875438132
40
0.015059648875438132
40
0.015059648875438132
40
0.015059648875438132
40
0.015059648875438132
40
0.015059648875438132
40
0.017647058823529412
40
0.023529411764705882
40
0.029411764705882353
40
0.035294117647058823
40
0.041176470588235294
40
0.047058823529411764
40
0.052941176470588235
40
0.058823529411764705
40
0.064705882352941169
40
0.070588235294117646
40
0.076470588235294124
40
0.082352941176470601
40
0.088235294117647078
40
0.094117647058823556
40
0.10000000000000003
40
0.10588235294117651
40
0.11176470588235299
40
0.11764705882352947
40
0.12352941176470594
40
0.12941176470588242
40
0.1352941176470589
40
0.14117647058823538
40
0.14705882352941185
40
0.15294117647058833
40
0.15882352941176481
40
0.16470588235294129
40
0.17058823529411776
40
0.17647058823529424
40
0.18235294117647072
40
0.18823529411764719
40
0.19411764705882367
40
0.20000000000000015
40
0.20588235294117663
40
0.2117647058823531
40
0.21764705882352958
40
0.22352941176470606
40
0.22941176470588254
40
0.23529411764705901
40
0.24117647058823549
40
0.24705882352941197
40
0.25294117647058845
40
0.2588235294117649
40
0.26470588235294135
40
0.2705882352941178
40
0.27647058823529425
40
0.2823529411764707
40
0.28823529411764715
40
0.29411764705882359
40
0.30000000000000004
40
0.30588235294117649
40
0.31176470588235294
40
0.31764705882352939
40
0.32352941176470584
40
0.32941176470588229
40
0.33529411764705874
40
0.34117647058823519
40
0.34705882352941164
40
0.35294117647058809
40
0.35882352941176454
40
0.36470588235294099
40
0.37058823529411744
40
0.37647058823529389
40
0.38235294117647034
40
0.38823529411764679
40
0.39411764705882324
40
0.39999999999999969
40
0.40588235294117614
40
0.41176470588235259
40
0.41764705882352904
40
0.42352941176470549
40
0.42941176470588194
40
0.43529411764705839
40
0.44117647058823484
40
0.44705882352941129
40
0.45294117647058774
40
0.45882352941176419
40
0.46470588235294064
40
0.47058823529411709
40
0.47647058823529354
40
0.48235294117646998
40
0.48823529411764643
40
0.49411764705882288
40
0.49999999999999933
40
0.50588235294117578
40
0.51176470588235223
40
0.51764705882352868
40
0.52352941176470513
40
0.52941176470588158
40
0.53529411764705803
40
0.54117647058823448
40
0.54705882352941093
40
0.55294117647058738
40
0.55882352941176383
40
0.56470588235294028
40
0.57058823529411673
40
0.57647058823529318
40
0.58235294117646963
40
0.58823529411764608
40
0.59411764705882253
40
0.59999999999999898
40
0.60588235294117543
40
0.61176470588235188
40
0.61764705882352833
40
0.62352941176470478
40
0.62941176470588123
40
0.63529411764705768
40
0.64117647058823413
40
0.64705882352941058
40
0.65294117647058703
40
0.65882352941176348
40
0.66470588235293993
40
0.67058823529411637
40
0.67647058823529282
40
0.68235294117646927
40
0.68823529411764572
40
0.69411764705882217
40
0.69999999999999862
40
0.70588235294117507
40
0.71176470588235152
40
0.71764705882352797
40
0.72352941176470442
40
0.72941176470588087
40
0.73529411764705732
40
0.74117647058823377
40
0.74705882352941022
40
0.75294117647058667
40
0.75882352941176312
40
0.76470588235293957
40
0.77058823529411602
40
0.77647058823529247
40
0.78235294117646892
40
0.78823529411764537
40
0.79411764705882182
40
0.79999999999999827
40
0.80588235294117472
40
0.81176470588235117
40
0.81764705882352762
40
0.82352941176470407
40
0.82941176470588052
40
0.83529411764705697
40
0.84117647058823342
40
0.84705882352940987
40
0.85294117647058632
40
0.85882352941176276
40
0.86470588235293921
40
0.87058823529411566
40
0.87647058823529211
40
0.88235294117646856
40
0.88823529411764501
40
0.89411764705882146
40
0.89999999999999791
40
0.90588235294117436
40
0.91176470588235081
40
0.91764705882352726
40
0.92352941176470371
40
0.92941176470588016
40
0.93529411764705661
40
0.94117647058823306
40
0.94705882352940951
40
0.95294117647058596
40
0.95882352941176241
40
0.96470588235293886
40
0.97058823529411531
40
0.97647058823529176
40
0.98235294117646821
40
0.98823529411764466
40
0.99411764705882111
40
1
40
1
40
1
40
1
40
1
40
1
41
1
41
1
41
1
41
1
41
1
41
1
41
1
41
1
41
1
41
1
41
1
41
1
41
1
41
1
41
1
41
1
41
1
41
1
41
1
41
1
41
1
41
1
41
1
41
1
41
1
41
1
41
1
41
1
41
1
41
1
41
1
41
1
41
1
41
1
41
1
41
1
41
1
41
1
41
1
41
1
41
1
41
1
41
1
41
1
41
1
41
1
41
1
41
1
41
1
41
1
41
1
41
1
41
1
41
1
41
1
41
1
41
1
41
1
41
1
41
1
41
1
41
1
41
1
41
1
41
1
41
1
41
1
41
1
41
1
41
1
41
1
41
1
41
1
41
1
41
1
41
1
41
1
41
1
41
1
41
1
41
1
41
1
41
1
41
1
41
1
41
1
41
1
41
1
41
1
41
1
41
1
41
1
41
1
41
1
41
1
41
1
41
1
41
1
41
1
41
1
41
1
41
1
41
1
41
1
41
1
41
1
41
1
41
1
41
1
41
1
41
1
41
1
41
1
41
1
41
1
41
1
41
1
41
1
41
1
41
1
41
1
41
1
41
1
41
1
41
1
41
1
41
1
41
1
41
1
41
1
41
1
41
1
41
1
41
1
41
1
41
1
41
1
41
1
41
1
41
1
41
1
41
1
41
1
41
1
41
1
41
1
41
1
41
1
41
1
41
1
41
1
41
1
41
1
41
1
41
1
41
1
41
1
41
1
41
1
41
1
41
1
41
1
41
1
41
1
41
1
41
1
41
1
41
1
41
1
41
1
41
1
41
1
41
1
10
3.2203459436928514
20
15.034100491866742
30
0
10
3.2207436380818009
20
15.042740455077269
30
0
10
3.221988139783476
20
15.070883848574123
30
-1.3987061727561026e-15
10
3.223779056093262
20
15.117802248359016
30
-1.3987061727561026e-15
10
3.2255455089796143
20
15.18211555524192
30
0
10
3.2264502272732822
20
15.261818738455672
30
0
10
3.2256818947603145
20
15.347335943456407
30
0
10
3.2231473978357439
20
15.428745609602473
30
-1.3987061727561026e-15
10
3.2188765856075889
20
15.506236301866327
30
0
10
3.2129095418395961
20
15.580060065841433
30
0
10
3.205298358416635
20
15.650542584011829
30
0
10
3.1961080700303253
20
15.718090297524068
30
0
10
3.1854197290909276
20
15.783205290693076
30
0
10
3.1733206717235287
20
15.846453655257896
30
0
10
3.1598909999310263
20
15.908419952508709
30
-1.3987061727561026e-15
10
3.1451911866399751
20
15.969666105645706
30
0
10
3.1292495226539638
20
16.030688937554068
30
0
10
3.1120488968310274
20
16.091877120479072
30
-1.3987061727561026e-15
10
3.0935155492035853
20
16.153471050996135
30
0
10
3.0735028899281267
20
16.215514961745903
30
0
10
3.0517900314425845
20
16.277832331503724
30
0
10
3.0281346358074965
20
16.340086826159546
30
0
10
3.0023167872120826
20
16.401829634303731
30
0
10
2.9741872502643951
20
16.462552316450655
30
0
10
2.943711898523337
20
16.521736805874738
30
0
10
2.9110223937572139
20
16.57890774138319
30
0
10
2.876453509168905
20
16.633681202174706
30
0
10
2.8406127516786737
20
16.685821458614058
30
0
10
2.8043296044531361
20
16.735268194465668
30
0
10
2.7684928797137447
20
16.782135343964242
30
-1.3987061727561026e-15
10
2.7339168020238125
20
16.826718773057383
30
0
10
2.7011998667550992
20
16.869498222192785
30
0
10
2.6705762933518673
20
16.911146728742548
30
0
10
2.6417951162811555
20
16.952525204108248
30
0
10
2.6139241266257498
20
16.994713489611954
30
0
10
2.5855806918216033
20
17.038838244563443
30
0
10
2.5553073718922787
20
17.085832648865747
30
0
10
2.5219020063088124
20
17.136216589340467
30
0
10
2.4847617282362524
20
17.189872608276708
30
0
10
2.4442329773318794
20
17.245813356868439
30
-1.3987061727561026e-15
10
2.4019311982943328
20
17.301976483369284
30
0
10
2.3611484517580665
20
17.354943578543399
30
0
10
2.3260458496470258
20
17.400690727023751
30
0
10
2.3007718941393764
20
17.435396987304934
30
0
10
2.2885497940866197
20
17.456290255807833
30
0
10
2.2909083934351968
20
17.462345752300433
30
0
10
2.3065298354619794
20
17.45537253010048
30
0
10
2.3314906907660236
20
17.43968333385358
30
-1.3987061727561026e-15
10
2.3617127295666278
20
17.419448737210256
30
0
10
2.3941074192225629
20
17.397533429096576
30
0
10
2.4264769531799009
20
17.375857738493185
30
0
10
2.4576518940395253
20
17.355459288496728
30
0
10
2.487539715422542
20
17.336671878683124
30
0
10
2.5172034269448358
20
17.319255309433405
30
0
10
2.5483161211011951
20
17.302585957961536
30
0
10
2.582603046686788
20
17.28584309698995
30
0
10
2.6213372001589628
20
17.268186521863544
30
0
10
2.6646897793671513
20
17.248964542574704
30
-1.3987061727561026e-15
10
2.7118208781653799
20
17.227761526826981
30
0
10
2.7612932042599216
20
17.204376458667589
30
0
10
2.8113751670551812
20
17.178822635081303
30
0
10
2.8604050625627417
20
17.151320982819065
30
0
10
2.9070938352673243
20
17.122290653555453
30
-1.3987061727561026e-15
10
2.9509425347304377
20
17.092354661174255
30
0
10
2.9922110083469571
20
17.062276057301688
30
0
10
3.0315810317688516
20
17.032843774390457
30
0
10
3.0699164386139501
20
17.004776996996455
30
-1.3987061727561026e-15
10
3.1079692998314301
20
16.978614128280167
30
0
10
3.1461418243551522
20
16.954626363761154
30
0
10
3.1841402941875181
20
16.932674185509928
30
0
10
3.2212118889922898
20
16.912384977534344
30
0
10
3.2565585007162055
20
16.893428568860028
30
0
10
3.2897083371261822
20
16.875770123970902
30
0
10
3.320868103795759
20
16.859910355898894
30
0
10
3.3513822366325954
20
16.847190174742892
30
-1.3987061727561026e-15
10
3.3829915521491958
20
16.839382980177852
30
0
10
3.4169057824322815
20
16.838180391413101
30
0
10
3.452977879445621
20
16.844729932047112
30
0
10
3.4887398501605986
20
16.859113643995467
30
-1.3987061727561026e-15
10
3.5204906920061663
20
16.880566267763058
30
0
10
3.5445909299210432
20
16.907743906189829
30
0
10
3.5585588681659117
20
16.938973435840587
30
0
10
3.5625613205199618
20
16.97251221120521
30
0
10
3.5587125596477813
20
17.006801220548414
30
-1.3987061727561026e-15
10
3.5496037496978929
20
17.040741497459493
30
0
10
3.5371973827999854
20
17.073922307983384
30
-1.3987061727561026e-15
10
3.5212946197396415
20
17.106970525563504
30
-1.3987061727561026e-15
10
3.5003329968660051
20
17.141064157698732
30
0
10
3.4726561301014049
20
17.177273567314192
30
0
10
3.4376859296626843
20
17.215926787952835
30
-1.3987061727561026e-15
10
3.3969941377420336
20
17.256043565473249
30
0
10
3.3557866125864515
20
17.294533945076846
30
0
10
3.3213356419010598
20
17.327097582347914
30
0
10
3.3005696644485036
20
17.349587778473452
30
0
10
3.2981023564182808
20
17.359138200467026
30
0
10
3.3137303203758921
20
17.355569363130687
30
0
10
3.3411513923253264
20
17.342158418618581
30
0
10
3.3723246905196174
20
17.323425076979039
30
0
10
3.4019141606577032
20
17.302912037310179
30
-1.3987061727561026e-15
10
3.4294584273987074
20
17.282035800866002
30
0
10
3.4568738918065436
20
17.261164461828812
30
0
10
3.4870807523385174
20
17.240161753241022
30
0
10
3.5220584463696345
20
17.219195517235388
30
0
10
3.5614914076859963
20
17.199288498605711
30
0
10
3.6037209222086894
20
17.181911637827621
30
0
10
3.6464684668979186
20
17.168670354342289
30
0
10
3.6876158136826449
20
17.160968660643309
30
0
10
3.7260305077408447
20
17.159652408352802
30
0
10
3.7621708427799323
20
17.164748727422783
30
0
10
3.7971076525336112
20
17.175882351419357
30
-1.3987061727561026e-15
10
3.8316553750502669
20
17.192651374420198
30
0
10
3.8655745093149765
20
17.214957523274329
30
-1.3987061727561026e-15
10
3.8964568660140801
20
17.243509955986024
30
0
10
3.9206066357448153
20
17.279259729162831
30
0
10
3.9345261507469567
20
17.322520411468616
30
0
10
3.9362546293027223
20
17.372147683809327
30
-1.3987061727561026e-15
10
3.9266448186677003
20
17.424797074676821
30
0
10
3.9109971610521903
20
17.473871384704847
30
0
10
3.8970044044243992
20
17.511635287796565
30
0
10
3.8918458908133071
20
17.532122186232936
30
0
10
3.9000058004715283
20
17.533276996920801
30
0
10
3.9197578913858151
20
17.520596879572
30
0
10
3.9448034473709801
20
17.504893890671362
30
0
10
3.9697655677632961
20
17.495651864701195
30
0
10
3.9941688584379462
20
17.496102515906479
30
0
10
4.0197072793754369
20
17.505783717181192
30
0
10
4.0476258431743499
20
17.522965643925396
30
0
10
4.0762034412666193
20
17.546990630861885
30
0
10
4.102301905234814
20
17.577116295761439
30
0
10
4.1228599753551132
20
17.611354258527768
30
0
10
4.136244320271846
20
17.645557602882743
30
0
10
4.1440765802888491
20
17.671774777767723
30
0
10
4.1499492738908987
20
17.681325686128474
30
0
10
4.1572368954121863
20
17.669267793630826
30
0
10
4.1672538001965131
20
17.638285021559319
30
0
10
4.1798669907196384
20
17.595464853059212
30
0
10
4.1941009233817059
20
17.549221093003045
30
0
10
4.2087695283469184
20
17.505984096270353
30
0
10
4.2230181761989387
20
17.467510942620258
30
0
10
4.2362018510699055
20
17.432550104341871
30
0
10
4.2478279786483899
20
17.398109521197863
30
0
10
4.2574797026517581
20
17.360791596722724
30
0
10
4.2647349638522236
20
17.318301766470928
30
0
10
4.2691307531353031
20
17.270183533866177
30
0
10
4.2702147238672321
20
17.217168279574917
30
0
10
4.2675759471974981
20
17.160848295369252
30
0
10
4.2608852975164773
20
17.103209074589113
30
0
10
4.2499289506311788
20
17.046246866116491
30
0
10
4.23465165219379
20
16.991488849213212
30
0
10
4.2151722079940059
20
16.939766578861438
30
0
10
4.1917543076730635
20
16.891387772751081
30
0
10
4.1647876041243315
20
16.846217137051735
30
0
10
4.1347646749959912
20
16.803793963692609
30
0
10
4.1022598311306622
20
16.763433168272172
30
0
10
4.0679070114089164
20
16.724335181152661
30
-1.3987061727561026e-15
10
4.0323785009745094
20
16.685686748516172
30
0
10
3.9963674524924198
20
16.646713621762483
30
0
10
3.9605700421673653
20
16.606737815593259
30
0
10
3.9256678787387602
20
16.565232307273288
30
0
10
3.8923100437082683
20
16.521878794368828
30
0
10
3.8610958923257259
20
16.476619625893054
30
0
10
3.8325559006449814
20
16.429724417290061
30
0
10
3.8071508649920323
20
16.381717540989726
30
0
10
3.7852737169341113
20
16.333284589116602
30
0
10
3.7672505190210828
20
16.285187556447532
30
0
10
3.7533415231531282
20
16.238173523656179
30
0
10
3.7437428057465536
20
16.192892804958092
30
0
10
3.7385860397715569
20
16.149795824333655
30
0
10
3.737949161809043
20
16.109147767717353
30
0
10
3.7410864097080587
20
16.078695664536422
30
0
10
3.74549616500172
20
16.057038572089855
30
0
10
3.7493500956634009
20
16.043125843132671
30
0
10
3.7515055842513281
20
16.036300809767948
30
0
0
ARC
5
245
100
AcDbEntity
8
0
100
AcDbCircle
10
3.9921239520657044
20
15.967570832570638
30
0
40
0.25024190035882621
210
-9.1745915220175487e-17
220
-2.0872821478690614e-17
230
1
100
AcDbArc
50
119.02668755954402
51
164.05859499154226
0
SPLINE
5
246
100
AcDbEntity
8
0
100
AcDbSpline
70
0
71
3
72
29
73
25
74
0
42
0.000000001
43
0.0000000001
44
0.0000000001
40
0.79196118524832682
40
0.79196118524832682
40
0.79196118524832682
40
0.79196118524832682
40
0.80439332023279886
40
0.80439332023279886
40
0.80439332023279886
40
0.82238277988546338
40
0.82238277988546338
40
0.82238277988546338
40
0.84731443424903186
40
0.84731443424903186
40
0.84731443424903186
40
0.87292819861160709
40
0.87292819861160709
40
0.87292819861160709
40
0.89589827830482027
40
0.89589827830482027
40
0.89589827830482027
40
0.92544715086813745
40
0.92544715086813745
40
0.92544715086813745
40
0.95212128918972483
40
0.95212128918972483
40
0.95212128918972483
40
0.97412584047890394
40
0.97412584047890394
40
0.97412584047890394
40
0.97412584047890394
10
4.295207796946765
20
17.646527343150499
30
0
10
4.3042108281912768
20
17.617017976305085
30
0
10
4.313723265990058
20
17.585763724689755
30
0
10
4.3231643826750075
20
17.558425997858691
30
0
10
4.3368258002748128
20
17.518867954575118
30
0
10
4.3510489365795655
20
17.485475560309766
30
0
10
4.3646906207907685
20
17.441191818247496
30
0
10
4.3835966781297593
20
17.379818826932642
30
0
10
4.3958067263066969
20
17.30082483401042
30
0
10
4.3942264206687218
20
17.211755838864956
30
0
10
4.3926028791402834
20
17.120249987692837
30
0
10
4.3768902608643039
20
17.018981831129622
30
0
10
4.3437644111204889
20
16.928393340750116
30
0
10
4.3140575942016666
20
16.847154799868346
30
0
10
4.2702868388458448
20
16.775300253801429
30
0
10
4.2230836691492506
20
16.714888385468537
30
0
10
4.162361178649518
20
16.637174131860267
30
0
10
4.0985456327703211
20
16.57573650718972
30
0
10
4.0447203785313581
20
16.512190444747986
30
0
10
3.9961316456215541
20
16.454826616204915
30
0
10
3.9543010508892156
20
16.394568963326197
30
-1.3987061727561026e-15
10
3.9231138398058589
20
16.33232469184744
30
0
10
3.8973862763668259
20
16.280976931417495
30
0
10
3.8795961228630875
20
16.229552618753598
30
-1.3987061727561026e-15
10
3.8707023396442075
20
16.186380797453776
30
-1.3987061727561026e-15
0
SPLINE
5
247
100
AcDbEntity
8
0
100
AcDbSpline
70
4
71
5
72
21
73
15
74
0
42
0.000000001
43
0.0000000001
44
0.0000000001
40
0
40
0
40
0
40
0
40
0
40
0
40
0.10000000000000001
40
0.20000000000000001
40
0.30000000000000004
40
0.40000000000000002
40
0.5
40
0.59999999999999998
40
0.69999999999999996
40
0.79999999999999993
40
0.89999999999999991
40
1
40
1
40
1
40
1
40
1
40
1
41
1
41
1
41
1
41
1
41
1
41
1
41
1
41
1
41
1
41
1
41
1
41
1
41
1
41
1
41
1
10
4.5084827366138684
20
18.280496488700585
30
0
10
4.4996677613899347
20
18.271964135468583
30
0
10
4.4824484830949967
20
18.254525084916903
30
0
10
4.4578516137264481
20
18.227243448008046
30
0
10
4.4275601488052772
20
18.188585107031422
30
0
10
4.3941407384194919
20
18.136210457804232
30
0
10
4.3655157823576642
20
18.079465471753053
30
0
10
4.3420016237460333
20
18.018061789466351
30
0
10
4.3236334017624696
20
17.951967380176171
30
0
10
4.3100773210804908
20
17.881486511668196
30
0
10
4.3009105991031769
20
17.807004567183824
30
0
10
4.2967727895217482
20
17.744506123582038
30
0
10
4.2953481840770715
20
17.696102041539401
30
0
10
4.2951322793160918
20
17.663163736114587
30
0
10
4.295207796946765
20
17.646527343150499
30
0
0
ARC
5
248
100
AcDbEntity
8
0
100
AcDbCircle
10
4.6036999844042352
20
18.167769564887358
30
0
40
0.14755908521390573
210
5.558157162042371e-17
220
-3.5266680184413133e-17
230
1
100
AcDbArc
50
49.813164547695372
51
130.18683545230465
0
SPLINE
5
249
100
AcDbEntity
8
0
100
AcDbSpline
70
4
71
5
72
91
73
85
74
0
42
0.000000001
43
0.0000000001
44
0.0000000001
40
0.10280393560211651
40
0.10280393560211651
40
0.10280393560211651
40
0.10280393560211651
40
0.10280393560211651
40
0.10280393560211651
40
0.11111111111111112
40
0.12222222222222223
40
0.13333333333333333
40
0.14444444444444443
40
0.15555555555555553
40
0.16666666666666663
40
0.17777777777777773
40
0.18888888888888883
40
0.19999999999999993
40
0.21111111111111103
40
0.22222222222222213
40
0.23333333333333323
40
0.24444444444444433
40
0.25555555555555542
40
0.26666666666666655
40
0.27777777777777768
40
0.28888888888888881
40
0.29999999999999993
40
0.31111111111111106
40
0.32222222222222219
40
0.33333333333333331
40
0.34444444444444444
40
0.35555555555555557
40
0.3666666666666667
40
0.37777777777777782
40
0.38888888888888895
40
0.40000000000000008
40
0.4111111111111112
40
0.42222222222222233
40
0.43333333333333346
40
0.44444444444444459
40
0.45555555555555571
40
0.46666666666666684
40
0.47777777777777797
40
0.48888888888888909
40
0.50000000000000022
40
0.51111111111111129
40
0.52222222222222237
40
0.53333333333333344
40
0.54444444444444451
40
0.55555555555555558
40
0.56666666666666665
40
0.57777777777777772
40
0.5888888888888888
40
0.59999999999999987
40
0.61111111111111094
40
0.62222222222222201
40
0.63333333333333308
40
0.64444444444444415
40
0.65555555555555522
40
0.6666666666666663
40
0.67777777777777737
40
0.68888888888888844
40
0.69999999999999951
40
0.71111111111111058
40
0.72222222222222165
40
0.73333333333333273
40
0.7444444444444438
40
0.75555555555555487
40
0.76666666666666594
40
0.77777777777777701
40
0.78888888888888808
40
0.79999999999999916
40
0.81111111111111023
40
0.8222222222222213
40
0.83333333333333237
40
0.84444444444444344
40
0.85555555555555451
40
0.86666666666666559
40
0.87777777777777666
40
0.88888888888888773
40
0.8999999999999988
40
0.91111111111110987
40
0.92222222222222094
40
0.93333333333333202
40
0.94444444444444309
40
0.95555555555555416
40
0.96666666666666523
40
0.9777777777777763
40
0.9815751566580484
40
0.9815751566580484
40
0.9815751566580484
40
0.9815751566580484
40
0.9815751566580484
40
0.9815751566580484
41
1
41
1
41
1
41
1
41
1
41
1
41
1
41
1
41
1
41
1
41
1
41
1
41
1
41
1
41
1
41
1
41
1
41
1
41
1
41
1
41
1
41
1
41
1
41
1
41
1
41
1
41
1
41
1
41
1
41
1
41
1
41
1
41
1
41
1
41
1
41
1
41
1
41
1
41
1
41
1
41
1
41
1
41
1
41
1
41
1
41
1
41
1
41
1
41
1
41
1
41
1
41
1
41
1
41
1
41
1
41
1
41
1
41
1
41
1
41
1
41
1
41
1
41
1
41
1
41
1
41
1
41
1
41
1
41
1
41
1
41
1
41
1
41
1
41
1
41
1
41
1
41
1
41
1
41
1
41
1
41
1
41
1
41
1
41
1
41
1
10
4.698917232193514
20
18.280496488700539
30
0
10
4.699398374889908
20
18.272995632995563
30
0
10
4.7002950047410437
20
18.255257239914389
30
0
10
4.7009490649038286
20
18.22668836715642
30
0
10
4.7005297888554214
20
18.186514199785179
30
0
10
4.6982491239175186
20
18.133828784669184
30
0
10
4.6943799557085457
20
18.076514505660562
30
0
10
4.6898834389012078
20
18.017865955322197
30
0
10
4.6862837013816607
20
17.959057496692484
30
0
10
4.685283184616825
20
17.901459254743489
30
0
10
4.6882811482184454
20
17.846180660198488
30
0
10
4.6959314409164641
20
17.793650587583837
30
0
10
4.7075699379204652
20
17.743071157425963
30
0
10
4.7210503495006577
20
17.692269500512573
30
0
10
4.7337444401322619
20
17.63868494129871
30
0
10
4.7433949152922512
20
17.580212823888317
30
0
10
4.748903247546024
20
17.515984271384088
30
0
10
4.7514467542951158
20
17.44746880338068
30
0
10
4.7542350513779423
20
17.378243444215762
30
0
10
4.7610409171107824
20
17.312559575945578
30
0
10
4.7750369705394231
20
17.25421166570187
30
0
10
4.7975871370646503
20
17.205357072647786
30
0
10
4.826865499225482
20
17.165177865443759
30
0
10
4.8571258332901621
20
17.129148247017316
30
0
10
4.8814717397483509
20
17.091572733638714
30
0
10
4.8940417296079932
20
17.047573848136558
30
0
10
4.8926748461915546
20
16.995537785244089
30
-1.3987061727561026e-15
10
4.8806392668601868
20
16.938659629780457
30
0
10
4.863981502406225
20
16.882307437476612
30
0
10
4.8492831074838767
20
16.831748930803471
30
0
10
4.8415276130471492
20
16.790047436890148
30
0
10
4.8412598664715558
20
16.755120496642025
30
0
10
4.8453472397735586
20
16.720962388950312
30
0
10
4.8494226766278334
20
16.680763699243759
30
0
10
4.8501205684374913
20
16.629876584750519
30
0
10
4.8463391136078933
20
16.567391087533238
30
0
10
4.8383292390104673
20
16.49475250351141
30
0
10
4.8273092192662848
20
16.415090980382708
30
0
10
4.8148477574683142
20
16.332236671675055
30
-1.3987061727561026e-15
10
4.8023923266086266
20
16.249935417030635
30
0
10
4.790621192104096
20
16.1708161750214
30
0
10
4.7793564030051634
20
16.09615549000959
30
0
10
4.7679065079714951
20
16.02625119032772
30
0
10
4.7552822680138895
20
15.960619799790164
30
0
10
4.740473622600696
20
15.898270181412615
30
0
10
4.7226785234719371
20
15.837933407127645
30
0
10
4.7016063776101964
20
15.778337268704652
30
0
10
4.6775397767549158
20
15.718359783130955
30
0
10
4.6511487083738032
20
15.657065829250319
30
0
10
4.6233719123213026
20
15.593773028045721
30
0
10
4.5952692728519811
20
15.528109755107353
30
-1.3987061727561026e-15
10
4.5678910453040356
20
15.460067825324257
30
0
10
4.5421286175204605
20
15.390081357621394
30
0
10
4.5186729394345573
20
15.318881339937478
30
0
10
4.4979913681694255
20
15.247303889188968
30
-1.3987061727561026e-15
10
4.4802997047473205
20
15.17611935153178
30
-1.3987061727561026e-15
10
4.4655322653955185
20
15.105842298448922
30
0
10
4.4533213364408644
20
15.036573650137644
30
0
10
4.4429501515650296
20
14.96776781970855
30
0
10
4.4334259456422735
20
14.898330391564471
30
0
10
4.4236213450459294
20
14.82690222121956
30
0
10
4.4123929146842409
20
14.752082316332967
30
0
10
4.3987127652915037
20
14.672683871576904
30
-1.3987061727561026e-15
10
4.3817862053588801
20
14.587957974217275
30
-1.3987061727561026e-15
10
4.361195952209604
20
14.497875675138364
30
0
10
4.3369678926451858
20
14.403239742267299
30
0
10
4.3094657033738129
20
14.305425880581257
30
0
10
4.2793206475885937
20
14.206200009101511
30
0
10
4.2473475214135741
20
14.107505318680415
30
0
10
4.2144668903415052
20
14.011263114635188
30
-1.3987061727561026e-15
10
4.1816243023460116
20
13.919166218797416
30
-1.3987061727561026e-15
10
4.1497118588178949
20
13.832479017502948
30
0
10
4.1194863436106095
20
13.751825786473752
30
0
10
4.0914955912409088
20
13.677007892460493
30
0
10
4.0661162428391728
20
13.607215140656754
30
-1.3987061727561026e-15
10
4.0435847698984073
20
13.541213745657698
30
0
10
4.0240307067469425
20
13.477541020174707
30
-1.3987061727561026e-15
10
4.0075093100927264
20
13.414700860075795
30
0
10
3.9940332741820885
20
13.351349626191279
30
1.3987061727561026e-15
10
3.9836077324985082
20
13.28651047564068
30
1.3987061727561026e-15
10
3.9772058130649541
20
13.2283561276165
30
1.3987061727561026e-15
10
3.9739830029037964
20
13.182189576823228
30
1.3987061727561026e-15
10
3.9725613668389652
20
13.149106486691718
30
1.3987061727561026e-15
10
3.9720214534017533
20
13.129906413385838
30
1.3987061727561026e-15
10
3.9719017480756191
20
13.124999999999998
30
1.3987061727561026e-15
0
LWPOLYLINE
5
250
100
AcDbEntity
8
0
100
AcDbPolyline
90
4
70
1
43
0.0
10
2.5022862454037003
20
19.274999999999995
10
2.1924931466496287
20
19.274999999999991
42
0.0022022025820458693
10
2.2826877095977558
20
19.669851001610919
42
-0.047643804484680738
10
2.5022862454037003
20
20.342897712972064
0
LWPOLYLINE
5
251
100
AcDbEntity
8
0
100
AcDbPolyline
90
8
70
1
43
0.0
10
6.7609118934875543
20
20.873405887970769
42
0.38090290583656988
10
7.4978243503592514
20
21.402827333435528
42
0.34142154518835105
10
7.91253282869281
20
21.102462478198643
42
0.17512905695398859
10
8.5071819132480293
20
21.338547040126535
42
0.03037230679911512
10
8.7184154686571969
20
21.549780595535701
42
-0.20978230701135259
10
8.6160065161281914
20
21.176478738120014
42
0.030234278415082798
10
8.3034762041515453
20
20.739503432878006
42
-0.012001591354826927
10
6.7691125780895254
20
20.845443500560432
42
0.0034129661526713789
0
LWPOLYLINE
5
252
100
AcDbEntity
8
0
100
AcDbPolyline
90
3
70
1
43
0.0
10
6.0545717606000951
20
22.593337891378692
42
0.080224936141121833
10
5.8137189732029162
20
22.089852950938873
42
-0.04787880949536117
10
6.141979460163693
20
21.847785858279181
42
-0.14627450861323374
0
LWPOLYLINE
5
253
100
AcDbEntity
8
0
100
AcDbPolyline
90
60
70
1
43
0.0
10
5.9046587292023354
20
26.236536868030313
42
0.0074194729772523189
10
5.8632624315659845
20
25.924704143823991
42
-0.13839791485037797
10
7.3092049560414694
20
25.872213598529612
42
-0.11314636445318794
10
7.5210246931676465
20
24.783558670509031
42
0.030531872017478267
10
7.3123337024749313
20
25.512843436844634
42
0.42021165855290354
10
6.0507878386071638
20
25.450245283482388
42
0.25512687369465398
10
6.991292594253423
20
25.430853432850505
42
-0.49328381540962013
10
5.9780683987376033
20
25.450245283482392
42
-0.27749453369294824
10
6.9498148168758656
20
25.822822382471301
42
-0.030685387316291245
10
7.0701936550020328
20
25.793797607527885
42
0.01203369869038933
10
6.9498148168758656
20
25.822822382471305
42
0.10796666199497451
10
5.8514680708142341
20
25.819999344573624
42
0.029821910823666472
10
5.7913882793001168
20
24.558102873415088
42
-0.19403620272609429
10
6.0545717606000951
20
24.209201453744729
42
0.40641407693269244
10
5.9816680037517393
20
24.252486763475375
42
-0.066023796528879755
10
5.9507146406441569
20
23.732618958579739
42
0.53825409849553818
10
5.9883329160780887
20
23.695807245745399
42
0.23976041172609283
10
6.1071113528880137
20
24.009910223087203
42
-0.16264084871532589
10
6.187616737836966
20
23.574389288117469
42
0.59566829344780869
10
6.2642339049873419
20
23.554200590553418
42
-0.25959783265591552
10
7.1915495300895067
20
23.850048931235392
42
0.14043271019340514
10
6.6992655659010953
20
23.285793627253351
42
0.15312243630151273
10
6.6589616156166631
20
23.07563731505596
42
0.2823221570133212
10
6.8069546087993169
20
22.948547640965415
42
0.42654921149697983
10
6.9745658289019614
20
23.105077127507553
42
-0.098540225945167148
10
7.3084030524121886
20
22.701979069244171
42
0.12575807896596261
10
7.4874963729368229
20
23.158052313899248
42
-0.19341381282520057
10
7.7383983034830841
20
23.158052313899248
42
0.051669093110015163
10
7.847122473386464
20
22.684126445089642
42
-0.19812075871978457
10
8.3057154464404626
20
23.050722043610012
42
0.71849810342997433
10
8.4018945198165298
20
22.876484591841773
42
0.073469472340361261
10
8.7071585353144805
20
22.979792516428962
42
0.70986650090283299
10
8.6918256374636336
20
23.091145132288887
42
0.36800167864674038
10
8.6402513538354757
20
23.041349756316631
42
0.27726563714933805
10
8.3343149295519723
20
23.685774001684557
42
0.074151931450981853
10
8.1172981225609639
20
23.622657801171684
42
-0.013466494073503964
10
8.2150285502888938
20
23.595548802548819
42
-0.1826616392336145
10
7.1850960884623838
20
23.616634034050779
42
-0.1072406331277897
10
7.9829871414551397
20
23.65089265624675
42
0.048611339636111105
10
8.2332574319731311
20
23.741408455603704
42
0.05562805125212944
10
8.0868732070195577
20
23.788094939493188
42
-0.36719285566194587
10
8.9971593500375313
20
23.521316972914427
42
0.72609850368955442
10
9.1911204813459335
20
23.599026395830446
42
0.15478028534478108
10
9.0357942269397
20
23.995437755077912
42
-0.31369993743717617
10
9.3064743226461335
20
23.875516193688977
42
-0.29769549444005783
10
9.3236448494169935
20
24.397375559681731
42
0.23366145607704211
10
9.4382172210272159
20
25.142901720041579
42
-0.10698878347770341
10
9.3901098349578778
20
25.656291259072727
42
0.28720154029385464
10
8.1558567144812582
20
25.837700858316165
42
-0.056107927802115404
10
8.5853420923857904
20
25.837700858316165
42
0.23312852287775743
10
8.0230251855397601
20
25.589959654583556
42
0.33042140755254334
10
9.0930339282810611
20
25.395558666788215
42
-0.43948067134285451
10
7.9475140580490082
20
25.48552937188358
42
0.19327555481932879
10
7.8801089761450474
20
24.029054405291383
42
-0.28019340819597294
10
7.6745932850562495
20
23.900233797075831
42
-0.068999520819512855
10
7.3970316953367217
20
23.998862075240865
42
-0.15848644146919805
10
7.7801937278774762
20
24.054773475604442
42
-0.21161733195515661
10
8.0373988122944109
20
26.000236119456254
42
-0.17583140592045093
10
9.4083467023523983
20
25.799837578570354
42
0.21356187659126435
10
9.2141477409959958
20
26.298006176703424
42
0.11626961238274297
0
LWPOLYLINE
5
254
100
AcDbEntity
8
0
100
AcDbPolyline
90
19
70
1
43
0.0
10
5.0558161297684689
20
19.070465483472528
42
0.09378391004062106
10
4.6480205667108185
20
18.583393482760275
42
-0.010565118436586286
10
4.5985632001456462
20
18.579534220215784
42
-0.35975470722364655
10
4.5223845931318216
20
18.67172795744607
42
-0.074045788829587095
10
4.8480575977780989
20
19.084427277350418
42
-0.036662668608843152
10
4.7566775004091326
20
19.044680319523874
42
-0.15509641073532796
10
4.3072849456320608
20
19.044680319523575
42
-0.62963691231478824
10
4.2387799830135906
20
19.533624249503042
42
-0.76041544330746613
10
4.3777361550165921
20
19.996251316689097
42
-0.15382723524671923
10
4.7299327426118305
20
19.876981919536711
42
-0.067314492291711048
10
4.5444630407440689
20
20.250752309314166
42
-0.35967740425694072
10
4.6869886919492139
20
20.624462175687682
42
-0.32660848556158384
10
5.197358941398492
20
20.565267211830953
42
-0.70051071891989669
10
5.6574652513757906
20
20.24587845220551
42
-0.12612279047723737
10
5.3601576677710021
20
19.713188010681343
42
-0.1839248941622286
10
5.9911095931137135
20
19.868382944974027
42
-0.88434209018629661
10
5.9911099205657106
20
19.322043139870189
42
-0.56425318694978033
10
5.6143282668052885
20
18.744053428373434
42
-0.16346410037014869
10
5.2233347678108997
20
18.890512531675689
42
-0.069462299536508718
0
LWPOLYLINE
5
255
100
AcDbEntity
8
0
100
AcDbPolyline
90
7
70
1
43
0.0
10
3.7035523357982387
20
19.60825858129494
42
0.14755892235044499
10
2.7522862454037011
20
19.397622399844916
10
2.7522862454037029
20
20.819657503708232
42
-0.029414516492868525
10
3.0045071514062527
20
21.177380776791672
42
0.00071734169432373872
10
3.0892464199581902
20
21.192887841338749
42
0.015218036495458583
10
4.3560005667705095
20
20.917636412911978
42
0.21226540596770313
10
4.0959553236865176
20
20.37002795364943
42
0.35277712344242035
0
CIRCLE
5
256
100
AcDbEntity
8
0
100
AcDbCircle
10
-2.6852137545962953
20
0.57499999999999807
30
0
40
0.12499999999999994
210
2.4651903288156611e-32
220
3.8705767444936443e-48
230
1
0
CIRCLE
5
257
100
AcDbEntity
8
0
100
AcDbCircle
10
-2.6852137545963002
20
31.574999999999999
30
0
40
0.12499999999999994
210
2.4651903288156611e-32
220
3.8705767444936443e-48
230
1
0
CIRCLE
5
258
100
AcDbEntity
8
0
100
AcDbCircle
10
18.064786245403699
20
0.57500000000000284
30
0
40
0.12500000000000097
210
2.4651903288156608e-32
220
-2.4651903288156619e-32
230
1
0
CIRCLE
5
259
100
AcDbEntity
8
0
100
AcDbCircle
10
18.064786245403692
20
31.575000000000006
30
0
40
0.12500000000000097
210
2.4651903288156608e-32
220
-2.4651903288156619e-32
230
1
0
ENDSEC
0
SECTION
2
OBJECTS
0
DICTIONARY
5
C
100
AcDbDictionary
3
ACAD_GROUP
350
D
3
ACAD_MLINESTYLE
350
17
0
DICTIONARY
5
D
100
AcDbDictionary
0
DICTIONARY
5
1A
330
C
100
AcDbDictionary
0
DICTIONARY
5
17
100
AcDbDictionary
0
ENDSEC
0
EOF
