999
dxflib 3.17.0.0
  0
SECTION
  2
HEADER
  9
$ACADVER
  1
AC1015
  9
$HANDSEED
  5
FFFF
  9
$DIMADEC
 70
0
  9
$DIMASZ
 40
0.125
  9
$DIMAUNIT
 70
0
  9
$DIMAZIN
 70
2
  9
$DIMDEC
 70
4
  9
$DIMDLI
 40
0.25
  9
$DIMDSEP
 70
46
  9
$DIMEXE
 40
0.0625
  9
$DIMEXO
 40
0.03125
  9
$DIMGAP
 40
0.03125
  9
$DIMLUNIT
 70
3
  9
$DIMSCALE
 40
1.0
  9
$DIMTSZ
 40
0.0
  9
$DIMTXT
 40
0.125
  9
$DIMZIN
 70
8
  9
$DWGCODEPAGE
  3
ANSI_1252
  9
$INSUNITS
 70
1
  9
$LTSCALE
 40
1.0
  9
$MAXACTVP
 70
64
  9
$MEASUREMENT
 70
0
  9
$MIRRTEXT
 70
0
  9
$PDMODE
 70
0
  9
$PDSIZE
 40
0.0
  0
ENDSEC
  0
SECTION
  2
TABLES
  0
TABLE
  2
VPORT
  5
8
100
AcDbSymbolTable
 70
1
  0
VPORT
  5
30
100
AcDbSymbolTableRecord
100
AcDbViewportTableRecord
  2
*Active
 70
0
 10
0.0
 20
0.0
 11
1.0
 21
1.0
 12
286.3055555555554861
 22
148.5
 13
0.0
 23
0.0
 14
10.0
 24
10.0
 15
10.0
 25
10.0
 16
0.0
 26
0.0
 36
1.0
 17
0.0
 27
0.0
 37
0.0
 40
297.0
 41
1.92798353909465
 42
50.0
 43
0.0
 44
0.0
 50
0.0
 51
0.0
 71
0
 72
100
 73
1
 74
3
 75
1
 76
1
 77
0
 78
0
281
0
 65
1
110
0.0
120
0.0
130
0.0
111
1.0
121
0.0
131
0.0
112
0.0
122
1.0
132
0.0
 79
0
146
0.0
  0
ENDTAB
  0
TABLE
  2
LTYPE
  5
5
100
AcDbSymbolTable
 70
41
  0
LTYPE
  5
16
100
AcDbSymbolTableRecord
100
AcDbLinetypeTableRecord
  2
Continuous
 70
0
  3
Solid line
 72
65
 73
0
 40
0.0
  0
LTYPE
  5
31
100
AcDbSymbolTableRecord
100
AcDbLinetypeTableRecord
  2
PHANTOM
 70
0
  3
Phantom ______  __  __  ______  __  __  ______ 
 72
65
 73
6
 40
63.5000000000000071
 49
31.75
 74
0
 49
-6.3499999999999996
 74
0
 49
6.3499999999999996
 74
0
 49
-6.3499999999999996
 74
0
 49
6.3499999999999996
 74
0
 49
-6.3499999999999996
 74
0
  0
LTYPE
  5
32
100
AcDbSymbolTableRecord
100
AcDbLinetypeTableRecord
  2
PHANTOMX2
 70
0
  3
Phantom (2x) ____________    ____    ____   _
 72
65
 73
6
 40
127.0000000000000142
 49
63.5
 74
0
 49
-12.6999999999999993
 74
0
 49
12.6999999999999993
 74
0
 49
-12.6999999999999993
 74
0
 49
12.6999999999999993
 74
0
 49
-12.6999999999999993
 74
0
  0
LTYPE
  5
33
100
AcDbSymbolTableRecord
100
AcDbLinetypeTableRecord
  2
ACAD_ISO09W100
 70
0
  3
ISO long-dash double-short-dash ____ __ __ ____
 72
65
 73
6
 40
45.0
 49
24.0
 74
0
 49
-3.0
 74
0
 49
6.0
 74
0
 49
-3.0
 74
0
 49
6.0
 74
0
 49
-3.0
 74
0
  0
LTYPE
  5
34
100
AcDbSymbolTableRecord
100
AcDbLinetypeTableRecord
  2
BORDER2
 70
0
  3
Border (.5x) __.__.__.__.__.__.__.__.__.__.__.
 72
65
 73
6
 40
22.2249999999999979
 49
6.3499999999999996
 74
0
 49
-3.1749999999999998
 74
0
 49
6.3499999999999996
 74
0
 49
-3.1749999999999998
 74
0
 49
0.0
 74
0
 49
-3.1749999999999998
 74
0
  0
LTYPE
  5
35
100
AcDbSymbolTableRecord
100
AcDbLinetypeTableRecord
  2
DIVIDE2
 70
0
  3
Divide (.5x) __..__..__..__..__..__..__..__.._
 72
65
 73
6
 40
15.875
 49
6.3499999999999996
 74
0
 49
-3.1749999999999998
 74
0
 49
0.0
 74
0
 49
-3.1749999999999998
 74
0
 49
0.0
 74
0
 49
-3.1749999999999998
 74
0
  0
LTYPE
  5
36
100
AcDbSymbolTableRecord
100
AcDbLinetypeTableRecord
  2
CENTERX2
 70
0
  3
Center (2x) ________  __  ________  __  _____
 72
65
 73
4
 40
101.6000000000000085
 49
63.5
 74
0
 49
-12.6999999999999993
 74
0
 49
12.6999999999999993
 74
0
 49
-12.6999999999999993
 74
0
  0
LTYPE
  5
37
100
AcDbSymbolTableRecord
100
AcDbLinetypeTableRecord
  2
ACAD_ISO08W100
 70
0
  3
ISO long-dash short-dash ____ __ ____ __ ____ _
 72
65
 73
4
 40
36.0
 49
24.0
 74
0
 49
-3.0
 74
0
 49
6.0
 74
0
 49
-3.0
 74
0
  0
LTYPE
  5
38
100
AcDbSymbolTableRecord
100
AcDbLinetypeTableRecord
  2
HIDDEN2
 70
0
  3
Hidden (.5x) _ _ _ _ _ _ _ _ _ _ _ _ _ _ _ _ _ 
 72
65
 73
2
 40
4.7624999999999993
 49
3.1749999999999998
 74
0
 49
-1.5874999999999999
 74
0
  0
LTYPE
  5
39
100
AcDbSymbolTableRecord
100
AcDbLinetypeTableRecord
  2
ACAD_ISO15W100
 70
0
  3
ISO double-dash triple-dot __ __ . . . __ __ . .
 72
65
 73
10
 40
39.0
 49
12.0
 74
0
 49
-3.0
 74
0
 49
12.0
 74
0
 49
-3.0
 74
0
 49
0.0
 74
0
 49
-3.0
 74
0
 49
0.0
 74
0
 49
-3.0
 74
0
 49
0.0
 74
0
 49
-3.0
 74
0
  0
LTYPE
  5
3A
100
AcDbSymbolTableRecord
100
AcDbLinetypeTableRecord
  2
DIVIDEX2
 70
0
  3
Divide (2x) ________  .  .  ________  .  .  _
 72
65
 73
6
 40
63.5
 49
25.3999999999999986
 74
0
 49
-12.6999999999999993
 74
0
 49
0.0
 74
0
 49
-12.6999999999999993
 74
0
 49
0.0
 74
0
 49
-12.6999999999999993
 74
0
  0
LTYPE
  5
3B
100
AcDbSymbolTableRecord
100
AcDbLinetypeTableRecord
  2
ACAD_ISO07W100
 70
0
  3
ISO dot . . . . . . . . . . . . . . . . . . . . 
 72
65
 73
2
 40
3.0
 49
0.0
 74
0
 49
-3.0
 74
0
  0
LTYPE
  5
3C
100
AcDbSymbolTableRecord
100
AcDbLinetypeTableRecord
  2
CENTER
 70
0
  3
Center ____ _ ____ _ ____ _ ____ _ ____ _ ____
 72
65
 73
4
 40
50.8000000000000043
 49
31.75
 74
0
 49
-6.3499999999999996
 74
0
 49
6.3499999999999996
 74
0
 49
-6.3499999999999996
 74
0
  0
LTYPE
  5
3D
100
AcDbSymbolTableRecord
100
AcDbLinetypeTableRecord
  2
BORDERX2
 70
0
  3
Border (2x) ____  ____  .  ____  ____  .  ___
 72
65
 73
6
 40
88.8999999999999915
 49
25.3999999999999986
 74
0
 49
-12.6999999999999993
 74
0
 49
25.3999999999999986
 74
0
 49
-12.6999999999999993
 74
0
 49
0.0
 74
0
 49
-12.6999999999999993
 74
0
  0
LTYPE
  5
3E
100
AcDbSymbolTableRecord
100
AcDbLinetypeTableRecord
  2
DOT2
 70
0
  3
Dot (.5x) ........................................
 72
65
 73
2
 40
3.1749999999999998
 49
0.0
 74
0
 49
-3.1749999999999998
 74
0
  0
LTYPE
  5
3F
100
AcDbSymbolTableRecord
100
AcDbLinetypeTableRecord
  2
DIVIDE
 70
0
  3
Divide ____ . . ____ . . ____ . . ____ . . ____
 72
65
 73
6
 40
31.75
 49
12.6999999999999993
 74
0
 49
-6.3499999999999996
 74
0
 49
0.0
 74
0
 49
-6.3499999999999996
 74
0
 49
0.0
 74
0
 49
-6.3499999999999996
 74
0
  0
LTYPE
  5
40
100
AcDbSymbolTableRecord
100
AcDbLinetypeTableRecord
  2
DASHED
 70
0
  3
Dashed __ __ __ __ __ __ __ __ __ __ __ __ __ _
 72
65
 73
2
 40
19.0499999999999972
 49
12.6999999999999993
 74
0
 49
-6.3499999999999996
 74
0
  0
LTYPE
  5
41
100
AcDbSymbolTableRecord
100
AcDbLinetypeTableRecord
  2
ACAD_ISO14W100
 70
0
  3
ISO dash triple-dot __ . . . __ . . . __ . . . _
 72
65
 73
8
 40
24.0
 49
12.0
 74
0
 49
-3.0
 74
0
 49
0.0
 74
0
 49
-3.0
 74
0
 49
0.0
 74
0
 49
-3.0
 74
0
 49
0.0
 74
0
 49
-3.0
 74
0
  0
LTYPE
  5
14
100
AcDbSymbolTableRecord
100
AcDbLinetypeTableRecord
  2
BYBLOCK
 70
0
  3

 72
65
 73
0
 40
0.0
  0
LTYPE
  5
42
100
AcDbSymbolTableRecord
100
AcDbLinetypeTableRecord
  2
ACAD_ISO06W100
 70
0
  3
ISO long-dash triple-dot ____ ... ____ ... ____
 72
65
 73
8
 40
36.0
 49
24.0
 74
0
 49
-3.0
 74
0
 49
0.0
 74
0
 49
-3.0
 74
0
 49
0.0
 74
0
 49
-3.0
 74
0
 49
0.0
 74
0
 49
-3.0
 74
0
  0
LTYPE
  5
43
100
AcDbSymbolTableRecord
100
AcDbLinetypeTableRecord
  2
PHANTOM2
 70
0
  3
Phantom (.5x) ___ _ _ ___ _ _ ___ _ _ ___ _ _
 72
65
 73
6
 40
31.7500000000000036
 49
15.875
 74
0
 49
-3.1749999999999998
 74
0
 49
3.1749999999999998
 74
0
 49
-3.1749999999999998
 74
0
 49
3.1749999999999998
 74
0
 49
-3.1749999999999998
 74
0
  0
LTYPE
  5
44
100
AcDbSymbolTableRecord
100
AcDbLinetypeTableRecord
  2
ACAD_ISO13W100
 70
0
  3
ISO double-dash double-dot __ __ . . __ __ . . _
 72
65
 73
8
 40
36.0
 49
12.0
 74
0
 49
-3.0
 74
0
 49
12.0
 74
0
 49
-3.0
 74
0
 49
0.0
 74
0
 49
-3.0
 74
0
 49
0.0
 74
0
 49
-3.0
 74
0
  0
LTYPE
  5
45
100
AcDbSymbolTableRecord
100
AcDbLinetypeTableRecord
  2
DOT
 70
0
  3
Dot . . . . . . . . . . . . . . . . . . . . . . . .
 72
65
 73
2
 40
6.3499999999999996
 49
0.0
 74
0
 49
-6.3499999999999996
 74
0
  0
LTYPE
  5
46
100
AcDbSymbolTableRecord
100
AcDbLinetypeTableRecord
  2
ACAD_ISO05W100
 70
0
  3
ISO long-dash double-dot ____ .. ____ .. ____ . 
 72
65
 73
6
 40
33.0
 49
24.0
 74
0
 49
-3.0
 74
0
 49
0.0
 74
0
 49
-3.0
 74
0
 49
0.0
 74
0
 49
-3.0
 74
0
  0
LTYPE
  5
47
100
AcDbSymbolTableRecord
100
AcDbLinetypeTableRecord
  2
HIDDENX2
 70
0
  3
Hidden (2x) ____ ____ ____ ____ ____ ____ ____ 
 72
65
 73
2
 40
19.0499999999999972
 49
12.6999999999999993
 74
0
 49
-6.3499999999999996
 74
0
  0
LTYPE
  5
48
100
AcDbSymbolTableRecord
100
AcDbLinetypeTableRecord
  2
BORDER
 70
0
  3
Border __ __ . __ __ . __ __ . __ __ . __ __ .
 72
65
 73
6
 40
44.4499999999999957
 49
12.6999999999999993
 74
0
 49
-6.3499999999999996
 74
0
 49
12.6999999999999993
 74
0
 49
-6.3499999999999996
 74
0
 49
0.0
 74
0
 49
-6.3499999999999996
 74
0
  0
LTYPE
  5
49
100
AcDbSymbolTableRecord
100
AcDbLinetypeTableRecord
  2
ACAD_ISO12W100
 70
0
  3
ISO dash double-dot __ . . __ . . __ . . __ . . 
 72
65
 73
6
 40
21.0
 49
12.0
 74
0
 49
-3.0
 74
0
 49
0.0
 74
0
 49
-3.0
 74
0
 49
0.0
 74
0
 49
-3.0
 74
0
  0
LTYPE
  5
4A
100
AcDbSymbolTableRecord
100
AcDbLinetypeTableRecord
  2
DASHEDX2
 70
0
  3
Dashed (2x) ____  ____  ____  ____  ____  ___
 72
65
 73
2
 40
38.0999999999999943
 49
25.3999999999999986
 74
0
 49
-12.6999999999999993
 74
0
  0
LTYPE
  5
4B
100
AcDbSymbolTableRecord
100
AcDbLinetypeTableRecord
  2
ACAD_ISO04W100
 70
0
  3
ISO long-dash dot ____ . ____ . ____ . ____ . _
 72
65
 73
4
 40
30.0
 49
24.0
 74
0
 49
-3.0
 74
0
 49
0.0
 74
0
 49
-3.0
 74
0
  0
LTYPE
  5
4C
100
AcDbSymbolTableRecord
100
AcDbLinetypeTableRecord
  2
DOTX2
 70
0
  3
Dot (2x) .  .  .  .  .  .  .  .  .  .  .  .  .  .
 72
65
 73
2
 40
12.6999999999999993
 49
0.0
 74
0
 49
-12.6999999999999993
 74
0
  0
LTYPE
  5
4D
100
AcDbSymbolTableRecord
100
AcDbLinetypeTableRecord
  2
DASHED2
 70
0
  3
Dashed (.5x) _ _ _ _ _ _ _ _ _ _ _ _ _ _ _ _ _ 
 72
65
 73
2
 40
9.5249999999999986
 49
6.3499999999999996
 74
0
 49
-3.1749999999999998
 74
0
  0
LTYPE
  5
4E
100
AcDbSymbolTableRecord
100
AcDbLinetypeTableRecord
  2
ACAD_ISO11W100
 70
0
  3
ISO double-dash dot __ __ . __ __ . __ __ . __ _
 72
65
 73
6
 40
33.0
 49
12.0
 74
0
 49
-3.0
 74
0
 49
12.0
 74
0
 49
-3.0
 74
0
 49
0.0
 74
0
 49
-3.0
 74
0
  0
LTYPE
  5
4F
100
AcDbSymbolTableRecord
100
AcDbLinetypeTableRecord
  2
ACAD_ISO03W100
 70
0
  3
ISO dash space __    __    __    __    __    __
 72
65
 73
2
 40
30.0
 49
12.0
 74
0
 49
-18.0
 74
0
  0
LTYPE
  5
50
100
AcDbSymbolTableRecord
100
AcDbLinetypeTableRecord
  2
HIDDEN
 70
0
  3
Hidden __ __ __ __ __ __ __ __ __ __ __ __ __ __
 72
65
 73
2
 40
9.5249999999999986
 49
6.3499999999999996
 74
0
 49
-3.1749999999999998
 74
0
  0
LTYPE
  5
15
100
AcDbSymbolTableRecord
100
AcDbLinetypeTableRecord
  2
BYLAYER
 70
0
  3

 72
65
 73
0
 40
0.0
  0
LTYPE
  5
51
100
AcDbSymbolTableRecord
100
AcDbLinetypeTableRecord
  2
CENTER2
 70
0
  3
Center (.5x) ___ _ ___ _ ___ _ ___ _ ___ _ ___
 72
65
 73
4
 40
28.5750000000000028
 49
19.0500000000000007
 74
0
 49
-3.1749999999999998
 74
0
 49
3.1749999999999998
 74
0
 49
-3.1749999999999998
 74
0
  0
LTYPE
  5
52
100
AcDbSymbolTableRecord
100
AcDbLinetypeTableRecord
  2
ACAD_ISO10W100
 70
0
  3
ISO dash dot __ . __ . __ . __ . __ . __ . __ . 
 72
65
 73
4
 40
18.0
 49
12.0
 74
0
 49
-3.0
 74
0
 49
0.0
 74
0
 49
-3.0
 74
0
  0
LTYPE
  5
53
100
AcDbSymbolTableRecord
100
AcDbLinetypeTableRecord
  2
ACAD_ISO02W100
 70
0
  3
ISO dash __ __ __ __ __ __ __ __ __ __ __ __ __
 72
65
 73
2
 40
15.0
 49
12.0
 74
0
 49
-3.0
 74
0
  0
LTYPE
  5
54
100
AcDbSymbolTableRecord
100
AcDbLinetypeTableRecord
  2
DASHDOTX2
 70
0
  3
Dash dot (2x) ____  .  ____  .  ____  .  ___
 72
65
 73
4
 40
50.7999999999999972
 49
25.3999999999999986
 74
0
 49
-12.6999999999999993
 74
0
 49
0.0
 74
0
 49
-12.6999999999999993
 74
0
  0
LTYPE
  5
55
100
AcDbSymbolTableRecord
100
AcDbLinetypeTableRecord
  2
DASHDOT
 70
0
  3
Dash dot __ . __ . __ . __ . __ . __ . __ . __
 72
65
 73
4
 40
25.3999999999999986
 49
12.6999999999999993
 74
0
 49
-6.3499999999999996
 74
0
 49
0.0
 74
0
 49
-6.3499999999999996
 74
0
  0
LTYPE
  5
56
100
AcDbSymbolTableRecord
100
AcDbLinetypeTableRecord
  2
DASHDOT2
 70
0
  3
Dash dot (.5x) _._._._._._._._._._._._._._._.
 72
65
 73
4
 40
12.6999999999999993
 49
6.3499999999999996
 74
0
 49
-3.1749999999999998
 74
0
 49
0.0
 74
0
 49
-3.1749999999999998
 74
0
  0
ENDTAB
  0
TABLE
  2
LAYER
  5
2
100
AcDbSymbolTable
 70
1
  0
LAYER
  5
10
100
AcDbSymbolTableRecord
100
AcDbLayerTableRecord
  2
0
 70
0
 62
7
420
16777215
  6
Continuous
370
25
390
F
  0
ENDTAB
  0
TABLE
  2
STYLE
  5
3
100
AcDbSymbolTable
 70
1
  0
STYLE
  5
57
100
AcDbSymbolTableRecord
100
AcDbTextStyleTableRecord
  2
Standard
 70
0
 40
0.0
 41
1.0
 50
0.0
 71
0
 42
2.5
  3

  4

1001
ACAD
1000
txt
1071
0
  0
ENDTAB
  0
TABLE
  2
VIEW
  5
6
100
AcDbSymbolTable
 70
0
  0
ENDTAB
  0
TABLE
  2
UCS
  5
7
100
AcDbSymbolTable
 70
0
  0
ENDTAB
  0
TABLE
  2
APPID
  5
9
100
AcDbSymbolTable
 70
1
  0
APPID
  5
12
100
AcDbSymbolTableRecord
100
AcDbRegAppTableRecord
  2
ACAD
 70
0
  0
APPID
  5
58
100
AcDbSymbolTableRecord
100
AcDbRegAppTableRecord
  2
QCAD
 70
0
  0
ENDTAB
  0
TABLE
  2
DIMSTYLE
  5
A
100
AcDbSymbolTable
 70
1
100
AcDbDimStyleTable
 71
0
  0
DIMSTYLE
105
27
100
AcDbSymbolTableRecord
100
AcDbDimStyleTableRecord
  2
Standard
 41
0.125
 42
0.03125
 43
3.75
 44
0.0625
 70
0
 73
0
 74
0
 77
1
 78
8
140
0.125
141
2.5
143
0.03937007874016
147
0.03125
171
3
172
1
271
2
272
2
274
3
278
44
283
0
284
8
340
57
  0
ENDTAB
  0
TABLE
  2
BLOCK_RECORD
  5
1
100
AcDbSymbolTable
 70
1
  0
BLOCK_RECORD
  5
1F
100
AcDbSymbolTableRecord
100
AcDbBlockTableRecord
  2
*Model_Space
340
22
  0
BLOCK_RECORD
  5
1B
100
AcDbSymbolTableRecord
100
AcDbBlockTableRecord
  2
*Paper_Space
340
1E
  0
BLOCK_RECORD
  5
23
100
AcDbSymbolTableRecord
100
AcDbBlockTableRecord
  2
*Paper_Space0
340
26
  0
ENDTAB
  0
ENDSEC
  0
SECTION
  2
BLOCKS
  0
BLOCK
  5
20
100
AcDbEntity
  8
0
100
AcDbBlockBegin
  2
*Model_Space
 70
0
 10
0.0
 20
0.0
 30
0.0
  3
*Model_Space
  1

  0
ENDBLK
  5
21
100
AcDbEntity
  8
0
100
AcDbBlockEnd
  0
BLOCK
  5
1C
100
AcDbEntity
 67
1
  8
0
100
AcDbBlockBegin
  2
*Paper_Space
 70
0
 10
0.0
 20
0.0
 30
0.0
  3
*Paper_Space
  1

  0
ENDBLK
  5
1D
100
AcDbEntity
 67
1
  8
0
100
AcDbBlockEnd
  0
BLOCK
  5
24
100
AcDbEntity
  8
0
100
AcDbBlockBegin
  2
*Paper_Space0
 70
0
 10
0.0
 20
0.0
 30
0.0
  3
*Paper_Space0
  1

  0
ENDBLK
  5
25
100
AcDbEntity
  8
0
100
AcDbBlockEnd
  0
ENDSEC
  0
SECTION
  2
ENTITIES
  0
LWPOLYLINE
  5
59
100
AcDbEntity
  8
0
 62
256
370
-1
 48
1.0
  6
BYLAYER
100
AcDbPolyline
 90
8
 70
129
 10
37.6114429576670162
 20
20.4406207366984987
 10
37.6114429576670162
 20
20.9257162346521142
 10
37.4302355906820239
 20
20.9257162346521142
 10
37.4302355906820239
 20
20.9906207366984994
 10
37.8661837489357751
 20
20.9906207366984994
 10
37.8661837489357751
 20
20.9257162346521142
 10
37.6842260408866636
 20
20.9257162346521142
 10
37.6842260408866636
 20
20.4406207366984987
  0
LWPOLYLINE
  5
5A
100
AcDbEntity
  8
0
 62
256
370
-1
 48
1.0
  6
BYLAYER
100
AcDbPolyline
 90
12
 70
129
 10
37.9416973966293654
 20
20.4406207366984987
 10
37.9416973966293654
 20
20.9906207366984994
 10
38.0144804798490057
 20
20.9906207366984994
 10
38.0144804798490057
 20
20.7647680763983615
 10
38.3003604252787468
 20
20.7647680763983615
 10
38.3003604252787468
 20
20.9906207366984994
 10
38.3731435084983943
 20
20.9906207366984994
 10
38.3731435084983943
 20
20.4406207366984987
 10
38.3003604252787468
 20
20.4406207366984987
 10
38.3003604252787468
 20
20.6998635743519763
 10
38.0144804798490057
 20
20.6998635743519763
 10
38.0144804798490057
 20
20.4406207366984987
  0
LWPOLYLINE
  5
5B
100
AcDbEntity
  8
0
 62
256
370
-1
 48
1.0
  6
BYLAYER
100
AcDbPolyline
 90
12
 70
129
 10
38.4955450102062784
 20
20.4406207366984987
 10
38.4955450102062784
 20
20.9906207366984994
 10
38.8932257741899079
 20
20.9906207366984994
 10
38.8932257741899079
 20
20.9257162346521142
 10
38.5683280934259258
 20
20.9257162346521142
 10
38.5683280934259258
 20
20.7572646657571624
 10
38.8725913949266086
 20
20.7572646657571624
 10
38.8725913949266086
 20
20.6927353342428368
 10
38.5683280934259258
 20
20.6927353342428368
 10
38.5683280934259258
 20
20.5055252387448839
 10
38.9059815722799485
 20
20.5055252387448839
 10
38.9059815722799485
 20
20.4406207366984987
  0
LWPOLYLINE
  5
5C
100
AcDbEntity
  8
0
 62
256
370
-1
 48
1.0
  6
BYLAYER
100
AcDbPolyline
 90
15
 70
129
 10
39.2197031203520368
 20
20.4406207366984987
 10
39.2197031203520368
 20
20.9906207366984994
 10
39.3292529157135675
 20
20.9906207366984994
 10
39.4594370903383975
 20
20.6011937244201917
 42
-0.0052684585219063
 10
39.4856990275825979
 20
20.5197817189631628
 42
-0.0061129832133749
 10
39.5149623290832821
 20
20.6079467939972716
 10
39.6466471858363505
 20
20.9906207366984994
 10
39.7445666947040195
 20
20.9906207366984994
 10
39.7445666947040195
 20
20.4406207366984987
 10
39.6744098052087892
 20
20.4406207366984987
 10
39.6744098052087892
 20
20.9009549795361522
 10
39.5145871585512225
 20
20.4406207366984987
 10
39.4489323154407145
 20
20.4406207366984987
 10
39.289860009847267
 20
20.9088335607094109
 10
39.289860009847267
 20
20.4406207366984987
  0
LWPOLYLINE
  5
5D
100
AcDbEntity
  8
0
 62
256
370
-1
 48
1.0
  6
BYLAYER
100
AcDbPolyline
 90
8
 70
129
 10
39.8028055729364354
 20
20.4406207366984987
 10
40.0140265824862311
 20
20.9906207366984994
 10
40.0924372236867725
 20
20.9906207366984994
 10
40.3175395429227876
 20
20.4406207366984987
 10
40.2346268553375239
 20
20.4406207366984987
 10
40.1704726943552615
 20
20.6071964529331524
 10
39.9404931582024645
 20
20.6071964529331524
 10
39.880090702540798
 20
20.4406207366984987
  0
LWPOLYLINE
  5
5E
100
AcDbEntity
  8
0
 62
256
370
-1
 48
1.0
  6
BYLAYER
100
AcDbPolyline
 90
5
 70
129
 10
39.9615027079978233
 20
20.6664733969986365
 10
40.1479624624316571
 20
20.6664733969986365
 10
40.0905613710264745
 20
20.8187926330150077
 42
-0.0200275169964763
 10
40.0515436356922336
 20
20.9328444747612537
 42
-0.038978528532164
 10
40.0219051636594898
 20
20.8277967257844452
  0
LWPOLYLINE
  5
5F
100
AcDbEntity
  8
0
 62
256
370
-1
 48
1.0
  6
BYLAYER
100
AcDbPolyline
 90
19
 70
129
 10
40.378492060642742
 20
20.4406207366984987
 10
40.378492060642742
 20
20.9906207366984994
 10
40.6223529064817583
 20
20.9906207366984994
 42
-0.0875367077472961
 10
40.7341537250356467
 20
20.9758015006821275
 42
-0.169311012721899
 10
40.7953065217614324
 20
20.923465211459753
 42
-0.1404351892919171
 10
40.8181919242170892
 20
20.8405525238744893
 42
-0.1985679884957068
 10
40.7802997004790271
 20
20.7418826739427011
 42
-0.1713575546748028
 10
40.6632464944762972
 20
20.6908594815825353
 42
-0.0688535711482451
 10
40.70714144672732
 20
20.6634720327421562
 42
-0.0629639356907848
 10
40.7675439023889865
 20
20.5903137789904491
 10
40.8632123880642979
 20
20.4406207366984987
 10
40.7716707782416492
 20
20.4406207366984987
 10
40.6988876950220018
 20
20.5550477489768078
 42
0.0221108371652631
 10
40.6463638205336011
 20
20.630832196452932
 42
0.0794123878255715
 10
40.6094095231256844
 20
20.6675989085948153
 42
0.083620566388709
 10
40.5762069310383708
 20
20.6822305593451574
 42
0.046525329753074
 10
40.5356885135758915
 20
20.6848567530695782
 10
40.4512751438623823
 20
20.6848567530695782
 10
40.4512751438623823
 20
20.4406207366984987
  0
LWPOLYLINE
  5
60
100
AcDbEntity
  8
0
 62
256
370
-1
 48
1.0
  6
BYLAYER
100
AcDbPolyline
 90
8
 70
129
 10
40.4512751438623823
 20
20.7478854024556618
 10
40.6077212557314127
 20
20.7478854024556618
 42
0.0844705030656566
 10
40.6857567263999016
 20
20.7582025920873114
 42
0.1672046010832152
 10
40.7285261670547456
 20
20.7912175989085952
 42
0.1471855025809574
 10
40.7431578178050842
 20
20.8405525238744893
 42
0.2247372737947288
 10
40.7148324426345525
 20
20.9047066848567518
 42
0.1810737436917864
 10
40.6253542707382351
 20
20.9298431105047733
 10
40.4512751438623823
 20
20.9298431105047733
  0
LWPOLYLINE
  5
61
100
AcDbEntity
  8
0
 62
256
370
-1
 48
1.0
  6
BYLAYER
100
AcDbPolyline
 90
8
 70
129
 10
41.0603489880909649
 20
20.4406207366984987
 10
41.0603489880909649
 20
20.9257162346521142
 10
40.8791416211059726
 20
20.9257162346521142
 10
40.8791416211059726
 20
20.9906207366984994
 10
41.3150897793597238
 20
20.9906207366984994
 10
41.3150897793597238
 20
20.9257162346521142
 10
41.1331320713106123
 20
20.9257162346521142
 10
41.1331320713106123
 20
20.4406207366984987
  0
LWPOLYLINE
  5
62
100
AcDbEntity
  8
0
 62
256
370
-1
 48
1.0
  6
BYLAYER
100
AcDbPolyline
 90
4
 70
129
 10
41.4007330314189304
 20
20.4406207366984987
 10
41.4007330314189304
 20
20.9906207366984994
 10
41.4735161146385778
 20
20.9906207366984994
 10
41.4735161146385778
 20
20.4406207366984987
  0
LWPOLYLINE
  5
63
100
AcDbEntity
  8
0
 62
256
370
-1
 48
1.0
  6
BYLAYER
100
AcDbPolyline
 90
10
 70
129
 10
41.6013533578147303
 20
20.4406207366984987
 10
41.6013533578147303
 20
20.9906207366984994
 10
41.6760122936946757
 20
20.9906207366984994
 10
41.9648936033808937
 20
20.5587994542974073
 10
41.9648936033808937
 20
20.9906207366984994
 10
42.0346753223440572
 20
20.9906207366984994
 10
42.0346753223440572
 20
20.4406207366984987
 10
41.9600163864641118
 20
20.4406207366984987
 10
41.6711350767778939
 20
20.8728171896316503
 10
41.6711350767778939
 20
20.4406207366984987
  0
LWPOLYLINE
  5
64
100
AcDbEntity
  8
0
 62
256
370
-1
 48
1.0
  6
BYLAYER
100
AcDbPolyline
 90
35
 70
129
 10
42.1319403984039198
 20
20.6173260572987722
 10
42.2005966057709045
 20
20.6233287858117329
 42
0.1194563992846966
 10
42.2232944229605422
 20
20.5556105047748972
 42
0.1440439443612044
 10
42.2786320764393935
 20
20.5128410641200531
 42
0.1036669472460036
 10
42.3630454461529027
 20
20.4965211459754428
 42
0.0929594907471472
 10
42.4365788704366622
 20
20.5089017735334238
 42
0.1460764958994621
 10
42.4840379427422548
 20
20.5428547066848566
 42
0.1615320388774244
 10
42.499607519822753
 20
20.589938608458386
 42
0.1712546538743897
 10
42.4846006985403477
 20
20.6351466575716245
 42
0.1356091898861072
 10
42.4350781883084238
 20
20.6675989085948153
 42
0.0262406157732089
 10
42.3371586794407548
 20
20.6944236016371086
 42
-0.0559314157074606
 10
42.2309854188677676
 20
20.728751705320601
 42
-0.133152926037746
 10
42.1722712306003729
 20
20.779962482946793
 42
-0.144675378727134
 10
42.1529499481992858
 20
20.848431105047748
 42
-0.1487225112053234
 10
42.1765856917190689
 20
20.9262789904502036
 42
-0.1543188450429444
 10
42.2456170696181132
 20
20.9812414733969987
 42
-0.0989490370400655
 10
42.346537942742259
 20
21.0
 42
-0.1004256807691601
 10
42.454399470709518
 20
20.9803035470668462
 42
-0.1517682692773163
 10
42.5262446275990129
 20
20.9223396998635742
 42
-0.1389500364196439
 10
42.5532569059073325
 20
20.8356753069577074
 10
42.4834751869441689
 20
20.8304229195088659
 42
0.2022442545306615
 10
42.4453953779400734
 20
20.9092087312414741
 42
0.1728139984532557
 10
42.3495393069987358
 20
20.935845839017734
 42
0.1656904734930166
 10
42.2533080655253386
 20
20.9116473396998614
 42
0.2392581221543453
 10
42.2231068376945089
 20
20.8533083219645299
 42
0.2235050768274255
 10
42.2444915580219273
 20
20.8045361527967252
 42
0.1015734454766009
 10
42.3542289386494915
 20
20.7653308321964509
 42
-0.0437200168018954
 10
42.4759717763029698
 20
20.7302523874488394
 42
-0.1381392777914934
 10
42.5468790068623122
 20
20.6741643929058654
 42
-0.1525896218397375
 10
42.5697644093179761
 20
20.5959413369713502
 42
-0.1476306926424172
 10
42.5446279836699546
 20
20.5132162346521127
 42
-0.1452134064009812
 10
42.4724076562484001
 20
20.4528137789904498
 42
-0.1087394858814488
 10
42.3664219809414391
 20
20.431241473396998
 42
-0.1013567093113863
 10
42.2413026084994172
 20
20.4530013642564796
 42
-0.1498476207457025
 10
42.1621416262347566
 20
20.5184686221009542
 42
-0.1420282575360429
  0
ENDSEC
  0
SECTION
  2
OBJECTS
  0
DICTIONARY
  5
C
100
AcDbDictionary
280
0
281
1
  3
ACAD_GROUP
350
D
  3
ACAD_LAYOUT
350
1A
  3
ACAD_MLINESTYLE
350
17
  3
ACAD_PLOTSETTINGS
350
19
  3
ACAD_PLOTSTYLENAME
350
E
  3
AcDbVariableDictionary
350
65
  3
QCAD_OBJECTS
350
66
  0
DICTIONARY
  5
D
100
AcDbDictionary
280
0
281
1
  0
ACDBDICTIONARYWDFLT
  5
E
100
AcDbDictionary
281
1
  3
Normal
350
F
100
AcDbDictionaryWithDefault
340
F
  0
ACDBPLACEHOLDER
  5
F
  0
DICTIONARY
  5
17
100
AcDbDictionary
280
0
281
1
  3
Standard
350
18
  0
MLINESTYLE
  5
18
100
AcDbMlineStyle
  2
STANDARD
 70
0
  3

 62
256
 51
90.0
 52
90.0
 71
2
 49
0.5
 62
256
  6
BYLAYER
 49
-0.5
 62
256
  6
BYLAYER
  0
DICTIONARY
  5
19
100
AcDbDictionary
280
0
281
1
  0
DICTIONARY
  5
1A
100
AcDbDictionary
281
1
  3
Layout1
350
1E
  3
Layout2
350
26
  3
Model
350
22
  0
LAYOUT
  5
1E
100
AcDbPlotSettings
  1

  2
none_device
  4

  6

 40
0.0
 41
0.0
 42
0.0
 43
0.0
 44
0.0
 45
0.0
 46
0.0
 47
0.0
 48
0.0
 49
0.0
140
0.0
141
0.0
142
1.0
143
1.0
 70
688
 72
0
 73
0
 74
5
  7

 75
16
147
1.0
148
0.0
149
0.0
100
AcDbLayout
  1
Layout1
 70
1
 71
1
 10
0.0
 20
0.0
 11
420.0
 21
297.0
 12
0.0
 22
0.0
 32
0.0
 14
100000000000000000000.0
 24
100000000000000000000.0
 34
100000000000000000000.0
 15
-100000000000000000000.0
 25
-100000000000000000000.0
 35
-100000000000000000000.0
146
0.0
 13
0.0
 23
0.0
 33
0.0
 16
1.0
 26
0.0
 36
0.0
 17
0.0
 27
1.0
 37
0.0
 76
0
330
1B
  0
LAYOUT
  5
22
100
AcDbPlotSettings
  1

  2
none_device
  4

  6

 40
0.0
 41
0.0
 42
0.0
 43
0.0
 44
0.0
 45
0.0
 46
0.0
 47
0.0
 48
0.0
 49
0.0
140
0.0
141
0.0
142
1.0
143
1.0
 70
1712
 72
0
 73
0
 74
0
  7

 75
0
147
1.0
148
0.0
149
0.0
100
AcDbLayout
  1
Model
 70
1
 71
0
 10
0.0
 20
0.0
 11
12.0
 21
9.0
 12
0.0
 22
0.0
 32
0.0
 14
0.0
 24
0.0
 34
0.0
 15
0.0
 25
0.0
 35
0.0
146
0.0
 13
0.0
 23
0.0
 33
0.0
 16
1.0
 26
0.0
 36
0.0
 17
0.0
 27
1.0
 37
0.0
 76
0
330
1F
  0
LAYOUT
  5
26
100
AcDbPlotSettings
  1

  2
none_device
  4

  6

 40
0.0
 41
0.0
 42
0.0
 43
0.0
 44
0.0
 45
0.0
 46
0.0
 47
0.0
 48
0.0
 49
0.0
140
0.0
141
0.0
142
1.0
143
1.0
 70
688
 72
0
 73
0
 74
5
  7

 75
16
147
1.0
148
0.0
149
0.0
100
AcDbLayout
  1
Layout2
 70
1
 71
2
 10
0.0
 20
0.0
 11
12.0
 21
9.0
 12
0.0
 22
0.0
 32
0.0
 14
0.0
 24
0.0
 34
0.0
 15
0.0
 25
0.0
 35
0.0
146
0.0
 13
0.0
 23
0.0
 33
0.0
 16
1.0
 26
0.0
 36
0.0
 17
0.0
 27
1.0
 37
0.0
 76
0
330
23
  0
DICTIONARY
  5
65
100
AcDbDictionary
281
1
  3
DIMASSOC
350
68
  3
HIDETEXT
350
67
  0
DICTIONARYVAR
  5
67
100
DictionaryVariables
280
0
  1
2
  0
DICTIONARYVAR
  5
68
100
DictionaryVariables
280
0
  1
1
  0
DICTIONARY
  5
66
100
AcDbDictionary
281
1
  3
ColorSettings/BackgroundColor
350
69
  3
ColorSettings/ColorMode
350
6A
  3
Grid/DisplayGrid00
350
6B
  3
Grid/DisplayGrid01
350
6C
  3
Grid/DisplayGrid02
350
6D
  3
Grid/DisplayGrid03
350
6E
  3
Grid/GridSpacingX00
350
6F
  3
Grid/GridSpacingX01
350
70
  3
Grid/GridSpacingX02
350
71
  3
Grid/GridSpacingX03
350
72
  3
Grid/GridSpacingY00
350
73
  3
Grid/GridSpacingY01
350
74
  3
Grid/GridSpacingY02
350
75
  3
Grid/GridSpacingY03
350
76
  3
Grid/IsometricGrid00
350
77
  3
Grid/IsometricGrid01
350
78
  3
Grid/IsometricGrid02
350
79
  3
Grid/IsometricGrid03
350
7A
  3
Grid/IsometricProjection00
350
7B
  3
Grid/IsometricProjection01
350
7C
  3
Grid/IsometricProjection02
350
7D
  3
Grid/IsometricProjection03
350
7E
  3
Grid/MetaGridSpacingX00
350
7F
  3
Grid/MetaGridSpacingX01
350
80
  3
Grid/MetaGridSpacingX02
350
81
  3
Grid/MetaGridSpacingX03
350
82
  3
Grid/MetaGridSpacingY00
350
83
  3
Grid/MetaGridSpacingY01
350
84
  3
Grid/MetaGridSpacingY02
350
85
  3
Grid/MetaGridSpacingY03
350
86
  3
MultiPageSettings/Columns
350
87
  3
MultiPageSettings/GlueMarginsBottom
350
88
  3
MultiPageSettings/GlueMarginsLeft
350
89
  3
MultiPageSettings/GlueMarginsRight
350
8A
  3
MultiPageSettings/GlueMarginsTop
350
8B
  3
MultiPageSettings/PrintCropMarks
350
8C
  3
MultiPageSettings/Rows
350
8D
  3
PageSettings/OffsetX
350
8E
  3
PageSettings/OffsetY
350
8F
  3
PageSettings/PageOrientation
350
90
  3
PageSettings/PaperHeight
350
91
  3
PageSettings/PaperWidth
350
92
  3
PageSettings/Scale
350
93
  3
PageSettings/ShowPaperBorders
350
94
  3
PageTagSettings/EnablePageTags
350
95
  3
PageTagSettings/TagAlignment
350
96
  3
PageTagSettings/TagFont
350
97
  3
PageTagSettings/TagPosition
350
98
  3
UnitSettings/PaperUnit
350
99
  3
ViewportCenter
350
9A
  3
ViewportHeight
350
9B
  3
ViewportWidth
350
9C
  0
XRECORD
  5
69
330
66
100
AcDbXrecord
280
1
1000
White
  0
XRECORD
  5
6A
330
66
100
AcDbXrecord
280
1
1000
FullColor
  0
XRECORD
  5
6B
330
66
100
AcDbXrecord
280
1
290
1
  0
XRECORD
  5
6C
330
66
100
AcDbXrecord
280
1
290
1
  0
XRECORD
  5
6D
330
66
100
AcDbXrecord
280
1
290
1
  0
XRECORD
  5
6E
330
66
100
AcDbXrecord
280
1
290
1
  0
XRECORD
  5
6F
330
66
100
AcDbXrecord
280
1
1000
auto
  0
XRECORD
  5
70
330
66
100
AcDbXrecord
280
1
1000
auto
  0
XRECORD
  5
71
330
66
100
AcDbXrecord
280
1
1000
auto
  0
XRECORD
  5
72
330
66
100
AcDbXrecord
280
1
1000
auto
  0
XRECORD
  5
73
330
66
100
AcDbXrecord
280
1
1000
auto
  0
XRECORD
  5
74
330
66
100
AcDbXrecord
280
1
1000
auto
  0
XRECORD
  5
75
330
66
100
AcDbXrecord
280
1
1000
auto
  0
XRECORD
  5
76
330
66
100
AcDbXrecord
280
1
1000
auto
  0
XRECORD
  5
77
330
66
100
AcDbXrecord
280
1
290
0
  0
XRECORD
  5
78
330
66
100
AcDbXrecord
280
1
290
0
  0
XRECORD
  5
79
330
66
100
AcDbXrecord
280
1
290
0
  0
XRECORD
  5
7A
330
66
100
AcDbXrecord
280
1
290
0
  0
XRECORD
  5
7B
330
66
100
AcDbXrecord
280
1
 90
65537
  0
XRECORD
  5
7C
330
66
100
AcDbXrecord
280
1
 90
65537
  0
XRECORD
  5
7D
330
66
100
AcDbXrecord
280
1
 90
65537
  0
XRECORD
  5
7E
330
66
100
AcDbXrecord
280
1
 90
65537
  0
XRECORD
  5
7F
330
66
100
AcDbXrecord
280
1
1000
auto
  0
XRECORD
  5
80
330
66
100
AcDbXrecord
280
1
1000
auto
  0
XRECORD
  5
81
330
66
100
AcDbXrecord
280
1
1000
auto
  0
XRECORD
  5
82
330
66
100
AcDbXrecord
280
1
1000
auto
  0
XRECORD
  5
83
330
66
100
AcDbXrecord
280
1
1000
auto
  0
XRECORD
  5
84
330
66
100
AcDbXrecord
280
1
1000
auto
  0
XRECORD
  5
85
330
66
100
AcDbXrecord
280
1
1000
auto
  0
XRECORD
  5
86
330
66
100
AcDbXrecord
280
1
1000
auto
  0
XRECORD
  5
87
330
66
100
AcDbXrecord
280
1
 90
1
  0
XRECORD
  5
88
330
66
100
AcDbXrecord
280
1
 40
0.5
  0
XRECORD
  5
89
330
66
100
AcDbXrecord
280
1
 40
0.5
  0
XRECORD
  5
8A
330
66
100
AcDbXrecord
280
1
 40
0.5
  0
XRECORD
  5
8B
330
66
100
AcDbXrecord
280
1
 40
0.5
  0
XRECORD
  5
8C
330
66
100
AcDbXrecord
280
1
290
0
  0
XRECORD
  5
8D
330
66
100
AcDbXrecord
280
1
 90
1
  0
XRECORD
  5
8E
330
66
100
AcDbXrecord
280
1
 40
0.0
  0
XRECORD
  5
8F
330
66
100
AcDbXrecord
280
1
 40
0.0
  0
XRECORD
  5
90
330
66
100
AcDbXrecord
280
1
1000
Portrait
  0
XRECORD
  5
91
330
66
100
AcDbXrecord
280
1
 40
11.0
  0
XRECORD
  5
92
330
66
100
AcDbXrecord
280
1
 40
8.5
  0
XRECORD
  5
93
330
66
100
AcDbXrecord
280
1
1000
1:1
  0
XRECORD
  5
94
330
66
100
AcDbXrecord
280
1
290
1
  0
XRECORD
  5
95
330
66
100
AcDbXrecord
280
1
290
0
  0
XRECORD
  5
96
330
66
100
AcDbXrecord
280
1
1000
Inside
  0
XRECORD
  5
97
330
66
100
AcDbXrecord
280
1
1000
Arial,10,-1,5,50,0,0,0,0,0
  0
XRECORD
  5
98
330
66
100
AcDbXrecord
280
1
1000
TopLeft
  0
XRECORD
  5
99
330
66
100
AcDbXrecord
280
1
 90
1
  0
XRECORD
  5
9B
330
66
100
AcDbXrecord
280
1
 40
5.4732447534892188
  0
XRECORD
  5
9C
330
66
100
AcDbXrecord
280
1
 40
10.6548822045384384
  0
ENDSEC
  0
EOF
