0
SECTION
2
HEADER
9
$INSUNITS
70
1
9
$ACADVER
1
AC1014
9
$HANDSEED
5
FFFF
0
ENDSEC
0
SECTION
2
TABLES
0
TABLE
2
VPORT
5
8
100
AcDbSymbolTable
0
ENDTAB
0
TABLE
2
LTYPE
5
5
100
AcDbSymbolTable
0
LTYPE
5
14
100
AcDbSymbolTableRecord
100
AcDbLinetypeTableRecord
2
BYBLOCK
70
0
0
LTYPE
5
15
100
AcDbSymbolTableRecord
100
AcDbLinetypeTableRecord
2
BYLAYER
70
0
0
ENDTAB
0
TABLE
2
LAYER
5
2
100
AcDbSymbolTable
70
2
0
LAYER
5
50
100
AcDbSymbolTableRecord
100
AcDbLayerTableRecord
2
0
70
0
6
CONTINUOUS
0
ENDTAB
0
TABLE
2
STYLE
5
3
100
AcDbSymbolTable
70
1
0
STYLE
5
11
100
AcDbSymbolTableRecord
100
AcDbTextStyleTableRecord
2
STANDARD
70
0
0
ENDTAB
0
TABLE
2
VIEW
5
6
100
AcDbSymbolTable
70
0
0
ENDTAB
0
TABLE
2
UCS
5
7
100
AcDbSymbolTable
70
0
0
ENDTAB
0
TABLE
2
APPID
5
9
100
AcDbSymbolTable
70
2
0
APPID
5
12
100
AcDbSymbolTableRecord
100
AcDbRegAppTableRecord
2
ACAD
70
0
0
ENDTAB
0
TABLE
2
DIMSTYLE
5
A
100
AcDbSymbolTable
70
1
0
ENDTAB
0
TABLE
2
BLOCK_RECORD
5
1
100
AcDbSymbolTable
70
1
0
BLOCK_RECORD
5
1F
100
AcDbSymbolTableRecord
100
AcDbBlockTableRecord
2
*MODEL_SPACE
0
BLOCK_RECORD
5
1B
100
AcDbSymbolTableRecord
100
AcDbBlockTableRecord
2
*PAPER_SPACE
0
ENDTAB
0
ENDSEC
0
SECTION
2
BLOCKS
0
BLOCK
5
20
100
AcDbEntity
100
AcDbBlockBegin
2
*MODEL_SPACE
0
ENDBLK
5
21
100
AcDbEntity
100
AcDbBlockEnd
0
BLOCK
5
1C
100
AcDbEntity
100
AcDbBlockBegin
2
*PAPER_SPACE
0
ENDBLK
5
1D
100
AcDbEntity
100
AcDbBlockEnd
0
ENDSEC
0
SECTION
2
ENTITIES
0
CIRCLE
5
100
100
AcDbEntity
8
0
100
AcDbCircle
10
137.49390325632757
20
-40.473258947395962
30
0
40
0.078740157480299305
210
0
220
0
230
1
0
CIRCLE
5
101
100
AcDbEntity
8
0
100
AcDbCircle
10
153.12095907002967
20
-43.426014852907763
30
0
40
0.078740157480299305
210
0
220
0
230
1
0
CIRCLE
5
102
100
AcDbEntity
8
0
100
AcDbCircle
10
137.49390325632754
20
-46.378770758419577
30
0
40
0.078740157480299305
210
0
220
0
230
1
0
CIRCLE
5
103
100
AcDbEntity
8
0
100
AcDbCircle
10
145.30743116317859
20
-51.239542759758841
30
0
40
0.078740157480321663
210
0
220
0
230
1
0
CIRCLE
5
104
100
AcDbEntity
8
0
100
AcDbCircle
10
148.26018706869039
20
-51.239542759758841
30
0
40
0.078740157480316056
210
0
220
0
230
1
0
CIRCLE
5
105
100
AcDbEntity
8
0
100
AcDbCircle
10
137.49390325632754
20
-43.426014852907763
30
0
40
0.078740157480299305
210
0
220
0
230
1
0
CIRCLE
5
106
100
AcDbEntity
8
0
100
AcDbCircle
10
148.26018706869044
20
-35.61248694605672
30
0
40
0.078740157480310505
210
0
220
0
230
1
0
CIRCLE
5
107
100
AcDbEntity
8
0
100
AcDbCircle
10
153.12095907002967
20
-46.378770758419591
30
0
40
0.078740157480310505
210
0
220
0
230
1
0
LWPOLYLINE
5
108
100
AcDbEntity
8
0
100
AcDbPolyline
90
4
70
1
43
0.0
10
148.39142455647828
20
-50.480638502898628
42
-0.99999999999999989
10
148.39142455647828
20
-50.791206465279224
10
146.93617505660043
20
-50.791206465279274
42
-0.99999999999999989
10
146.93617505660043
20
-50.480638502898628
0
LWPOLYLINE
5
109
100
AcDbEntity
8
0
100
AcDbPolyline
90
4
70
1
43
0.0
10
138.25280751318778
20
-42.698390102968887
42
0.99999999999999989
10
137.94223955080713
20
-42.698390102968915
10
137.94223955080722
20
-44.153639602846688
42
0.99999999999999989
10
138.25280751318778
20
-44.153639602846638
0
LWPOLYLINE
5
110
100
AcDbEntity
8
0
100
AcDbPolyline
90
4
70
1
43
0.0
10
142.22343776987893
20
-36.371391202916911
42
-0.99999999999999989
10
142.22343776987893
20
-36.060823240536315
10
143.67868726975675
20
-36.060823240536294
42
-0.99999999999999989
10
143.67868726975678
20
-36.371391202916897
0
LWPOLYLINE
5
111
100
AcDbEntity
8
0
100
AcDbPolyline
90
4
70
1
43
0.0
10
152.36205481316955
20
-41.797270959485921
10
152.36205481316955
20
-40.342021459608155
42
-0.99999999999999989
10
152.67262277555008
20
-40.342021459608155
10
152.67262277555008
20
-41.797270959485907
42
-0.99999999999999989
0
LWPOLYLINE
5
112
100
AcDbEntity
8
0
100
AcDbPolyline
90
4
70
1
43
0.0
10
144.57980641323974
20
-50.48063850289865
42
0.99999999999999989
10
144.57980641323974
20
-50.791206465279252
10
146.03505591311753
20
-50.791206465279238
42
0.99999999999999989
10
146.03505591311753
20
-50.480638502898664
0
LWPOLYLINE
5
113
100
AcDbEntity
8
0
100
AcDbPolyline
90
4
70
1
43
0.0
10
146.03505591311753
20
-36.371391202916847
42
0.99999999999999989
10
146.03505591311753
20
-36.060823240536287
10
144.57980641323974
20
-36.060823240536287
42
0.99999999999999989
10
144.57980641323974
20
-36.371391202916875
0
LWPOLYLINE
5
114
100
AcDbEntity
8
0
100
AcDbPolyline
90
4
70
1
43
0.0
10
152.36205481316944
20
-39.440902316125189
42
0.99999999999999989
10
152.67262277555008
20
-39.440902316125225
10
152.67262277555002
20
-39.235652816247345
42
0.99999999999999989
10
152.36205481316944
20
-39.235652816247416
0
LWPOLYLINE
5
115
100
AcDbEntity
8
0
100
AcDbPolyline
90
4
70
1
43
0.0
10
138.25280751318778
20
-40.342021459608134
42
0.99999999999999989
10
137.94223955080724
20
-40.342021459608162
10
137.94223955080722
20
-41.797270959485928
42
0.99999999999999989
10
138.25280751318778
20
-41.797270959485907
0
LWPOLYLINE
5
116
100
AcDbEntity
8
0
100
AcDbPolyline
90
4
70
1
43
0.0
10
149.29254369996119
20
-50.480638502898628
42
0.99999999999999989
10
149.29254369996113
20
-50.791206465279274
10
149.49779319983904
20
-50.791206465279217
42
0.99999999999999989
10
149.49779319983904
20
-50.480638502898643
0
LWPOLYLINE
5
117
100
AcDbEntity
8
0
100
AcDbPolyline
90
4
70
1
43
0.0
10
137.94223955080705
20
-47.411127389690371
10
137.94223955080713
20
-47.616376889568208
42
0.99999999999999989
10
138.25280751318778
20
-47.616376889568173
10
138.25280751318772
20
-47.411127389690392
42
0.99999999999999989
0
LWPOLYLINE
5
118
100
AcDbEntity
8
0
100
AcDbPolyline
90
4
70
1
43
0.0
10
141.1170691265182
20
-36.371391202916911
10
141.32231862639597
20
-36.371391202916911
42
0.99999999999999989
10
141.32231862639603
20
-36.060823240536273
10
141.11706912651815
20
-36.060823240536351
42
0.99999999999999989
0
LWPOLYLINE
5
119
100
AcDbEntity
8
0
100
AcDbPolyline
90
4
70
1
43
0.0
10
142.22343776987893
20
-50.791206465279203
10
143.67868726975686
20
-50.791206465279238
42
0.99999999999999989
10
143.67868726975667
20
-50.480638502898628
10
142.2234377698789
20
-50.48063850289865
42
0.99999999999999989
0
LWPOLYLINE
5
120
100
AcDbEntity
8
0
100
AcDbPolyline
90
4
70
1
43
0.0
10
152.36205481316955
20
-47.411127389690343
10
152.36205481316955
20
-47.616376889568151
42
0.99999999999999989
10
152.67262277555
20
-47.616376889568201
10
152.67262277555008
20
-47.411127389690343
42
0.99999999999999989
0
LWPOLYLINE
5
121
100
AcDbEntity
8
0
100
AcDbPolyline
90
4
70
1
43
0.0
10
141.11706912651815
20
-50.791206465279238
10
141.32231862639603
20
-50.791206465279274
42
0.99999999999999989
10
141.32231862639603
20
-50.480638502898721
10
141.1170691265182
20
-50.480638502898742
42
0.99999999999999989
0
LWPOLYLINE
5
122
100
AcDbEntity
8
0
100
AcDbPolyline
90
4
70
1
43
0.0
10
138.25280751318766
20
-39.235652816247395
42
0.99999999999999989
10
137.94223955080713
20
-39.235652816247381
10
137.9422395508071
20
-39.440902316125225
42
0.99999999999999989
10
138.25280751318766
20
-39.440902316125246
0
CIRCLE
5
123
100
AcDbEntity
8
0
100
AcDbCircle
10
142.35467525766683
20
-35.61248694605672
30
0
40
0.078740157480304898
210
0
220
0
230
1
0
CIRCLE
5
124
100
AcDbEntity
8
0
100
AcDbCircle
10
142.35467525766683
20
-51.239542759758841
30
0
40
0.078740157480321663
210
0
220
0
230
1
0
CIRCLE
5
125
100
AcDbEntity
8
0
100
AcDbCircle
10
145.30743116317859
20
-35.61248694605672
30
0
40
0.078740157480327269
210
0
220
0
230
1
0
LWPOLYLINE
5
126
100
AcDbEntity
8
0
100
AcDbPolyline
90
4
70
1
43
0.0
10
148.39142455647826
20
-36.060823240536322
42
-0.99999999999999989
10
148.39142455647826
20
-36.371391202916882
10
146.93617505660043
20
-36.371391202916925
42
-0.99999999999999989
10
146.93617505660043
20
-36.060823240536322
0
CIRCLE
5
127
100
AcDbEntity
8
0
100
AcDbCircle
10
153.12095907002967
20
-40.473258947395962
30
0
40
0.078740157480299305
210
0
220
0
230
1
0
LWPOLYLINE
5
128
100
AcDbEntity
8
0
100
AcDbPolyline
90
4
70
1
43
0.0
10
152.67262277555008
20
-45.054758746329597
42
0.99999999999999989
10
152.36205481316955
20
-45.054758746329618
10
152.36205481316944
20
-46.510008246207434
42
0.99999999999999989
10
152.67262277555005
20
-46.510008246207441
0
LWPOLYLINE
5
129
100
AcDbEntity
8
0
100
AcDbPolyline
90
4
70
1
43
0.0
10
138.25280751318778
20
-45.054758746329625
42
0.99999999999999989
10
137.94223955080713
20
-45.054758746329618
10
137.94223955080713
20
-46.51000824620742
42
0.99999999999999989
10
138.25280751318778
20
-46.51000824620742
0
LWPOLYLINE
5
130
100
AcDbEntity
8
0
100
AcDbPolyline
90
6
70
1
43
0.0
10
146.28179090103413
20
-43.147626356377607
42
0.41421356237317158
10
146.2817909010341
20
-43.704403349437918
10
150.95220780374132
20
-48.37482025214512
42
0.6681786379193646
10
151.62429708767297
20
-48.096431755615015
10
151.62429708767297
20
-38.755597950200531
42
0.66817863791932686
10
150.95220780374132
20
-38.477209453670405
0
LWPOLYLINE
5
131
100
AcDbEntity
8
0
100
AcDbPolyline
90
4
70
1
43
0.0
10
152.67262277555008
20
-44.15363960284666
10
152.67262277555008
20
-42.698390102968865
42
0.99999999999999989
10
152.36205481316955
20
-42.698390102968901
10
152.36205481316955
20
-44.15363960284666
42
0.99999999999999989
0
LWPOLYLINE
5
132
100
AcDbEntity
8
0
100
AcDbPolyline
90
6
70
1
43
0.0
10
139.66265452261584
20
-48.37482025214517
10
144.33307142532308
20
-43.704403349437939
42
0.41421356237313917
10
144.33307142532308
20
-43.147626356377621
10
139.66265452261584
20
-38.477209453670433
42
0.66817863791934773
10
138.99056523868413
20
-38.755597950200531
10
138.99056523868418
20
-48.096431755615036
42
0.66817863791929677
0
LWPOLYLINE
5
133
100
AcDbEntity
8
0
100
AcDbPolyline
90
6
70
1
43
0.0
10
149.97784806588584
20
-49.742880777402185
42
0.66817863791927479
10
150.25623656241595
20
-49.07079149347048
10
145.58581965970873
20
-44.400374590763242
42
0.41421356237303619
10
145.02904266664845
20
-44.400374590763242
10
140.35862576394123
20
-49.070791493470495
42
0.66817863791926024
10
140.63701426047135
20
-49.74288077740222
0
LWPOLYLINE
5
134
100
AcDbEntity
8
0
100
AcDbPolyline
90
6
70
1
43
0.0
10
140.63701426047135
20
-37.109148928413376
42
0.66817863791931942
10
140.35862576394121
20
-37.78123821234508
10
145.02904266664845
20
-42.451655115052304
42
0.41421356237305385
10
145.5858196597087
20
-42.451655115052304
10
150.25623656241595
20
-37.781238212345052
42
0.66817863791927479
10
149.97784806588584
20
-37.109148928413354
0
LWPOLYLINE
5
135
100
AcDbEntity
8
0
100
AcDbPolyline
90
4
70
1
43
0.0
10
149.29254369996113
20
-36.060823240536273
42
0.99999999999999989
10
149.29254369996119
20
-36.371391202916854
10
149.49779319983895
20
-36.371391202916818
42
0.99999999999999989
10
149.49779319983895
20
-36.060823240536337
0
LWPOLYLINE
5
136
100
AcDbEntity
8
0
100
AcDbPolyline
90
72
70
1
43
0.0
10
140.08344020988264
20
-50.376854228847336
42
-0.23771991249640295
10
140.24418786835994
20
-50.457857631021852
42
0.10431202423642107
10
140.29281183907491
20
-50.500995207749312
42
-0.57792786830667042
10
140.29413720122847
20
-50.770086092140964
42
0.26686185220909553
10
140.21594998303527
20
-50.906147307794427
10
140.21594998303527
20
-51.371478774620954
42
0.41421356237319906
10
140.3734302979959
20
-51.528959089581576
10
150.24143202836132
20
-51.528959089581562
42
0.41421356237315748
10
150.39891234332191
20
-51.371478774620897
10
150.39891234332191
20
-50.90614730779442
42
0.26686185220910685
10
150.32072512512872
20
-50.770086092140851
42
-0.57792786830664633
10
150.3220504872823
20
-50.50099520774922
42
0.1043120242364904
10
150.37067445799718
20
-50.457857631021788
42
-0.23771991249622443
10
150.53142211647452
20
-50.376854228847336
10
151.40531223340327
20
-50.376854228847336
42
0.34825539901137798
10
151.60003103657212
20
-50.222511514054425
42
-0.28489327547000121
10
152.10392782432527
20
-49.71861472630129
42
0.34825539901134595
10
152.25827053911814
20
-49.523895923132422
10
152.25827053911814
20
-48.650005806203723
42
-0.23771991249644844
10
152.33927394129265
20
-48.48925814772636
42
0.10431202423679489
10
152.38241151802012
20
-48.440634177011461
42
-0.57792786830655274
10
152.65150240241175
20
-48.439308814857881
42
0.26686185220917835
10
152.78756361806524
20
-48.517496033051067
10
153.25289508489178
20
-48.517496033051081
42
0.41421356237295975
10
153.4103753998524
20
-48.360015718090445
10
153.41037539985234
20
-38.492013987725073
42
0.41421356237314705
10
153.25289508489172
20
-38.334533672764444
10
152.78756361806518
20
-38.334533672764437
42
0.26686185220914538
10
152.65150240241161
20
-38.412720890957637
42
-0.5779278683065221
10
152.38241151802006
20
-38.411395528804078
42
0.10431202423672209
10
152.33927394129262
20
-38.362771558089186
42
-0.23771991249636423
10
152.25827053911814
20
-38.202023899611852
10
152.25827053911814
20
-37.328133782683125
42
0.34825539901134955
10
152.10392782432527
20
-37.133414979514242
42
-0.2848932754699407
10
151.60003103657212
20
-36.629518191761115
42
0.34825539901147884
10
151.40531223340324
20
-36.475175476968211
10
150.53142211647452
20
-36.475175476968225
42
-0.23771991249636099
10
150.37067445799718
20
-36.394172074793723
42
0.10431202423694023
10
150.32205048728227
20
-36.351034498066269
42
-0.57792786830659315
10
150.32072512512869
20
-36.081943613674611
42
0.26686185220907233
10
150.39891234332191
20
-35.945882398021133
10
150.39891234332191
20
-35.480550931194614
42
0.4142135623730846
10
150.2414320283612
20
-35.323070616233984
10
140.3734302979959
20
-35.323070616234006
42
0.41421356237314705
10
140.21594998303524
20
-35.480550931194649
10
140.21594998303527
20
-35.945882398021148
42
0.2668618522091451
10
140.29413720122847
20
-36.081943613674746
42
-0.57792786830647946
10
140.29281183907489
20
-36.351034498066333
42
0.10431202423656612
10
140.24418786836
20
-36.394172074793772
42
-0.23771991249636734
10
140.08344020988267
20
-36.475175476968211
10
139.20955009295395
20
-36.475175476968211
42
0.34825539901147118
10
139.01483128978506
20
-36.629518191761122
42
-0.28489327546996085
10
138.51093450203194
20
-37.133414979514257
42
0.34825539901150987
10
138.35659178723901
20
-37.328133782683146
10
138.35659178723901
20
-38.202023899611824
42
-0.23771991249636523
10
138.27558838506448
20
-38.362771558089186
42
0.10431202423680296
10
138.23245080833709
20
-38.411395528804086
42
-0.57792786830649334
10
137.96335992394543
20
-38.412720890957679
42
0.26686185220910486
10
137.82729870829192
20
-38.334533672764465
10
137.36196724146538
20
-38.334533672764472
42
0.41421356237288692
10
137.20448692650479
20
-38.492013987725109
10
137.20448692650479
20
-48.360015718090494
42
0.41421356237318868
10
137.36196724146546
20
-48.517496033051117
10
137.82729870829192
20
-48.517496033051131
42
0.26686185220893466
10
137.96335992394552
20
-48.439308814857938
42
-0.57792786830644538
10
138.23245080833715
20
-48.440634177011482
42
0.10431202423639981
10
138.27558838506457
20
-48.489258147726382
42
-0.23771991249627658
10
138.35659178723901
20
-48.650005806203716
10
138.35659178723901
20
-49.523895923132429
42
0.34825539901147501
10
138.51093450203194
20
-49.718614726301325
42
-0.28489327546996546
10
139.01483128978506
20
-50.222511514054432
42
0.3482553990114865
10
139.20955009295395
20
-50.376854228847364
0
ENDSEC
0
SECTION
2
OBJECTS
0
DICTIONARY
5
C
100
AcDbDictionary
3
ACAD_GROUP
350
D
3
ACAD_MLINESTYLE
350
17
0
DICTIONARY
5
D
100
AcDbDictionary
0
DICTIONARY
5
1A
330
C
100
AcDbDictionary
0
DICTIONARY
5
17
100
AcDbDictionary
0
ENDSEC
0
EOF
