0
SECTION
2
HEADER
9
$INSUNITS
70
1
9
$ACADVER
1
AC1014
9
$HANDSEED
5
FFFF
0
ENDSEC
0
SECTION
2
TABLES
0
TABLE
2
VPORT
5
8
100
AcDbSymbolTable
0
ENDTAB
0
TABLE
2
LTYPE
5
5
100
AcDbSymbolTable
0
LTYPE
5
14
100
AcDbSymbolTableRecord
100
AcDbLinetypeTableRecord
2
BYBLOCK
70
0
0
LTYPE
5
15
100
AcDbSymbolTableRecord
100
AcDbLinetypeTableRecord
2
BYLAYER
70
0
0
ENDTAB
0
TABLE
2
LAYER
5
2
100
AcDbSymbolTable
70
2
0
LAYER
5
50
100
AcDbSymbolTableRecord
100
AcDbLayerTableRecord
2
0
70
0
6
CONTINUOUS
0
ENDTAB
0
TABLE
2
STYLE
5
3
100
AcDbSymbolTable
70
1
0
STYLE
5
11
100
AcDbSymbolTableRecord
100
AcDbTextStyleTableRecord
2
STANDARD
70
0
0
ENDTAB
0
TABLE
2
VIEW
5
6
100
AcDbSymbolTable
70
0
0
ENDTAB
0
TABLE
2
UCS
5
7
100
AcDbSymbolTable
70
0
0
ENDTAB
0
TABLE
2
APPID
5
9
100
AcDbSymbolTable
70
2
0
APPID
5
12
100
AcDbSymbolTableRecord
100
AcDbRegAppTableRecord
2
ACAD
70
0
0
ENDTAB
0
TABLE
2
DIMSTYLE
5
A
100
AcDbSymbolTable
70
1
0
ENDTAB
0
TABLE
2
BLOCK_RECORD
5
1
100
AcDbSymbolTable
70
1
0
BLOCK_RECORD
5
1F
100
AcDbSymbolTableRecord
100
AcDbBlockTableRecord
2
*MODEL_SPACE
0
BLOCK_RECORD
5
1B
100
AcDbSymbolTableRecord
100
AcDbBlockTableRecord
2
*PAPER_SPACE
0
ENDTAB
0
ENDSEC
0
SECTION
2
BLOCKS
0
BLOCK
5
20
100
AcDbEntity
100
AcDbBlockBegin
2
*MODEL_SPACE
0
ENDBLK
5
21
100
AcDbEntity
100
AcDbBlockEnd
0
BLOCK
5
1C
100
AcDbEntity
100
AcDbBlockBegin
2
*PAPER_SPACE
0
ENDBLK
5
1D
100
AcDbEntity
100
AcDbBlockEnd
0
ENDSEC
0
SECTION
2
ENTITIES
0
CIRCLE
5
100
100
AcDbEntity
8
0
100
AcDbCircle
10
5.0993064931416887
20
-14.600393818509536
30
0
40
0.10500000000000008
210
-0
220
0
230
1
0
SPLINE
5
101
100
AcDbEntity
8
0
100
AcDbSpline
70
4
71
3
72
8
73
4
74
0
42
0.000000001
43
0.0000000001
44
0.0000000001
40
0
40
0
40
0
40
0
40
1
40
1
40
1
40
1
41
1
41
1
41
1
41
1
10
4.9850752696316114
20
-11.910391654214964
30
0
10
4.6475042469043411
20
-12.20968142694224
30
0
10
4.5744218605407072
20
-12.378466938305877
30
0
10
4.710146292358889
20
-12.543772336033145
30
0
0
SPLINE
5
102
100
AcDbEntity
8
0
100
AcDbSpline
70
4
71
3
72
8
73
4
74
0
42
0.000000001
43
0.0000000001
44
0.0000000001
40
0
40
0
40
0
40
0
40
1
40
1
40
1
40
1
41
1
41
1
41
1
41
1
10
4.710146292358889
20
-12.543772336033145
30
0
10
4.7867087923588887
20
-12.637735404214967
30
0
10
4.8858920309952536
20
-12.655135972396785
30
0
10
5.0059559514497982
20
-12.594233983760418
30
0
0
SPLINE
5
103
100
AcDbEntity
8
0
100
AcDbSpline
70
4
71
3
72
8
73
4
74
0
42
0.000000001
43
0.0000000001
44
0.0000000001
40
0
40
0
40
0
40
0
40
1
40
1
40
1
40
1
41
1
41
1
41
1
41
1
10
5.0059559514497982
20
-12.594233983760418
30
0
10
5.032056803722524
20
-12.582053586033144
30
0
10
5.0633778264497957
20
-12.554212676942237
30
0
10
5.0738181673588869
20
-12.531591938305876
30
0
0
SPLINE
5
104
100
AcDbEntity
8
0
100
AcDbSpline
70
4
71
3
72
8
73
4
74
0
42
0.000000001
43
0.0000000001
44
0.0000000001
40
0
40
0
40
0
40
0
40
1
40
1
40
1
40
1
41
1
41
1
41
1
41
1
10
5.0738181673588869
20
-12.531591938305876
30
0
10
5.0842585082679781
20
-12.510711256487694
30
0
10
5.0964389059952522
20
-12.489830574669512
30
0
10
5.0999190196316126
20
-12.486350461033146
30
0
0
SPLINE
5
105
100
AcDbEntity
8
0
100
AcDbSpline
70
4
71
3
72
8
73
4
74
0
42
0.000000001
43
0.0000000001
44
0.0000000001
40
0
40
0
40
0
40
0
40
1
40
1
40
1
40
1
41
1
41
1
41
1
41
1
10
5.0999190196316126
20
-12.486350461033146
30
0
10
5.1016590764497982
20
-12.482870347396785
30
0
10
5.1347201559952493
20
-12.512451313305874
30
0
10
5.1730014059952492
20
-12.552472620124057
30
0
0
SPLINE
5
106
100
AcDbEntity
8
0
100
AcDbSpline
70
4
71
3
72
8
73
4
74
0
42
0.000000001
43
0.0000000001
44
0.0000000001
40
0
40
0
40
0
40
0
40
1
40
1
40
1
40
1
41
1
41
1
41
1
41
1
10
5.1730014059952492
20
-12.552472620124057
30
0
10
5.2408636219043423
20
-12.62381494966951
30
0
10
5.2756647582679799
20
-12.635995347396781
30
0
10
5.3852883378134333
20
-12.625555006487691
30
0
0
SPLINE
5
107
100
AcDbEntity
8
0
100
AcDbSpline
70
4
71
3
72
8
73
4
74
0
42
0.000000001
43
0.0000000001
44
0.0000000001
40
0
40
0
40
0
40
0
40
1
40
1
40
1
40
1
41
1
41
1
41
1
41
1
10
5.3852883378134333
20
-12.625555006487691
30
0
10
5.4862116332679776
20
-12.616854722396782
30
0
10
5.5766945878134315
20
-12.505491086033146
30
0
10
5.5766945878134315
20
-12.388907279214964
30
0
0
SPLINE
5
108
100
AcDbEntity
8
0
100
AcDbSpline
70
4
71
3
72
8
73
4
74
0
42
0.000000001
43
0.0000000001
44
0.0000000001
40
0
40
0
40
0
40
0
40
1
40
1
40
1
40
1
41
1
41
1
41
1
41
1
10
5.5766945878134315
20
-12.388907279214964
30
0
10
5.5749545309952513
20
-12.275803586033144
30
0
10
5.5175326559952493
20
-12.174880290578599
30
0
10
5.3678877696316114
20
-12.030455574669512
30
0
0
SPLINE
5
109
100
AcDbEntity
8
0
100
AcDbSpline
70
4
71
3
72
8
73
4
74
0
42
0.000000001
43
0.0000000001
44
0.0000000001
40
0
40
0
40
0
40
0
40
1
40
1
40
1
40
1
41
1
41
1
41
1
41
1
10
5.3678877696316114
20
-12.030455574669512
30
0
10
5.2913252696316153
20
-11.955633131487692
30
0
10
5.2025823719043416
20
-11.873850461033147
30
0
10
5.1677812355407022
20
-11.849489665578602
30
0
0
LINE
5
110
100
AcDbEntity
8
0
100
AcDbLine
10
5.1677812355407022
20
-11.8494896655786
30
0
11
5.1068792469043389
21
-11.802508131487693
31
0
0
LINE
5
111
100
AcDbEntity
8
0
100
AcDbLine
10
5.1068792469043389
20
-11.802508131487693
30
0
11
4.9850752696316114
21
-11.910391654214964
31
0
0
SPLINE
5
112
100
AcDbEntity
8
0
100
AcDbSpline
70
4
71
3
72
8
73
4
74
0
42
0.000000001
43
0.0000000001
44
0.0000000001
40
0
40
0
40
0
40
0
40
1
40
1
40
1
40
1
41
1
41
1
41
1
41
1
10
4.0332641900861601
20
-14.938090517851325
30
0
10
3.8957997014497923
20
-14.938090517851327
30
0
10
3.8505582241770671
20
-14.932870347396779
30
0
10
3.8296775423588842
20
-14.910249608760418
30
0
0
SPLINE
5
113
100
AcDbEntity
8
0
100
AcDbSpline
70
4
71
3
72
8
73
4
74
0
42
0.000000001
43
0.0000000001
44
0.0000000001
40
0
40
0
40
0
40
0
40
1
40
1
40
1
40
1
41
1
41
1
41
1
41
1
10
3.8296775423588842
20
-14.910249608760418
30
0
10
3.8053167469043387
20
-14.887628870124054
30
0
10
3.8018366332679761
20
-14.818026597396786
30
0
10
3.8018366332679761
20
-14.426513813305878
30
0
0
LINE
5
114
100
AcDbEntity
8
0
100
AcDbLine
10
3.8018366332679761
20
-14.426513813305878
30
0
11
3.8018366332679761
21
-13.968878870124058
31
0
0
LINE
5
115
100
AcDbEntity
8
0
100
AcDbLine
10
3.8018366332679761
20
-13.968878870124058
30
0
11
3.5251675991770663
21
-13.723530858760419
31
0
0
SPLINE
5
116
100
AcDbEntity
8
0
100
AcDbSpline
70
4
71
3
72
8
73
4
74
0
42
0.000000001
43
0.0000000001
44
0.0000000001
40
0
40
0
40
0
40
0
40
1
40
1
40
1
40
1
41
1
41
1
41
1
41
1
10
3.5251675991770663
20
-13.723530858760419
30
0
10
3.2345781105407028
20
-13.466002449669512
30
0
10
3.1893366332679776
20
-13.406840517851331
30
0
10
3.1614957241770689
20
-13.248495347396785
30
0
0
SPLINE
5
117
100
AcDbEntity
8
0
100
AcDbSpline
70
4
71
3
72
8
73
4
74
0
42
0.000000001
43
0.0000000001
44
0.0000000001
40
0
40
0
40
0
40
0
40
1
40
1
40
1
40
1
41
1
41
1
41
1
41
1
10
3.1614957241770689
20
-13.248495347396785
30
0
10
3.1423550991770695
20
-13.140611824669511
30
0
10
3.161495724177072
20
-13.029248188305875
30
0
10
3.2067372014497972
20
-12.984006711033148
30
0
0
SPLINE
5
118
100
AcDbEntity
8
0
100
AcDbSpline
70
4
71
3
72
8
73
4
74
0
42
0.000000001
43
0.0000000001
44
0.0000000001
40
0
40
0
40
0
40
0
40
1
40
1
40
1
40
1
41
1
41
1
41
1
41
1
10
3.2067372014497972
20
-12.984006711033148
30
0
10
3.2432783946316142
20
-12.949205574669511
30
0
10
3.264159076449797
20
-12.945725461033147
30
0
10
3.5147272582679778
20
-12.940505290578603
30
0
0
LINE
5
119
100
AcDbEntity
8
0
100
AcDbLine
10
3.5147272582679778
20
-12.940505290578603
30
0
11
3.7826960082679788
21
-12.933545063305877
31
0
0
LINE
5
120
100
AcDbEntity
8
0
100
AcDbLine
10
3.7826960082679788
20
-12.933545063305877
30
0
11
3.7879161787225231
21
-11.879070631487693
31
0
0
SPLINE
5
121
100
AcDbEntity
8
0
100
AcDbSpline
70
4
71
3
72
8
73
4
74
0
42
0.000000001
43
0.0000000001
44
0.0000000001
40
0
40
0
40
0
40
0
40
1
40
1
40
1
40
1
41
1
41
1
41
1
41
1
10
3.7879161787225231
20
-11.879070631487693
30
0
10
3.793136349177066
20
-10.887238245124056
30
0
10
3.7948764059952489
20
-10.819376029214968
30
0
10
3.8261974287225202
20
-10.761954154214967
30
0
0
SPLINE
5
122
100
AcDbEntity
8
0
100
AcDbSpline
70
4
71
3
72
8
73
4
74
0
42
0.000000001
43
0.0000000001
44
0.0000000001
40
0
40
0
40
0
40
0
40
1
40
1
40
1
40
1
41
1
41
1
41
1
41
1
10
3.8261974287225202
20
-10.761954154214967
30
0
10
3.8714389059952485
20
-10.676691370124058
30
0
10
3.9375610650861592
20
-10.608829154214968
30
0
10
4.019343735540704
20
-10.565327733760421
30
0
0
SPLINE
5
123
100
AcDbEntity
8
0
100
AcDbSpline
70
4
71
3
72
8
73
4
74
0
42
0.000000001
43
0.0000000001
44
0.0000000001
40
0
40
0
40
0
40
0
40
1
40
1
40
1
40
1
41
1
41
1
41
1
41
1
10
4.019343735540704
20
-10.565327733760421
30
0
10
4.0889460082679756
20
-10.527046483760419
30
0
10
4.0976462923588866
20
-10.527046483760419
30
0
10
5.0981789628134306
20
-10.527046483760417
30
0
0
SPLINE
5
124
100
AcDbEntity
8
0
100
AcDbSpline
70
4
71
3
72
8
73
4
74
0
42
0.000000001
43
0.0000000001
44
0.0000000001
40
0
40
0
40
0
40
0
40
1
40
1
40
1
40
1
41
1
41
1
41
1
41
1
10
5.0981789628134306
20
-10.527046483760417
30
0
10
6.2083352128134344
20
-10.527046483760419
30
0
10
6.1857144741770682
20
-10.52530642694224
30
0
10
6.2988181673588848
20
-10.634930006487693
30
0
0
SPLINE
5
125
100
AcDbEntity
8
0
100
AcDbSpline
70
4
71
3
72
8
73
4
74
0
42
0.000000001
43
0.0000000001
44
0.0000000001
40
0
40
0
40
0
40
0
40
1
40
1
40
1
40
1
41
1
41
1
41
1
41
1
10
6.2988181673588848
20
-10.634930006487693
30
0
10
6.4345425991770728
20
-10.76543426785133
30
0
10
6.4293224287225241
20
-10.713232563305873
30
0
10
6.4293224287225188
20
-11.887770915578601
30
0
0
LINE
5
126
100
AcDbEntity
8
0
100
AcDbLine
10
6.4293224287225188
20
-11.887770915578599
30
0
11
6.4293224287225188
21
-12.933545063305873
31
0
0
LINE
5
127
100
AcDbEntity
8
0
100
AcDbLine
10
6.4293224287225188
20
-12.933545063305873
30
0
11
6.6990312355406996
21
-12.940505290578599
31
0
0
SPLINE
5
128
100
AcDbEntity
8
0
100
AcDbSpline
70
4
71
3
72
8
73
4
74
0
42
0.000000001
43
0.0000000001
44
0.0000000001
40
0
40
0
40
0
40
0
40
1
40
1
40
1
40
1
41
1
41
1
41
1
41
1
10
6.6990312355406996
20
-12.940505290578599
30
0
10
6.9669999855407028
20
-12.945725461033145
30
0
10
6.9687400423588803
20
-12.945725461033145
30
0
10
7.0157215764497938
20
-12.994447051942238
30
0
0
SPLINE
5
129
100
AcDbEntity
8
0
100
AcDbSpline
70
4
71
3
72
8
73
4
74
0
42
0.000000001
43
0.0000000001
44
0.0000000001
40
0
40
0
40
0
40
0
40
1
40
1
40
1
40
1
41
1
41
1
41
1
41
1
10
7.0157215764497938
20
-12.994447051942238
30
0
10
7.059222996904337
20
-13.037948472396781
30
0
10
7.0644431673588848
20
-13.053608983760418
30
0
10
7.0644431673588848
20
-13.15975244966951
30
0
0
SPLINE
5
130
100
AcDbEntity
8
0
100
AcDbSpline
70
4
71
3
72
8
73
4
74
0
42
0.000000001
43
0.0000000001
44
0.0000000001
40
0
40
0
40
0
40
0
40
1
40
1
40
1
40
1
41
1
41
1
41
1
41
1
10
7.0644431673588848
20
-13.15975244966951
30
0
10
7.0627031105407028
20
-13.279816370124054
30
0
10
7.0192016900861596
20
-13.410320631487693
30
0
10
6.9548195878134287
20
-13.48340301785133
30
0
0
SPLINE
5
131
100
AcDbEntity
8
0
100
AcDbSpline
70
4
71
3
72
8
73
4
74
0
42
0.000000001
43
0.0000000001
44
0.0000000001
40
0
40
0
40
0
40
0
40
1
40
1
40
1
40
1
41
1
41
1
41
1
41
1
10
6.9548195878134287
20
-13.48340301785133
30
0
10
6.914798280995246
20
-13.526904438305875
30
0
10
5.5349332241770659
20
-14.758864665578601
30
0
10
5.4461903264497957
20
-14.828466938305871
30
0
0
SPLINE
5
132
100
AcDbEntity
8
0
100
AcDbSpline
70
4
71
3
72
8
73
4
74
0
42
0.000000001
43
0.0000000001
44
0.0000000001
40
0
40
0
40
0
40
0
40
1
40
1
40
1
40
1
41
1
41
1
41
1
41
1
10
5.4461903264497957
20
-14.828466938305871
30
0
10
5.2948053832679767
20
-14.946790801942235
30
0
10
5.0390170309952502
20
-14.969411540578601
30
0
10
4.8580511219043396
20
-14.878928586033146
30
0
0
SPLINE
5
133
100
AcDbEntity
8
0
100
AcDbSpline
70
4
71
3
72
8
73
4
74
0
42
0.000000001
43
0.0000000001
44
0.0000000001
40
0
40
0
40
0
40
0
40
1
40
1
40
1
40
1
41
1
41
1
41
1
41
1
10
4.8580511219043396
20
-14.878928586033146
30
0
10
4.8093295309952486
20
-14.852827733760419
30
0
10
4.6544644741770673
20
-14.731023756487689
30
0
10
4.5152599287225197
20
-14.607479722396782
30
0
0
LINE
5
134
100
AcDbEntity
8
0
100
AcDbLine
10
4.5152599287225197
20
-14.607479722396782
30
0
11
4.2629516900861582
21
-14.381272336033144
31
0
0
LINE
5
135
100
AcDbEntity
8
0
100
AcDbLine
10
4.2629516900861582
20
-14.381272336033144
30
0
11
4.257731519631613
21
-14.645760972396781
31
0
0
SPLINE
5
136
100
AcDbEntity
8
0
100
AcDbSpline
70
4
71
3
72
8
73
4
74
0
42
0.000000001
43
0.0000000001
44
0.0000000001
40
0
40
0
40
0
40
0
40
1
40
1
40
1
40
1
41
1
41
1
41
1
41
1
10
4.257731519631613
20
-14.645760972396781
30
0
10
4.2542514059952472
20
-14.830206995124055
30
0
10
4.2472911787225209
20
-14.913729722396784
30
0
10
4.2316306673588846
20
-14.924170063305876
30
0
0
SPLINE
5
137
100
AcDbEntity
8
0
100
AcDbSpline
70
4
71
3
72
8
73
4
74
0
42
0.000000001
43
0.0000000001
44
0.0000000001
40
0
40
0
40
0
40
0
40
1
40
1
40
1
40
1
41
1
41
1
41
1
41
1
10
4.2316306673588846
20
-14.924170063305876
30
0
10
4.2211903264497925
20
-14.931130290578603
30
0
10
4.1307073719043395
20
-14.938090517851325
30
0
10
4.0332641900861601
20
-14.938090517851325
30
0
0
CIRCLE
5
138
100
AcDbEntity
8
0
100
AcDbCircle
10
3.0898308780799257
20
-12.411146444360856
30
0
40
0.10500000000000005
210
0
220
0
230
1
0
SPLINE
5
139
100
AcDbEntity
8
0
100
AcDbSpline
70
4
71
3
72
8
73
4
74
0
42
0.000000001
43
0.0000000001
44
0.0000000001
40
0
40
0
40
0
40
0
40
1
40
1
40
1
40
1
41
1
41
1
41
1
41
1
10
0.022544024612283969
20
-13.424752306984711
30
0
10
0.10954686552137477
20
-13.454333272893802
30
0
10
0.20699004733955692
20
-13.400391511530163
30
0
10
0.23135084279410245
20
-13.308168500166529
30
0
0
SPLINE
5
140
100
AcDbEntity
8
0
100
AcDbSpline
70
4
71
3
72
8
73
4
74
0
42
0.000000001
43
0.0000000001
44
0.0000000001
40
0
40
0
40
0
40
0
40
1
40
1
40
1
40
1
41
1
41
1
41
1
41
1
10
0.23135084279410245
20
-13.308168500166529
30
0
10
0.24005112688501096
20
-13.26988725016653
30
0
10
0.22613067233955678
20
-13.175924181984707
30
0
10
0.2052499905213741
20
-13.141123045621073
30
0
0
SPLINE
5
141
100
AcDbEntity
8
0
100
AcDbSpline
70
4
71
3
72
8
73
4
74
0
42
0.000000001
43
0.0000000001
44
0.0000000001
40
0
40
0
40
0
40
0
40
1
40
1
40
1
40
1
41
1
41
1
41
1
41
1
10
0.2052499905213741
20
-13.141123045621073
30
0
10
0.17740908143046571
20
-13.097621625166525
30
0
10
0.083446013248646408
20
-13.066300602439256
30
0
10
0.0016633427941012827
20
-13.073260829711982
30
0
0
SPLINE
5
142
100
AcDbEntity
8
0
100
AcDbSpline
70
4
71
3
72
8
73
4
74
0
42
0.000000001
43
0.0000000001
44
0.0000000001
40
0
40
0
40
0
40
0
40
1
40
1
40
1
40
1
41
1
41
1
41
1
41
1
10
0.0016633427941012827
20
-13.073260829711982
30
0
10
-0.1845227367513517
20
-13.092401454711982
30
0
10
-0.34634802084226191
20
-13.315128727439255
30
0
10
-0.29588637311499083
20
-13.485654295621071
30
0
0
SPLINE
5
143
100
AcDbEntity
8
0
100
AcDbSpline
70
4
71
3
72
8
73
4
74
0
42
0.000000001
43
0.0000000001
44
0.0000000001
40
0
40
0
40
0
40
0
40
1
40
1
40
1
40
1
41
1
41
1
41
1
41
1
10
-0.29588637311499083
20
-13.485654295621071
30
0
10
-0.27326563447862812
20
-13.556996625166526
30
0
10
-0.27326563447862812
20
-13.556996625166526
30
0
10
-0.13928125947862907
20
-13.52915571607562
30
0
0
LINE
5
144
100
AcDbEntity
8
0
100
AcDbLine
10
-0.13928125947862904
20
-13.52915571607562
30
0
11
-0.099259952660443712
21
-13.520455431984709
31
0
0
LINE
5
145
100
AcDbEntity
8
0
100
AcDbLine
10
-0.099259952660443712
20
-13.520455431984709
30
0
11
-0.13580114584226341
21
-13.475213954711979
31
0
0
SPLINE
5
146
100
AcDbEntity
8
0
100
AcDbSpline
70
4
71
3
72
8
73
4
74
0
42
0.000000001
43
0.0000000001
44
0.0000000001
40
0
40
0
40
0
40
0
40
1
40
1
40
1
40
1
41
1
41
1
41
1
41
1
10
-0.13580114584226341
20
-13.475213954711979
30
0
10
-0.15842188447862332
20
-13.445632988802894
30
0
10
-0.17060228220589749
20
-13.405611681984711
30
0
10
-0.17060228220589749
20
-13.353409977439254
30
0
0
SPLINE
5
147
100
AcDbEntity
8
0
100
AcDbSpline
70
4
71
3
72
8
73
4
74
0
42
0.000000001
43
0.0000000001
44
0.0000000001
40
0
40
0
40
0
40
0
40
1
40
1
40
1
40
1
41
1
41
1
41
1
41
1
10
-0.17060228220589749
20
-13.353409977439254
30
0
10
-0.17060228220589749
20
-13.287287818348346
30
0
10
-0.16190199811498898
20
-13.266407136530164
30
0
10
-0.11144035038771508
20
-13.215945488802889
30
0
0
SPLINE
5
148
100
AcDbEntity
8
0
100
AcDbSpline
70
4
71
3
72
8
73
4
74
0
42
0.000000001
43
0.0000000001
44
0.0000000001
40
0
40
0
40
0
40
0
40
1
40
1
40
1
40
1
41
1
41
1
41
1
41
1
10
-0.11144035038771508
20
-13.215945488802889
30
0
10
-0.048798304933172609
20
-13.153303443348348
30
0
10
0.0086235700668297784
20
-13.141123045621073
30
0
10
0.060825274612283702
20
-13.181144352439256
30
0
0
SPLINE
5
149
100
AcDbEntity
8
0
100
AcDbSpline
70
4
71
3
72
8
73
4
74
0
42
0.000000001
43
0.0000000001
44
0.0000000001
40
0
40
0
40
0
40
0
40
1
40
1
40
1
40
1
41
1
41
1
41
1
41
1
10
0.060825274612283702
20
-13.181144352439256
30
0
10
0.11476703597591764
20
-13.222905716075621
30
0
10
0.0904062405213749
20
-13.283807704711981
30
0
10
0.012103683703192626
20
-13.299468216075615
30
0
0
SPLINE
5
150
100
AcDbEntity
8
0
100
AcDbSpline
70
4
71
3
72
8
73
4
74
0
42
0.000000001
43
0.0000000001
44
0.0000000001
40
0
40
0
40
0
40
0
40
1
40
1
40
1
40
1
41
1
41
1
41
1
41
1
10
0.012103683703192626
20
-13.299468216075615
30
0
10
-0.043578134478624145
20
-13.309908556984713
30
0
10
-0.036617907205898442
20
-13.403871625166529
30
0
10
0.022544024612283969
20
-13.424752306984711
30
0
0
SPLINE
5
151
100
AcDbEntity
8
0
100
AcDbSpline
70
4
71
3
72
8
73
4
74
0
42
0.000000001
43
0.0000000001
44
0.0000000001
40
0
40
0
40
0
40
0
40
1
40
1
40
1
40
1
41
1
41
1
41
1
41
1
10
-0.12188069129680712
20
-11.7508176478938
30
0
10
-0.040098020842264791
20
-11.801279295621072
30
0
10
0.090406240521374207
20
-11.803019352439254
30
0
10
0.15652839961228232
20
-11.752557704711981
30
0
0
SPLINE
5
152
100
AcDbEntity
8
0
100
AcDbSpline
70
4
71
3
72
8
73
4
74
0
42
0.000000001
43
0.0000000001
44
0.0000000001
40
0
40
0
40
0
40
0
40
1
40
1
40
1
40
1
41
1
41
1
41
1
41
1
10
0.15652839961228232
20
-11.752557704711981
30
0
10
0.24005112688501026
20
-11.689915659257437
30
0
10
0.25919175188501153
20
-11.554191227439251
30
0
10
0.19132953597592059
20
-11.474148613802891
30
0
0
SPLINE
5
153
100
AcDbEntity
8
0
100
AcDbSpline
70
4
71
3
72
8
73
4
74
0
42
0.000000001
43
0.0000000001
44
0.0000000001
40
0
40
0
40
0
40
0
40
1
40
1
40
1
40
1
41
1
41
1
41
1
41
1
10
0.19132953597592059
20
-11.474148613802891
30
0
10
0.15652839961228371
20
-11.430647193348342
30
0
10
0.097366467794101297
20
-11.416726738802891
30
0
10
0.03124430870319319
20
-11.435867363802892
30
0
0
SPLINE
5
154
100
AcDbEntity
8
0
100
AcDbSpline
70
4
71
3
72
8
73
4
74
0
42
0.000000001
43
0.0000000001
44
0.0000000001
40
0
40
0
40
0
40
0
40
1
40
1
40
1
40
1
41
1
41
1
41
1
41
1
10
0.03124430870319319
20
-11.435867363802892
30
0
10
-0.022697452660440758
20
-11.451527875166525
30
0
10
-0.031397736751349277
20
-11.460228159257435
30
0
10
-0.031397736751349277
20
-11.503729579711981
30
0
0
SPLINE
5
155
100
AcDbEntity
8
0
100
AcDbSpline
70
4
71
3
72
8
73
4
74
0
42
0.000000001
43
0.0000000001
44
0.0000000001
40
0
40
0
40
0
40
0
40
1
40
1
40
1
40
1
41
1
41
1
41
1
41
1
10
-0.031397736751349277
20
-11.503729579711981
30
0
10
-0.031397736751349277
20
-11.543750886530164
30
0
10
-0.022697452660440758
20
-11.555931284257433
30
0
10
-7.6714024080841024e-05
20
-11.555931284257433
30
0
0
SPLINE
5
156
100
AcDbEntity
8
0
100
AcDbSpline
70
4
71
3
72
8
73
4
74
0
42
0.000000001
43
0.0000000001
44
0.0000000001
40
0
40
0
40
0
40
0
40
1
40
1
40
1
40
1
41
1
41
1
41
1
41
1
10
-7.6714024080841024e-05
20
-11.555931284257433
30
0
10
0.019063910975921819
20
-11.555931284257433
30
0
10
0.046904820066827405
20
-11.571591795621073
30
0
10
0.066045445066832867
20
-11.59247247743925
30
0
0
SPLINE
5
157
100
AcDbEntity
8
0
100
AcDbSpline
70
4
71
3
72
8
73
4
74
0
42
0.000000001
43
0.0000000001
44
0.0000000001
40
0
40
0
40
0
40
0
40
1
40
1
40
1
40
1
41
1
41
1
41
1
41
1
10
0.066045445066832867
20
-11.59247247743925
30
0
10
0.12346732006682547
20
-11.656854579711981
30
0
10
0.04864487688501163
20
-11.71427645471198
30
0
10
-0.059238645842264653
20
-11.688175602439255
30
0
0
SPLINE
5
158
100
AcDbEntity
8
0
100
AcDbSpline
70
4
71
3
72
8
73
4
74
0
42
0.000000001
43
0.0000000001
44
0.0000000001
40
0
40
0
40
0
40
0
40
1
40
1
40
1
40
1
41
1
41
1
41
1
41
1
10
-0.059238645842264653
20
-11.688175602439255
30
0
10
-0.11666052084226144
20
-11.672515091075619
30
0
10
-0.17060228220589679
20
-11.580292079711981
30
0
10
-0.17060228220589679
20
-11.495029295621073
30
0
0
SPLINE
5
159
100
AcDbEntity
8
0
100
AcDbSpline
70
4
71
3
72
8
73
4
74
0
42
0.000000001
43
0.0000000001
44
0.0000000001
40
0
40
0
40
0
40
0
40
1
40
1
40
1
40
1
41
1
41
1
41
1
41
1
10
-0.17060228220589679
20
-11.495029295621073
30
0
10
-0.16886222538771398
20
-11.418466795621073
30
0
10
-0.14450142993317122
20
-11.374965375166529
30
0
10
-0.073159100387714657
20
-11.327983841075618
30
0
0
LINE
5
160
100
AcDbEntity
8
0
100
AcDbLine
10
-0.073159100387714657
20
-11.32798384107562
30
0
11
-0.026177566296806402
21
-11.298402875166527
31
0
0
LINE
5
161
100
AcDbEntity
8
0
100
AcDbLine
10
-0.026177566296806402
20
-11.298402875166527
30
0
11
-0.12362074811498855
21
-11.286222477439255
31
0
0
SPLINE
5
162
100
AcDbEntity
8
0
100
AcDbSpline
70
4
71
3
72
8
73
4
74
0
42
0.000000001
43
0.0000000001
44
0.0000000001
40
0
40
0
40
0
40
0
40
1
40
1
40
1
40
1
41
1
41
1
41
1
41
1
10
-0.12362074811498855
20
-11.286222477439255
30
0
10
-0.25064489584225907
20
-11.270561966075618
30
0
10
-0.26978552084226176
20
-11.279262250166527
30
0
10
-0.29240625947862448
20
-11.362784977439254
30
0
0
SPLINE
5
163
100
AcDbEntity
8
0
100
AcDbSpline
70
4
71
3
72
8
73
4
74
0
42
0.000000001
43
0.0000000001
44
0.0000000001
40
0
40
0
40
0
40
0
40
1
40
1
40
1
40
1
41
1
41
1
41
1
41
1
10
-0.29240625947862448
20
-11.362784977439254
30
0
10
-0.32720739584226133
20
-11.495029295621073
30
0
10
-0.25064489584226052
20
-11.670775034257435
30
0
10
-0.12188069129680712
20
-11.7508176478938
30
0
0
SPLINE
5
164
100
AcDbEntity
8
0
100
AcDbSpline
70
4
71
3
72
8
73
4
74
0
42
0.000000001
43
0.0000000001
44
0.0000000001
40
0
40
0
40
0
40
0
40
1
40
1
40
1
40
1
41
1
41
1
41
1
41
1
10
-0.39506961175135297
20
-12.648686966075619
30
0
10
-0.32894745266044489
20
-12.674787818348346
30
0
10
-0.10970029356953505
20
-12.580824750166528
30
0
10
-0.064458816296806831
20
-12.506002306984707
30
0
0
SPLINE
5
165
100
AcDbEntity
8
0
100
AcDbSpline
70
4
71
3
72
8
73
4
74
0
42
0.000000001
43
0.0000000001
44
0.0000000001
40
0
40
0
40
0
40
0
40
1
40
1
40
1
40
1
41
1
41
1
41
1
41
1
10
-0.064458816296806831
20
-12.506002306984707
30
0
10
-0.022697452660441455
20
-12.436400034257439
30
0
10
-0.022697452660441455
20
-12.345917079711981
30
0
10
-0.066198873114989648
20
-12.274574750166526
30
0
0
SPLINE
5
166
100
AcDbEntity
8
0
100
AcDbSpline
70
4
71
3
72
8
73
4
74
0
42
0.000000001
43
0.0000000001
44
0.0000000001
40
0
40
0
40
0
40
0
40
1
40
1
40
1
40
1
41
1
41
1
41
1
41
1
10
-0.066198873114989648
20
-12.274574750166526
30
0
10
-0.12884091856953492
20
-12.170171341075617
30
0
10
-0.27848580493317099
20
-12.177131568348344
30
0
10
-0.28892614584226234
20
-12.283275034257434
30
0
0
SPLINE
5
167
100
AcDbEntity
8
0
100
AcDbSpline
70
4
71
3
72
8
73
4
74
0
42
0.000000001
43
0.0000000001
44
0.0000000001
40
0
40
0
40
0
40
0
40
1
40
1
40
1
40
1
41
1
41
1
41
1
41
1
10
-0.28892614584226234
20
-12.283275034257434
30
0
10
-0.29414631629680521
20
-12.328516511530164
30
0
10
-0.28892614584226234
20
-12.338956852439257
30
0
10
-0.26282529356953399
20
-12.338956852439257
30
0
0
SPLINE
5
168
100
AcDbEntity
8
0
100
AcDbSpline
70
4
71
3
72
8
73
4
74
0
42
0.000000001
43
0.0000000001
44
0.0000000001
40
0
40
0
40
0
40
0
40
1
40
1
40
1
40
1
41
1
41
1
41
1
41
1
10
-0.26282529356953399
20
-12.338956852439257
30
0
10
-0.19148296402408019
20
-12.338956852439257
30
0
10
-0.16016194129680614
20
-12.427699750166523
30
0
10
-0.22106392993317139
20
-12.460760829711981
30
0
0
SPLINE
5
169
100
AcDbEntity
8
0
100
AcDbSpline
70
4
71
3
72
8
73
4
74
0
42
0.000000001
43
0.0000000001
44
0.0000000001
40
0
40
0
40
0
40
0
40
1
40
1
40
1
40
1
41
1
41
1
41
1
41
1
10
-0.22106392993317139
20
-12.460760829711981
30
0
10
-0.27500569129680535
20
-12.48860173880289
30
0
10
-0.32198722538771918
20
-12.481641511530164
30
0
10
-0.37244887311498748
20
-12.438140091075615
30
0
0
SPLINE
5
170
100
AcDbEntity
8
0
100
AcDbSpline
70
4
71
3
72
8
73
4
74
0
42
0.000000001
43
0.0000000001
44
0.0000000001
40
0
40
0
40
0
40
0
40
1
40
1
40
1
40
1
41
1
41
1
41
1
41
1
10
-0.37244887311498748
20
-12.438140091075615
30
0
10
-0.40899006629681001
20
-12.406819068348341
30
0
10
-0.42117046402407854
20
-12.377238102439255
30
0
10
-0.42813069129680426
20
-12.307635829711982
30
0
0
SPLINE
5
171
100
AcDbEntity
8
0
100
AcDbSpline
70
4
71
3
72
8
73
4
74
0
42
0.000000001
43
0.0000000001
44
0.0000000001
40
0
40
0
40
0
40
0
40
1
40
1
40
1
40
1
41
1
41
1
41
1
41
1
10
-0.42813069129680426
20
-12.307635829711982
30
0
10
-0.43509091856953552
20
-12.222373045621074
30
0
10
-0.43857103220589838
20
-12.217152875166526
30
0
10
-0.48555256629680943
20
-12.217152875166528
30
0
0
SPLINE
5
172
100
AcDbEntity
8
0
100
AcDbSpline
70
4
71
3
72
8
73
4
74
0
42
0.000000001
43
0.0000000001
44
0.0000000001
40
0
40
0
40
0
40
0
40
1
40
1
40
1
40
1
41
1
41
1
41
1
41
1
10
-0.48555256629680943
20
-12.217152875166528
30
0
10
-0.51339347538771507
20
-12.217152875166528
30
0
10
-0.53601421402408334
20
-12.22063298880289
30
0
10
-0.53601421402408334
20
-12.225853159257436
30
0
0
SPLINE
5
173
100
AcDbEntity
8
0
100
AcDbSpline
70
4
71
3
72
8
73
4
74
0
42
0.000000001
43
0.0000000001
44
0.0000000001
40
0
40
0
40
0
40
0
40
1
40
1
40
1
40
1
41
1
41
1
41
1
41
1
10
-0.53601421402408334
20
-12.225853159257436
30
0
10
-0.53601421402408334
20
-12.231073329711982
30
0
10
-0.51687358902407787
20
-12.274574750166527
30
0
10
-0.49251279356953515
20
-12.321556284257436
30
0
0
LINE
5
174
100
AcDbEntity
8
0
100
AcDbLine
10
-0.49251279356953515
20
-12.321556284257436
30
0
11
-0.44901137311498973
21
-12.408559125166525
31
0
0
LINE
5
175
100
AcDbEntity
8
0
100
AcDbLine
10
-0.44901137311498973
20
-12.408559125166525
30
0
11
-0.57081535038771736
21
-12.652167079711983
31
0
0
LINE
5
176
100
AcDbEntity
8
0
100
AcDbLine
10
-0.57081535038771736
20
-12.652167079711983
30
0
11
-0.50643324811498658
21
-12.641726738802891
31
0
0
SPLINE
5
177
100
AcDbEntity
8
0
100
AcDbSpline
70
4
71
3
72
8
73
4
74
0
42
0.000000001
43
0.0000000001
44
0.0000000001
40
0
40
0
40
0
40
0
40
1
40
1
40
1
40
1
41
1
41
1
41
1
41
1
10
-0.50643324811498658
20
-12.641726738802891
30
0
10
-0.4698920549331696
20
-12.636506568348345
30
0
10
-0.41943040720589575
20
-12.639986681984711
30
0
10
-0.39506961175135297
20
-12.648686966075619
30
0
0
SPLINE
5
178
100
AcDbEntity
8
0
100
AcDbSpline
70
4
71
3
72
8
73
4
74
0
42
0.000000001
43
0.0000000001
44
0.0000000001
40
0
40
0
40
0
40
0
40
1
40
1
40
1
40
1
41
1
41
1
41
1
41
1
10
-0.3898494412968101
20
-13.224645772893798
30
0
10
-0.36548864584226176
20
-13.168963954711982
30
0
10
-0.33068750947862491
20
-13.115022193348347
30
0
10
-0.3167670549331707
20
-13.102841795621073
30
0
0
SPLINE
5
179
100
AcDbEntity
8
0
100
AcDbSpline
70
4
71
3
72
8
73
4
74
0
42
0.000000001
43
0.0000000001
44
0.0000000001
40
0
40
0
40
0
40
0
40
1
40
1
40
1
40
1
41
1
41
1
41
1
41
1
10
-0.3167670549331707
20
-13.102841795621073
30
0
10
-0.27848580493317099
20
-13.0715207728938
30
0
10
-0.29588637311499083
20
-12.932316227439252
30
0
10
-0.34460796402407912
20
-12.852273613802891
30
0
0
SPLINE
5
180
100
AcDbEntity
8
0
100
AcDbSpline
70
4
71
3
72
8
73
4
74
0
42
0.000000001
43
0.0000000001
44
0.0000000001
40
0
40
0
40
0
40
0
40
1
40
1
40
1
40
1
41
1
41
1
41
1
41
1
10
-0.34460796402407912
20
-12.852273613802891
30
0
10
-0.43683097538771276
20
-12.702628727439253
30
0
10
-0.65781819129680819
20
-12.800071909257436
30
0
10
-0.65781819129680819
20
-12.989738102439254
30
0
0
SPLINE
5
181
100
AcDbEntity
8
0
100
AcDbSpline
70
4
71
3
72
8
73
4
74
0
42
0.000000001
43
0.0000000001
44
0.0000000001
40
0
40
0
40
0
40
0
40
1
40
1
40
1
40
1
41
1
41
1
41
1
41
1
10
-0.65781819129680819
20
-12.989738102439254
30
0
10
-0.65781819129680819
20
-13.033239522893799
30
0
10
-0.64737785038771412
20
-13.055860261530166
30
0
10
-0.6247571117513514
20
-13.06978071607562
30
0
0
SPLINE
5
182
100
AcDbEntity
8
0
100
AcDbSpline
70
4
71
3
72
8
73
4
74
0
42
0.000000001
43
0.0000000001
44
0.0000000001
40
0
40
0
40
0
40
0
40
1
40
1
40
1
40
1
41
1
41
1
41
1
41
1
10
-0.6247571117513514
20
-13.06978071607562
30
0
10
-0.57777557766044307
20
-13.094141511530164
30
0
10
-0.54993466856953477
20
-13.078481000166528
30
0
10
-0.51861364584226066
20
-13.012358841075617
30
0
0
SPLINE
5
183
100
AcDbEntity
8
0
100
AcDbSpline
70
4
71
3
72
8
73
4
74
0
42
0.000000001
43
0.0000000001
44
0.0000000001
40
0
40
0
40
0
40
0
40
1
40
1
40
1
40
1
41
1
41
1
41
1
41
1
10
-0.51861364584226066
20
-13.012358841075617
30
0
10
-0.49947302084226081
20
-12.972337534257438
30
0
10
-0.4820724526604438
20
-12.95841707971198
30
0
10
-0.45771165720589546
20
-12.961897193348342
30
0
0
SPLINE
5
184
100
AcDbEntity
8
0
100
AcDbSpline
70
4
71
3
72
8
73
4
74
0
42
0.000000001
43
0.0000000001
44
0.0000000001
40
0
40
0
40
0
40
0
40
1
40
1
40
1
40
1
41
1
41
1
41
1
41
1
10
-0.45771165720589546
20
-12.961897193348342
30
0
10
-0.38462927084225884
20
-12.9758176478938
30
0
10
-0.37418892993317032
20
-13.075000886530164
30
0
10
-0.44031108902407839
20
-13.153303443348348
30
0
0
SPLINE
5
185
100
AcDbEntity
8
0
100
AcDbSpline
70
4
71
3
72
8
73
4
74
0
42
0.000000001
43
0.0000000001
44
0.0000000001
40
0
40
0
40
0
40
0
40
1
40
1
40
1
40
1
41
1
41
1
41
1
41
1
10
-0.44031108902407839
20
-13.153303443348348
30
0
10
-0.51687358902407787
20
-13.243786397893802
30
0
10
-0.64215767993317119
20
-13.242046341075618
30
0
10
-0.73612074811499051
20
-13.14634321607562
30
0
0
LINE
5
186
100
AcDbEntity
8
0
100
AcDbLine
10
-0.73612074811499051
20
-13.146343216075621
30
0
11
-0.79528267993317292
21
-13.088921341075618
31
0
0
LINE
5
187
100
AcDbEntity
8
0
100
AcDbLine
10
-0.79528267993317292
20
-13.088921341075618
30
0
11
-0.85444461175134978
21
-13.196804863802893
31
0
0
SPLINE
5
188
100
AcDbEntity
8
0
100
AcDbSpline
70
4
71
3
72
8
73
4
74
0
42
0.000000001
43
0.0000000001
44
0.0000000001
40
0
40
0
40
0
40
0
40
1
40
1
40
1
40
1
41
1
41
1
41
1
41
1
10
-0.85444461175134978
20
-13.196804863802893
30
0
10
-0.95362785038771469
20
-13.374290659257436
30
0
10
-1.0406306912968055
20
-13.555256568348344
30
0
10
-1.0406306912968055
20
-13.581357420621073
30
0
0
SPLINE
5
189
100
AcDbEntity
8
0
100
AcDbSpline
70
4
71
3
72
8
73
4
74
0
42
0.000000001
43
0.0000000001
44
0.0000000001
40
0
40
0
40
0
40
0
40
1
40
1
40
1
40
1
41
1
41
1
41
1
41
1
10
-1.0406306912968055
20
-13.581357420621073
30
0
10
-1.0406306912968055
20
-13.593537818348347
30
0
10
-1.0284502935695314
20
-13.614418500166527
30
0
10
-1.01452983902408
20
-13.626598897893802
30
0
0
SPLINE
5
190
100
AcDbEntity
8
0
100
AcDbSpline
70
4
71
3
72
8
73
4
74
0
42
0.000000001
43
0.0000000001
44
0.0000000001
40
0
40
0
40
0
40
0
40
1
40
1
40
1
40
1
41
1
41
1
41
1
41
1
10
-1.01452983902408
20
-13.626598897893802
30
0
10
-0.98668892993317159
20
-13.649219636530164
30
0
10
-0.95536790720589748
20
-13.64747957971198
30
0
10
-0.56037500947862329
20
-13.588317647893799
30
0
0
LINE
5
191
100
AcDbEntity
8
0
100
AcDbLine
10
-0.5603750094786234
20
-13.588317647893801
30
0
11
-0.43509091856953552
21
-13.570917079711979
31
0
0
LINE
5
192
100
AcDbEntity
8
0
100
AcDbLine
10
-0.43509091856953552
20
-13.570917079711979
30
0
11
-0.43683097538771276
21
-13.445632988802894
31
0
0
SPLINE
5
193
100
AcDbEntity
8
0
100
AcDbSpline
70
4
71
3
72
8
73
4
74
0
42
0.000000001
43
0.0000000001
44
0.0000000001
40
0
40
0
40
0
40
0
40
1
40
1
40
1
40
1
41
1
41
1
41
1
41
1
10
-0.43683097538771276
20
-13.445632988802894
30
0
10
-0.43683097538771276
20
-13.346449750166528
30
0
10
-0.42813069129680426
20
-13.302948329711981
30
0
10
-0.3898494412968101
20
-13.224645772893798
30
0
0
SPLINE
5
194
100
AcDbEntity
8
0
100
AcDbSpline
70
4
71
3
72
8
73
4
74
0
42
0.000000001
43
0.0000000001
44
0.0000000001
40
0
40
0
40
0
40
0
40
1
40
1
40
1
40
1
41
1
41
1
41
1
41
1
10
-0.65781819129680896
20
-11.891762250166527
30
0
10
-0.65781819129680896
20
-12.041407136530164
30
0
10
-0.45945171402408108
20
-12.138850318348343
30
0
10
-0.36374858902407964
20
-12.036186966075618
30
0
0
SPLINE
5
195
100
AcDbEntity
8
0
100
AcDbSpline
70
4
71
3
72
8
73
4
74
0
42
0.000000001
43
0.0000000001
44
0.0000000001
40
0
40
0
40
0
40
0
40
1
40
1
40
1
40
1
41
1
41
1
41
1
41
1
10
-0.36374858902407964
20
-12.036186966075618
30
0
10
-0.29066620266044024
20
-11.959624466075619
30
0
10
-0.27152557766044316
20
-11.813459693348346
30
0
10
-0.32546733902407993
20
-11.745597477439254
30
0
0
SPLINE
5
196
100
AcDbEntity
8
0
100
AcDbSpline
70
4
71
3
72
8
73
4
74
0
42
0.000000001
43
0.0000000001
44
0.0000000001
40
0
40
0
40
0
40
0
40
1
40
1
40
1
40
1
41
1
41
1
41
1
41
1
10
-0.32546733902407993
20
-11.745597477439254
30
0
10
-0.4176903503877164
20
-11.62553355698471
30
0
10
-0.46293182766044322
20
-11.448047761530162
30
0
10
-0.43161080493316917
20
-11.327983841075618
30
0
0
SPLINE
5
197
100
AcDbEntity
8
0
100
AcDbSpline
70
4
71
3
72
8
73
4
74
0
42
0.000000001
43
0.0000000001
44
0.0000000001
40
0
40
0
40
0
40
0
40
1
40
1
40
1
40
1
41
1
41
1
41
1
41
1
10
-0.43161080493316917
20
-11.327983841075618
30
0
10
-0.42117046402407787
20
-11.289702591075619
30
0
10
-0.41421023675135216
20
-11.253161397893802
30
0
10
-0.41943040720589503
20
-11.249681284257436
30
0
0
SPLINE
5
198
100
AcDbEntity
8
0
100
AcDbSpline
70
4
71
3
72
8
73
4
74
0
42
0.000000001
43
0.0000000001
44
0.0000000001
40
0
40
0
40
0
40
0
40
1
40
1
40
1
40
1
41
1
41
1
41
1
41
1
10
-0.41943040720589503
20
-11.249681284257436
30
0
10
-0.42291052084226066
20
-11.246201170621072
30
0
10
-0.53601421402408267
20
-11.227060545621073
30
0
10
-0.67347870266044174
20
-11.207919920621073
30
0
0
SPLINE
5
199
100
AcDbEntity
8
0
100
AcDbSpline
70
4
71
3
72
8
73
4
74
0
42
0.000000001
43
0.0000000001
44
0.0000000001
40
0
40
0
40
0
40
0
40
1
40
1
40
1
40
1
41
1
41
1
41
1
41
1
10
-0.67347870266044174
20
-11.207919920621073
30
0
10
-1.0945724526604443
20
-11.145277875166528
30
0
10
-1.0980525662968044
20
-11.150498045621074
30
0
10
-0.91882671402407989
20
-11.495029295621073
30
0
0
SPLINE
5
200
100
AcDbEntity
8
0
100
AcDbSpline
70
4
71
3
72
8
73
4
74
0
42
0.000000001
43
0.0000000001
44
0.0000000001
40
0
40
0
40
0
40
0
40
1
40
1
40
1
40
1
41
1
41
1
41
1
41
1
10
-0.91882671402407989
20
-11.495029295621073
30
0
10
-0.84748438447862473
20
-11.634233841075618
30
0
10
-0.7813622253877166
20
-11.747337534257438
30
0
10
-0.77440199811499089
20
-11.747337534257438
30
0
0
SPLINE
5
201
100
AcDbEntity
8
0
100
AcDbSpline
70
4
71
3
72
8
73
4
74
0
42
0.000000001
43
0.0000000001
44
0.0000000001
40
0
40
0
40
0
40
0
40
1
40
1
40
1
40
1
41
1
41
1
41
1
41
1
10
-0.77440199811499089
20
-11.747337534257438
30
0
10
-0.76744177084225962
20
-11.747337534257438
30
0
10
-0.75700142993317387
20
-11.735157136530164
30
0
10
-0.75004120266044261
20
-11.72123668198471
30
0
0
SPLINE
5
202
100
AcDbEntity
8
0
100
AcDbSpline
70
4
71
3
72
8
73
4
74
0
42
0.000000001
43
0.0000000001
44
0.0000000001
40
0
40
0
40
0
40
0
40
1
40
1
40
1
40
1
41
1
41
1
41
1
41
1
10
-0.75004120266044261
20
-11.72123668198471
30
0
10
-0.73438069129680561
20
-11.679475318348347
30
0
10
-0.65085796402408047
20
-11.642934125166526
30
0
10
-0.57081535038771813
20
-11.642934125166526
30
0
0
SPLINE
5
203
100
AcDbEntity
8
0
100
AcDbSpline
70
4
71
3
72
8
73
4
74
0
42
0.000000001
43
0.0000000001
44
0.0000000001
40
0
40
0
40
0
40
0
40
1
40
1
40
1
40
1
41
1
41
1
41
1
41
1
10
-0.57081535038771813
20
-11.642934125166526
30
0
10
-0.51339347538771574
20
-11.642934125166526
30
0
10
-0.48729262311499016
20
-11.653374466075618
30
0
10
-0.44727131629680761
20
-11.693395772893801
30
0
0
SPLINE
5
204
100
AcDbEntity
8
0
100
AcDbSpline
70
4
71
3
72
8
73
4
74
0
42
0.000000001
43
0.0000000001
44
0.0000000001
40
0
40
0
40
0
40
0
40
1
40
1
40
1
40
1
41
1
41
1
41
1
41
1
10
-0.44727131629680761
20
-11.693395772893801
30
0
10
-0.36200853220589685
20
-11.778658556984709
30
0
10
-0.3881093844786252
20
-11.924823329711982
30
0
10
-0.48381250947862453
20
-11.895242363802893
30
0
0
SPLINE
5
205
100
AcDbEntity
8
0
100
AcDbSpline
70
4
71
3
72
8
73
4
74
0
42
0.000000001
43
0.0000000001
44
0.0000000001
40
0
40
0
40
0
40
0
40
1
40
1
40
1
40
1
41
1
41
1
41
1
41
1
10
-0.48381250947862453
20
-11.895242363802893
30
0
10
-0.50643324811498724
20
-11.888282136530165
30
0
10
-0.52383381629680426
20
-11.863921341075619
30
0
10
-0.53079404356953552
20
-11.832600318348346
30
0
0
SPLINE
5
206
100
AcDbEntity
8
0
100
AcDbSpline
70
4
71
3
72
8
73
4
74
0
42
0.000000001
43
0.0000000001
44
0.0000000001
40
0
40
0
40
0
40
0
40
1
40
1
40
1
40
1
41
1
41
1
41
1
41
1
10
-0.53079404356953552
20
-11.832600318348346
30
0
10
-0.53775427084226124
20
-11.796059125166526
30
0
10
-0.54993466856953543
20
-11.782138670621075
30
0
10
-0.57777557766044385
20
-11.782138670621075
30
0
0
SPLINE
5
207
100
AcDbEntity
8
0
100
AcDbSpline
70
4
71
3
72
8
73
4
74
0
42
0.000000001
43
0.0000000001
44
0.0000000001
40
0
40
0
40
0
40
0
40
1
40
1
40
1
40
1
41
1
41
1
41
1
41
1
10
-0.57777557766044385
20
-11.782138670621075
30
0
10
-0.63345739584226057
20
-11.782138670621075
30
0
10
-0.65781819129680896
20
-11.815199750166528
30
0
10
-0.65781819129680896
20
-11.891762250166527
30
0
0
LINE
5
208
100
AcDbEntity
8
0
100
AcDbLine
10
2.5438863541577383
20
-12.60866565925744
30
0
11
2.4742840814304676
21
-12.575604579711985
31
0
0
SPLINE
5
209
100
AcDbEntity
8
0
100
AcDbSpline
70
4
71
3
72
8
73
4
74
0
42
0.000000001
43
0.0000000001
44
0.0000000001
40
0
40
0
40
0
40
0
40
1
40
1
40
1
40
1
41
1
41
1
41
1
41
1
10
2.4742840814304676
20
-12.575604579711985
30
0
10
2.4360028314304678
20
-12.558204011530165
30
0
10
2.3872812405213768
20
-12.519922761530166
30
0
10
2.3681406155213769
20
-12.492081852439258
30
0
0
SPLINE
5
210
100
AcDbEntity
8
0
100
AcDbSpline
70
4
71
3
72
8
73
4
74
0
42
0.000000001
43
0.0000000001
44
0.0000000001
40
0
40
0
40
0
40
0
40
1
40
1
40
1
40
1
41
1
41
1
41
1
41
1
10
2.3681406155213769
20
-12.492081852439258
30
0
10
2.3124587973395601
20
-12.413779295621076
30
0
10
2.3281193087031942
20
-12.279794920621077
30
0
10
2.4029417518850136
20
-12.213672761530166
30
0
0
LINE
5
211
100
AcDbEntity
8
0
100
AcDbLine
10
2.4029417518850136
20
-12.213672761530166
30
0
11
2.4568835132486506
21
-12.164951170621077
31
0
0
LINE
5
212
100
AcDbEntity
8
0
100
AcDbLine
10
2.4568835132486506
20
-12.164951170621077
30
0
11
2.3350795359759258
21
-12.104049181984715
31
0
0
LINE
5
213
100
AcDbEntity
8
0
100
AcDbLine
10
2.3350795359759258
20
-12.104049181984715
30
0
11
2.2115355018850122
21
-12.04140713653017
31
0
0
LINE
5
214
100
AcDbEntity
8
0
100
AcDbLine
10
2.2115355018850122
20
-12.04140713653017
30
0
11
2.2393764109759209
21
-12.093608841075621
31
0
0
SPLINE
5
215
100
AcDbEntity
8
0
100
AcDbSpline
70
4
71
3
72
8
73
4
74
0
42
0.000000001
43
0.0000000001
44
0.0000000001
40
0
40
0
40
0
40
0
40
1
40
1
40
1
40
1
41
1
41
1
41
1
41
1
10
2.2393764109759209
20
-12.093608841075621
30
0
10
2.2846178882486488
20
-12.182351738802895
30
0
10
2.2741775473395549
20
-12.260654295621077
30
0
10
2.2063153314304693
20
-12.333736681984712
30
0
0
LINE
5
216
100
AcDbEntity
8
0
100
AcDbLine
10
2.2063153314304693
20
-12.333736681984714
30
0
11
2.1471533996122871
21
-12.399858841075622
31
0
0
LINE
5
217
100
AcDbEntity
8
0
100
AcDbLine
10
2.1471533996122871
20
-12.399858841075622
30
0
11
2.2063153314304693
21
-12.464240943348349
31
0
0
SPLINE
5
218
100
AcDbEntity
8
0
100
AcDbSpline
70
4
71
3
72
8
73
4
74
0
42
0.000000001
43
0.0000000001
44
0.0000000001
40
0
40
0
40
0
40
0
40
1
40
1
40
1
40
1
41
1
41
1
41
1
41
1
10
2.2063153314304693
20
-12.464240943348349
30
0
10
2.2898380587031948
20
-12.556463954711985
30
0
10
2.2898380587031948
20
-12.648686966075623
30
0
10
2.2063153314304693
20
-12.732209693348347
30
0
0
SPLINE
5
219
100
AcDbEntity
8
0
100
AcDbSpline
70
4
71
3
72
8
73
4
74
0
42
0.000000001
43
0.0000000001
44
0.0000000001
40
0
40
0
40
0
40
0
40
1
40
1
40
1
40
1
41
1
41
1
41
1
41
1
10
2.2063153314304693
20
-12.732209693348347
30
0
10
2.1297528314304701
20
-12.808772193348346
30
0
10
2.0758110700668304
20
-12.808772193348346
30
0
10
1.9922883427941025
20
-12.733949750166531
30
0
0
SPLINE
5
220
100
AcDbEntity
8
0
100
AcDbSpline
70
4
71
3
72
8
73
4
74
0
42
0.000000001
43
0.0000000001
44
0.0000000001
40
0
40
0
40
0
40
0
40
1
40
1
40
1
40
1
41
1
41
1
41
1
41
1
10
1.9922883427941025
20
-12.733949750166531
30
0
10
1.9400866382486486
20
-12.68522815925744
30
0
10
1.9313863541577374
20
-12.667827591075621
30
0
10
1.9418266950668315
20
-12.629546341075622
30
0
0
SPLINE
5
221
100
AcDbEntity
8
0
100
AcDbSpline
70
4
71
3
72
8
73
4
74
0
42
0.000000001
43
0.0000000001
44
0.0000000001
40
0
40
0
40
0
40
0
40
1
40
1
40
1
40
1
41
1
41
1
41
1
41
1
10
1.9418266950668315
20
-12.629546341075622
30
0
10
1.9557471496122829
20
-12.572124466075623
30
0
10
2.018389195066828
20
-12.565164238802895
30
0
10
2.0653707291577392
20
-12.617365943348348
30
0
0
SPLINE
5
222
100
AcDbEntity
8
0
100
AcDbSpline
70
4
71
3
72
8
73
4
74
0
42
0.000000001
43
0.0000000001
44
0.0000000001
40
0
40
0
40
0
40
0
40
1
40
1
40
1
40
1
41
1
41
1
41
1
41
1
10
2.0653707291577392
20
-12.617365943348348
30
0
10
2.1001718655213759
20
-12.655647193348347
30
0
10
2.1262727177941043
20
-12.648686966075623
30
0
10
2.1262727177941043
20
-12.601705431984714
30
0
0
SPLINE
5
223
100
AcDbEntity
8
0
100
AcDbSpline
70
4
71
3
72
8
73
4
74
0
42
0.000000001
43
0.0000000001
44
0.0000000001
40
0
40
0
40
0
40
0
40
1
40
1
40
1
40
1
41
1
41
1
41
1
41
1
10
2.1262727177941043
20
-12.601705431984714
30
0
10
2.1262727177941043
20
-12.526882988802894
30
0
10
1.9922883427941025
20
-12.467721056984713
30
0
10
1.9070255587031975
20
-12.504262250166532
30
0
0
SPLINE
5
224
100
AcDbEntity
8
0
100
AcDbSpline
70
4
71
3
72
8
73
4
74
0
42
0.000000001
43
0.0000000001
44
0.0000000001
40
0
40
0
40
0
40
0
40
1
40
1
40
1
40
1
41
1
41
1
41
1
41
1
10
1.9070255587031975
20
-12.504262250166532
30
0
10
1.7643408996122842
20
-12.563424181984711
30
0
10
1.7556406155213757
20
-12.751350318348347
30
0
10
1.887884933703192
20
-12.874894352439258
30
0
0
LINE
5
225
100
AcDbEntity
8
0
100
AcDbLine
10
1.887884933703192
20
-12.874894352439261
30
0
11
1.9313863541577374
21
-12.914915659257437
31
0
0
LINE
5
226
100
AcDbEntity
8
0
100
AcDbLine
10
1.9313863541577374
20
-12.914915659257437
30
0
11
2.5438863541577383
21
-12.60866565925744
31
0
0
SPLINE
5
227
100
AcDbEntity
8
0
100
AcDbSpline
70
4
71
3
72
8
73
4
74
0
42
0.000000001
43
0.0000000001
44
0.0000000001
40
0
40
0
40
0
40
0
40
1
40
1
40
1
40
1
41
1
41
1
41
1
41
1
10
2.0201292518850136
20
-12.293715375166531
30
0
10
2.0531903314304651
20
-12.279794920621077
30
0
10
2.0897315246122874
20
-12.260654295621077
30
0
10
2.1036519791577417
20
-12.250213954711985
30
0
0
SPLINE
5
228
100
AcDbEntity
8
0
100
AcDbSpline
70
4
71
3
72
8
73
4
74
0
42
0.000000001
43
0.0000000001
44
0.0000000001
40
0
40
0
40
0
40
0
40
1
40
1
40
1
40
1
41
1
41
1
41
1
41
1
10
2.1036519791577417
20
-12.250213954711985
30
0
10
2.1297528314304701
20
-12.227593216075622
30
0
10
2.1332329450668328
20
-12.171911397893803
30
0
10
2.1106122064304702
20
-12.157990943348349
30
0
0
SPLINE
5
229
100
AcDbEntity
8
0
100
AcDbSpline
70
4
71
3
72
8
73
4
74
0
42
0.000000001
43
0.0000000001
44
0.0000000001
40
0
40
0
40
0
40
0
40
1
40
1
40
1
40
1
41
1
41
1
41
1
41
1
10
2.1106122064304702
20
-12.157990943348349
30
0
10
2.1036519791577417
20
-12.152770772893803
30
0
10
2.0827712973395562
20
-12.163211113802895
30
0
10
2.0653707291577392
20
-12.182351738802895
30
0
0
SPLINE
5
230
100
AcDbEntity
8
0
100
AcDbSpline
70
4
71
3
72
8
73
4
74
0
42
0.000000001
43
0.0000000001
44
0.0000000001
40
0
40
0
40
0
40
0
40
1
40
1
40
1
40
1
41
1
41
1
41
1
41
1
10
2.0653707291577392
20
-12.182351738802895
30
0
10
2.018389195066828
20
-12.234553443348352
30
0
10
1.9557471496122829
20
-12.227593216075622
30
0
10
1.9418266950668315
20
-12.170171341075623
30
0
0
SPLINE
5
231
100
AcDbEntity
8
0
100
AcDbSpline
70
4
71
3
72
8
73
4
74
0
42
0.000000001
43
0.0000000001
44
0.0000000001
40
0
40
0
40
0
40
0
40
1
40
1
40
1
40
1
41
1
41
1
41
1
41
1
10
1.9418266950668315
20
-12.170171341075623
30
0
10
1.9313863541577374
20
-12.13189009107562
30
0
10
1.9400866382486486
20
-12.114489522893804
30
0
10
1.9922883427941025
20
-12.065767931984713
30
0
0
SPLINE
5
232
100
AcDbEntity
8
0
100
AcDbSpline
70
4
71
3
72
8
73
4
74
0
42
0.000000001
43
0.0000000001
44
0.0000000001
40
0
40
0
40
0
40
0
40
1
40
1
40
1
40
1
41
1
41
1
41
1
41
1
10
1.9922883427941025
20
-12.065767931984713
30
0
10
2.0270894791577394
20
-12.034446909257442
30
0
10
2.0740710132486506
20
-12.008346056984713
30
0
10
2.0949516950668303
20
-12.008346056984713
30
0
0
SPLINE
5
233
100
AcDbEntity
8
0
100
AcDbSpline
70
4
71
3
72
8
73
4
74
0
42
0.000000001
43
0.0000000001
44
0.0000000001
40
0
40
0
40
0
40
0
40
1
40
1
40
1
40
1
41
1
41
1
41
1
41
1
10
2.0949516950668303
20
-12.008346056984713
30
0
10
2.1245326609759214
20
-12.00660600016653
30
0
10
2.1088721496122846
20
-11.992685545621075
30
0
10
2.0392698768850135
20
-11.956144352439258
30
0
0
SPLINE
5
234
100
AcDbEntity
8
0
100
AcDbSpline
70
4
71
3
72
8
73
4
74
0
42
0.000000001
43
0.0000000001
44
0.0000000001
40
0
40
0
40
0
40
0
40
1
40
1
40
1
40
1
41
1
41
1
41
1
41
1
10
2.0392698768850135
20
-11.956144352439258
30
0
10
1.917465899612286
20
-11.891762250166531
30
0
10
1.8931051041577405
20
-11.891762250166531
30
0
10
1.8461235700668321
20
-11.957884409257439
30
0
0
SPLINE
5
235
100
AcDbEntity
8
0
100
AcDbSpline
70
4
71
3
72
8
73
4
74
0
42
0.000000001
43
0.0000000001
44
0.0000000001
40
0
40
0
40
0
40
0
40
1
40
1
40
1
40
1
41
1
41
1
41
1
41
1
10
1.8461235700668321
20
-11.957884409257439
30
0
10
1.7243195927941044
20
-12.13015003425744
30
0
10
1.8461235700668321
20
-12.366797761530167
30
0
10
2.0201292518850136
20
-12.293715375166531
30
0
0
LINE
5
236
100
AcDbEntity
8
0
100
AcDbLine
10
1.7956619223395582
20
-12.403338954711987
30
0
11
1.7469403314304672
21
-12.34939719334835
31
0
0
SPLINE
5
237
100
AcDbEntity
8
0
100
AcDbSpline
70
4
71
3
72
8
73
4
74
0
42
0.000000001
43
0.0000000001
44
0.0000000001
40
0
40
0
40
0
40
0
40
1
40
1
40
1
40
1
41
1
41
1
41
1
41
1
10
1.7469403314304672
20
-12.34939719334835
30
0
10
1.7208394791577415
20
-12.318076170621076
30
0
10
1.6877783996122848
20
-12.265874466075623
30
0
10
1.6738579450668305
20
-12.232813386530168
30
0
0
SPLINE
5
238
100
AcDbEntity
8
0
100
AcDbSpline
70
4
71
3
72
8
73
4
74
0
42
0.000000001
43
0.0000000001
44
0.0000000001
40
0
40
0
40
0
40
0
40
1
40
1
40
1
40
1
41
1
41
1
41
1
41
1
10
1.6738579450668305
20
-12.232813386530168
30
0
10
1.6616775473395535
20
-12.201492363802894
30
0
10
1.649497149612285
20
-12.171911397893803
30
0
10
1.646017035975925
20
-12.168431284257441
30
0
0
SPLINE
5
239
100
AcDbEntity
8
0
100
AcDbSpline
70
4
71
3
72
8
73
4
74
0
42
0.000000001
43
0.0000000001
44
0.0000000001
40
0
40
0
40
0
40
0
40
1
40
1
40
1
40
1
41
1
41
1
41
1
41
1
10
1.646017035975925
20
-12.168431284257441
30
0
10
1.6442769791577421
20
-12.164951170621077
30
0
10
1.616436070066831
20
-12.178871625166531
30
0
10
1.5851150473395597
20
-12.198012250166531
30
0
0
SPLINE
5
240
100
AcDbEntity
8
0
100
AcDbSpline
70
4
71
3
72
8
73
4
74
0
42
0.000000001
43
0.0000000001
44
0.0000000001
40
0
40
0
40
0
40
0
40
1
40
1
40
1
40
1
41
1
41
1
41
1
41
1
10
1.5851150473395597
20
-12.198012250166531
30
0
10
1.5015923200668291
20
-12.248473897893803
30
0
10
1.3728281155213784
20
-12.248473897893803
30
0
10
1.3362869223395586
20
-12.196272193348348
30
0
0
SPLINE
5
241
100
AcDbEntity
8
0
100
AcDbSpline
70
4
71
3
72
8
73
4
74
0
42
0.000000001
43
0.0000000001
44
0.0000000001
40
0
40
0
40
0
40
0
40
1
40
1
40
1
40
1
41
1
41
1
41
1
41
1
10
1.3362869223395586
20
-12.196272193348348
30
0
10
1.2927855018850132
20
-12.135370204711982
30
0
10
1.3275866382486501
20
-12.098829011530166
30
0
10
1.4354701609759208
20
-12.091868784257441
30
0
0
SPLINE
5
242
100
AcDbEntity
8
0
100
AcDbSpline
70
4
71
3
72
8
73
4
74
0
42
0.000000001
43
0.0000000001
44
0.0000000001
40
0
40
0
40
0
40
0
40
1
40
1
40
1
40
1
41
1
41
1
41
1
41
1
10
1.4354701609759208
20
-12.091868784257441
30
0
10
1.5259531155213772
20
-12.086648613802895
30
0
10
1.5259531155213772
20
-12.086648613802895
30
0
10
1.5311732859759202
20
-12.02400656834835
30
0
0
SPLINE
5
243
100
AcDbEntity
8
0
100
AcDbSpline
70
4
71
3
72
8
73
4
74
0
42
0.000000001
43
0.0000000001
44
0.0000000001
40
0
40
0
40
0
40
0
40
1
40
1
40
1
40
1
41
1
41
1
41
1
41
1
10
1.5311732859759202
20
-12.02400656834835
30
0
10
1.5381335132486487
20
-11.940483841075622
30
0
10
1.4963721496122833
20
-11.896982420621077
30
0
10
1.4232897632486494
20
-11.910902875166531
30
0
0
SPLINE
5
244
100
AcDbEntity
8
0
100
AcDbSpline
70
4
71
3
72
8
73
4
74
0
42
0.000000001
43
0.0000000001
44
0.0000000001
40
0
40
0
40
0
40
0
40
1
40
1
40
1
40
1
41
1
41
1
41
1
41
1
10
1.4232897632486494
20
-11.910902875166531
30
0
10
1.3449872064304644
20
-11.926563386530168
30
0
10
1.2980056723395561
20
-11.990945488802895
30
0
10
1.247544024612288
20
-12.154510829711986
30
0
0
SPLINE
5
245
100
AcDbEntity
8
0
100
AcDbSpline
70
4
71
3
72
8
73
4
74
0
42
0.000000001
43
0.0000000001
44
0.0000000001
40
0
40
0
40
0
40
0
40
1
40
1
40
1
40
1
41
1
41
1
41
1
41
1
10
1.247544024612288
20
-12.154510829711986
30
0
10
1.2231832291577396
20
-12.234553443348348
30
0
10
1.1831619223395571
20
-12.33025656834835
30
0
10
1.1588011268850142
20
-12.365057704711985
30
0
0
LINE
5
246
100
AcDbEntity
8
0
100
AcDbLine
10
1.1588011268850142
20
-12.365057704711985
30
0
11
1.1152997064304659
21
-12.429439806984712
31
0
0
LINE
5
247
100
AcDbEntity
8
0
100
AcDbLine
10
1.1152997064304659
20
-12.429439806984712
30
0
11
1.1570610700668313
21
-12.493821909257441
31
0
0
SPLINE
5
248
100
AcDbEntity
8
0
100
AcDbSpline
70
4
71
3
72
8
73
4
74
0
42
0.000000001
43
0.0000000001
44
0.0000000001
40
0
40
0
40
0
40
0
40
1
40
1
40
1
40
1
41
1
41
1
41
1
41
1
10
1.1570610700668313
20
-12.493821909257441
30
0
10
1.1814218655213768
20
-12.528623045621075
30
0
10
1.2214431723395567
20
-12.622586113802896
30
0
10
1.247544024612288
20
-12.704368784257438
30
0
0
SPLINE
5
249
100
AcDbEntity
8
0
100
AcDbSpline
70
4
71
3
72
8
73
4
74
0
42
0.000000001
43
0.0000000001
44
0.0000000001
40
0
40
0
40
0
40
0
40
1
40
1
40
1
40
1
41
1
41
1
41
1
41
1
10
1.247544024612288
20
-12.704368784257438
30
0
10
1.3032258427941046
20
-12.87837446607562
30
0
10
1.3589076609759214
20
-12.947976738802895
30
0
10
1.4424303882486493
20
-12.947976738802895
30
0
0
SPLINE
5
250
100
AcDbEntity
8
0
100
AcDbSpline
70
4
71
3
72
8
73
4
74
0
42
0.000000001
43
0.0000000001
44
0.0000000001
40
0
40
0
40
0
40
0
40
1
40
1
40
1
40
1
41
1
41
1
41
1
41
1
10
1.4424303882486493
20
-12.947976738802895
30
0
10
1.5033323768850146
20
-12.947976738802895
30
0
10
1.5346533996122858
20
-12.911435545621075
30
0
10
1.5346533996122858
20
-12.840093216075621
30
0
0
SPLINE
5
251
100
AcDbEntity
8
0
100
AcDbSpline
70
4
71
3
72
8
73
4
74
0
42
0.000000001
43
0.0000000001
44
0.0000000001
40
0
40
0
40
0
40
0
40
1
40
1
40
1
40
1
41
1
41
1
41
1
41
1
10
1.5346533996122858
20
-12.840093216075621
30
0
10
1.5346533996122858
20
-12.779191227439258
30
0
10
1.5033323768850146
20
-12.756570488802893
30
0
10
1.4198096496122867
20
-12.756570488802893
30
0
0
SPLINE
5
252
100
AcDbEntity
8
0
100
AcDbSpline
70
4
71
3
72
8
73
4
74
0
42
0.000000001
43
0.0000000001
44
0.0000000001
40
0
40
0
40
0
40
0
40
1
40
1
40
1
40
1
41
1
41
1
41
1
41
1
10
1.4198096496122867
20
-12.756570488802893
30
0
10
1.3328068087031959
20
-12.756570488802893
30
0
10
1.2962656155213734
20
-12.723509409257439
30
0
10
1.3241065246122874
20
-12.671307704711985
30
0
0
SPLINE
5
253
100
AcDbEntity
8
0
100
AcDbSpline
70
4
71
3
72
8
73
4
74
0
42
0.000000001
43
0.0000000001
44
0.0000000001
40
0
40
0
40
0
40
0
40
1
40
1
40
1
40
1
41
1
41
1
41
1
41
1
10
1.3241065246122874
20
-12.671307704711985
30
0
10
1.3449872064304644
20
-12.633026454711985
30
0
10
1.4406903314304664
20
-12.606925602439256
30
0
10
1.5068124905213773
20
-12.624326170621076
30
0
0
SPLINE
5
254
100
AcDbEntity
8
0
100
AcDbSpline
70
4
71
3
72
8
73
4
74
0
42
0.000000001
43
0.0000000001
44
0.0000000001
40
0
40
0
40
0
40
0
40
1
40
1
40
1
40
1
41
1
41
1
41
1
41
1
10
1.5068124905213773
20
-12.624326170621076
30
0
10
1.5311732859759202
20
-12.629546341075622
30
0
10
1.5711945927941027
20
-12.653907136530165
30
0
10
1.5990355018850111
20
-12.676527875166531
30
0
0
LINE
5
255
100
AcDbEntity
8
0
100
AcDbLine
10
1.5990355018850111
20
-12.676527875166528
30
0
11
1.6477570927941021
21
-12.718289238802896
31
0
0
LINE
5
256
100
AcDbEntity
8
0
100
AcDbLine
10
1.6477570927941021
20
-12.718289238802896
30
0
11
1.652977263248645
21
-12.657387250166531
31
0
0
SPLINE
5
257
100
AcDbEntity
8
0
100
AcDbSpline
70
4
71
3
72
8
73
4
74
0
42
0.000000001
43
0.0000000001
44
0.0000000001
40
0
40
0
40
0
40
0
40
1
40
1
40
1
40
1
41
1
41
1
41
1
41
1
10
1.652977263248645
20
-12.657387250166531
30
0
10
1.6581974337031935
20
-12.587784977439259
30
0
10
1.7086590814304645
20
-12.483381568348349
30
0
10
1.7591207291577413
20
-12.43640003425744
30
0
0
LINE
5
258
100
AcDbEntity
8
0
100
AcDbLine
10
1.7591207291577413
20
-12.436400034257442
30
0
11
1.7956619223395582
21
-12.403338954711987
31
0
0
SPLINE
5
259
100
AcDbEntity
8
0
100
AcDbSpline
70
4
71
3
72
8
73
4
74
0
42
0.000000001
43
0.0000000001
44
0.0000000001
40
0
40
0
40
0
40
0
40
1
40
1
40
1
40
1
41
1
41
1
41
1
41
1
10
1.663417604157742
20
-13.054120204711985
30
0
10
1.6686377746122849
20
-13.045419920621073
30
0
10
1.6964786837031933
20
-13.029759409257439
30
0
10
1.7260596496122844
20
-13.017579011530165
30
0
0
SPLINE
5
260
100
AcDbEntity
8
0
100
AcDbSpline
70
4
71
3
72
8
73
4
74
0
42
0.000000001
43
0.0000000001
44
0.0000000001
40
0
40
0
40
0
40
0
40
1
40
1
40
1
40
1
41
1
41
1
41
1
41
1
10
1.7260596496122844
20
-13.017579011530165
30
0
10
1.7904417518850126
20
-12.99147815925744
30
0
10
1.7904417518850126
20
-12.972337534257438
30
0
10
1.7277997064304673
20
-12.899255147893804
30
0
0
LINE
5
261
100
AcDbEntity
8
0
100
AcDbLine
10
1.7277997064304673
20
-12.899255147893806
30
0
11
1.6790781155213763
21
-12.841833272893803
31
0
0
LINE
5
262
100
AcDbEntity
8
0
100
AcDbLine
10
1.6790781155213763
20
-12.841833272893803
30
0
11
1.6668977177941049
21
-12.909695488802894
31
0
0
SPLINE
5
263
100
AcDbEntity
8
0
100
AcDbSpline
70
4
71
3
72
8
73
4
74
0
42
0.000000001
43
0.0000000001
44
0.0000000001
40
0
40
0
40
0
40
0
40
1
40
1
40
1
40
1
41
1
41
1
41
1
41
1
10
1.6668977177941049
20
-12.909695488802894
30
0
10
1.6599374905213764
20
-12.958417079711984
30
0
10
1.6390568087031936
20
-12.994958272893802
30
0
10
1.5955553882486482
20
-13.033239522893803
30
0
0
SPLINE
5
264
100
AcDbEntity
8
0
100
AcDbSpline
70
4
71
3
72
8
73
4
74
0
42
0.000000001
43
0.0000000001
44
0.0000000001
40
0
40
0
40
0
40
0
40
1
40
1
40
1
40
1
41
1
41
1
41
1
41
1
10
1.5955553882486482
20
-13.033239522893803
30
0
10
1.4859318087031947
20
-13.128942647893801
30
0
10
1.3362869223395586
20
-13.106321909257439
30
0
10
1.2197031155213767
20
-12.979297761530166
30
0
0
LINE
5
265
100
AcDbEntity
8
0
100
AcDbLine
10
1.2197031155213767
20
-12.979297761530166
30
0
11
1.1727215814304657
21
-12.927096056984711
31
0
0
LINE
5
266
100
AcDbEntity
8
0
100
AcDbLine
10
1.1727215814304657
20
-12.927096056984711
30
0
11
1.1518408996122829
21
-12.965377306984713
31
0
0
SPLINE
5
267
100
AcDbEntity
8
0
100
AcDbSpline
70
4
71
3
72
8
73
4
74
0
42
0.000000001
43
0.0000000001
44
0.0000000001
40
0
40
0
40
0
40
0
40
1
40
1
40
1
40
1
41
1
41
1
41
1
41
1
10
1.1518408996122829
20
-12.965377306984713
30
0
10
1.1414005587031943
20
-12.986257988802894
30
0
10
1.1031193087031947
20
-13.034979579711985
30
0
10
1.0700582291577405
20
-13.071520772893802
30
0
0
LINE
5
268
100
AcDbEntity
8
0
100
AcDbLine
10
1.0700582291577405
20
-13.071520772893802
30
0
11
1.0074161837031954
21
-13.141123045621075
31
0
0
LINE
5
269
100
AcDbEntity
8
0
100
AcDbLine
10
1.0074161837031954
20
-13.141123045621075
30
0
11
1.0509176041577379
21
-13.18810457971199
31
0
0
SPLINE
5
270
100
AcDbEntity
8
0
100
AcDbSpline
70
4
71
3
72
8
73
4
74
0
42
0.000000001
43
0.0000000001
44
0.0000000001
40
0
40
0
40
0
40
0
40
1
40
1
40
1
40
1
41
1
41
1
41
1
41
1
10
1.0509176041577379
20
-13.18810457971199
30
0
10
1.1118195927941004
20
-13.252486681984712
30
0
10
1.1344403314304632
20
-13.301208272893803
30
0
10
1.1344403314304632
20
-13.367330431984712
30
0
0
SPLINE
5
271
100
AcDbEntity
8
0
100
AcDbSpline
70
4
71
3
72
8
73
4
74
0
42
0.000000001
43
0.0000000001
44
0.0000000001
40
0
40
0
40
0
40
0
40
1
40
1
40
1
40
1
41
1
41
1
41
1
41
1
10
1.1344403314304632
20
-13.367330431984712
30
0
10
1.1344403314304632
20
-13.423012250166531
30
0
10
1.1344403314304632
20
-13.423012250166531
30
0
10
1.2092627746122797
20
-13.412571909257439
30
0
0
SPLINE
5
272
100
AcDbEntity
8
0
100
AcDbSpline
70
4
71
3
72
8
73
4
74
0
42
0.000000001
43
0.0000000001
44
0.0000000001
40
0
40
0
40
0
40
0
40
1
40
1
40
1
40
1
41
1
41
1
41
1
41
1
10
1.2092627746122797
20
-13.412571909257439
30
0
10
1.3154062405213731
20
-13.398651454711983
30
0
10
1.4232897632486468
20
-13.429972477439257
30
0
10
1.4946320927941004
20
-13.499574750166531
30
0
0
SPLINE
5
273
100
AcDbEntity
8
0
100
AcDbSpline
70
4
71
3
72
8
73
4
74
0
42
0.000000001
43
0.0000000001
44
0.0000000001
40
0
40
0
40
0
40
0
40
1
40
1
40
1
40
1
41
1
41
1
41
1
41
1
10
1.4946320927941004
20
-13.499574750166531
30
0
10
1.5294332291577373
20
-13.530895772893802
30
0
10
1.5607542518850086
20
-13.555256568348348
30
0
10
1.5642343655213742
20
-13.551776454711984
30
0
0
SPLINE
5
274
100
AcDbEntity
8
0
100
AcDbSpline
70
4
71
3
72
8
73
4
74
0
42
0.000000001
43
0.0000000001
44
0.0000000001
40
0
40
0
40
0
40
0
40
1
40
1
40
1
40
1
41
1
41
1
41
1
41
1
10
1.5642343655213742
20
-13.551776454711984
30
0
10
1.5677144791577371
20
-13.548296341075622
30
0
10
1.588595160975917
20
-13.438672761530166
30
0
10
1.6129559564304654
20
-13.306428443348349
30
0
0
SPLINE
5
275
100
AcDbEntity
8
0
100
AcDbSpline
70
4
71
3
72
8
73
4
74
0
42
0.000000001
43
0.0000000001
44
0.0000000001
40
0
40
0
40
0
40
0
40
1
40
1
40
1
40
1
41
1
41
1
41
1
41
1
10
1.6129559564304654
20
-13.306428443348349
30
0
10
1.635576695066828
20
-13.17592418198471
30
0
10
1.6581974337031935
20
-13.062820488802894
30
0
10
1.663417604157742
20
-13.054120204711985
30
0
0
SPLINE
5
276
100
AcDbEntity
8
0
100
AcDbSpline
70
4
71
3
72
8
73
4
74
0
42
0.000000001
43
0.0000000001
44
0.0000000001
40
0
40
0
40
0
40
0
40
1
40
1
40
1
40
1
41
1
41
1
41
1
41
1
10
1.7312798200668329
20
-11.891762250166531
30
0
10
1.7573806723395584
20
-11.855221056984714
30
0
10
1.7782613541577412
20
-11.82390003425744
30
0
10
1.7782613541577412
20
-11.822159977439258
30
0
0
SPLINE
5
277
100
AcDbEntity
8
0
100
AcDbSpline
70
4
71
3
72
8
73
4
74
0
42
0.000000001
43
0.0000000001
44
0.0000000001
40
0
40
0
40
0
40
0
40
1
40
1
40
1
40
1
41
1
41
1
41
1
41
1
10
1.7782613541577412
20
-11.822159977439258
30
0
10
1.7782613541577412
20
-11.820419920621077
30
0
10
1.7521605018850099
20
-11.804759409257439
30
0
10
1.7225795359759188
20
-11.789098897893803
30
0
0
SPLINE
5
278
100
AcDbEntity
8
0
100
AcDbSpline
70
4
71
3
72
8
73
4
74
0
42
0.000000001
43
0.0000000001
44
0.0000000001
40
0
40
0
40
0
40
0
40
1
40
1
40
1
40
1
41
1
41
1
41
1
41
1
10
1.7225795359759188
20
-11.789098897893803
30
0
10
1.6912585132486475
20
-11.773438386530168
30
0
10
1.663417604157742
20
-11.759517931984712
30
0
10
1.6616775473395535
20
-11.756037818348348
30
0
0
SPLINE
5
279
100
AcDbEntity
8
0
100
AcDbSpline
70
4
71
3
72
8
73
4
74
0
42
0.000000001
43
0.0000000001
44
0.0000000001
40
0
40
0
40
0
40
0
40
1
40
1
40
1
40
1
41
1
41
1
41
1
41
1
10
1.6616775473395535
20
-11.756037818348348
30
0
10
1.6581974337031935
20
-11.754297761530166
30
0
10
1.6373167518850165
20
-11.649894352439258
30
0
10
1.6129559564304681
20
-11.521130147893805
30
0
0
SPLINE
5
280
100
AcDbEntity
8
0
100
AcDbSpline
70
4
71
3
72
8
73
4
74
0
42
0.000000001
43
0.0000000001
44
0.0000000001
40
0
40
0
40
0
40
0
40
1
40
1
40
1
40
1
41
1
41
1
41
1
41
1
10
1.6129559564304681
20
-11.521130147893805
30
0
10
1.5903352177941055
20
-11.394106000166531
30
0
10
1.56771447915774
20
-11.287962534257439
30
0
10
1.5642343655213771
20
-11.284482420621075
30
0
0
SPLINE
5
281
100
AcDbEntity
8
0
100
AcDbSpline
70
4
71
3
72
8
73
4
74
0
42
0.000000001
43
0.0000000001
44
0.0000000001
40
0
40
0
40
0
40
0
40
1
40
1
40
1
40
1
41
1
41
1
41
1
41
1
10
1.5642343655213771
20
-11.284482420621075
30
0
10
1.5607542518850115
20
-11.281002306984712
30
0
10
1.5468337973395601
20
-11.296662818348349
30
0
10
1.5346533996122858
20
-11.321023613802895
30
0
0
SPLINE
5
282
100
AcDbEntity
8
0
100
AcDbSpline
70
4
71
3
72
8
73
4
74
0
42
0.000000001
43
0.0000000001
44
0.0000000001
40
0
40
0
40
0
40
0
40
1
40
1
40
1
40
1
41
1
41
1
41
1
41
1
10
1.5346533996122858
20
-11.321023613802895
30
0
10
1.4946320927941033
20
-11.397586113802895
30
0
10
1.4041491382486497
20
-11.439347477439258
30
0
10
1.264944592794105
20
-11.448047761530166
30
0
0
LINE
5
283
100
AcDbEntity
8
0
100
AcDbLine
10
1.2649445927941048
20
-11.448047761530166
30
0
11
1.1379204450668317
21
-11.455007988802894
31
0
0
LINE
5
284
100
AcDbEntity
8
0
100
AcDbLine
10
1.1379204450668317
20
-11.455007988802894
30
0
11
1.1292201609759229
21
-11.524610261530167
31
0
0
SPLINE
5
285
100
AcDbEntity
8
0
100
AcDbSpline
70
4
71
3
72
8
73
4
74
0
42
0.000000001
43
0.0000000001
44
0.0000000001
40
0
40
0
40
0
40
0
40
1
40
1
40
1
40
1
41
1
41
1
41
1
41
1
10
1.1292201609759229
20
-11.524610261530167
30
0
10
1.1239999905213773
20
-11.56463156834835
30
0
10
1.0978991382486518
20
-11.622053443348349
30
0
10
1.0700582291577405
20
-11.658594636530166
30
0
0
LINE
5
286
100
AcDbEntity
8
0
100
AcDbLine
10
1.0700582291577405
20
-11.658594636530166
30
0
11
1.0195965814304695
21
-11.721236681984712
31
0
0
LINE
5
287
100
AcDbEntity
8
0
100
AcDbLine
10
1.0195965814304695
20
-11.721236681984712
30
0
11
1.1013792518850147
21
-11.827380147893802
31
0
0
LINE
5
288
100
AcDbEntity
8
0
100
AcDbLine
10
1.1013792518850147
20
-11.827380147893802
30
0
11
1.1814218655213768
21
-11.933523613802894
31
0
0
LINE
5
289
100
AcDbEntity
8
0
100
AcDbLine
10
1.1814218655213768
20
-11.933523613802894
30
0
11
1.2284033996122852
21
-11.876101738802893
31
0
0
SPLINE
5
290
100
AcDbEntity
8
0
100
AcDbSpline
70
4
71
3
72
8
73
4
74
0
42
0.000000001
43
0.0000000001
44
0.0000000001
40
0
40
0
40
0
40
0
40
1
40
1
40
1
40
1
41
1
41
1
41
1
41
1
10
1.2284033996122852
20
-11.876101738802893
30
0
10
1.3502073768850129
20
-11.722976738802895
30
0
10
1.56945453597592
20
-11.733417079711986
30
0
10
1.652977263248645
20
-11.895242363802897
30
0
0
LINE
5
291
100
AcDbEntity
8
0
100
AcDbLine
10
1.652977263248645
20
-11.895242363802897
30
0
11
1.6842982859759248
21
-11.957884409257439
31
0
0
LINE
5
292
100
AcDbEntity
8
0
100
AcDbLine
10
1.6842982859759248
20
-11.957884409257439
30
0
11
1.7312798200668329
21
-11.891762250166531
31
0
0
LINE
5
293
100
AcDbEntity
8
0
100
AcDbLine
10
1.5189928882486461
20
-10.967792079711986
30
0
11
1.5102926041577431
21
-10.927770772893803
31
0
0
SPLINE
5
294
100
AcDbEntity
8
0
100
AcDbSpline
70
4
71
3
72
8
73
4
74
0
42
0.000000001
43
0.0000000001
44
0.0000000001
40
0
40
0
40
0
40
0
40
1
40
1
40
1
40
1
41
1
41
1
41
1
41
1
10
1.5102926041577431
20
-10.927770772893803
30
0
10
1.5050724337031918
20
-10.90515003425744
30
0
10
1.4841917518850118
20
-10.792046341075622
30
0
10
1.4650511268850122
20
-10.677202591075622
30
0
0
SPLINE
5
295
100
AcDbEntity
8
0
100
AcDbSpline
70
4
71
3
72
8
73
4
74
0
42
0.000000001
43
0.0000000001
44
0.0000000001
40
0
40
0
40
0
40
0
40
1
40
1
40
1
40
1
41
1
41
1
41
1
41
1
10
1.4650511268850122
20
-10.677202591075622
30
0
10
1.4250298200668294
20
-10.454475318348349
30
0
10
1.4024090814304695
20
-10.409233841075622
30
0
10
1.3432471496122871
20
-10.435334693348347
30
0
0
SPLINE
5
296
100
AcDbEntity
8
0
100
AcDbSpline
70
4
71
3
72
8
73
4
74
0
42
0.000000001
43
0.0000000001
44
0.0000000001
40
0
40
0
40
0
40
0
40
1
40
1
40
1
40
1
41
1
41
1
41
1
41
1
10
1.3432471496122871
20
-10.435334693348347
30
0
10
1.2875653314304676
20
-10.459695488802895
30
0
10
0.68028550188501136
20
-11.035654295621072
30
0
10
0.69246589961228555
20
-11.053054863802888
30
0
0
SPLINE
5
297
100
AcDbEntity
8
0
100
AcDbSpline
70
4
71
3
72
8
73
4
74
0
42
0.000000001
43
0.0000000001
44
0.0000000001
40
0
40
0
40
0
40
0
40
1
40
1
40
1
40
1
41
1
41
1
41
1
41
1
10
0.69246589961228555
20
-11.053054863802888
30
0
10
0.69768607006683114
20
-11.061755147893797
30
0
10
0.72378692233955955
20
-11.068715375166525
30
0
10
0.75162783143046796
20
-11.068715375166525
30
0
0
SPLINE
5
298
100
AcDbEntity
8
0
100
AcDbSpline
70
4
71
3
72
8
73
4
74
0
42
0.000000001
43
0.0000000001
44
0.0000000001
40
0
40
0
40
0
40
0
40
1
40
1
40
1
40
1
41
1
41
1
41
1
41
1
10
0.75162783143046796
20
-11.068715375166525
30
0
10
0.85255112688501011
20
-11.068715375166525
30
0
10
0.99523578597592399
20
-11.15397815925744
30
0
10
1.0683181723395578
20
-11.256641511530166
30
0
0
SPLINE
5
299
100
AcDbEntity
8
0
100
AcDbSpline
70
4
71
3
72
8
73
4
74
0
42
0.000000001
43
0.0000000001
44
0.0000000001
40
0
40
0
40
0
40
0
40
1
40
1
40
1
40
1
41
1
41
1
41
1
41
1
10
1.0683181723395578
20
-11.256641511530166
30
0
10
1.0891988541577404
20
-11.287962534257439
30
0
10
1.1170397632486488
20
-11.300142931984713
30
0
10
1.1918622064304683
20
-11.307103159257441
30
0
0
SPLINE
5
300
100
AcDbEntity
8
0
100
AcDbSpline
70
4
71
3
72
8
73
4
74
0
42
0.000000001
43
0.0000000001
44
0.0000000001
40
0
40
0
40
0
40
0
40
1
40
1
40
1
40
1
41
1
41
1
41
1
41
1
10
1.1918622064304683
20
-11.307103159257441
30
0
10
1.3067059564304675
20
-11.319283556984715
30
0
10
1.3571676041577385
20
-11.308843216075621
30
0
10
1.4093693087031924
20
-11.260121625166532
30
0
0
SPLINE
5
301
100
AcDbEntity
8
0
100
AcDbSpline
70
4
71
3
72
8
73
4
74
0
42
0.000000001
43
0.0000000001
44
0.0000000001
40
0
40
0
40
0
40
0
40
1
40
1
40
1
40
1
41
1
41
1
41
1
41
1
10
1.4093693087031924
20
-11.260121625166532
30
0
10
1.4911519791577403
20
-11.18355912516653
30
0
10
1.4302499905213779
20
-11.033914238802893
30
0
10
1.3171462973395589
20
-11.033914238802893
30
0
0
SPLINE
5
302
100
AcDbEntity
8
0
100
AcDbSpline
70
4
71
3
72
8
73
4
74
0
42
0.000000001
43
0.0000000001
44
0.0000000001
40
0
40
0
40
0
40
0
40
1
40
1
40
1
40
1
41
1
41
1
41
1
41
1
10
1.3171462973395589
20
-11.033914238802893
30
0
10
1.2753849337031935
20
-11.033914238802893
30
0
10
1.251024138248648
20
-11.044354579711985
30
0
10
1.2388437405213737
20
-11.066975318348348
30
0
0
SPLINE
5
303
100
AcDbEntity
8
0
100
AcDbSpline
70
4
71
3
72
8
73
4
74
0
42
0.000000001
43
0.0000000001
44
0.0000000001
40
0
40
0
40
0
40
0
40
1
40
1
40
1
40
1
41
1
41
1
41
1
41
1
10
1.2388437405213737
20
-11.066975318348348
30
0
10
1.2144829450668311
20
-11.113956852439257
30
0
10
1.2162230018850138
20
-11.120917079711987
30
0
10
1.2562443087031965
20
-11.120917079711987
30
0
0
SPLINE
5
304
100
AcDbEntity
8
0
100
AcDbSpline
70
4
71
3
72
8
73
4
74
0
42
0.000000001
43
0.0000000001
44
0.0000000001
40
0
40
0
40
0
40
0
40
1
40
1
40
1
40
1
41
1
41
1
41
1
41
1
10
1.2562443087031965
20
-11.120917079711987
30
0
10
1.2980056723395561
20
-11.120917079711987
30
0
10
1.3223664677941016
20
-11.197479579711985
30
0
10
1.2910454450668305
20
-11.234020772893803
30
0
0
SPLINE
5
305
100
AcDbEntity
8
0
100
AcDbSpline
70
4
71
3
72
8
73
4
74
0
42
0.000000001
43
0.0000000001
44
0.0000000001
40
0
40
0
40
0
40
0
40
1
40
1
40
1
40
1
41
1
41
1
41
1
41
1
10
1.2910454450668305
20
-11.234020772893803
30
0
10
1.2597244223395565
20
-11.272302022893804
30
0
10
1.1953423200668312
20
-11.265341795621076
30
0
10
1.1396605018850088
20
-11.218360261530167
30
0
0
SPLINE
5
306
100
AcDbEntity
8
0
100
AcDbSpline
70
4
71
3
72
8
73
4
74
0
42
0.000000001
43
0.0000000001
44
0.0000000001
40
0
40
0
40
0
40
0
40
1
40
1
40
1
40
1
41
1
41
1
41
1
41
1
10
1.1396605018850088
20
-11.218360261530167
30
0
10
1.0543977177941064
20
-11.14527787516653
30
0
10
1.0839786837031948
20
-10.992152875166532
30
0
10
1.1970823768850141
20
-10.919070488802895
30
0
0
SPLINE
5
307
100
AcDbEntity
8
0
100
AcDbSpline
70
4
71
3
72
8
73
4
74
0
42
0.000000001
43
0.0000000001
44
0.0000000001
40
0
40
0
40
0
40
0
40
1
40
1
40
1
40
1
41
1
41
1
41
1
41
1
10
1.1970823768850141
20
-10.919070488802895
30
0
10
1.2597244223395565
20
-10.877309125166532
30
0
10
1.3815283996122869
20
-10.882529295621076
30
0
10
1.4563508427941037
20
-10.929510829711987
30
0
0
LINE
5
308
100
AcDbEntity
8
0
100
AcDbLine
10
1.4563508427941037
20
-10.929510829711985
30
0
11
1.5189928882486461
21
-10.967792079711986
31
0
0
LINE
5
309
100
AcDbEntity
8
0
100
AcDbLine
10
1.4981122064304662
20
-13.943289238802892
30
0
11
1.4998522632486462
21
-13.905007988802893
31
0
0
LINE
5
310
100
AcDbEntity
8
0
100
AcDbLine
10
1.4998522632486462
20
-13.905007988802893
30
0
11
1.4302499905213752
21
-13.939809125166533
31
0
0
SPLINE
5
311
100
AcDbEntity
8
0
100
AcDbSpline
70
4
71
3
72
8
73
4
74
0
42
0.000000001
43
0.0000000001
44
0.0000000001
40
0
40
0
40
0
40
0
40
1
40
1
40
1
40
1
41
1
41
1
41
1
41
1
10
1.4302499905213752
20
-13.939809125166533
30
0
10
1.284085217794102
20
-14.014631568348349
30
0
10
1.1292201609759203
20
-13.950249466075624
30
0
10
1.0909389109759178
20
-13.797124466075624
30
0
0
SPLINE
5
312
100
AcDbEntity
8
0
100
AcDbSpline
70
4
71
3
72
8
73
4
74
0
42
0.000000001
43
0.0000000001
44
0.0000000001
40
0
40
0
40
0
40
0
40
1
40
1
40
1
40
1
41
1
41
1
41
1
41
1
10
1.0909389109759178
20
-13.797124466075624
30
0
10
1.0735383427941008
20
-13.732742363802894
30
0
10
1.1222599337031889
20
-13.630079011530167
30
0
10
1.1762016950668286
20
-13.616158556984709
30
0
0
SPLINE
5
313
100
AcDbEntity
8
0
100
AcDbSpline
70
4
71
3
72
8
73
4
74
0
42
0.000000001
43
0.0000000001
44
0.0000000001
40
0
40
0
40
0
40
0
40
1
40
1
40
1
40
1
41
1
41
1
41
1
41
1
10
1.1762016950668286
20
-13.616158556984709
30
0
10
1.2510241382486451
20
-13.597017931984713
30
0
10
1.3084460132486446
20
-13.621378727439257
30
0
10
1.3084460132486446
20
-13.670100318348346
30
0
0
SPLINE
5
314
100
AcDbEntity
8
0
100
AcDbSpline
70
4
71
3
72
8
73
4
74
0
42
0.000000001
43
0.0000000001
44
0.0000000001
40
0
40
0
40
0
40
0
40
1
40
1
40
1
40
1
41
1
41
1
41
1
41
1
10
1.3084460132486446
20
-13.670100318348346
30
0
10
1.3084460132486446
20
-13.701421341075621
30
0
10
1.2945255587031934
20
-13.718821909257437
30
0
10
1.2649445927941021
20
-13.731002306984712
30
0
0
SPLINE
5
315
100
AcDbEntity
8
0
100
AcDbSpline
70
4
71
3
72
8
73
4
74
0
42
0.000000001
43
0.0000000001
44
0.0000000001
40
0
40
0
40
0
40
0
40
1
40
1
40
1
40
1
41
1
41
1
41
1
41
1
10
1.2649445927941021
20
-13.731002306984712
30
0
10
1.2144829450668282
20
-13.750142931984712
30
0
10
1.2110028314304653
20
-13.769283556984711
30
0
10
1.2492840814304622
20
-13.807564806984711
30
0
0
SPLINE
5
316
100
AcDbEntity
8
0
100
AcDbSpline
70
4
71
3
72
8
73
4
74
0
42
0.000000001
43
0.0000000001
44
0.0000000001
40
0
40
0
40
0
40
0
40
1
40
1
40
1
40
1
41
1
41
1
41
1
41
1
10
1.2492840814304622
20
-13.807564806984711
30
0
10
1.2875653314304649
20
-13.847586113802894
30
0
10
1.3484673200668273
20
-13.842365943348351
30
0
10
1.4024090814304668
20
-13.791904295621077
30
0
0
SPLINE
5
317
100
AcDbEntity
8
0
100
AcDbSpline
70
4
71
3
72
8
73
4
74
0
42
0.000000001
43
0.0000000001
44
0.0000000001
40
0
40
0
40
0
40
0
40
1
40
1
40
1
40
1
41
1
41
1
41
1
41
1
10
1.4024090814304668
20
-13.791904295621077
30
0
10
1.4876718655213719
20
-13.713601738802895
30
0
10
1.4493906155213723
20
-13.590057704711985
30
0
10
1.3275866382486474
20
-13.55699662516653
30
0
0
SPLINE
5
318
100
AcDbEntity
8
0
100
AcDbSpline
70
4
71
3
72
8
73
4
74
0
42
0.000000001
43
0.0000000001
44
0.0000000001
40
0
40
0
40
0
40
0
40
1
40
1
40
1
40
1
41
1
41
1
41
1
41
1
10
1.3275866382486474
20
-13.55699662516653
30
0
10
1.2110028314304653
20
-13.525675602439255
30
0
10
1.1152997064304633
20
-13.55699662516653
30
0
10
1.017856524612281
20
-13.654439806984712
30
0
0
SPLINE
5
319
100
AcDbEntity
8
0
100
AcDbSpline
70
4
71
3
72
8
73
4
74
0
42
0.000000001
43
0.0000000001
44
0.0000000001
40
0
40
0
40
0
40
0
40
1
40
1
40
1
40
1
41
1
41
1
41
1
41
1
10
1.017856524612281
20
-13.654439806984712
30
0
10
0.95347442233955582
20
-13.722302022893803
30
0
10
0.90997300188500763
20
-13.748402875166533
30
0
10
0.82471021779410381
20
-13.774503727439257
30
0
0
LINE
5
320
100
AcDbEntity
8
0
100
AcDbLine
10
0.82471021779410369
20
-13.774503727439257
30
0
11
0.71682669506683039
21
-13.809304863802891
31
0
0
LINE
5
321
100
AcDbEntity
8
0
100
AcDbLine
10
0.71682669506683039
20
-13.809304863802891
30
0
11
1.014376410975921
21
-14.087713954711989
31
0
0
SPLINE
5
322
100
AcDbEntity
8
0
100
AcDbSpline
70
4
71
3
72
8
73
4
74
0
42
0.000000001
43
0.0000000001
44
0.0000000001
40
0
40
0
40
0
40
0
40
1
40
1
40
1
40
1
41
1
41
1
41
1
41
1
10
1.014376410975921
20
-14.087713954711989
30
0
10
1.3275866382486474
20
-14.381783556984713
30
0
10
1.3954488541577355
20
-14.423544920621078
30
0
10
1.4232897632486468
20
-14.336542079711988
30
0
0
SPLINE
5
323
100
AcDbEntity
8
0
100
AcDbSpline
70
4
71
3
72
8
73
4
74
0
42
0.000000001
43
0.0000000001
44
0.0000000001
40
0
40
0
40
0
40
0
40
1
40
1
40
1
40
1
41
1
41
1
41
1
41
1
10
1.4232897632486468
20
-14.336542079711988
30
0
10
1.4389502746122809
20
-14.286080431984713
30
0
10
1.4946320927941004
20
-13.995490943348349
30
0
10
1.4981122064304662
20
-13.943289238802892
30
0
0
SPLINE
5
324
100
AcDbEntity
8
0
100
AcDbSpline
70
4
71
3
72
8
73
4
74
0
42
0.000000001
43
0.0000000001
44
0.0000000001
40
0
40
0
40
0
40
0
40
1
40
1
40
1
40
1
41
1
41
1
41
1
41
1
10
0.80382953597592111
20
-13.094141511530164
30
0
10
0.94129402461228728
20
-13.022799181984716
30
0
10
0.97957527461228422
20
-12.984517931984712
30
0
10
1.0578778314304693
20
-12.848793500166535
30
0
0
SPLINE
5
325
100
AcDbEntity
8
0
100
AcDbSpline
70
4
71
3
72
8
73
4
74
0
42
0.000000001
43
0.0000000001
44
0.0000000001
40
0
40
0
40
0
40
0
40
1
40
1
40
1
40
1
41
1
41
1
41
1
41
1
10
1.0578778314304693
20
-12.848793500166535
30
0
10
1.1170397632486488
20
-12.744390091075621
30
0
10
1.1187798200668317
20
-12.709588954711988
30
0
10
1.0735383427941034
20
-12.617365943348348
30
0
0
SPLINE
5
326
100
AcDbEntity
8
0
100
AcDbSpline
70
4
71
3
72
8
73
4
74
0
42
0.000000001
43
0.0000000001
44
0.0000000001
40
0
40
0
40
0
40
0
40
1
40
1
40
1
40
1
41
1
41
1
41
1
41
1
10
1.0735383427941034
20
-12.617365943348348
30
0
10
1.0352570927941009
20
-12.540803443348349
30
0
10
0.97957527461228422
20
-12.504262250166532
30
0
10
0.90475283143046759
20
-12.504262250166532
30
0
0
SPLINE
5
327
100
AcDbEntity
8
0
100
AcDbSpline
70
4
71
3
72
8
73
4
74
0
42
0.000000001
43
0.0000000001
44
0.0000000001
40
0
40
0
40
0
40
0
40
1
40
1
40
1
40
1
41
1
41
1
41
1
41
1
10
0.90475283143046759
20
-12.504262250166532
30
0
10
0.82297016097591824
20
-12.50426225016653
30
0
10
0.76902839961228431
20
-12.55646395471198
30
0
10
0.76902839961228431
20
-12.636506568348345
30
0
0
SPLINE
5
328
100
AcDbEntity
8
0
100
AcDbSpline
70
4
71
3
72
8
73
4
74
0
42
0.000000001
43
0.0000000001
44
0.0000000001
40
0
40
0
40
0
40
0
40
1
40
1
40
1
40
1
41
1
41
1
41
1
41
1
10
0.76902839961228431
20
-12.636506568348345
30
0
10
0.76902839961228431
20
-12.700888670621071
30
0
10
0.79164913824864702
20
-12.711329011530163
30
0
10
0.86473152461228497
20
-12.68522815925744
30
0
0
SPLINE
5
329
100
AcDbEntity
8
0
100
AcDbSpline
70
4
71
3
72
8
73
4
74
0
42
0.000000001
43
0.0000000001
44
0.0000000001
40
0
40
0
40
0
40
0
40
1
40
1
40
1
40
1
41
1
41
1
41
1
41
1
10
0.86473152461228497
20
-12.68522815925744
30
0
10
0.91693322915773889
20
-12.666087534257439
30
0
10
0.92911362688501309
20
-12.666087534257439
30
0
10
0.95347442233955859
20
-12.690448329711987
30
0
0
SPLINE
5
330
100
AcDbEntity
8
0
100
AcDbSpline
70
4
71
3
72
8
73
4
74
0
42
0.000000001
43
0.0000000001
44
0.0000000001
40
0
40
0
40
0
40
0
40
1
40
1
40
1
40
1
41
1
41
1
41
1
41
1
10
0.95347442233955859
20
-12.690448329711987
30
0
10
1.0195965814304695
20
-12.756570488802895
30
0
10
0.89605254733955619
20
-12.857493784257443
30
0
10
0.77598862688500991
20
-12.836613102439252
30
0
0
SPLINE
5
331
100
AcDbEntity
8
0
100
AcDbSpline
70
4
71
3
72
8
73
4
74
0
42
0.000000001
43
0.0000000001
44
0.0000000001
40
0
40
0
40
0
40
0
40
1
40
1
40
1
40
1
41
1
41
1
41
1
41
1
10
0.77598862688500991
20
-12.836613102439252
30
0
10
0.72378692233955888
20
-12.826172761530161
30
0
10
0.7185667518850104
20
-12.829652875166527
30
0
10
0.70812641097592177
20
-12.878374466075618
30
0
0
SPLINE
5
332
100
AcDbEntity
8
0
100
AcDbSpline
70
4
71
3
72
8
73
4
74
0
42
0.000000001
43
0.0000000001
44
0.0000000001
40
0
40
0
40
0
40
0
40
1
40
1
40
1
40
1
41
1
41
1
41
1
41
1
10
0.70812641097592177
20
-12.878374466075618
30
0
10
0.68376561552137627
20
-12.991478159257435
30
0
10
0.53760084279410303
20
-13.092401454711982
30
0
10
0.44537783143046938
20
-13.059340375166524
30
0
0
SPLINE
5
333
100
AcDbEntity
8
0
100
AcDbSpline
70
4
71
3
72
8
73
4
74
0
42
0.000000001
43
0.0000000001
44
0.0000000001
40
0
40
0
40
0
40
0
40
1
40
1
40
1
40
1
41
1
41
1
41
1
41
1
10
0.44537783143046938
20
-13.059340375166524
30
0
10
0.3131335132486448
20
-13.012358841075617
30
0
10
0.30095311552137344
20
-12.822692647893801
30
0
10
0.42623720643046392
20
-12.775711113802894
30
0
0
SPLINE
5
334
100
AcDbEntity
8
0
100
AcDbSpline
70
4
71
3
72
8
73
4
74
0
42
0.000000001
43
0.0000000001
44
0.0000000001
40
0
40
0
40
0
40
0
40
1
40
1
40
1
40
1
41
1
41
1
41
1
41
1
10
0.42623720643046392
20
-12.775711113802894
30
0
10
0.50801987688501182
20
-12.744390091075619
30
0
10
0.56370169506682866
20
-12.838353159257435
30
0
10
0.49583947915773768
20
-12.888814806984708
30
0
0
SPLINE
5
335
100
AcDbEntity
8
0
100
AcDbSpline
70
4
71
3
72
8
73
4
74
0
42
0.000000001
43
0.0000000001
44
0.0000000001
40
0
40
0
40
0
40
0
40
1
40
1
40
1
40
1
41
1
41
1
41
1
41
1
10
0.49583947915773768
20
-12.888814806984708
30
0
10
0.45581817233955513
20
-12.916655716075617
30
0
10
0.47669885415773783
20
-12.939276454711983
30
0
10
0.52194033143046326
20
-12.914915659257435
30
0
0
SPLINE
5
336
100
AcDbEntity
8
0
100
AcDbSpline
70
4
71
3
72
8
73
4
74
0
42
0.000000001
43
0.0000000001
44
0.0000000001
40
0
40
0
40
0
40
0
40
1
40
1
40
1
40
1
41
1
41
1
41
1
41
1
10
0.52194033143046326
20
-12.914915659257435
30
0
10
0.61416334279410256
20
-12.866194068348344
30
0
10
0.56544175188501145
20
-12.735689806984711
30
0
10
0.4523380587031951
20
-12.725249466075619
30
0
0
SPLINE
5
337
100
AcDbEntity
8
0
100
AcDbSpline
70
4
71
3
72
8
73
4
74
0
42
0.000000001
43
0.0000000001
44
0.0000000001
40
0
40
0
40
0
40
0
40
1
40
1
40
1
40
1
41
1
41
1
41
1
41
1
10
0.4523380587031951
20
-12.725249466075619
30
0
10
0.33053408143046464
20
-12.714809125166527
30
0
10
0.25397158143046517
20
-12.77745117062107
30
0
10
0.22961078597591963
20
-12.913175602439251
30
0
0
SPLINE
5
338
100
AcDbEntity
8
0
100
AcDbSpline
70
4
71
3
72
8
73
4
74
0
42
0.000000001
43
0.0000000001
44
0.0000000001
40
0
40
0
40
0
40
0
40
1
40
1
40
1
40
1
41
1
41
1
41
1
41
1
10
0.22961078597591963
20
-12.913175602439251
30
0
10
0.21917044506683109
20
-12.972337534257434
30
0
10
0.22265055870319114
20
-12.984517931984708
30
0
10
0.25571163824864801
20
-13.007138670621075
30
0
0
SPLINE
5
339
100
AcDbEntity
8
0
100
AcDbSpline
70
4
71
3
72
8
73
4
74
0
42
0.000000001
43
0.0000000001
44
0.0000000001
40
0
40
0
40
0
40
0
40
1
40
1
40
1
40
1
41
1
41
1
41
1
41
1
10
0.25571163824864801
20
-13.007138670621075
30
0
10
0.36185510415773864
20
-13.076740943348348
30
0
10
0.4070965814304669
20
-13.276847477439254
30
0
10
0.34445453597592163
20
-13.396911397893797
30
0
0
SPLINE
5
340
100
AcDbEntity
8
0
100
AcDbSpline
70
4
71
3
72
8
73
4
74
0
42
0.000000001
43
0.0000000001
44
0.0000000001
40
0
40
0
40
0
40
0
40
1
40
1
40
1
40
1
41
1
41
1
41
1
41
1
10
0.34445453597592163
20
-13.396911397893797
30
0
10
0.31139345643046756
20
-13.461293500166528
30
0
10
0.30965339961228194
20
-13.469993784257436
30
0
10
0.33749430870319314
20
-13.469993784257436
30
0
0
SPLINE
5
341
100
AcDbEntity
8
0
100
AcDbSpline
70
4
71
3
72
8
73
4
74
0
42
0.000000001
43
0.0000000001
44
0.0000000001
40
0
40
0
40
0
40
0
40
1
40
1
40
1
40
1
41
1
41
1
41
1
41
1
10
0.33749430870319314
20
-13.469993784257436
30
0
10
0.34967470643046727
20
-13.469993784257436
30
0
10
0.40013635415773557
20
-13.511755147893801
30
0
10
0.4523380587031951
20
-13.560476738802892
30
0
0
LINE
5
342
100
AcDbEntity
8
0
100
AcDbLine
10
0.4523380587031951
20
-13.560476738802892
30
0
11
0.54456107006682875
21
-13.652699750166526
31
0
0
LINE
5
343
100
AcDbEntity
8
0
100
AcDbLine
10
0.54456107006682875
20
-13.652699750166526
30
0
11
0.66984516097591928
21
-13.650959693348344
31
0
0
SPLINE
5
344
100
AcDbEntity
8
0
100
AcDbSpline
70
4
71
3
72
8
73
4
74
0
42
0.000000001
43
0.0000000001
44
0.0000000001
40
0
40
0
40
0
40
0
40
1
40
1
40
1
40
1
41
1
41
1
41
1
41
1
10
0.66984516097591928
20
-13.650959693348344
30
0
10
0.77598862688500991
20
-13.650959693348344
30
0
10
0.80730964961228402
20
-13.642259409257434
30
0
10
0.86995169506682501
20
-13.60223810243926
30
0
0
SPLINE
5
345
100
AcDbEntity
8
0
100
AcDbSpline
70
4
71
3
72
8
73
4
74
0
42
0.000000001
43
0.0000000001
44
0.0000000001
40
0
40
0
40
0
40
0
40
1
40
1
40
1
40
1
41
1
41
1
41
1
41
1
10
0.86995169506682501
20
-13.60223810243926
30
0
10
0.95347442233955582
20
-13.550036397893804
30
0
10
0.99523578597592122
20
-13.473473897893804
30
0
10
0.99523578597592122
20
-13.376030716075622
30
0
0
SPLINE
5
346
100
AcDbEntity
8
0
100
AcDbSpline
70
4
71
3
72
8
73
4
74
0
42
0.000000001
43
0.0000000001
44
0.0000000001
40
0
40
0
40
0
40
0
40
1
40
1
40
1
40
1
41
1
41
1
41
1
41
1
10
0.99523578597592122
20
-13.376030716075622
30
0
10
0.99523578597592122
20
-13.330789238802897
30
0
10
0.98131533143046423
20
-13.304688386530167
30
0
10
0.9343337973395559
20
-13.262927022893807
30
0
0
LINE
5
347
100
AcDbEntity
8
0
100
AcDbLine
10
0.93433379733955613
20
-13.262927022893807
30
0
11
0.87169175188501347
21
-13.208985261530167
31
0
0
LINE
5
348
100
AcDbEntity
8
0
100
AcDbLine
10
0.87169175188501347
20
-13.208985261530167
30
0
11
0.80382953597592111
21
-13.247266511530164
31
0
0
SPLINE
5
349
100
AcDbEntity
8
0
100
AcDbSpline
70
4
71
3
72
8
73
4
74
0
42
0.000000001
43
0.0000000001
44
0.0000000001
40
0
40
0
40
0
40
0
40
1
40
1
40
1
40
1
41
1
41
1
41
1
41
1
10
0.80382953597592111
20
-13.247266511530164
30
0
10
0.72726703597591891
20
-13.292507988802889
30
0
10
0.70638635415773898
20
-13.323829011530163
30
0
10
0.73596732006682741
20
-13.358630147893797
30
0
0
SPLINE
5
350
100
AcDbEntity
8
0
100
AcDbSpline
70
4
71
3
72
8
73
4
74
0
42
0.000000001
43
0.0000000001
44
0.0000000001
40
0
40
0
40
0
40
0
40
1
40
1
40
1
40
1
41
1
41
1
41
1
41
1
10
0.73596732006682741
20
-13.358630147893797
30
0
10
0.7498877746122844
20
-13.376030716075615
30
0
10
0.76380822915774138
20
-13.377770772893797
30
0
10
0.78816902461228411
20
-13.365590375166528
30
0
0
SPLINE
5
351
100
AcDbEntity
8
0
100
AcDbSpline
70
4
71
3
72
8
73
4
74
0
42
0.000000001
43
0.0000000001
44
0.0000000001
40
0
40
0
40
0
40
0
40
1
40
1
40
1
40
1
41
1
41
1
41
1
41
1
10
0.78816902461228411
20
-13.365590375166528
30
0
10
0.83515055870319233
20
-13.339489522893798
30
0
10
0.89953266097591622
20
-13.403871625166531
30
0
10
0.87517186552137349
20
-13.45085315925744
30
0
0
SPLINE
5
352
100
AcDbEntity
8
0
100
AcDbSpline
70
4
71
3
72
8
73
4
74
0
42
0.000000001
43
0.0000000001
44
0.0000000001
40
0
40
0
40
0
40
0
40
1
40
1
40
1
40
1
41
1
41
1
41
1
41
1
10
0.87517186552137349
20
-13.45085315925744
30
0
10
0.83341050188501231
20
-13.527415659257436
30
0
10
0.71682669506683039
20
-13.525675602439254
30
0
10
0.63678408143046805
20
-13.445632988802894
30
0
0
SPLINE
5
353
100
AcDbEntity
8
0
100
AcDbSpline
70
4
71
3
72
8
73
4
74
0
42
0.000000001
43
0.0000000001
44
0.0000000001
40
0
40
0
40
0
40
0
40
1
40
1
40
1
40
1
41
1
41
1
41
1
41
1
10
0.63678408143046805
20
-13.445632988802894
30
0
10
0.52368038824864893
20
-13.332529295621072
30
0
10
0.58110226324864844
20
-13.212465375166529
30
0
10
0.80382953597592111
20
-13.094141511530164
30
0
0
SPLINE
5
354
100
AcDbEntity
8
0
100
AcDbSpline
70
4
71
3
72
8
73
4
74
0
42
0.000000001
43
0.0000000001
44
0.0000000001
40
0
40
0
40
0
40
0
40
1
40
1
40
1
40
1
41
1
41
1
41
1
41
1
10
1.0735383427941034
20
-12.231073329711986
30
0
10
1.0978991382486518
20
-12.180611681984711
30
0
10
1.1170397632486488
20
-12.133630147893804
30
0
10
1.1170397632486488
20
-12.128409977439258
30
0
0
SPLINE
5
355
100
AcDbEntity
8
0
100
AcDbSpline
70
4
71
3
72
8
73
4
74
0
42
0.000000001
43
0.0000000001
44
0.0000000001
40
0
40
0
40
0
40
0
40
1
40
1
40
1
40
1
41
1
41
1
41
1
41
1
10
1.1170397632486488
20
-12.128409977439258
30
0
10
1.1170397632486488
20
-12.121449750166532
30
0
10
1.0961590814304663
20
-12.079688386530167
30
0
10
1.0700582291577405
20
-12.032706852439258
30
0
0
SPLINE
5
356
100
AcDbEntity
8
0
100
AcDbSpline
70
4
71
3
72
8
73
4
74
0
42
0.000000001
43
0.0000000001
44
0.0000000001
40
0
40
0
40
0
40
0
40
1
40
1
40
1
40
1
41
1
41
1
41
1
41
1
10
1.0700582291577405
20
-12.032706852439258
30
0
10
0.98653550188501271
20
-11.881321909257439
30
0
10
0.94477413824865009
20
-11.839560545621074
30
0
10
0.80382953597592044
20
-11.766478159257435
30
0
0
SPLINE
5
357
100
AcDbEntity
8
0
100
AcDbSpline
70
4
71
3
72
8
73
4
74
0
42
0.000000001
43
0.0000000001
44
0.0000000001
40
0
40
0
40
0
40
0
40
1
40
1
40
1
40
1
41
1
41
1
41
1
41
1
10
0.80382953597592044
20
-11.766478159257435
30
0
10
0.6263437405213732
20
-11.674255147893797
30
0
10
0.57066192233955648
20
-11.609873045621073
30
0
10
0.58284232006682923
20
-11.512429863802891
30
0
0
SPLINE
5
358
100
AcDbEntity
8
0
100
AcDbSpline
70
4
71
3
72
8
73
4
74
0
42
0.000000001
43
0.0000000001
44
0.0000000001
40
0
40
0
40
0
40
0
40
1
40
1
40
1
40
1
41
1
41
1
41
1
41
1
10
0.58284232006682923
20
-11.512429863802891
30
0
10
0.60546305870319472
20
-11.352344636530161
30
0
10
0.8264502746122846
20
-11.282742363802889
30
0
10
0.87691192233955917
20
-11.420206852439257
30
0
0
SPLINE
5
359
100
AcDbEntity
8
0
100
AcDbSpline
70
4
71
3
72
8
73
4
74
0
42
0.000000001
43
0.0000000001
44
0.0000000001
40
0
40
0
40
0
40
0
40
1
40
1
40
1
40
1
41
1
41
1
41
1
41
1
10
0.87691192233955917
20
-11.420206852439257
30
0
10
0.89257243370319339
20
-11.46022815925744
30
0
10
0.83863067233955868
20
-11.50372957971198
30
0
10
0.77772868370319348
20
-11.498509409257437
30
0
0
SPLINE
5
360
100
AcDbEntity
8
0
100
AcDbSpline
70
4
71
3
72
8
73
4
74
0
42
0.000000001
43
0.0000000001
44
0.0000000001
40
0
40
0
40
0
40
0
40
1
40
1
40
1
40
1
41
1
41
1
41
1
41
1
10
0.77772868370319348
20
-11.498509409257437
30
0
10
0.69768607006683114
20
-11.493289238802891
30
0
10
0.70812641097592255
20
-11.554191227439251
30
0
10
0.79512925188501193
20
-11.602912818348344
30
0
0
SPLINE
5
361
100
AcDbEntity
8
0
100
AcDbSpline
70
4
71
3
72
8
73
4
74
0
42
0.000000001
43
0.0000000001
44
0.0000000001
40
0
40
0
40
0
40
0
40
1
40
1
40
1
40
1
41
1
41
1
41
1
41
1
10
0.79512925188501193
20
-11.602912818348344
30
0
10
0.83341050188501165
20
-11.623793500166528
30
0
10
0.8699516950668279
20
-11.64293412516653
30
0
10
0.87691192233955917
20
-11.64293412516653
30
0
0
SPLINE
5
362
100
AcDbEntity
8
0
100
AcDbSpline
70
4
71
3
72
8
73
4
74
0
42
0.000000001
43
0.0000000001
44
0.0000000001
40
0
40
0
40
0
40
0
40
1
40
1
40
1
40
1
41
1
41
1
41
1
41
1
10
0.87691192233955917
20
-11.64293412516653
30
0
10
0.88213209279410199
20
-11.64293412516653
30
0
10
0.91171305870319608
20
-11.618573329711984
30
0
10
0.94129402461228728
20
-11.588992363802896
30
0
0
SPLINE
5
363
100
AcDbEntity
8
0
100
AcDbSpline
70
4
71
3
72
8
73
4
74
0
42
0.000000001
43
0.0000000001
44
0.0000000001
40
0
40
0
40
0
40
0
40
1
40
1
40
1
40
1
41
1
41
1
41
1
41
1
10
0.94129402461228728
20
-11.588992363802896
30
0
10
1.0056761268850096
20
-11.526350318348348
30
0
10
1.010896297339561
20
-11.46022815925744
30
0
10
0.9621747064304671
20
-11.35408469334835
30
0
0
SPLINE
5
364
100
AcDbEntity
8
0
100
AcDbSpline
70
4
71
3
72
8
73
4
74
0
42
0.000000001
43
0.0000000001
44
0.0000000001
40
0
40
0
40
0
40
0
40
1
40
1
40
1
40
1
41
1
41
1
41
1
41
1
10
0.9621747064304671
20
-11.35408469334835
30
0
10
0.88735226324864769
20
-11.187039238802893
30
0
10
0.55674146779410361
20
-11.147017931984708
30
0
10
0.41927697915773893
20
-11.287962534257435
30
0
0
SPLINE
5
365
100
AcDbEntity
8
0
100
AcDbSpline
70
4
71
3
72
8
73
4
74
0
42
0.000000001
43
0.0000000001
44
0.0000000001
40
0
40
0
40
0
40
0
40
1
40
1
40
1
40
1
41
1
41
1
41
1
41
1
10
0.41927697915773893
20
-11.287962534257435
30
0
10
0.37925567233955637
20
-11.3297238978938
30
0
10
0.34619459279410231
20
-11.347124466075618
30
0
10
0.30965339961228261
20
-11.347124466075618
30
0
0
LINE
5
366
100
AcDbEntity
8
0
100
AcDbLine
10
0.30965339961228261
20
-11.347124466075618
30
0
11
0.25919175188501153
21
-11.347124466075618
31
0
0
LINE
5
367
100
AcDbEntity
8
0
100
AcDbLine
10
0.25919175188501153
20
-11.347124466075618
30
0
11
0.29573294506683123
21
-11.385405716075617
31
0
0
SPLINE
5
368
100
AcDbEntity
8
0
100
AcDbSpline
70
4
71
3
72
8
73
4
74
0
42
0.000000001
43
0.0000000001
44
0.0000000001
40
0
40
0
40
0
40
0
40
1
40
1
40
1
40
1
41
1
41
1
41
1
41
1
10
0.29573294506683123
20
-11.385405716075617
30
0
10
0.34619459279410231
20
-11.441087534257434
30
0
10
0.36881533143046785
20
-11.508949750166526
30
0
10
0.36881533143046646
20
-11.609873045621073
30
0
0
SPLINE
5
369
100
AcDbEntity
8
0
100
AcDbSpline
70
4
71
3
72
8
73
4
74
0
42
0.000000001
43
0.0000000001
44
0.0000000001
40
0
40
0
40
0
40
0
40
1
40
1
40
1
40
1
41
1
41
1
41
1
41
1
10
0.36881533143046646
20
-11.609873045621073
30
0
10
0.36881533143046646
20
-11.707316227439255
30
0
10
0.34271447915773806
20
-11.769958272893797
30
0
10
0.27485226324864714
20
-11.832600318348346
30
0
0
SPLINE
5
370
100
AcDbEntity
8
0
100
AcDbSpline
70
4
71
3
72
8
73
4
74
0
42
0.000000001
43
0.0000000001
44
0.0000000001
40
0
40
0
40
0
40
0
40
1
40
1
40
1
40
1
41
1
41
1
41
1
41
1
10
0.27485226324864714
20
-11.832600318348346
30
0
10
0.20873010415773904
20
-11.893502306984711
30
0
10
0.22265055870319042
20
-12.02748668198471
30
0
10
0.29921305870319337
20
-12.090128727439252
30
0
0
SPLINE
5
371
100
AcDbEntity
8
0
100
AcDbSpline
70
4
71
3
72
8
73
4
74
0
42
0.000000001
43
0.0000000001
44
0.0000000001
40
0
40
0
40
0
40
0
40
1
40
1
40
1
40
1
41
1
41
1
41
1
41
1
10
0.29921305870319337
20
-12.090128727439252
30
0
10
0.34619459279410164
20
-12.128409977439253
30
0
10
0.44885794506682947
20
-12.149290659257435
30
0
10
0.49757953597592053
20
-12.130150034257435
30
0
0
SPLINE
5
372
100
AcDbEntity
8
0
100
AcDbSpline
70
4
71
3
72
8
73
4
74
0
42
0.000000001
43
0.0000000001
44
0.0000000001
40
0
40
0
40
0
40
0
40
1
40
1
40
1
40
1
41
1
41
1
41
1
41
1
10
0.49757953597592053
20
-12.130150034257435
30
0
10
0.59154260415773707
20
-12.0953488978938
30
0
10
0.59850283143046756
20
-11.938743784257436
30
0
10
0.50627982006682837
20
-11.938743784257436
30
0
0
SPLINE
5
373
100
AcDbEntity
8
0
100
AcDbSpline
70
4
71
3
72
8
73
4
74
0
42
0.000000001
43
0.0000000001
44
0.0000000001
40
0
40
0
40
0
40
0
40
1
40
1
40
1
40
1
41
1
41
1
41
1
41
1
10
0.50627982006682837
20
-11.938743784257436
30
0
10
0.46973862688501145
20
-11.938743784257436
30
0
10
0.46973862688501145
20
-11.940483841075618
30
0
10
0.49583947915773702
20
-11.970064806984711
30
0
0
SPLINE
5
374
100
AcDbEntity
8
0
100
AcDbSpline
70
4
71
3
72
8
73
4
74
0
42
0.000000001
43
0.0000000001
44
0.0000000001
40
0
40
0
40
0
40
0
40
1
40
1
40
1
40
1
41
1
41
1
41
1
41
1
10
0.49583947915773702
20
-11.970064806984711
30
0
10
0.5306406155213711
20
-12.00834605698471
30
0
10
0.53412072915773667
20
-12.044887250166527
30
0
10
0.50453976324864547
20
-12.074468216075617
30
0
0
SPLINE
5
375
100
AcDbEntity
8
0
100
AcDbSpline
70
4
71
3
72
8
73
4
74
0
42
0.000000001
43
0.0000000001
44
0.0000000001
40
0
40
0
40
0
40
0
40
1
40
1
40
1
40
1
41
1
41
1
41
1
41
1
10
0.50453976324864547
20
-12.074468216075617
30
0
10
0.45059800188501226
20
-12.128409977439253
30
0
10
0.35663493370318949
20
-12.069248045621075
30
0
10
0.34097442233955805
20
-11.971804863802893
30
0
0
SPLINE
5
376
100
AcDbEntity
8
0
100
AcDbSpline
70
4
71
3
72
8
73
4
74
0
42
0.000000001
43
0.0000000001
44
0.0000000001
40
0
40
0
40
0
40
0
40
1
40
1
40
1
40
1
41
1
41
1
41
1
41
1
10
0.34097442233955805
20
-11.971804863802893
30
0
10
0.33227413824864677
20
-11.923083272893797
30
0
10
0.33923436552137243
20
-11.900462534257436
30
0
10
0.37751561552137219
20
-11.855221056984711
30
0
0
SPLINE
5
377
100
AcDbEntity
8
0
100
AcDbSpline
70
4
71
3
72
8
73
4
74
0
42
0.000000001
43
0.0000000001
44
0.0000000001
40
0
40
0
40
0
40
0
40
1
40
1
40
1
40
1
41
1
41
1
41
1
41
1
10
0.37751561552137219
20
-11.855221056984711
30
0
10
0.43319743370319175
20
-11.789098897893798
30
0
10
0.52020027461228258
20
-11.780398613802889
30
0
10
0.60546305870319328
20
-11.832600318348346
30
0
0
SPLINE
5
378
100
AcDbEntity
8
0
100
AcDbSpline
70
4
71
3
72
8
73
4
74
0
42
0.000000001
43
0.0000000001
44
0.0000000001
40
0
40
0
40
0
40
0
40
1
40
1
40
1
40
1
41
1
41
1
41
1
41
1
10
0.60546305870319328
20
-11.832600318348346
30
0
10
0.65592470643046163
20
-11.863921341075619
30
0
10
0.71682669506682961
20
-11.961364522893799
30
0
10
0.71682669506682961
20
-12.01182617062107
30
0
0
SPLINE
5
379
100
AcDbEntity
8
0
100
AcDbSpline
70
4
71
3
72
8
73
4
74
0
42
0.000000001
43
0.0000000001
44
0.0000000001
40
0
40
0
40
0
40
0
40
1
40
1
40
1
40
1
41
1
41
1
41
1
41
1
10
0.71682669506682961
20
-12.01182617062107
30
0
10
0.71682669506682961
20
-12.027486681984707
30
0
10
0.73944743370319233
20
-12.032706852439253
30
0
10
0.80034942233955475
20
-12.02922673880289
30
0
0
SPLINE
5
380
100
AcDbEntity
8
0
100
AcDbSpline
70
4
71
3
72
8
73
4
74
0
42
0.000000001
43
0.0000000001
44
0.0000000001
40
0
40
0
40
0
40
0
40
1
40
1
40
1
40
1
41
1
41
1
41
1
41
1
10
0.80034942233955475
20
-12.02922673880289
30
0
10
0.86473152461228497
20
-12.02400656834835
30
0
10
0.89257243370319339
20
-12.030966795621076
30
0
10
0.9308536837031931
20
-12.060547761530167
30
0
0
SPLINE
5
381
100
AcDbEntity
8
0
100
AcDbSpline
70
4
71
3
72
8
73
4
74
0
42
0.000000001
43
0.0000000001
44
0.0000000001
40
0
40
0
40
0
40
0
40
1
40
1
40
1
40
1
41
1
41
1
41
1
41
1
10
0.9308536837031931
20
-12.060547761530167
30
0
10
1.0230766950668324
20
-12.133630147893804
30
0
10
0.98131533143046701
20
-12.187571909257443
30
0
10
0.83863067233955801
20
-12.177131568348344
30
0
0
SPLINE
5
382
100
AcDbEntity
8
0
100
AcDbSpline
70
4
71
3
72
8
73
4
74
0
42
0.000000001
43
0.0000000001
44
0.0000000001
40
0
40
0
40
0
40
0
40
1
40
1
40
1
40
1
41
1
41
1
41
1
41
1
10
0.83863067233955801
20
-12.177131568348344
30
0
10
0.78294885415773563
20
-12.173651454711983
30
0
10
0.77772868370319281
20
-12.177131568348344
30
0
10
0.77250851324864989
20
-12.225853159257435
30
0
0
SPLINE
5
383
100
AcDbEntity
8
0
100
AcDbSpline
70
4
71
3
72
8
73
4
74
0
42
0.000000001
43
0.0000000001
44
0.0000000001
40
0
40
0
40
0
40
0
40
1
40
1
40
1
40
1
41
1
41
1
41
1
41
1
10
0.77250851324864989
20
-12.225853159257435
30
0
10
0.76554828597591862
20
-12.293715375166524
30
0
10
0.82297016097591824
20
-12.356357420621073
30
0
10
0.89083237688501338
20
-12.356357420621077
30
0
0
SPLINE
5
384
100
AcDbEntity
8
0
100
AcDbSpline
70
4
71
3
72
8
73
4
74
0
42
0.000000001
43
0.0000000001
44
0.0000000001
40
0
40
0
40
0
40
0
40
1
40
1
40
1
40
1
41
1
41
1
41
1
41
1
10
0.89083237688501338
20
-12.356357420621077
30
0
10
0.98653550188501271
20
-12.356357420621077
30
0
10
1.030036922339558
20
-12.326776454711984
30
0
10
1.0735383427941034
20
-12.231073329711986
30
0
0
SPLINE
5
385
100
AcDbEntity
8
0
100
AcDbSpline
70
4
71
3
72
8
73
4
74
0
42
0.000000001
43
0.0000000001
44
0.0000000001
40
0
40
0
40
0
40
0
40
1
40
1
40
1
40
1
41
1
41
1
41
1
41
1
10
0.68028550188501069
20
-12.47990145471198
30
0
10
0.71160652461228469
20
-12.438140091075615
30
0
10
0.71160652461228469
20
-12.434659977439255
30
0
10
0.67158521779410207
20
-12.359837534257434
30
0
0
SPLINE
5
386
100
AcDbEntity
8
0
100
AcDbSpline
70
4
71
3
72
8
73
4
74
0
42
0.000000001
43
0.0000000001
44
0.0000000001
40
0
40
0
40
0
40
0
40
1
40
1
40
1
40
1
41
1
41
1
41
1
41
1
10
0.67158521779410207
20
-12.359837534257434
30
0
10
0.64896447915773658
20
-12.31633611380289
30
0
10
0.62982385415773678
20
-12.267614522893799
30
0
10
0.62982385415773678
20
-12.248473897893799
30
0
0
SPLINE
5
387
100
AcDbEntity
8
0
100
AcDbSpline
70
4
71
3
72
8
73
4
74
0
42
0.000000001
43
0.0000000001
44
0.0000000001
40
0
40
0
40
0
40
0
40
1
40
1
40
1
40
1
41
1
41
1
41
1
41
1
10
0.62982385415773678
20
-12.248473897893799
30
0
10
0.62982385415773678
20
-12.217152875166526
30
0
10
0.62808379733955955
20
-12.217152875166526
30
0
10
0.57414203597591995
20
-12.244993784257433
30
0
0
SPLINE
5
388
100
AcDbEntity
8
0
100
AcDbSpline
70
4
71
3
72
8
73
4
74
0
42
0.000000001
43
0.0000000001
44
0.0000000001
40
0
40
0
40
0
40
0
40
1
40
1
40
1
40
1
41
1
41
1
41
1
41
1
10
0.57414203597591995
20
-12.244993784257433
30
0
10
0.54282101324864596
20
-12.260654295621073
30
0
10
0.47843891097592067
20
-12.274574750166526
30
0
10
0.42971732006682961
20
-12.276314806984708
30
0
0
SPLINE
5
389
100
AcDbEntity
8
0
100
AcDbSpline
70
4
71
3
72
8
73
4
74
0
42
0.000000001
43
0.0000000001
44
0.0000000001
40
0
40
0
40
0
40
0
40
1
40
1
40
1
40
1
41
1
41
1
41
1
41
1
10
0.42971732006682961
20
-12.276314806984708
30
0
10
0.26963209279409939
20
-12.278054863802891
30
0
10
0.14782811552137451
20
-12.180611681984709
30
0
10
0.10606675188501122
20
-12.015306284257436
30
0
0
SPLINE
5
390
100
AcDbEntity
8
0
100
AcDbSpline
70
4
71
3
72
8
73
4
74
0
42
0.000000001
43
0.0000000001
44
0.0000000001
40
0
40
0
40
0
40
0
40
1
40
1
40
1
40
1
41
1
41
1
41
1
41
1
10
0.10606675188501122
20
-12.015306284257436
30
0
10
0.08866618370319139
20
-11.945704011530161
30
0
10
0.085186070066831335
20
-11.942223897893802
30
0
10
0.0068835132486462555
20
-11.933523613802894
30
0
0
SPLINE
5
391
100
AcDbEntity
8
0
100
AcDbSpline
70
4
71
3
72
8
73
4
74
0
42
0.000000001
43
0.0000000001
44
0.0000000001
40
0
40
0
40
0
40
0
40
1
40
1
40
1
40
1
41
1
41
1
41
1
41
1
10
0.0068835132486462555
20
-11.933523613802894
30
0
10
-0.038357964024079171
20
-11.926563386530162
30
0
10
-0.095779839024081562
20
-11.917863102439254
30
0
10
-0.12014063447862709
20
-11.91264293198471
30
0
0
SPLINE
5
392
100
AcDbEntity
8
0
100
AcDbSpline
70
4
71
3
72
8
73
4
74
0
42
0.000000001
43
0.0000000001
44
0.0000000001
40
0
40
0
40
0
40
0
40
1
40
1
40
1
40
1
41
1
41
1
41
1
41
1
10
-0.12014063447862709
20
-11.91264293198471
30
0
10
-0.16016194129680686
20
-11.90220259107562
30
0
10
-0.16712216856953255
20
-11.907422761530162
30
0
10
-0.17582245266044386
20
-11.950924181984707
30
0
0
SPLINE
5
393
100
AcDbEntity
8
0
100
AcDbSpline
70
4
71
3
72
8
73
4
74
0
42
0.000000001
43
0.0000000001
44
0.0000000001
40
0
40
0
40
0
40
0
40
1
40
1
40
1
40
1
41
1
41
1
41
1
41
1
10
-0.17582245266044386
20
-11.950924181984707
30
0
10
-0.18104262311498953
20
-11.977025034257435
30
0
10
-0.18974290720589806
20
-12.011826170621072
30
0
10
-0.19670313447862656
20
-12.025746625166526
30
0
0
SPLINE
5
394
100
AcDbEntity
8
0
100
AcDbSpline
70
4
71
3
72
8
73
4
74
0
42
0.000000001
43
0.0000000001
44
0.0000000001
40
0
40
0
40
0
40
0
40
1
40
1
40
1
40
1
41
1
41
1
41
1
41
1
10
-0.19670313447862656
20
-12.025746625166526
30
0
10
-0.20366336175134944
20
-12.046627306984709
30
0
10
-0.18626279356953801
20
-12.058807704711981
30
0
10
-0.12536080493316998
20
-12.074468216075617
30
0
0
SPLINE
5
395
100
AcDbEntity
8
0
100
AcDbSpline
70
4
71
3
72
8
73
4
74
0
42
0.000000001
43
0.0000000001
44
0.0000000001
40
0
40
0
40
0
40
0
40
1
40
1
40
1
40
1
41
1
41
1
41
1
41
1
10
-0.12536080493316998
20
-12.074468216075617
30
0
10
0.086926126885009253
20
-12.131890091075617
30
0
10
0.17392896779410005
20
-12.399858841075616
30
0
10
0.041684649612283832
20
-12.591265091075615
30
0
0
SPLINE
5
396
100
AcDbEntity
8
0
100
AcDbSpline
70
4
71
3
72
8
73
4
74
0
42
0.000000001
43
0.0000000001
44
0.0000000001
40
0
40
0
40
0
40
0
40
1
40
1
40
1
40
1
41
1
41
1
41
1
41
1
10
0.041684649612283832
20
-12.591265091075615
30
0
10
-7.6714024081540375e-05
20
-12.653907136530162
30
0
10
-0.034877850387715625
20
-12.676527875166528
30
0
10
-0.21932387311498858
20
-12.768750886530162
30
0
0
SPLINE
5
397
100
AcDbEntity
8
0
100
AcDbSpline
70
4
71
3
72
8
73
4
74
0
42
0.000000001
43
0.0000000001
44
0.0000000001
40
0
40
0
40
0
40
0
40
1
40
1
40
1
40
1
41
1
41
1
41
1
41
1
10
-0.21932387311498858
20
-12.768750886530162
30
0
10
-0.22280398675135421
20
-12.770490943348344
30
0
10
-0.21584375947862572
20
-12.789631568348344
30
0
10
-0.20366336175134875
20
-12.812252306984711
30
0
0
SPLINE
5
398
100
AcDbEntity
8
0
100
AcDbSpline
70
4
71
3
72
8
73
4
74
0
42
0.000000001
43
0.0000000001
44
0.0000000001
40
0
40
0
40
0
40
0
40
1
40
1
40
1
40
1
41
1
41
1
41
1
41
1
10
-0.20366336175134875
20
-12.812252306984711
30
0
10
-0.19148296402408019
20
-12.833132988802893
30
0
10
-0.1775625094786232
20
-12.874894352439258
30
0
10
-0.17060228220589749
20
-12.904475318348343
30
0
0
SPLINE
5
399
100
AcDbEntity
8
0
100
AcDbSpline
70
4
71
3
72
8
73
4
74
0
42
0.000000001
43
0.0000000001
44
0.0000000001
40
0
40
0
40
0
40
0
40
1
40
1
40
1
40
1
41
1
41
1
41
1
41
1
10
-0.17060228220589749
20
-12.904475318348343
30
0
10
-0.16190199811498898
20
-12.942756568348344
30
0
10
-0.15146165720589763
20
-12.954936966075618
30
0
10
-0.12536080493316928
20
-12.951456852439252
30
0
0
SPLINE
5
400
100
AcDbEntity
8
0
100
AcDbSpline
70
4
71
3
72
8
73
4
74
0
42
0.000000001
43
0.0000000001
44
0.0000000001
40
0
40
0
40
0
40
0
40
1
40
1
40
1
40
1
41
1
41
1
41
1
41
1
10
-0.12536080493316928
20
-12.951456852439252
30
0
10
-0.10796023675134943
20
-12.947976738802891
30
0
10
-0.052278418569538257
20
-12.94101651153016
30
0
10
-0.0018167708422615659
20
-12.935796341075617
30
0
0
SPLINE
5
401
100
AcDbEntity
8
0
100
AcDbSpline
70
4
71
3
72
8
73
4
74
0
42
0.000000001
43
0.0000000001
44
0.0000000001
40
0
40
0
40
0
40
0
40
1
40
1
40
1
40
1
41
1
41
1
41
1
41
1
10
-0.0018167708422615659
20
-12.935796341075617
30
0
10
0.086926126885009253
20
-12.927096056984709
30
0
10
0.088666183703192084
20
-12.925356000166525
30
0
10
0.099106524612286223
20
-12.857493784257436
30
0
0
SPLINE
5
402
100
AcDbEntity
8
0
100
AcDbSpline
70
4
71
3
72
8
73
4
74
0
42
0.000000001
43
0.0000000001
44
0.0000000001
40
0
40
0
40
0
40
0
40
1
40
1
40
1
40
1
41
1
41
1
41
1
41
1
10
0.099106524612286223
20
-12.857493784257436
30
0
10
0.11476703597591764
20
-12.772231000166528
30
0
10
0.20350993370319126
20
-12.65216707971198
30
0
10
0.28181249052137353
20
-12.613885829711979
30
0
0
SPLINE
5
403
100
AcDbEntity
8
0
100
AcDbSpline
70
4
71
3
72
8
73
4
74
0
42
0.000000001
43
0.0000000001
44
0.0000000001
40
0
40
0
40
0
40
0
40
1
40
1
40
1
40
1
41
1
41
1
41
1
41
1
10
0.28181249052137353
20
-12.613885829711979
30
0
10
0.35489487688501298
20
-12.57560457971198
30
0
10
0.49931959279410054
20
-12.573864522893798
30
0
10
0.56022158143046297
20
-12.608665659257436
30
0
0
SPLINE
5
404
100
AcDbEntity
8
0
100
AcDbSpline
70
4
71
3
72
8
73
4
74
0
42
0.000000001
43
0.0000000001
44
0.0000000001
40
0
40
0
40
0
40
0
40
1
40
1
40
1
40
1
41
1
41
1
41
1
41
1
10
0.56022158143046297
20
-12.608665659257436
30
0
10
0.62112357006682828
20
-12.643466795621071
30
0
10
0.62634374052137387
20
-12.641726738802888
30
0
10
0.63852413824865084
20
-12.577344636530162
30
0
0
SPLINE
5
405
100
AcDbEntity
8
0
100
AcDbSpline
70
4
71
3
72
8
73
4
74
0
42
0.000000001
43
0.0000000001
44
0.0000000001
40
0
40
0
40
0
40
0
40
1
40
1
40
1
40
1
41
1
41
1
41
1
41
1
10
0.63852413824865084
20
-12.577344636530162
30
0
10
0.64548436552137656
20
-12.546023613802889
30
0
10
0.66462499052137647
20
-12.502522193348346
30
0
10
0.68028550188501069
20
-12.47990145471198
30
0
0
SPLINE
5
406
100
AcDbEntity
8
0
100
AcDbSpline
70
4
71
3
72
8
73
4
74
0
42
0.000000001
43
0.0000000001
44
0.0000000001
40
0
40
0
40
0
40
0
40
1
40
1
40
1
40
1
41
1
41
1
41
1
41
1
10
2.6517698768850146
20
-12.511222477439258
30
0
10
2.6709105018850092
20
-12.544283556984714
30
0
10
2.6743906155213746
20
-12.544283556984714
30
0
10
2.75443322915774
20
-12.504262250166532
30
0
0
SPLINE
5
407
100
AcDbEntity
8
0
100
AcDbSpline
70
4
71
3
72
8
73
4
74
0
42
0.000000001
43
0.0000000001
44
0.0000000001
40
0
40
0
40
0
40
0
40
1
40
1
40
1
40
1
41
1
41
1
41
1
41
1
10
2.75443322915774
20
-12.504262250166532
30
0
10
2.8849374905213758
20
-12.43640003425744
30
0
10
2.888417604157739
20
-12.385938386530167
30
0
10
2.7613934564304654
20
-12.318076170621076
30
0
0
LINE
5
408
100
AcDbEntity
8
0
100
AcDbLine
10
2.7613934564304659
20
-12.318076170621076
30
0
11
2.6743906155213746
21
-12.271094636530167
31
0
0
LINE
5
409
100
AcDbEntity
8
0
100
AcDbLine
10
2.6743906155213746
20
-12.271094636530167
30
0
11
2.6604701609759234
21
-12.321556284257438
31
0
0
SPLINE
5
410
100
AcDbEntity
8
0
100
AcDbSpline
70
4
71
3
72
8
73
4
74
0
42
0.000000001
43
0.0000000001
44
0.0000000001
40
0
40
0
40
0
40
0
40
1
40
1
40
1
40
1
41
1
41
1
41
1
41
1
10
2.6604701609759234
20
-12.321556284257438
30
0
10
2.6448096496122835
20
-12.384198329711984
30
0
10
2.5839076609759184
20
-12.392898613802895
30
0
10
2.5351860700668301
20
-12.338956852439258
30
0
0
SPLINE
5
411
100
AcDbEntity
8
0
100
AcDbSpline
70
4
71
3
72
8
73
4
74
0
42
0.000000001
43
0.0000000001
44
0.0000000001
40
0
40
0
40
0
40
0
40
1
40
1
40
1
40
1
41
1
41
1
41
1
41
1
10
2.5351860700668301
20
-12.338956852439258
30
0
10
2.4916846496122846
20
-12.290235261530167
30
0
10
2.4742840814304676
20
-12.295455431984713
30
0
10
2.4742840814304676
20
-12.352877306984713
30
0
0
SPLINE
5
412
100
AcDbEntity
8
0
100
AcDbSpline
70
4
71
3
72
8
73
4
74
0
42
0.000000001
43
0.0000000001
44
0.0000000001
40
0
40
0
40
0
40
0
40
1
40
1
40
1
40
1
41
1
41
1
41
1
41
1
10
2.4742840814304676
20
-12.352877306984713
30
0
10
2.4742840814304676
20
-12.410299181984712
30
0
10
2.5125653314304675
20
-12.450320488802895
30
0
10
2.5839076609759184
20
-12.467721056984713
30
0
0
SPLINE
5
413
100
AcDbEntity
8
0
100
AcDbSpline
70
4
71
3
72
8
73
4
74
0
42
0.000000001
43
0.0000000001
44
0.0000000001
40
0
40
0
40
0
40
0
40
1
40
1
40
1
40
1
41
1
41
1
41
1
41
1
10
2.5839076609759184
20
-12.467721056984713
30
0
10
2.6100085132486495
20
-12.472941227439257
30
0
10
2.6395894791577406
20
-12.493821909257441
30
0
10
2.6517698768850146
20
-12.511222477439258
30
0
0
SPLINE
5
414
100
AcDbEntity
8
0
100
AcDbSpline
70
4
71
3
72
8
73
4
74
0
42
0.000000001
43
0.0000000001
44
0.0000000001
40
0
40
0
40
0
40
0
40
1
40
1
40
1
40
1
41
1
41
1
41
1
41
1
10
3.4452357859759206
20
-12.401598897893804
30
0
10
3.4504559564304662
20
-12.455540659257441
30
0
10
3.4469758427941062
20
-12.459020772893803
30
0
10
3.2190283996122853
20
-12.579084693348349
30
0
0
SPLINE
5
415
100
AcDbEntity
8
0
100
AcDbSpline
70
4
71
3
72
8
73
4
74
0
42
0.000000001
43
0.0000000001
44
0.0000000001
40
0
40
0
40
0
40
0
40
1
40
1
40
1
40
1
41
1
41
1
41
1
41
1
10
3.2190283996122853
20
-12.579084693348349
30
0
10
3.0920042518850117
20
-12.645206852439257
30
0
10
2.7439928882486484
20
-12.822692647893804
30
0
10
2.4481832291577366
20
-12.970597477439258
30
0
0
LINE
5
416
100
AcDbEntity
8
0
100
AcDbLine
10
2.4481832291577361
20
-12.970597477439258
30
0
11
1.9070255587031917
21
-13.240306284257437
31
0
0
LINE
5
417
100
AcDbEntity
8
0
100
AcDbLine
10
1.9070255587031917
20
-13.240306284257437
30
0
11
1.7643408996122814
21
-14.054652875166532
31
0
0
SPLINE
5
418
100
AcDbEntity
8
0
100
AcDbSpline
70
4
71
3
72
8
73
4
74
0
42
0.000000001
43
0.0000000001
44
0.0000000001
40
0
40
0
40
0
40
0
40
1
40
1
40
1
40
1
41
1
41
1
41
1
41
1
10
1.7643408996122814
20
-14.054652875166532
30
0
10
1.6112158996122825
20
-14.922941227439257
30
0
10
1.6007755587031911
20
-14.959482420621073
30
0
10
1.5172528314304661
20
-14.921201170621075
30
0
0
SPLINE
5
419
100
AcDbEntity
8
0
100
AcDbSpline
70
4
71
3
72
8
73
4
74
0
42
0.000000001
43
0.0000000001
44
0.0000000001
40
0
40
0
40
0
40
0
40
1
40
1
40
1
40
1
41
1
41
1
41
1
41
1
10
1.5172528314304661
20
-14.921201170621075
30
0
10
1.4981122064304662
20
-14.912500886530166
30
0
10
1.2110028314304653
20
-14.651492363802893
30
0
10
0.88039203597592197
20
-14.340022193348354
30
0
0
SPLINE
5
420
100
AcDbEntity
8
0
100
AcDbSpline
70
4
71
3
72
8
73
4
74
0
42
0.000000001
43
0.0000000001
44
0.0000000001
40
0
40
0
40
0
40
0
40
1
40
1
40
1
40
1
41
1
41
1
41
1
41
1
10
0.88039203597592197
20
-14.340022193348354
30
0
10
0.54804118370319443
20
-14.028552022893798
30
0
10
0.26267186552137367
20
-13.771023613802891
30
0
10
0.24353124052137382
20
-13.769283556984709
30
0
0
SPLINE
5
421
100
AcDbEntity
8
0
100
AcDbSpline
70
4
71
3
72
8
73
4
74
0
42
0.000000001
43
0.0000000001
44
0.0000000001
40
0
40
0
40
0
40
0
40
1
40
1
40
1
40
1
41
1
41
1
41
1
41
1
10
0.24353124052137382
20
-13.769283556984709
30
0
10
0.22439061552137676
20
-13.765803443348343
30
0
10
-0.16538211175135462
20
-13.816265091075616
30
0
10
-0.62301705493317416
20
-13.880647193348342
30
0
0
SPLINE
5
422
100
AcDbEntity
8
0
100
AcDbSpline
70
4
71
3
72
8
73
4
74
0
42
0.000000001
43
0.0000000001
44
0.0000000001
40
0
40
0
40
0
40
0
40
1
40
1
40
1
40
1
41
1
41
1
41
1
41
1
10
-0.62301705493317416
20
-13.880647193348342
30
0
10
-1.447803986751351
20
-13.998971056984709
30
0
10
-1.4565042708422595
20
-13.998971056984709
30
0
10
-1.4930454640240793
20
-13.965909977439255
30
0
0
SPLINE
5
423
100
AcDbEntity
8
0
100
AcDbSpline
70
4
71
3
72
8
73
4
74
0
42
0.000000001
43
0.0000000001
44
0.0000000001
40
0
40
0
40
0
40
0
40
1
40
1
40
1
40
1
41
1
41
1
41
1
41
1
10
-1.4930454640240793
20
-13.965909977439255
30
0
10
-1.5174062594786248
20
-13.945029295621072
30
0
10
-1.5261065435695333
20
-13.920668500166528
30
0
10
-1.5208863731149878
20
-13.896307704711981
30
0
0
SPLINE
5
424
100
AcDbEntity
8
0
100
AcDbSpline
70
4
71
3
72
8
73
4
74
0
42
0.000000001
43
0.0000000001
44
0.0000000001
40
0
40
0
40
0
40
0
40
1
40
1
40
1
40
1
41
1
41
1
41
1
41
1
10
-1.5208863731149878
20
-13.896307704711981
30
0
10
-1.5156662026604419
20
-13.877167079711983
30
0
10
-1.3434005776604432
20
-13.534375886530164
30
0
10
-1.1363338162968049
20
-13.134162818348347
30
0
0
LINE
5
425
100
AcDbEntity
8
0
100
AcDbLine
10
-1.1363338162968046
20
-13.134162818348347
30
0
11
-0.76222160038771603
21
-12.406819068348344
31
0
0
LINE
5
426
100
AcDbEntity
8
0
100
AcDbLine
10
-0.76222160038771603
20
-12.406819068348344
30
0
11
-1.1485142140240796
21
-11.656854579711981
31
0
0
SPLINE
5
427
100
AcDbEntity
8
0
100
AcDbSpline
70
4
71
3
72
8
73
4
74
0
42
0.000000001
43
0.0000000001
44
0.0000000001
40
0
40
0
40
0
40
0
40
1
40
1
40
1
40
1
41
1
41
1
41
1
41
1
10
-1.1485142140240796
20
-11.656854579711981
30
0
10
-1.5452471685695326
20
-10.884269352439254
30
0
10
-1.5469872253877153
20
-10.882529295621072
30
0
10
-1.4704247253877158
20
-10.835547761530163
30
0
0
SPLINE
5
428
100
AcDbEntity
8
0
100
AcDbSpline
70
4
71
3
72
8
73
4
74
0
42
0.000000001
43
0.0000000001
44
0.0000000001
40
0
40
0
40
0
40
0
40
1
40
1
40
1
40
1
41
1
41
1
41
1
41
1
10
-1.4704247253877158
20
-10.835547761530163
30
0
10
-1.4495440435695333
20
-10.821627306984709
30
0
10
-1.2111562594786207
20
-10.849468216075618
30
0
10
-0.5899559753877166
20
-10.936471056984709
30
0
0
LINE
5
429
100
AcDbEntity
8
0
100
AcDbLine
10
-0.58995597538771671
20
-10.936471056984709
30
0
11
0.26093180870319155
21
-11.056534977439254
31
0
0
LINE
5
430
100
AcDbEntity
8
0
100
AcDbLine
10
0.26093180870319155
20
-11.056534977439254
30
0
11
0.88387214961228489
21
-10.470135829711987
31
0
0
SPLINE
5
431
100
AcDbEntity
8
0
100
AcDbSpline
70
4
71
3
72
8
73
4
74
0
42
0.000000001
43
0.0000000001
44
0.0000000001
40
0
40
0
40
0
40
0
40
1
40
1
40
1
40
1
41
1
41
1
41
1
41
1
10
0.88387214961228489
20
-10.470135829711987
30
0
10
1.2266633427941023
20
-10.148225318348349
30
0
10
1.5189928882486461
20
-9.8854767388028915
30
0
10
1.5346533996122858
20
-9.8854767388028915
30
0
0
SPLINE
5
432
100
AcDbEntity
8
0
100
AcDbSpline
70
4
71
3
72
8
73
4
74
0
42
0.000000001
43
0.0000000001
44
0.0000000001
40
0
40
0
40
0
40
0
40
1
40
1
40
1
40
1
41
1
41
1
41
1
41
1
10
1.5346533996122858
20
-9.8854767388028915
30
0
10
1.6059957291577425
20
-9.8854767388028915
30
0
10
1.6199161837031966
20
-9.9376784433483483
30
0
10
1.7643408996122842
20
-10.76246537516653
30
0
0
LINE
5
433
100
AcDbEntity
8
0
100
AcDbLine
10
1.7643408996122838
20
-10.76246537516653
30
0
11
1.9070255587031946
21
-11.576811966075624
31
0
0
LINE
5
434
100
AcDbEntity
8
0
100
AcDbLine
10
1.9070255587031946
20
-11.576811966075624
30
0
11
2.6743906155213746
21
-11.961364522893804
31
0
0
SPLINE
5
435
100
AcDbEntity
8
0
100
AcDbSpline
70
4
71
3
72
8
73
4
74
0
42
0.000000001
43
0.0000000001
44
0.0000000001
40
0
40
0
40
0
40
0
40
1
40
1
40
1
40
1
41
1
41
1
41
1
41
1
10
2.6743906155213746
20
-11.961364522893804
30
0
10
3.4243551041577405
20
-12.340696909257439
30
0
10
3.440015615521375
20
-12.34939719334835
30
0
10
3.4452357859759206
20
-12.401598897893804
30
0
0
CIRCLE
5
436
100
AcDbEntity
8
0
100
AcDbCircle
10
-3.7206887117802832
20
-14.67679069491628
30
0
40
0.10500000000000008
210
-0
220
0
230
1
0
SPLINE
5
437
100
AcDbEntity
8
0
100
AcDbSpline
70
4
71
3
72
8
73
4
74
0
42
0.000000001
43
0.0000000001
44
0.0000000001
40
0
40
0
40
0
40
0
40
1
40
1
40
1
40
1
41
1
41
1
41
1
41
1
10
-3.8565922977805633
20
-12.507736701375849
30
0
10
-4.115860763689656
20
-12.509476758194033
30
0
10
-4.3211874682351086
20
-12.700883008194031
30
0
10
-4.284646275053289
20
-12.906209712739487
30
0
0
SPLINE
5
438
100
AcDbEntity
8
0
100
AcDbSpline
70
4
71
3
72
8
73
4
74
0
42
0.000000001
43
0.0000000001
44
0.0000000001
40
0
40
0
40
0
40
0
40
1
40
1
40
1
40
1
41
1
41
1
41
1
41
1
10
-4.284646275053289
20
-12.906209712739487
30
0
10
-4.2394047977805611
20
-13.160258008194035
30
0
10
-3.901833775053289
20
-13.29250232637585
30
0
10
-3.6164644568714737
20
-13.168958292284943
30
0
0
SPLINE
5
439
100
AcDbEntity
8
0
100
AcDbSpline
70
4
71
3
72
8
73
4
74
0
42
0.000000001
43
0.0000000001
44
0.0000000001
40
0
40
0
40
0
40
0
40
1
40
1
40
1
40
1
41
1
41
1
41
1
41
1
10
-3.6164644568714737
20
-13.168958292284943
30
0
10
-3.4668195705078295
20
-13.102836133194035
30
0
10
-3.3867769568714725
20
-12.993212553648577
30
0
10
-3.3867769568714725
20
-12.857488121830396
30
0
0
SPLINE
5
440
100
AcDbEntity
8
0
100
AcDbSpline
70
4
71
3
72
8
73
4
74
0
42
0.000000001
43
0.0000000001
44
0.0000000001
40
0
40
0
40
0
40
0
40
1
40
1
40
1
40
1
41
1
41
1
41
1
41
1
10
-3.3867769568714725
20
-12.857488121830396
30
0
10
-3.3867769568714725
20
-12.76526511046676
30
0
10
-3.4180979795987465
20
-12.695662837739489
30
0
10
-3.4894403091441979
20
-12.629540678648576
30
0
0
SPLINE
5
441
100
AcDbEntity
8
0
100
AcDbSpline
70
4
71
3
72
8
73
4
74
0
42
0.000000001
43
0.0000000001
44
0.0000000001
40
0
40
0
40
0
40
0
40
1
40
1
40
1
40
1
41
1
41
1
41
1
41
1
10
-3.4894403091441979
20
-12.629540678648576
30
0
10
-3.585143434144197
20
-12.539057724103124
30
0
10
-3.6860667295987448
20
-12.505996644557667
30
0
10
-3.8565922977805633
20
-12.507736701375849
30
0
0
SPLINE
5
442
100
AcDbEntity
8
0
100
AcDbSpline
70
4
71
3
72
8
73
4
74
0
42
0.000000001
43
0.0000000001
44
0.0000000001
40
0
40
0
40
0
40
0
40
1
40
1
40
1
40
1
41
1
41
1
41
1
41
1
10
-3.5242414455078319
20
-14.458340394557665
30
0
10
-3.3467556500532902
20
-14.668887269557668
30
0
10
-3.5346817864169231
20
-14.989057724103127
30
0
10
-3.7991704227805614
20
-14.928155735466762
30
0
0
SPLINE
5
443
100
AcDbEntity
8
0
100
AcDbSpline
70
4
71
3
72
8
73
4
74
0
42
0.000000001
43
0.0000000001
44
0.0000000001
40
0
40
0
40
0
40
0
40
1
40
1
40
1
40
1
41
1
41
1
41
1
41
1
10
-3.7991704227805614
20
-14.928155735466762
30
0
10
-3.9087940023260175
20
-14.903794940012213
30
0
10
-3.9940567864169201
20
-14.818532155921305
30
0
10
-4.0166775250532911
20
-14.710648633194031
30
0
0
SPLINE
5
444
100
AcDbEntity
8
0
100
AcDbSpline
70
4
71
3
72
8
73
4
74
0
42
0.000000001
43
0.0000000001
44
0.0000000001
40
0
40
0
40
0
40
0
40
1
40
1
40
1
40
1
41
1
41
1
41
1
41
1
10
-4.0166775250532911
20
-14.710648633194031
30
0
10
-4.0288579227805599
20
-14.651486701375847
30
0
10
-4.0027570705078341
20
-14.654966815012212
30
0
10
-4.3211874682351059
20
-14.681067667284937
30
0
0
SPLINE
5
445
100
AcDbEntity
8
0
100
AcDbSpline
70
4
71
3
72
8
73
4
74
0
42
0.000000001
43
0.0000000001
44
0.0000000001
40
0
40
0
40
0
40
0
40
1
40
1
40
1
40
1
41
1
41
1
41
1
41
1
10
-4.3211874682351059
20
-14.681067667284937
30
0
10
-4.6378778091442037
20
-14.70716851955766
30
0
10
-4.9476079227805618
20
-14.658446928648575
30
0
10
-5.2869190023260213
20
-14.527942667284936
30
0
0
SPLINE
5
446
100
AcDbEntity
8
0
100
AcDbSpline
70
4
71
3
72
8
73
4
74
0
42
0.000000001
43
0.0000000001
44
0.0000000001
40
0
40
0
40
0
40
0
40
1
40
1
40
1
40
1
41
1
41
1
41
1
41
1
10
-5.2869190023260213
20
-14.527942667284936
30
0
10
-5.4156832068714724
20
-14.477481019557661
30
0
10
-5.4539644568714722
20
-14.453120224103118
30
0
10
-5.5722883205078366
20
-14.33827647410312
30
0
0
SPLINE
5
447
100
AcDbEntity
8
0
100
AcDbSpline
70
4
71
3
72
8
73
4
74
0
42
0.000000001
43
0.0000000001
44
0.0000000001
40
0
40
0
40
0
40
0
40
1
40
1
40
1
40
1
41
1
41
1
41
1
41
1
10
-5.5722883205078366
20
-14.33827647410312
30
0
10
-5.8593976955078393
20
-14.05986738319403
30
0
10
-5.9829417295987506
20
-13.79885886046676
30
0
10
-5.9829417295987506
20
-13.468248065012212
30
0
0
SPLINE
5
448
100
AcDbEntity
8
0
100
AcDbSpline
70
4
71
3
72
8
73
4
74
0
42
0.000000001
43
0.0000000001
44
0.0000000001
40
0
40
0
40
0
40
0
40
1
40
1
40
1
40
1
41
1
41
1
41
1
41
1
10
-5.9829417295987506
20
-13.468248065012212
30
0
10
-5.9829417295987506
20
-13.336003746830396
30
0
10
-5.9307400250532911
20
-13.076735280921307
30
0
10
-5.8959388886896571
20
-13.041934144557667
30
0
0
SPLINE
5
449
100
AcDbEntity
8
0
100
AcDbSpline
70
4
71
3
72
8
73
4
74
0
42
0.000000001
43
0.0000000001
44
0.0000000001
40
0
40
0
40
0
40
0
40
1
40
1
40
1
40
1
41
1
41
1
41
1
41
1
10
-5.8959388886896571
20
-13.041934144557667
30
0
10
-5.8698380364169314
20
-13.01583329228494
30
0
10
-5.8263366159623837
20
-13.066294940012209
30
0
10
-5.8263366159623864
20
-13.125456871830398
30
0
0
SPLINE
5
450
100
AcDbEntity
8
0
100
AcDbSpline
70
4
71
3
72
8
73
4
74
0
42
0.000000001
43
0.0000000001
44
0.0000000001
40
0
40
0
40
0
40
0
40
1
40
1
40
1
40
1
41
1
41
1
41
1
41
1
10
-5.8263366159623864
20
-13.125456871830398
30
0
10
-5.8263366159623864
20
-13.252481019557671
30
0
10
-5.7149729795987474
20
-13.447367383194029
30
0
10
-5.5809886045987449
20
-13.556990962739485
30
0
0
SPLINE
5
451
100
AcDbEntity
8
0
100
AcDbSpline
70
4
71
3
72
8
73
4
74
0
42
0.000000001
43
0.0000000001
44
0.0000000001
40
0
40
0
40
0
40
0
40
1
40
1
40
1
40
1
41
1
41
1
41
1
41
1
10
-5.5809886045987449
20
-13.556990962739485
30
0
10
-5.4226434341441951
20
-13.685755167284936
30
0
10
-5.1581547977805569
20
-13.797118803648575
30
0
10
-5.0119900250532892
20
-13.797118803648575
30
0
0
SPLINE
5
452
100
AcDbEntity
8
0
100
AcDbSpline
70
4
71
3
72
8
73
4
74
0
42
0.000000001
43
0.0000000001
44
0.0000000001
40
0
40
0
40
0
40
0
40
1
40
1
40
1
40
1
41
1
41
1
41
1
41
1
10
-5.0119900250532892
20
-13.797118803648575
30
0
10
-4.8832258205078336
20
-13.797118803648575
30
0
10
-4.8205837750532909
20
-13.750137269557662
30
0
10
-4.7997030932351112
20
-13.642253746830397
30
0
0
SPLINE
5
453
100
AcDbEntity
8
0
100
AcDbSpline
70
4
71
3
72
8
73
4
74
0
42
0.000000001
43
0.0000000001
44
0.0000000001
40
0
40
0
40
0
40
0
40
1
40
1
40
1
40
1
41
1
41
1
41
1
41
1
10
-4.7997030932351112
20
-13.642253746830397
30
0
10
-4.7805624682351109
20
-13.532630167284941
30
0
10
-4.8066633205078366
20
-13.461287837739485
30
0
10
-4.8988863318714699
20
-13.376025053648572
30
0
0
SPLINE
5
454
100
AcDbEntity
8
0
100
AcDbSpline
70
4
71
3
72
8
73
4
74
0
42
0.000000001
43
0.0000000001
44
0.0000000001
40
0
40
0
40
0
40
0
40
1
40
1
40
1
40
1
41
1
41
1
41
1
41
1
10
-4.8988863318714699
20
-13.376025053648572
30
0
10
-4.9893692864169266
20
-13.290762269557669
30
0
10
-5.041570990962378
20
-13.189838974103122
30
0
10
-5.0433110477805663
20
-13.099356019557666
30
0
0
SPLINE
5
455
100
AcDbEntity
8
0
100
AcDbSpline
70
4
71
3
72
8
73
4
74
0
42
0.000000001
43
0.0000000001
44
0.0000000001
40
0
40
0
40
0
40
0
40
1
40
1
40
1
40
1
41
1
41
1
41
1
41
1
10
-5.0433110477805663
20
-13.099356019557666
30
0
10
-5.0433110477805663
20
-13.052374485466757
30
0
10
-5.055491445507835
20
-13.029753746830398
30
0
10
-5.0920326386896573
20
-13.001912837739484
30
0
0
SPLINE
5
456
100
AcDbEntity
8
0
100
AcDbSpline
70
4
71
3
72
8
73
4
74
0
42
0.000000001
43
0.0000000001
44
0.0000000001
40
0
40
0
40
0
40
0
40
1
40
1
40
1
40
1
41
1
41
1
41
1
41
1
10
-5.0920326386896573
20
-13.001912837739484
30
0
10
-5.1790354795987481
20
-12.937530735466758
30
0
10
-5.2399374682351079
20
-12.831387269557668
30
0
10
-5.2381974114169303
20
-12.744384428648576
30
0
0
SPLINE
5
457
100
AcDbEntity
8
0
100
AcDbSpline
70
4
71
3
72
8
73
4
74
0
42
0.000000001
43
0.0000000001
44
0.0000000001
40
0
40
0
40
0
40
0
40
1
40
1
40
1
40
1
41
1
41
1
41
1
41
1
10
-5.2381974114169303
20
-12.744384428648576
30
0
10
-5.2364573545987421
20
-12.671302042284937
30
0
10
-5.2416775250532908
20
-12.660861701375852
30
0
10
-5.3565212750532902
20
-12.544277894557668
30
0
0
SPLINE
5
458
100
AcDbEntity
8
0
100
AcDbSpline
70
4
71
3
72
8
73
4
74
0
42
0.000000001
43
0.0000000001
44
0.0000000001
40
0
40
0
40
0
40
0
40
1
40
1
40
1
40
1
41
1
41
1
41
1
41
1
10
-5.3565212750532902
20
-12.544277894557668
30
0
10
-5.4887655932351116
20
-12.410293519557667
30
0
10
-5.6784317864169243
20
-12.304150053648575
30
0
10
-5.8524374682351059
20
-12.264128746830394
30
0
0
SPLINE
5
459
100
AcDbEntity
8
0
100
AcDbSpline
70
4
71
3
72
8
73
4
74
0
42
0.000000001
43
0.0000000001
44
0.0000000001
40
0
40
0
40
0
40
0
40
1
40
1
40
1
40
1
41
1
41
1
41
1
41
1
10
-5.8524374682351059
20
-12.264128746830394
30
0
10
-5.9551008205078366
20
-12.241508008194034
30
0
10
-5.9864218432351111
20
-12.203226758194031
30
0
10
-5.9359601955078318
20
-12.164945508194034
30
0
0
SPLINE
5
460
100
AcDbEntity
8
0
100
AcDbSpline
70
4
71
3
72
8
73
4
74
0
42
0.000000001
43
0.0000000001
44
0.0000000001
40
0
40
0
40
0
40
0
40
1
40
1
40
1
40
1
41
1
41
1
41
1
41
1
10
-5.9359601955078318
20
-12.164945508194034
30
0
10
-5.8698380364169287
20
-12.114483860466757
30
0
10
-5.7010525250532913
20
-12.037921360466761
30
0
10
-5.6175297977805663
20
-12.020520792284938
30
0
0
SPLINE
5
461
100
AcDbEntity
8
0
100
AcDbSpline
70
4
71
3
72
8
73
4
74
0
42
0.000000001
43
0.0000000001
44
0.0000000001
40
0
40
0
40
0
40
0
40
1
40
1
40
1
40
1
41
1
41
1
41
1
41
1
10
-5.6175297977805663
20
-12.020520792284938
30
0
10
-5.5583678659623796
20
-12.008340394557669
30
0
10
-5.5340070705078368
20
-11.994419940012213
30
0
10
-5.542707354598746
20
-11.982239542284944
30
0
0
SPLINE
5
462
100
AcDbEntity
8
0
100
AcDbSpline
70
4
71
3
72
8
73
4
74
0
42
0.000000001
43
0.0000000001
44
0.0000000001
40
0
40
0
40
0
40
0
40
1
40
1
40
1
40
1
41
1
41
1
41
1
41
1
10
-5.542707354598746
20
-11.982239542284944
30
0
10
-5.5496675818714714
20
-11.970059144557666
30
0
10
-5.5792485477805629
20
-11.921337553648579
30
0
10
-5.6105695705078356
20
-11.874356019557665
30
0
0
SPLINE
5
463
100
AcDbEntity
8
0
100
AcDbSpline
70
4
71
3
72
8
73
4
74
0
42
0.000000001
43
0.0000000001
44
0.0000000001
40
0
40
0
40
0
40
0
40
1
40
1
40
1
40
1
41
1
41
1
41
1
41
1
10
-5.6105695705078356
20
-11.874356019557665
30
0
10
-5.7184530932351088
20
-11.705570508194032
30
0
10
-5.7567343432351086
20
-11.507204030921303
30
0
10
-5.7167130364169259
20
-11.341898633194029
30
0
0
SPLINE
5
464
100
AcDbEntity
8
0
100
AcDbSpline
70
4
71
3
72
8
73
4
74
0
42
0.000000001
43
0.0000000001
44
0.0000000001
40
0
40
0
40
0
40
0
40
1
40
1
40
1
40
1
41
1
41
1
41
1
41
1
10
-5.7167130364169259
20
-11.341898633194029
30
0
10
-5.6923522409623777
20
-11.239235280921303
30
0
10
-5.6105695705078356
20
-11.08263016728494
30
0
10
-5.5827286614169225
20
-11.08263016728494
30
0
0
SPLINE
5
465
100
AcDbEntity
8
0
100
AcDbSpline
70
4
71
3
72
8
73
4
74
0
42
0.000000001
43
0.0000000001
44
0.0000000001
40
0
40
0
40
0
40
0
40
1
40
1
40
1
40
1
41
1
41
1
41
1
41
1
10
-5.5827286614169225
20
-11.08263016728494
30
0
10
-5.5740283773260142
20
-11.08263016728494
30
0
10
-5.5357471273260144
20
-11.127871644557667
30
0
10
-5.4992059341441974
20
-11.183553462739487
30
0
0
SPLINE
5
466
100
AcDbEntity
8
0
100
AcDbSpline
70
4
71
3
72
8
73
4
74
0
42
0.000000001
43
0.0000000001
44
0.0000000001
40
0
40
0
40
0
40
0
40
1
40
1
40
1
40
1
41
1
41
1
41
1
41
1
10
-5.4992059341441974
20
-11.183553462739487
30
0
10
-5.4609246841441976
20
-11.237495224103121
30
0
10
-5.4156832068714671
20
-11.296657155921304
30
0
10
-5.3982826386896496
20
-11.312317667284944
30
0
0
SPLINE
5
467
100
AcDbEntity
8
0
100
AcDbSpline
70
4
71
3
72
8
73
4
74
0
42
0.000000001
43
0.0000000001
44
0.0000000001
40
0
40
0
40
0
40
0
40
1
40
1
40
1
40
1
41
1
41
1
41
1
41
1
10
-5.3982826386896496
20
-11.312317667284944
30
0
10
-5.3669616159623752
20
-11.340158576375849
30
0
10
-5.3652215591441932
20
-11.334938405921303
30
0
10
-5.370441729598741
20
-11.117431303648578
30
0
0
SPLINE
5
468
100
AcDbEntity
8
0
100
AcDbSpline
70
4
71
3
72
8
73
4
74
0
42
0.000000001
43
0.0000000001
44
0.0000000001
40
0
40
0
40
0
40
0
40
1
40
1
40
1
40
1
41
1
41
1
41
1
41
1
10
-5.370441729598741
20
-11.117431303648578
30
0
10
-5.3739218432351015
20
-10.953865962739483
30
0
10
-5.3687016727805581
20
-10.865123065012215
30
0
10
-5.3478209909623757
20
-10.785080451375849
30
0
0
SPLINE
5
469
100
AcDbEntity
8
0
100
AcDbSpline
70
4
71
3
72
8
73
4
74
0
42
0.000000001
43
0.0000000001
44
0.0000000001
40
0
40
0
40
0
40
0
40
1
40
1
40
1
40
1
41
1
41
1
41
1
41
1
10
-5.3478209909623757
20
-10.785080451375849
30
0
10
-5.3112797977805588
20
-10.64935601955767
30
0
10
-5.2468976955078332
20
-10.518851758194032
30
0
10
-5.1964360477805593
20
-10.484050621830397
30
0
0
SPLINE
5
470
100
AcDbEntity
8
0
100
AcDbSpline
70
4
71
3
72
8
73
4
74
0
42
0.000000001
43
0.0000000001
44
0.0000000001
40
0
40
0
40
0
40
0
40
1
40
1
40
1
40
1
41
1
41
1
41
1
41
1
10
-5.1964360477805593
20
-10.484050621830397
30
0
10
-5.1616349114169253
20
-10.459689826375854
30
0
10
-5.1546746841441946
20
-10.459689826375854
30
0
10
-5.1285738318714689
20
-10.484050621830397
30
0
0
SPLINE
5
471
100
AcDbEntity
8
0
100
AcDbSpline
70
4
71
3
72
8
73
4
74
0
42
0.000000001
43
0.0000000001
44
0.0000000001
40
0
40
0
40
0
40
0
40
1
40
1
40
1
40
1
41
1
41
1
41
1
41
1
10
-5.1285738318714689
20
-10.484050621830397
30
0
10
-5.1129133205078343
20
-10.497971076375851
30
0
10
-5.090292581871469
20
-10.557133008194032
30
0
10
-5.0798522409623779
20
-10.614554883194032
30
0
0
SPLINE
5
472
100
AcDbEntity
8
0
100
AcDbSpline
70
4
71
3
72
8
73
4
74
0
42
0.000000001
43
0.0000000001
44
0.0000000001
40
0
40
0
40
0
40
0
40
1
40
1
40
1
40
1
41
1
41
1
41
1
41
1
10
-5.0798522409623779
20
-10.614554883194032
30
0
10
-5.0659317864169209
20
-10.684157155921303
30
0
10
-5.0415709909623727
20
-10.738098917284942
30
0
10
-5.0102499682351036
20
-10.772900053648581
30
0
0
LINE
5
473
100
AcDbEntity
8
0
100
AcDbLine
10
-5.0102499682351045
20
-10.772900053648581
30
0
11
-4.9615283773260126
21
-10.826841815012214
31
0
0
LINE
5
474
100
AcDbEntity
8
0
100
AcDbLine
10
-4.9615283773260126
20
-10.826841815012214
30
0
11
-4.9406476955078302
21
-10.746799201375854
31
0
0
SPLINE
5
475
100
AcDbEntity
8
0
100
AcDbSpline
70
4
71
3
72
8
73
4
74
0
42
0.000000001
43
0.0000000001
44
0.0000000001
40
0
40
0
40
0
40
0
40
1
40
1
40
1
40
1
41
1
41
1
41
1
41
1
10
-4.9406476955078302
20
-10.746799201375854
30
0
10
-4.9058465591441962
20
-10.605854599103123
30
0
10
-4.834504229598739
20
-10.477090394557671
30
0
10
-4.7214005364169234
20
-10.351806303648576
30
0
0
SPLINE
5
476
100
AcDbEntity
8
0
100
AcDbSpline
70
4
71
3
72
8
73
4
74
0
42
0.000000001
43
0.0000000001
44
0.0000000001
40
0
40
0
40
0
40
0
40
1
40
1
40
1
40
1
41
1
41
1
41
1
41
1
10
-4.7214005364169234
20
-10.351806303648576
30
0
10
-4.6604985477805583
20
-10.283944087739489
30
0
10
-4.5804559341441928
20
-10.170840394557668
30
0
10
-4.5439147409623759
20
-10.099498065012213
30
0
0
SPLINE
5
477
100
AcDbEntity
8
0
100
AcDbSpline
70
4
71
3
72
8
73
4
74
0
42
0.000000001
43
0.0000000001
44
0.0000000001
40
0
40
0
40
0
40
0
40
1
40
1
40
1
40
1
41
1
41
1
41
1
41
1
10
-4.5439147409623759
20
-10.099498065012213
30
0
10
-4.5073735477805617
20
-10.028155735466758
30
0
10
-4.4725724114169223
20
-9.9689938036485763
30
0
10
-4.465612184144196
20
-9.9689938036485763
30
0
0
SPLINE
5
478
100
AcDbEntity
8
0
100
AcDbSpline
70
4
71
3
72
8
73
4
74
0
42
0.000000001
43
0.0000000001
44
0.0000000001
40
0
40
0
40
0
40
0
40
1
40
1
40
1
40
1
41
1
41
1
41
1
41
1
10
-4.465612184144196
20
-9.9689938036485763
30
0
10
-4.4464715591441966
20
-9.9689938036485763
30
0
10
-4.312487184144195
20
-10.129079030921307
30
0
10
-4.312487184144195
20
-10.153439826375854
30
0
0
SPLINE
5
479
100
AcDbEntity
8
0
100
AcDbSpline
70
4
71
3
72
8
73
4
74
0
42
0.000000001
43
0.0000000001
44
0.0000000001
40
0
40
0
40
0
40
0
40
1
40
1
40
1
40
1
41
1
41
1
41
1
41
1
10
-4.312487184144195
20
-10.153439826375854
30
0
10
-4.312487184144195
20
-10.188240962739489
30
0
10
-4.2881263886896521
20
-10.183020792284941
30
0
10
-4.2481050818714667
20
-10.139519371830398
30
0
0
SPLINE
5
480
100
AcDbEntity
8
0
100
AcDbSpline
70
4
71
3
72
8
73
4
74
0
42
0.000000001
43
0.0000000001
44
0.0000000001
40
0
40
0
40
0
40
0
40
1
40
1
40
1
40
1
41
1
41
1
41
1
41
1
10
-4.2481050818714667
20
-10.139519371830398
30
0
10
-4.1906832068714728
20
-10.07513726955767
30
0
10
-4.1558820705078325
20
-9.9933545991031245
30
0
10
-4.1558820705078325
20
-9.9167920991031266
30
0
0
SPLINE
5
481
100
AcDbEntity
8
0
100
AcDbSpline
70
4
71
3
72
8
73
4
74
0
42
0.000000001
43
0.0000000001
44
0.0000000001
40
0
40
0
40
0
40
0
40
1
40
1
40
1
40
1
41
1
41
1
41
1
41
1
10
-4.1558820705078325
20
-9.9167920991031266
30
0
10
-4.1558820705078325
20
-9.836749485466763
30
0
10
-4.1089005364169244
20
-9.7775875536485799
30
0
10
-4.0462584909623791
20
-9.7775875536485799
30
0
0
SPLINE
5
482
100
AcDbEntity
8
0
100
AcDbSpline
70
4
71
3
72
8
73
4
74
0
42
0.000000001
43
0.0000000001
44
0.0000000001
40
0
40
0
40
0
40
0
40
1
40
1
40
1
40
1
41
1
41
1
41
1
41
1
10
-4.0462584909623791
20
-9.7775875536485799
30
0
10
-3.9174942864169231
20
-9.7775875536485799
30
0
10
-3.5468621841441972
20
-9.9620335763758519
30
0
10
-3.3902570705078325
20
-10.104718235466763
30
0
0
LINE
5
483
100
AcDbEntity
8
0
100
AcDbLine
10
-3.3902570705078325
20
-10.104718235466763
30
0
11
-3.2858536614169278
21
-10.198681303648582
31
0
0
LINE
5
484
100
AcDbEntity
8
0
100
AcDbLine
10
-3.2858536614169278
20
-10.198681303648582
30
0
11
-3.285853661416922
21
-10.08383755364858
31
0
0
SPLINE
5
485
100
AcDbEntity
8
0
100
AcDbSpline
70
4
71
3
72
8
73
4
74
0
42
0.000000001
43
0.0000000001
44
0.0000000001
40
0
40
0
40
0
40
0
40
1
40
1
40
1
40
1
41
1
41
1
41
1
41
1
10
-3.285853661416922
20
-10.08383755364858
30
0
10
-3.285853661416922
20
-10.019455451375853
30
0
10
-3.2788934341441962
20
-9.9689938036485781
30
0
10
-3.268453093235105
20
-9.9689938036485781
30
0
0
SPLINE
5
486
100
AcDbEntity
8
0
100
AcDbSpline
70
4
71
3
72
8
73
4
74
0
42
0.000000001
43
0.0000000001
44
0.0000000001
40
0
40
0
40
0
40
0
40
1
40
1
40
1
40
1
41
1
41
1
41
1
41
1
10
-3.268453093235105
20
-9.9689938036485781
30
0
10
-3.2597528091441967
20
-9.9689938036485781
30
0
10
-3.1971107636896541
20
-10.021195508194035
30
0
10
-3.1309886045987461
20
-10.08383755364858
30
0
0
SPLINE
5
487
100
AcDbEntity
8
0
100
AcDbSpline
70
4
71
3
72
8
73
4
74
0
42
0.000000001
43
0.0000000001
44
0.0000000001
40
0
40
0
40
0
40
0
40
1
40
1
40
1
40
1
41
1
41
1
41
1
41
1
10
-3.1309886045987461
20
-10.08383755364858
30
0
10
-2.9987442864169296
20
-10.207381587739491
30
0
10
-2.9204417295987417
20
-10.329185565012217
30
0
10
-2.8856405932351077
20
-10.464909996830398
30
0
0
SPLINE
5
488
100
AcDbEntity
8
0
100
AcDbSpline
70
4
71
3
72
8
73
4
74
0
42
0.000000001
43
0.0000000001
44
0.0000000001
40
0
40
0
40
0
40
0
40
1
40
1
40
1
40
1
41
1
41
1
41
1
41
1
10
-2.8856405932351077
20
-10.464909996830398
30
0
10
-2.8630198545987424
20
-10.555392951375854
30
0
10
-2.8595397409623766
20
-10.844242383194032
30
0
10
-2.8786803659623739
20
-10.978226758194033
30
0
0
SPLINE
5
489
100
AcDbEntity
8
0
100
AcDbSpline
70
4
71
3
72
8
73
4
74
0
42
0.000000001
43
0.0000000001
44
0.0000000001
40
0
40
0
40
0
40
0
40
1
40
1
40
1
40
1
41
1
41
1
41
1
41
1
10
-2.8786803659623739
20
-10.978226758194033
30
0
10
-2.8908607636896479
20
-11.056529315012215
30
0
10
-2.8908607636896479
20
-11.056529315012215
30
0
10
-2.8543195705078253
20
-11.02520829228494
30
0
0
SPLINE
5
490
100
AcDbEntity
8
0
100
AcDbSpline
70
4
71
3
72
8
73
4
74
0
42
0.000000001
43
0.0000000001
44
0.0000000001
40
0
40
0
40
0
40
0
40
1
40
1
40
1
40
1
41
1
41
1
41
1
41
1
10
-2.8543195705078253
20
-11.02520829228494
30
0
10
-2.800377809144186
20
-10.974746644557667
30
0
10
-2.7499161614169259
20
-10.84076226955767
30
0
10
-2.7203351955078348
20
-10.663276474103125
30
0
0
SPLINE
5
491
100
AcDbEntity
8
0
100
AcDbSpline
70
4
71
3
72
8
73
4
74
0
42
0.000000001
43
0.0000000001
44
0.0000000001
40
0
40
0
40
0
40
0
40
1
40
1
40
1
40
1
41
1
41
1
41
1
41
1
10
-2.7203351955078348
20
-10.663276474103125
30
0
10
-2.7064147409623778
20
-10.574533576375851
30
0
10
-2.6872741159623779
20
-10.494490962739489
30
0
10
-2.680313888689652
20
-10.487530735466763
30
0
0
SPLINE
5
492
100
AcDbEntity
8
0
100
AcDbSpline
70
4
71
3
72
8
73
4
74
0
42
0.000000001
43
0.0000000001
44
0.0000000001
40
0
40
0
40
0
40
0
40
1
40
1
40
1
40
1
41
1
41
1
41
1
41
1
10
-2.680313888689652
20
-10.487530735466763
30
0
10
-2.6611732636896468
20
-10.468390110466764
30
0
10
-2.5254488318714703
20
-10.600634428648579
30
0
10
-2.4523664455078364
20
-10.710258008194035
30
0
0
SPLINE
5
493
100
AcDbEntity
8
0
100
AcDbSpline
70
4
71
3
72
8
73
4
74
0
42
0.000000001
43
0.0000000001
44
0.0000000001
40
0
40
0
40
0
40
0
40
1
40
1
40
1
40
1
41
1
41
1
41
1
41
1
10
-2.4523664455078364
20
-10.710258008194035
30
0
10
-2.3775440023260144
20
-10.823361701375854
30
0
10
-2.3601434341441947
20
-10.898184144557668
30
0
10
-2.3479630364169148
20
-11.152232440012215
30
0
0
LINE
5
494
100
AcDbEntity
8
0
100
AcDbLine
10
-2.3479630364169148
20
-11.152232440012215
30
0
11
-2.337522695507829
21
-11.369739542284945
31
0
0
LINE
5
495
100
AcDbEntity
8
0
100
AcDbLine
10
-2.337522695507829
20
-11.369739542284945
30
0
11
-2.1339360477805505
21
-11.162672780921305
31
0
0
SPLINE
5
496
100
AcDbEntity
8
0
100
AcDbSpline
70
4
71
3
72
8
73
4
74
0
42
0.000000001
43
0.0000000001
44
0.0000000001
40
0
40
0
40
0
40
0
40
1
40
1
40
1
40
1
41
1
41
1
41
1
41
1
10
-2.1339360477805505
20
-11.162672780921305
30
0
10
-1.9059886045987351
20
-10.932985280921308
30
0
10
-1.8903280932351008
20
-10.927765110466758
30
0
10
-1.8694474114169182
20
-11.082630167284941
30
0
0
SPLINE
5
497
100
AcDbEntity
8
0
100
AcDbSpline
70
4
71
3
72
8
73
4
74
0
42
0.000000001
43
0.0000000001
44
0.0000000001
40
0
40
0
40
0
40
0
40
1
40
1
40
1
40
1
41
1
41
1
41
1
41
1
10
-1.8694474114169182
20
-11.082630167284941
30
0
10
-1.8398664455078269
20
-11.308837553648578
30
0
10
-1.9703707068714715
20
-11.681209712739488
30
0
10
-2.168737184144196
20
-11.935258008194035
30
0
0
SPLINE
5
498
100
AcDbEntity
8
0
100
AcDbSpline
70
4
71
3
72
8
73
4
74
0
42
0.000000001
43
0.0000000001
44
0.0000000001
40
0
40
0
40
0
40
0
40
1
40
1
40
1
40
1
41
1
41
1
41
1
41
1
10
-2.168737184144196
20
-11.935258008194035
30
0
10
-2.2035383205078354
20
-11.97875942864858
30
0
10
-2.2365994000532869
20
-12.022260849103125
30
0
10
-2.2452996841441952
20
-12.034441246830397
30
0
0
SPLINE
5
499
100
AcDbEntity
8
0
100
AcDbSpline
70
4
71
3
72
8
73
4
74
0
42
0.000000001
43
0.0000000001
44
0.0000000001
40
0
40
0
40
0
40
0
40
1
40
1
40
1
40
1
41
1
41
1
41
1
41
1
10
-2.2452996841441952
20
-12.034441246830397
30
0
10
-2.2574800818714693
20
-12.048361701375851
30
0
10
-2.2087584909623783
20
-12.051841815012216
30
0
10
-2.0556334909623795
20
-12.044881587739487
30
0
0
SPLINE
5
500
100
AcDbEntity
8
0
100
AcDbSpline
70
4
71
3
72
8
73
4
74
0
42
0.000000001
43
0.0000000001
44
0.0000000001
40
0
40
0
40
0
40
0
40
1
40
1
40
1
40
1
41
1
41
1
41
1
41
1
10
-2.0556334909623795
20
-12.044881587739487
30
0
10
-1.8224658773260154
20
-12.034441246830397
30
0
10
-1.7128422977805648
20
-12.05532192864858
30
0
10
-1.5840780932351031
20
-12.138844655921309
30
0
0
SPLINE
5
501
100
AcDbEntity
8
0
100
AcDbSpline
70
4
71
3
72
8
73
4
74
0
42
0.000000001
43
0.0000000001
44
0.0000000001
40
0
40
0
40
0
40
0
40
1
40
1
40
1
40
1
41
1
41
1
41
1
41
1
10
-1.5840780932351031
20
-12.138844655921309
30
0
10
-1.4657542295987438
20
-12.215407155921303
30
0
10
-1.4692343432351038
20
-12.281529315012214
30
0
10
-1.5910383205078342
20
-12.283269371830396
30
0
0
SPLINE
5
502
100
AcDbEntity
8
0
100
AcDbSpline
70
4
71
3
72
8
73
4
74
0
42
0.000000001
43
0.0000000001
44
0.0000000001
40
0
40
0
40
0
40
0
40
1
40
1
40
1
40
1
41
1
41
1
41
1
41
1
10
-1.5910383205078342
20
-12.283269371830396
30
0
10
-1.7076221273260108
20
-12.283269371830395
30
0
10
-2.0173522409623796
20
-12.415513690012213
30
0
10
-2.2070184341441954
20
-12.54427789455767
30
0
0
SPLINE
5
503
100
AcDbEntity
8
0
100
AcDbSpline
70
4
71
3
72
8
73
4
74
0
42
0.000000001
43
0.0000000001
44
0.0000000001
40
0
40
0
40
0
40
0
40
1
40
1
40
1
40
1
41
1
41
1
41
1
41
1
10
-2.2070184341441954
20
-12.54427789455767
30
0
10
-2.328822411416926
20
-12.627800621830396
30
0
10
-2.3879843432351029
20
-12.692182724103123
30
0
10
-2.4384459909623768
20
-12.789625905921305
30
0
0
SPLINE
5
504
100
AcDbEntity
8
0
100
AcDbSpline
70
4
71
3
72
8
73
4
74
0
42
0.000000001
43
0.0000000001
44
0.0000000001
40
0
40
0
40
0
40
0
40
1
40
1
40
1
40
1
41
1
41
1
41
1
41
1
10
-2.4384459909623768
20
-12.789625905921305
30
0
10
-2.4610667295987425
20
-12.83486738319403
30
0
10
-2.5063082068714677
20
-12.885329030921305
30
0
10
-2.5498096273260105
20
-12.914909996830396
30
0
0
SPLINE
5
505
100
AcDbEntity
8
0
100
AcDbSpline
70
4
71
3
72
8
73
4
74
0
42
0.000000001
43
0.0000000001
44
0.0000000001
40
0
40
0
40
0
40
0
40
1
40
1
40
1
40
1
41
1
41
1
41
1
41
1
10
-2.5498096273260105
20
-12.914909996830396
30
0
10
-2.6559530932351065
20
-12.984512269557669
30
0
10
-2.7116349114169291
20
-13.108056303648578
30
0
10
-2.7220752523260145
20
-13.297722496830396
30
0
0
SPLINE
5
506
100
AcDbEntity
8
0
100
AcDbSpline
70
4
71
3
72
8
73
4
74
0
42
0.000000001
43
0.0000000001
44
0.0000000001
40
0
40
0
40
0
40
0
40
1
40
1
40
1
40
1
41
1
41
1
41
1
41
1
10
-2.7220752523260145
20
-13.297722496830396
30
0
10
-2.7307755364169233
20
-13.482168519557671
30
0
10
-2.7586164455078315
20
-13.550030735466757
30
0
10
-2.8769403091441994
20
-13.673574769557669
30
0
0
SPLINE
5
507
100
AcDbEntity
8
0
100
AcDbSpline
70
4
71
3
72
8
73
4
74
0
42
0.000000001
43
0.0000000001
44
0.0000000001
40
0
40
0
40
0
40
0
40
1
40
1
40
1
40
1
41
1
41
1
41
1
41
1
10
-2.8769403091441994
20
-13.673574769557669
30
0
10
-2.9274019568714618
20
-13.727516530921305
30
0
10
-2.9952641727805585
20
-13.814519371830395
30
0
10
-3.0300653091441925
20
-13.866721076375846
30
0
0
SPLINE
5
508
100
AcDbEntity
8
0
100
AcDbSpline
70
4
71
3
72
8
73
4
74
0
42
0.000000001
43
0.0000000001
44
0.0000000001
40
0
40
0
40
0
40
0
40
1
40
1
40
1
40
1
41
1
41
1
41
1
41
1
10
-3.0300653091441925
20
-13.866721076375846
30
0
10
-3.1362087750532859
20
-14.033766530921302
30
0
10
-3.3171746841441991
20
-14.216472496830391
30
0
10
-3.5625226955078313
20
-14.399178462739489
30
0
0
SPLINE
5
509
100
AcDbEntity
8
0
100
AcDbSpline
70
4
71
3
72
8
73
4
74
0
42
0.000000001
43
0.0000000001
44
0.0000000001
40
0
40
0
40
0
40
0
40
1
40
1
40
1
40
1
41
1
41
1
41
1
41
1
10
-3.5625226955078313
20
-14.399178462739489
30
0
10
-3.5660028091441918
20
-14.402658576375847
30
0
10
-3.5486022409623743
20
-14.428759428648574
30
0
10
-3.5242414455078319
20
-14.458340394557665
30
0
0
CIRCLE
5
510
100
AcDbEntity
8
0
100
AcDbCircle
10
-8.3010603418433302
20
-12.760245671411727
30
0
40
0.10500000000000005
210
0
220
-0
230
1
0
SPLINE
5
511
100
AcDbEntity
8
0
100
AcDbSpline
70
4
71
3
72
8
73
4
74
0
42
0.000000001
43
0.0000000001
44
0.0000000001
40
0
40
0
40
0
40
0
40
1
40
1
40
1
40
1
41
1
41
1
41
1
41
1
10
-7.289716782979121
20
-13.587533587221609
30
0
10
-7.2949369534336652
20
-13.597973928130701
30
0
10
-7.2931968966154832
20
-13.604934155403427
30
0
10
-7.2827565557063911
20
-13.604934155403427
30
0
0
SPLINE
5
512
100
AcDbEntity
8
0
100
AcDbSpline
70
4
71
3
72
8
73
4
74
0
42
0.000000001
43
0.0000000001
44
0.0000000001
40
0
40
0
40
0
40
0
40
1
40
1
40
1
40
1
41
1
41
1
41
1
41
1
10
-7.2827565557063911
20
-13.604934155403427
30
0
10
-7.274056271615482
20
-13.604934155403427
30
0
10
-7.2601358170700285
20
-13.597973928130701
30
0
10
-7.2549156466154825
20
-13.587533587221609
30
0
0
SPLINE
5
513
100
AcDbEntity
8
0
100
AcDbSpline
70
4
71
3
72
8
73
4
74
0
42
0.000000001
43
0.0000000001
44
0.0000000001
40
0
40
0
40
0
40
0
40
1
40
1
40
1
40
1
41
1
41
1
41
1
41
1
10
-7.2549156466154825
20
-13.587533587221609
30
0
10
-7.2496954761609382
20
-13.5788333031307
30
0
10
-7.2514355329791194
20
-13.570133019039792
30
0
10
-7.2618758738882114
20
-13.570133019039792
30
0
0
SPLINE
5
514
100
AcDbEntity
8
0
100
AcDbSpline
70
4
71
3
72
8
73
4
74
0
42
0.000000001
43
0.0000000001
44
0.0000000001
40
0
40
0
40
0
40
0
40
1
40
1
40
1
40
1
41
1
41
1
41
1
41
1
10
-7.2618758738882114
20
-13.570133019039792
30
0
10
-7.2705761579791197
20
-13.570133019039792
30
0
10
-7.284496612524574
20
-13.5788333031307
30
0
10
-7.289716782979121
20
-13.587533587221609
30
0
0
SPLINE
5
515
100
AcDbEntity
8
0
100
AcDbSpline
70
4
71
3
72
8
73
4
74
0
42
0.000000001
43
0.0000000001
44
0.0000000001
40
0
40
0
40
0
40
0
40
1
40
1
40
1
40
1
41
1
41
1
41
1
41
1
10
-7.2810164988882109
20
-13.73021824631252
30
0
10
-7.2810164988882109
20
-13.740658587221612
30
0
10
-7.2705761579791197
20
-13.740658587221612
30
0
10
-7.2549156466154825
20
-13.726738132676154
30
0
0
SPLINE
5
516
100
AcDbEntity
8
0
100
AcDbSpline
70
4
71
3
72
8
73
4
74
0
42
0.000000001
43
0.0000000001
44
0.0000000001
40
0
40
0
40
0
40
0
40
1
40
1
40
1
40
1
41
1
41
1
41
1
41
1
10
-7.2549156466154825
20
-13.726738132676154
30
0
10
-7.2392551352518453
20
-13.714557734948883
30
0
10
-7.2322949079791199
20
-13.700637280403429
30
0
10
-7.235775021615483
20
-13.697157166767067
30
0
0
SPLINE
5
517
100
AcDbEntity
8
0
100
AcDbSpline
70
4
71
3
72
8
73
4
74
0
42
0.000000001
43
0.0000000001
44
0.0000000001
40
0
40
0
40
0
40
0
40
1
40
1
40
1
40
1
41
1
41
1
41
1
41
1
10
-7.235775021615483
20
-13.697157166767067
30
0
10
-7.2479554193427553
20
-13.684976769039793
30
0
10
-7.2810164988882109
20
-13.709337564494337
30
0
10
-7.2810164988882109
20
-13.73021824631252
30
0
0
SPLINE
5
518
100
AcDbEntity
8
0
100
AcDbSpline
70
4
71
3
72
8
73
4
74
0
42
0.000000001
43
0.0000000001
44
0.0000000001
40
0
40
0
40
0
40
0
40
1
40
1
40
1
40
1
41
1
41
1
41
1
41
1
10
-8.760064794342755
20
-12.520878757676154
30
0
10
-8.7478843966154827
20
-12.604401484948882
30
0
10
-8.7339639420700284
20
-12.680963984948885
30
0
10
-8.7304838284336626
20
-12.68792421222161
30
0
0
SPLINE
5
519
100
AcDbEntity
8
0
100
AcDbSpline
70
4
71
3
72
8
73
4
74
0
42
0.000000001
43
0.0000000001
44
0.0000000001
40
0
40
0
40
0
40
0
40
1
40
1
40
1
40
1
41
1
41
1
41
1
41
1
10
-8.7304838284336626
20
-12.68792421222161
30
0
10
-8.711343203433664
20
-12.720985291767064
30
0
10
-8.6782821238882093
20
-12.679223928130702
30
0
10
-8.6191201920700262
20
-12.541759439494337
30
0
0
LINE
5
520
100
AcDbEntity
8
0
100
AcDbLine
10
-8.6191201920700262
20
-12.541759439494337
30
0
11
-8.5547380897973024
21
-12.395594666767064
31
0
0
LINE
5
521
100
AcDbEntity
8
0
100
AcDbLine
10
-8.5547380897973024
20
-12.395594666767064
30
0
11
-8.4451145102518463
21
-12.39907478040343
31
0
0
SPLINE
5
522
100
AcDbEntity
8
0
100
AcDbSpline
70
4
71
3
72
8
73
4
74
0
42
0.000000001
43
0.0000000001
44
0.0000000001
40
0
40
0
40
0
40
0
40
1
40
1
40
1
40
1
41
1
41
1
41
1
41
1
10
-8.4451145102518446
20
-12.39907478040343
30
0
10
-8.384212521615483
20
-12.40081483722161
30
0
10
-8.3111301352518456
20
-12.406035007676156
30
0
10
-8.285029282979119
20
-12.4112551781307
30
0
0
SPLINE
5
523
100
AcDbEntity
8
0
100
AcDbSpline
70
4
71
3
72
8
73
4
74
0
42
0.000000001
43
0.0000000001
44
0.0000000001
40
0
40
0
40
0
40
0
40
1
40
1
40
1
40
1
41
1
41
1
41
1
41
1
10
-8.285029282979119
20
-12.4112551781307
30
0
10
-8.1928062716154813
20
-12.4303958031307
30
0
10
-8.2067267261609373
20
-12.374713984948883
30
0
10
-8.330270760251846
20
-12.251169950857973
30
0
0
LINE
5
524
100
AcDbEntity
8
0
100
AcDbLine
10
-8.330270760251846
20
-12.251169950857975
30
0
11
-8.4433744534336626
21
-12.134586144039792
31
0
0
LINE
5
525
100
AcDbEntity
8
0
100
AcDbLine
10
-8.4433744534336626
20
-12.134586144039792
30
0
11
-8.375512237524573
21
-11.979721087221611
31
0
0
SPLINE
5
526
100
AcDbEntity
8
0
100
AcDbSpline
70
4
71
3
72
8
73
4
74
0
42
0.000000001
43
0.0000000001
44
0.0000000001
40
0
40
0
40
0
40
0
40
1
40
1
40
1
40
1
41
1
41
1
41
1
41
1
10
-8.375512237524573
20
-11.979721087221611
30
0
10
-8.3389710443427543
20
-11.894458303130701
30
0
10
-8.3076500216154834
20
-11.817895803130702
30
0
10
-8.3076500216154834
20
-11.809195519039793
30
0
0
SPLINE
5
527
100
AcDbEntity
8
0
100
AcDbSpline
70
4
71
3
72
8
73
4
74
0
42
0.000000001
43
0.0000000001
44
0.0000000001
40
0
40
0
40
0
40
0
40
1
40
1
40
1
40
1
41
1
41
1
41
1
41
1
10
-8.3076500216154834
20
-11.809195519039793
30
0
10
-8.3076500216154834
20
-11.781354609948885
30
0
10
-8.3494113852518463
20
-11.797015121312519
30
0
10
-8.476435532979119
20
-11.873577621312519
30
0
0
SPLINE
5
528
100
AcDbEntity
8
0
100
AcDbSpline
70
4
71
3
72
8
73
4
74
0
42
0.000000001
43
0.0000000001
44
0.0000000001
40
0
40
0
40
0
40
0
40
1
40
1
40
1
40
1
41
1
41
1
41
1
41
1
10
-8.476435532979119
20
-11.873577621312519
30
0
10
-8.5460378057063924
20
-11.917079041767064
30
0
10
-8.6104199079791179
20
-11.951880178130702
30
0
10
-8.617380135251846
20
-11.951880178130702
30
0
0
SPLINE
5
529
100
AcDbEntity
8
0
100
AcDbSpline
70
4
71
3
72
8
73
4
74
0
42
0.000000001
43
0.0000000001
44
0.0000000001
40
0
40
0
40
0
40
0
40
1
40
1
40
1
40
1
41
1
41
1
41
1
41
1
10
-8.617380135251846
20
-11.951880178130702
30
0
10
-8.622600305706392
20
-11.951880178130702
30
0
10
-8.6817622375245733
20
-11.899678473585245
30
0
10
-8.7461443397973007
20
-11.835296371312522
30
0
0
SPLINE
5
530
100
AcDbEntity
8
0
100
AcDbSpline
70
4
71
3
72
8
73
4
74
0
42
0.000000001
43
0.0000000001
44
0.0000000001
40
0
40
0
40
0
40
0
40
1
40
1
40
1
40
1
41
1
41
1
41
1
41
1
10
-8.7461443397973007
20
-11.835296371312522
30
0
10
-8.8105264420700262
20
-11.770914269039793
30
0
10
-8.8679483170700273
20
-11.723932734948885
30
0
10
-8.8749085443427553
20
-11.730892962221612
30
0
0
SPLINE
5
531
100
AcDbEntity
8
0
100
AcDbSpline
70
4
71
3
72
8
73
4
74
0
42
0.000000001
43
0.0000000001
44
0.0000000001
40
0
40
0
40
0
40
0
40
1
40
1
40
1
40
1
41
1
41
1
41
1
41
1
10
-8.8749085443427553
20
-11.730892962221612
30
0
10
-8.8818687716154816
20
-11.737853189494338
30
0
10
-8.8766486011609373
20
-11.814415689494338
30
0
10
-8.862728146615483
20
-11.903158587221611
30
0
0
SPLINE
5
532
100
AcDbEntity
8
0
100
AcDbSpline
70
4
71
3
72
8
73
4
74
0
42
0.000000001
43
0.0000000001
44
0.0000000001
40
0
40
0
40
0
40
0
40
1
40
1
40
1
40
1
41
1
41
1
41
1
41
1
10
-8.862728146615483
20
-11.903158587221611
30
0
10
-8.8488076920700269
20
-11.991901484948883
30
0
10
-8.8383673511609366
20
-12.071944098585247
30
0
10
-8.8383673511609366
20
-12.080644382676157
30
0
0
SPLINE
5
533
100
AcDbEntity
8
0
100
AcDbSpline
70
4
71
3
72
8
73
4
74
0
42
0.000000001
43
0.0000000001
44
0.0000000001
40
0
40
0
40
0
40
0
40
1
40
1
40
1
40
1
41
1
41
1
41
1
41
1
10
-8.8383673511609366
20
-12.080644382676157
30
0
10
-8.8383673511609366
20
-12.089344666767067
30
0
10
-8.8923091125245737
20
-12.129365973585246
30
0
10
-8.960171328433665
20
-12.171127337221609
30
0
0
SPLINE
5
534
100
AcDbEntity
8
0
100
AcDbSpline
70
4
71
3
72
8
73
4
74
0
42
0.000000001
43
0.0000000001
44
0.0000000001
40
0
40
0
40
0
40
0
40
1
40
1
40
1
40
1
41
1
41
1
41
1
41
1
10
-8.960171328433665
20
-12.171127337221609
30
0
10
-9.1672380897972996
20
-12.296411428130702
30
0
10
-9.1689781466154834
20
-12.306851769039794
30
0
10
-8.9740917829791194
20
-12.32599239403979
30
0
0
SPLINE
5
535
100
AcDbEntity
8
0
100
AcDbSpline
70
4
71
3
72
8
73
4
74
0
42
0.000000001
43
0.0000000001
44
0.0000000001
40
0
40
0
40
0
40
0
40
1
40
1
40
1
40
1
41
1
41
1
41
1
41
1
10
-8.9740917829791194
20
-12.32599239403979
30
0
10
-8.8992693397973017
20
-12.332952621312522
30
0
10
-8.8261869534336626
20
-12.345133019039793
30
0
10
-8.810526442070028
20
-12.352093246312519
30
0
0
SPLINE
5
536
100
AcDbEntity
8
0
100
AcDbSpline
70
4
71
3
72
8
73
4
74
0
42
0.000000001
43
0.0000000001
44
0.0000000001
40
0
40
0
40
0
40
0
40
1
40
1
40
1
40
1
41
1
41
1
41
1
41
1
10
-8.810526442070028
20
-12.352093246312519
30
0
10
-8.7913858170700276
20
-12.362533587221609
30
0
10
-8.7757253057063913
20
-12.416475348585246
30
0
10
-8.760064794342755
20
-12.520878757676154
30
0
0
ARC
5
537
100
AcDbEntity
8
0
100
AcDbCircle
10
-6.5035137951682911
20
-13.63206596550766
30
0
40
0.10177201109030073
210
0
220
-0
230
1
100
AcDbArc
50
71.896711752767729
51
340.62060735684463
0
SPLINE
5
538
100
AcDbEntity
8
0
100
AcDbSpline
70
4
71
3
72
8
73
4
74
0
42
0.000000001
43
0.0000000001
44
0.0000000001
40
0
40
0
40
0
40
0
40
1
40
1
40
1
40
1
41
1
41
1
41
1
41
1
10
-6.4075079761609386
20
-13.665836144039792
30
0
10
-6.3796670670700273
20
-13.603194098585247
30
0
10
-6.4127281466154846
20
-13.535331882676156
30
0
10
-6.471890078433665
20
-13.535331882676156
30
0
0
SPLINE
5
539
100
AcDbEntity
8
0
100
AcDbSpline
70
4
71
3
72
8
73
4
74
0
42
0.000000001
43
0.0000000001
44
0.0000000001
40
0
40
0
40
0
40
0
40
1
40
1
40
1
40
1
41
1
41
1
41
1
41
1
10
-7.7299511579791194
20
-14.819493814494338
30
0
10
-7.808253714797301
20
-14.843854609948883
30
0
10
-7.8326145102518465
20
-14.843854609948883
30
0
10
-7.8830761579791178
20
-14.8229739281307
30
0
0
SPLINE
5
540
100
AcDbEntity
8
0
100
AcDbSpline
70
4
71
3
72
8
73
4
74
0
42
0.000000001
43
0.0000000001
44
0.0000000001
40
0
40
0
40
0
40
0
40
1
40
1
40
1
40
1
41
1
41
1
41
1
41
1
10
-7.8830761579791178
20
-14.8229739281307
30
0
10
-7.9370179193427548
20
-14.802093246312518
30
0
10
-7.992699737524573
20
-14.723790689494338
30
0
10
-7.9822593966154827
20
-14.683769382676154
30
0
0
SPLINE
5
541
100
AcDbEntity
8
0
100
AcDbSpline
70
4
71
3
72
8
73
4
74
0
42
0.000000001
43
0.0000000001
44
0.0000000001
40
0
40
0
40
0
40
0
40
1
40
1
40
1
40
1
41
1
41
1
41
1
41
1
10
-7.9822593966154827
20
-14.683769382676154
30
0
10
-7.9700789988882104
20
-14.638527905403429
30
0
10
-7.9422380897973017
20
-14.617647223585248
30
0
10
-7.7891130897973015
20
-14.5358645531307
30
0
0
SPLINE
5
542
100
AcDbEntity
8
0
100
AcDbSpline
70
4
71
3
72
8
73
4
74
0
42
0.000000001
43
0.0000000001
44
0.0000000001
40
0
40
0
40
0
40
0
40
1
40
1
40
1
40
1
41
1
41
1
41
1
41
1
10
-7.7891130897973015
20
-14.5358645531307
30
0
10
-7.7177707602518479
20
-14.497583303130703
30
0
10
-7.6586088284336649
20
-14.459302053130701
30
0
10
-7.6603488852518451
20
-14.450601769039793
30
0
0
SPLINE
5
543
100
AcDbEntity
8
0
100
AcDbSpline
70
4
71
3
72
8
73
4
74
0
42
0.000000001
43
0.0000000001
44
0.0000000001
40
0
40
0
40
0
40
0
40
1
40
1
40
1
40
1
41
1
41
1
41
1
41
1
10
-7.6603488852518451
20
-14.450601769039793
30
0
10
-7.6603488852518451
20
-14.441901484948882
30
0
10
-7.6881897943427564
20
-14.426240973585246
30
0
10
-7.7195108170700273
20
-14.415800632676156
30
0
0
SPLINE
5
544
100
AcDbEntity
8
0
100
AcDbSpline
70
4
71
3
72
8
73
4
74
0
42
0.000000001
43
0.0000000001
44
0.0000000001
40
0
40
0
40
0
40
0
40
1
40
1
40
1
40
1
41
1
41
1
41
1
41
1
10
-7.7195108170700273
20
-14.415800632676156
30
0
10
-7.7978133738882098
20
-14.389699780403429
30
0
10
-7.8030335443427559
20
-14.339238132676156
30
0
10
-7.7351713284336645
20
-14.260935575857973
30
0
0
SPLINE
5
545
100
AcDbEntity
8
0
100
AcDbSpline
70
4
71
3
72
8
73
4
74
0
42
0.000000001
43
0.0000000001
44
0.0000000001
40
0
40
0
40
0
40
0
40
1
40
1
40
1
40
1
41
1
41
1
41
1
41
1
10
-7.7351713284336645
20
-14.260935575857973
30
0
10
-7.6690491693427569
20
-14.186113132676157
30
0
10
-7.667309112524574
20
-14.165232450857975
30
0
10
-7.7282111011609373
20
-14.15131199631252
30
0
0
SPLINE
5
546
100
AcDbEntity
8
0
100
AcDbSpline
70
4
71
3
72
8
73
4
74
0
42
0.000000001
43
0.0000000001
44
0.0000000001
40
0
40
0
40
0
40
0
40
1
40
1
40
1
40
1
41
1
41
1
41
1
41
1
10
-7.7282111011609373
20
-14.15131199631252
30
0
10
-7.8343545670700285
20
-14.125211144039792
30
0
10
-7.863935532979121
20
-14.060829041767063
30
0
10
-7.8030335443427559
20
-13.982526484948885
30
0
0
SPLINE
5
547
100
AcDbEntity
8
0
100
AcDbSpline
70
4
71
3
72
8
73
4
74
0
42
0.000000001
43
0.0000000001
44
0.0000000001
40
0
40
0
40
0
40
0
40
1
40
1
40
1
40
1
41
1
41
1
41
1
41
1
10
-7.8030335443427559
20
-13.982526484948885
30
0
10
-7.7838929193427555
20
-13.958165689494338
30
0
10
-7.7682324079791192
20
-13.933804894039794
30
0
10
-7.7682324079791192
20
-13.928584723585248
30
0
0
SPLINE
5
548
100
AcDbEntity
8
0
100
AcDbSpline
70
4
71
3
72
8
73
4
74
0
42
0.000000001
43
0.0000000001
44
0.0000000001
40
0
40
0
40
0
40
0
40
1
40
1
40
1
40
1
41
1
41
1
41
1
41
1
10
-7.7682324079791192
20
-13.928584723585248
30
0
10
-7.7682324079791192
20
-13.909444098585244
30
0
10
-7.8326145102518465
20
-13.918144382676156
30
0
10
-7.9300576920700276
20
-13.95120546222161
30
0
0
SPLINE
5
549
100
AcDbEntity
8
0
100
AcDbSpline
70
4
71
3
72
8
73
4
74
0
42
0.000000001
43
0.0000000001
44
0.0000000001
40
0
40
0
40
0
40
0
40
1
40
1
40
1
40
1
41
1
41
1
41
1
41
1
10
-7.9300576920700276
20
-13.95120546222161
30
0
10
-8.0205406466154834
20
-13.982526484948881
30
0
10
-8.0275008738882114
20
-13.982526484948881
30
0
10
-8.051861669342756
20
-13.956425632676156
30
0
0
SPLINE
5
550
100
AcDbEntity
8
0
100
AcDbSpline
70
4
71
3
72
8
73
4
74
0
42
0.000000001
43
0.0000000001
44
0.0000000001
40
0
40
0
40
0
40
0
40
1
40
1
40
1
40
1
41
1
41
1
41
1
41
1
10
-8.051861669342756
20
-13.956425632676156
30
0
10
-8.0657821238882104
20
-13.940765121312518
30
0
10
-8.0814426352518485
20
-13.909444098585244
30
0
10
-8.0849227488882107
20
-13.888563416767065
30
0
0
SPLINE
5
551
100
AcDbEntity
8
0
100
AcDbSpline
70
4
71
3
72
8
73
4
74
0
42
0.000000001
43
0.0000000001
44
0.0000000001
40
0
40
0
40
0
40
0
40
1
40
1
40
1
40
1
41
1
41
1
41
1
41
1
10
-8.0849227488882107
20
-13.888563416767065
30
0
10
-8.0901429193427568
20
-13.852022223585244
30
0
10
-8.093623032979119
20
-13.852022223585244
30
0
10
-8.192806271615483
20
-13.914664269039793
30
0
0
SPLINE
5
552
100
AcDbEntity
8
0
100
AcDbSpline
70
4
71
3
72
8
73
4
74
0
42
0.000000001
43
0.0000000001
44
0.0000000001
40
0
40
0
40
0
40
0
40
1
40
1
40
1
40
1
41
1
41
1
41
1
41
1
10
-8.192806271615483
20
-13.914664269039793
30
0
10
-8.2919895102518471
20
-13.975566257676155
30
0
10
-8.2937295670700291
20
-13.977306314494339
30
0
10
-8.3198304193427557
20
-13.944245234948882
30
0
0
SPLINE
5
553
100
AcDbEntity
8
0
100
AcDbSpline
70
4
71
3
72
8
73
4
74
0
42
0.000000001
43
0.0000000001
44
0.0000000001
40
0
40
0
40
0
40
0
40
1
40
1
40
1
40
1
41
1
41
1
41
1
41
1
10
-8.3198304193427557
20
-13.944245234948882
30
0
10
-8.335490930706392
20
-13.921624496312518
30
0
10
-8.3407111011609381
20
-13.890303473585247
30
0
10
-8.3337508738882082
20
-13.853762280403428
30
0
0
SPLINE
5
554
100
AcDbEntity
8
0
100
AcDbSpline
70
4
71
3
72
8
73
4
74
0
42
0.000000001
43
0.0000000001
44
0.0000000001
40
0
40
0
40
0
40
0
40
1
40
1
40
1
40
1
41
1
41
1
41
1
41
1
10
-8.3337508738882082
20
-13.853762280403428
30
0
10
-8.3285307034336657
20
-13.822441257676154
30
0
10
-8.330270760251846
20
-13.796340405403429
30
0
10
-8.3389710443427543
20
-13.796340405403429
30
0
0
SPLINE
5
555
100
AcDbEntity
8
0
100
AcDbSpline
70
4
71
3
72
8
73
4
74
0
42
0.000000001
43
0.0000000001
44
0.0000000001
40
0
40
0
40
0
40
0
40
1
40
1
40
1
40
1
41
1
41
1
41
1
41
1
10
-8.3389710443427543
20
-13.796340405403429
30
0
10
-8.3476713284336643
20
-13.796340405403429
30
0
10
-8.4033531466154834
20
-13.839841825857974
30
0
10
-8.4625150784336647
20
-13.892043530403427
30
0
0
SPLINE
5
556
100
AcDbEntity
8
0
100
AcDbSpline
70
4
71
3
72
8
73
4
74
0
42
0.000000001
43
0.0000000001
44
0.0000000001
40
0
40
0
40
0
40
0
40
1
40
1
40
1
40
1
41
1
41
1
41
1
41
1
10
-8.4625150784336647
20
-13.892043530403427
30
0
10
-8.622600305706392
20
-14.034728189494338
30
0
10
-8.6904625216154834
20
-14.017327621312518
30
0
10
-8.6904625216154834
20
-13.834621655403428
30
0
0
SPLINE
5
557
100
AcDbEntity
8
0
100
AcDbSpline
70
4
71
3
72
8
73
4
74
0
42
0.000000001
43
0.0000000001
44
0.0000000001
40
0
40
0
40
0
40
0
40
1
40
1
40
1
40
1
41
1
41
1
41
1
41
1
10
-8.6904625216154834
20
-13.834621655403428
30
0
10
-8.6904625216154834
20
-13.554472507676156
30
0
10
-8.422493771615482
20
-13.441368814494336
30
0
10
-8.051861669342756
20
-13.56665290540343
30
0
0
LINE
5
558
100
AcDbEntity
8
0
100
AcDbLine
10
-8.051861669342756
20
-13.56665290540343
30
0
11
-7.9109170670700291
21
-13.615374496312517
31
0
0
LINE
5
559
100
AcDbEntity
8
0
100
AcDbLine
10
-7.9109170670700291
20
-13.615374496312517
30
0
11
-7.9352778625245746
21
-13.56665290540343
31
0
0
SPLINE
5
560
100
AcDbEntity
8
0
100
AcDbSpline
70
4
71
3
72
8
73
4
74
0
42
0.000000001
43
0.0000000001
44
0.0000000001
40
0
40
0
40
0
40
0
40
1
40
1
40
1
40
1
41
1
41
1
41
1
41
1
10
-7.9352778625245746
20
-13.56665290540343
30
0
10
-7.9631187716154832
20
-13.512711144039793
30
0
10
-7.9683389420700284
20
-13.403087564494339
30
0
10
-7.9439781466154828
20
-13.3874270531307
30
0
0
SPLINE
5
561
100
AcDbEntity
8
0
100
AcDbSpline
70
4
71
3
72
8
73
4
74
0
42
0.000000001
43
0.0000000001
44
0.0000000001
40
0
40
0
40
0
40
0
40
1
40
1
40
1
40
1
41
1
41
1
41
1
41
1
10
-7.9439781466154828
20
-13.3874270531307
30
0
10
-7.9352778625245737
20
-13.382206882676154
30
0
10
-7.8900363852518467
20
-13.401347507676157
30
0
10
-7.8447949079791197
20
-13.430928473585245
30
0
0
SPLINE
5
562
100
AcDbEntity
8
0
100
AcDbSpline
70
4
71
3
72
8
73
4
74
0
42
0.000000001
43
0.0000000001
44
0.0000000001
40
0
40
0
40
0
40
0
40
1
40
1
40
1
40
1
41
1
41
1
41
1
41
1
10
-7.8447949079791197
20
-13.430928473585245
30
0
10
-7.7995534307063918
20
-13.458769382676156
30
0
10
-7.7508318397973017
20
-13.483130178130699
30
0
10
-7.7386514420700276
20
-13.483130178130699
30
0
0
SPLINE
5
563
100
AcDbEntity
8
0
100
AcDbSpline
70
4
71
3
72
8
73
4
74
0
42
0.000000001
43
0.0000000001
44
0.0000000001
40
0
40
0
40
0
40
0
40
1
40
1
40
1
40
1
41
1
41
1
41
1
41
1
10
-7.7386514420700276
20
-13.483130178130699
30
0
10
-7.6881897943427555
20
-13.483130178130699
30
0
10
-7.7282111011609373
20
-13.303904325857975
30
0
10
-7.7978133738882089
20
-13.220381598585247
30
0
0
SPLINE
5
564
100
AcDbEntity
8
0
100
AcDbSpline
70
4
71
3
72
8
73
4
74
0
42
0.000000001
43
0.0000000001
44
0.0000000001
40
0
40
0
40
0
40
0
40
1
40
1
40
1
40
1
41
1
41
1
41
1
41
1
10
-7.7978133738882089
20
-13.220381598585247
30
0
10
-7.9265775784336645
20
-13.067256598585248
30
0
10
-8.184105987524573
20
-12.99591426903979
30
0
10
-8.6121599647973017
20
-12.99591426903979
30
0
0
SPLINE
5
565
100
AcDbEntity
8
0
100
AcDbSpline
70
4
71
3
72
8
73
4
74
0
42
0.000000001
43
0.0000000001
44
0.0000000001
40
0
40
0
40
0
40
0
40
1
40
1
40
1
40
1
41
1
41
1
41
1
41
1
10
-8.6121599647973017
20
-12.99591426903979
30
0
10
-8.90796962388821
20
-12.99417421222161
30
0
10
-9.1898588284336657
20
-12.940232450857975
30
0
10
-9.4143261579791186
20
-12.837569098585247
30
0
0
SPLINE
5
566
100
AcDbEntity
8
0
100
AcDbSpline
70
4
71
3
72
8
73
4
74
0
42
0.000000001
43
0.0000000001
44
0.0000000001
40
0
40
0
40
0
40
0
40
1
40
1
40
1
40
1
41
1
41
1
41
1
41
1
10
-9.4143261579791186
20
-12.837569098585247
30
0
10
-9.6561940557063917
20
-12.727945519039791
30
0
10
-9.6474937716154816
20
-12.729685575857973
30
0
10
-9.7779980329791183
20
-12.797547791767064
30
0
0
SPLINE
5
567
100
AcDbEntity
8
0
100
AcDbSpline
70
4
71
3
72
8
73
4
74
0
42
0.000000001
43
0.0000000001
44
0.0000000001
40
0
40
0
40
0
40
0
40
1
40
1
40
1
40
1
41
1
41
1
41
1
41
1
10
-9.7779980329791183
20
-12.797547791767064
30
0
10
-9.8423801352518474
20
-12.832348928130701
30
0
10
-9.9050221807063927
20
-12.854969666767063
30
0
10
-9.9189426352518453
20
-12.849749496312517
30
0
0
SPLINE
5
568
100
AcDbEntity
8
0
100
AcDbSpline
70
4
71
3
72
8
73
4
74
0
42
0.000000001
43
0.0000000001
44
0.0000000001
40
0
40
0
40
0
40
0
40
1
40
1
40
1
40
1
41
1
41
1
41
1
41
1
10
-9.9189426352518453
20
-12.849749496312517
30
0
10
-9.9711443397973003
20
-12.828868814494339
30
0
10
-9.9467835443427539
20
-12.752306314494335
30
0
10
-9.8232395102518471
20
-12.560900064494337
30
0
0
SPLINE
5
569
100
AcDbEntity
8
0
100
AcDbSpline
70
4
71
3
72
8
73
4
74
0
42
0.000000001
43
0.0000000001
44
0.0000000001
40
0
40
0
40
0
40
0
40
1
40
1
40
1
40
1
41
1
41
1
41
1
41
1
10
-9.8232395102518471
20
-12.560900064494337
30
0
10
-9.762337521615482
20
-12.465196939494337
30
0
10
-9.7571173511609395
20
-12.453016541767063
30
0
10
-9.7710378057063902
20
-12.383414269039793
30
0
0
SPLINE
5
570
100
AcDbEntity
8
0
100
AcDbSpline
70
4
71
3
72
8
73
4
74
0
42
0.000000001
43
0.0000000001
44
0.0000000001
40
0
40
0
40
0
40
0
40
1
40
1
40
1
40
1
41
1
41
1
41
1
41
1
10
-9.7710378057063902
20
-12.383414269039793
30
0
10
-9.7797380897973021
20
-12.34165290540343
30
0
10
-9.7814781466154805
20
-12.21810887131252
30
0
10
-9.7762579761609363
20
-12.108485291767064
30
0
0
SPLINE
5
571
100
AcDbEntity
8
0
100
AcDbSpline
70
4
71
3
72
8
73
4
74
0
42
0.000000001
43
0.0000000001
44
0.0000000001
40
0
40
0
40
0
40
0
40
1
40
1
40
1
40
1
41
1
41
1
41
1
41
1
10
-9.7762579761609363
20
-12.108485291767064
30
0
10
-9.762337521615482
20
-11.847476769039792
30
0
10
-9.7292764420700273
20
-11.769174212221611
30
0
10
-9.5517906466154834
20
-11.591688416767065
30
0
0
SPLINE
5
572
100
AcDbEntity
8
0
100
AcDbSpline
70
4
71
3
72
8
73
4
74
0
42
0.000000001
43
0.0000000001
44
0.0000000001
40
0
40
0
40
0
40
0
40
1
40
1
40
1
40
1
41
1
41
1
41
1
41
1
10
-9.5517906466154834
20
-11.591688416767065
30
0
10
-9.4804483170700262
20
-11.518606030403429
30
0
10
-9.4212863852518449
20
-11.454223928130702
30
0
10
-9.4212863852518449
20
-11.449003757676156
30
0
0
SPLINE
5
573
100
AcDbEntity
8
0
100
AcDbSpline
70
4
71
3
72
8
73
4
74
0
42
0.000000001
43
0.0000000001
44
0.0000000001
40
0
40
0
40
0
40
0
40
1
40
1
40
1
40
1
41
1
41
1
41
1
41
1
10
-9.4212863852518449
20
-11.449003757676156
30
0
10
-9.4212863852518449
20
-11.408982450857975
30
0
10
-9.7066557034336629
20
-10.989628757676156
30
0
10
-9.8719611011609381
20
-10.786042109948882
30
0
0
SPLINE
5
574
100
AcDbEntity
8
0
100
AcDbSpline
70
4
71
3
72
8
73
4
74
0
42
0.000000001
43
0.0000000001
44
0.0000000001
40
0
40
0
40
0
40
0
40
1
40
1
40
1
40
1
41
1
41
1
41
1
41
1
10
-9.8719611011609381
20
-10.786042109948882
30
0
10
-9.9781045670700284
20
-10.655537848585247
30
0
10
-9.9920250216154791
20
-10.61899665540343
30
0
10
-9.9607039988882082
20
-10.559834723585247
30
0
0
SPLINE
5
575
100
AcDbEntity
8
0
100
AcDbSpline
70
4
71
3
72
8
73
4
74
0
42
0.000000001
43
0.0000000001
44
0.0000000001
40
0
40
0
40
0
40
0
40
1
40
1
40
1
40
1
41
1
41
1
41
1
41
1
10
-9.9607039988882082
20
-10.559834723585247
30
0
10
-9.9398233170700259
20
-10.521553473585248
30
0
10
-9.8423801352518439
20
-10.458911428130701
30
0
10
-9.7710378057063902
20
-10.438030746312519
30
0
0
SPLINE
5
576
100
AcDbEntity
8
0
100
AcDbSpline
70
4
71
3
72
8
73
4
74
0
42
0.000000001
43
0.0000000001
44
0.0000000001
40
0
40
0
40
0
40
0
40
1
40
1
40
1
40
1
41
1
41
1
41
1
41
1
10
-9.7710378057063902
20
-10.438030746312519
30
0
10
-9.7275363852518453
20
-10.425850348585248
30
0
10
-9.713615930706391
20
-10.431070519039793
30
0
10
-9.6596741693427539
20
-10.488492394039794
30
0
0
SPLINE
5
577
100
AcDbEntity
8
0
100
AcDbSpline
70
4
71
3
72
8
73
4
74
0
42
0.000000001
43
0.0000000001
44
0.0000000001
40
0
40
0
40
0
40
0
40
1
40
1
40
1
40
1
41
1
41
1
41
1
41
1
10
-9.6596741693427539
20
-10.488492394039794
30
0
10
-9.5900718966154823
20
-10.559834723585247
30
0
10
-9.475228146615482
20
-10.737320519039793
30
0
10
-9.2594611011609373
20
-11.100992394039793
30
0
0
SPLINE
5
578
100
AcDbEntity
8
0
100
AcDbSpline
70
4
71
3
72
8
73
4
74
0
42
0.000000001
43
0.0000000001
44
0.0000000001
40
0
40
0
40
0
40
0
40
1
40
1
40
1
40
1
41
1
41
1
41
1
41
1
10
-9.2594611011609373
20
-11.100992394039793
30
0
10
-9.1759383738882079
20
-11.24193699631252
30
0
10
-9.0941557034336657
20
-11.362000916767066
30
0
10
-9.0784951920700259
20
-11.368961144039792
30
0
0
SPLINE
5
579
100
AcDbEntity
8
0
100
AcDbSpline
70
4
71
3
72
8
73
4
74
0
42
0.000000001
43
0.0000000001
44
0.0000000001
40
0
40
0
40
0
40
0
40
1
40
1
40
1
40
1
41
1
41
1
41
1
41
1
10
-9.0784951920700259
20
-11.368961144039792
30
0
10
-9.0610946238882093
20
-11.374181314494338
30
0
10
-8.9097096807063902
20
-11.386361712221611
30
0
10
-8.7426642261609366
20
-11.395061996312521
30
0
0
SPLINE
5
580
100
AcDbEntity
8
0
100
AcDbSpline
70
4
71
3
72
8
73
4
74
0
42
0.000000001
43
0.0000000001
44
0.0000000001
40
0
40
0
40
0
40
0
40
1
40
1
40
1
40
1
41
1
41
1
41
1
41
1
10
-8.7426642261609366
20
-11.395061996312521
30
0
10
-8.4555548511609366
20
-11.407242394039793
30
0
10
-8.425973885251846
20
-11.412462564494339
30
0
10
-8.2067267261609373
20
-11.48032478040343
30
0
0
SPLINE
5
581
100
AcDbEntity
8
0
100
AcDbSpline
70
4
71
3
72
8
73
4
74
0
42
0.000000001
43
0.0000000001
44
0.0000000001
40
0
40
0
40
0
40
0
40
1
40
1
40
1
40
1
41
1
41
1
41
1
41
1
10
-8.2067267261609373
20
-11.48032478040343
30
0
10
-8.0779625216154827
20
-11.518606030403429
30
0
10
-7.9561585443427543
20
-11.551667109948882
30
0
10
-7.9352778625245737
20
-11.551667109948882
30
0
0
SPLINE
5
582
100
AcDbEntity
8
0
100
AcDbSpline
70
4
71
3
72
8
73
4
74
0
42
0.000000001
43
0.0000000001
44
0.0000000001
40
0
40
0
40
0
40
0
40
1
40
1
40
1
40
1
41
1
41
1
41
1
41
1
10
-7.9352778625245737
20
-11.551667109948882
30
0
10
-7.9126571238882093
20
-11.551667109948882
30
0
10
-7.8604554193427552
20
-11.513385859948885
30
0
10
-7.8030335443427559
20
-11.454223928130704
30
0
0
SPLINE
5
583
100
AcDbEntity
8
0
100
AcDbSpline
70
4
71
3
72
8
73
4
74
0
42
0.000000001
43
0.0000000001
44
0.0000000001
40
0
40
0
40
0
40
0
40
1
40
1
40
1
40
1
41
1
41
1
41
1
41
1
10
-7.8030335443427559
20
-11.454223928130704
30
0
10
-7.6638289988882109
20
-11.311539269039793
30
0
10
-7.227074737524573
20
-10.916546371312521
30
0
10
-7.1522522943427544
20
-10.866084723585248
30
0
0
SPLINE
5
584
100
AcDbEntity
8
0
100
AcDbSpline
70
4
71
3
72
8
73
4
74
0
42
0.000000001
43
0.0000000001
44
0.0000000001
40
0
40
0
40
0
40
0
40
1
40
1
40
1
40
1
41
1
41
1
41
1
41
1
10
-7.1522522943427544
20
-10.866084723585248
30
0
10
-7.1139710443427546
20
-10.841723928130703
30
0
10
-7.0756897943427557
20
-10.827803473585249
30
0
10
-7.0582892261609382
20
-10.833023644039795
30
0
0
SPLINE
5
585
100
AcDbEntity
8
0
100
AcDbSpline
70
4
71
3
72
8
73
4
74
0
42
0.000000001
43
0.0000000001
44
0.0000000001
40
0
40
0
40
0
40
0
40
1
40
1
40
1
40
1
41
1
41
1
41
1
41
1
10
-7.0582892261609382
20
-10.833023644039795
30
0
10
-6.9765065557063934
20
-10.862604609948885
30
0
10
-6.8721031466154825
20
-11.007029325857975
30
0
10
-6.8877636579791197
20
-11.06967137131252
30
0
0
SPLINE
5
586
100
AcDbEntity
8
0
100
AcDbSpline
70
4
71
3
72
8
73
4
74
0
42
0.000000001
43
0.0000000001
44
0.0000000001
40
0
40
0
40
0
40
0
40
1
40
1
40
1
40
1
41
1
41
1
41
1
41
1
10
-6.8877636579791197
20
-11.06967137131252
30
0
10
-6.8929838284336649
20
-11.092292109948884
30
0
10
-6.9347451920700278
20
-11.135793530403431
30
0
10
-6.9799866693427557
20
-11.168854609948882
30
0
0
SPLINE
5
587
100
AcDbEntity
8
0
100
AcDbSpline
70
4
71
3
72
8
73
4
74
0
42
0.000000001
43
0.0000000001
44
0.0000000001
40
0
40
0
40
0
40
0
40
1
40
1
40
1
40
1
41
1
41
1
41
1
41
1
10
-6.9799866693427557
20
-11.168854609948882
30
0
10
-7.098310532979121
20
-11.252377337221612
30
0
10
-7.4967835443427546
20
-11.610829041767067
30
0
10
-7.5611656466154828
20
-11.692611712221611
30
0
0
SPLINE
5
588
100
AcDbEntity
8
0
100
AcDbSpline
70
4
71
3
72
8
73
4
74
0
42
0.000000001
43
0.0000000001
44
0.0000000001
40
0
40
0
40
0
40
0
40
1
40
1
40
1
40
1
41
1
41
1
41
1
41
1
10
-7.5611656466154828
20
-11.692611712221611
30
0
10
-7.6220676352518453
20
-11.769174212221611
30
0
10
-7.6220676352518453
20
-11.774394382676157
30
0
10
-7.5594255897973017
20
-11.977981030403429
30
0
0
SPLINE
5
589
100
AcDbEntity
8
0
100
AcDbSpline
70
4
71
3
72
8
73
4
74
0
42
0.000000001
43
0.0000000001
44
0.0000000001
40
0
40
0
40
0
40
0
40
1
40
1
40
1
40
1
41
1
41
1
41
1
41
1
10
-7.5594255897973017
20
-11.977981030403429
30
0
10
-7.5037437716154836
20
-12.164167109948883
30
0
10
-7.4550221807063926
20
-12.520878757676154
30
0
10
-7.4393616693427553
20
-12.839309155403427
30
0
0
SPLINE
5
590
100
AcDbEntity
8
0
100
AcDbSpline
70
4
71
3
72
8
73
4
74
0
42
0.000000001
43
0.0000000001
44
0.0000000001
40
0
40
0
40
0
40
0
40
1
40
1
40
1
40
1
41
1
41
1
41
1
41
1
10
-7.4393616693427553
20
-12.839309155403427
30
0
10
-7.4254412147973001
20
-13.168179894039792
30
0
10
-7.4115207602518467
20
-13.213421371312519
30
0
10
-7.3088574079791195
20
-13.263883019039792
30
0
0
SPLINE
5
591
100
AcDbEntity
8
0
100
AcDbSpline
70
4
71
3
72
8
73
4
74
0
42
0.000000001
43
0.0000000001
44
0.0000000001
40
0
40
0
40
0
40
0
40
1
40
1
40
1
40
1
41
1
41
1
41
1
41
1
10
-7.3088574079791195
20
-13.263883019039792
30
0
10
-7.2444753057063922
20
-13.295204041767066
30
0
10
-7.227074737524573
20
-13.296944098585247
30
0
10
-7.0130477488882104
20
-13.276063416767064
30
0
0
SPLINE
5
592
100
AcDbEntity
8
0
100
AcDbSpline
70
4
71
3
72
8
73
4
74
0
42
0.000000001
43
0.0000000001
44
0.0000000001
40
0
40
0
40
0
40
0
40
1
40
1
40
1
40
1
41
1
41
1
41
1
41
1
10
-7.0130477488882104
20
-13.276063416767064
30
0
10
-6.753779282979119
20
-13.251702621312521
30
0
10
-6.5310520102518463
20
-13.269103189494338
30
0
10
-6.4388289988882113
20
-13.323044950857975
30
0
0
SPLINE
5
593
100
AcDbEntity
8
0
100
AcDbSpline
70
4
71
3
72
8
73
4
74
0
42
0.000000001
43
0.0000000001
44
0.0000000001
40
0
40
0
40
0
40
0
40
1
40
1
40
1
40
1
41
1
41
1
41
1
41
1
10
-6.4388289988882113
20
-13.323044950857975
30
0
10
-6.3640065557063918
20
-13.36654637131252
30
0
10
-6.3205051352518469
20
-13.463989553130702
30
0
10
-6.3100647943427548
20
-13.617114553130701
30
0
0
SPLINE
5
594
100
AcDbEntity
8
0
100
AcDbSpline
70
4
71
3
72
8
73
4
74
0
42
0.000000001
43
0.0000000001
44
0.0000000001
40
0
40
0
40
0
40
0
40
1
40
1
40
1
40
1
41
1
41
1
41
1
41
1
10
-6.3100647943427548
20
-13.617114553130701
30
0
10
-6.2996244534336654
20
-13.777199780403429
30
0
10
-6.3344255897973021
20
-13.881603189494339
30
0
10
-6.424908544342756
20
-13.94946540540343
30
0
0
SPLINE
5
595
100
AcDbEntity
8
0
100
AcDbSpline
70
4
71
3
72
8
73
4
74
0
42
0.000000001
43
0.0000000001
44
0.0000000001
40
0
40
0
40
0
40
0
40
1
40
1
40
1
40
1
41
1
41
1
41
1
41
1
10
-6.424908544342756
20
-13.94946540540343
30
0
10
-6.4840704761609382
20
-13.994706882676155
30
0
10
-6.4945108170700276
20
-13.996446939494337
30
0
10
-6.6789568397973014
20
-13.994706882676155
30
0
0
SPLINE
5
596
100
AcDbEntity
8
0
100
AcDbSpline
70
4
71
3
72
8
73
4
74
0
42
0.000000001
43
0.0000000001
44
0.0000000001
40
0
40
0
40
0
40
0
40
1
40
1
40
1
40
1
41
1
41
1
41
1
41
1
10
-6.6789568397973014
20
-13.994706882676155
30
0
10
-6.8007608170700289
20
-13.992966825857975
30
0
10
-6.9069042829791192
20
-13.982526484948885
30
0
10
-6.9678062716154843
20
-13.963385859948881
30
0
0
SPLINE
5
597
100
AcDbEntity
8
0
100
AcDbSpline
70
4
71
3
72
8
73
4
74
0
42
0.000000001
43
0.0000000001
44
0.0000000001
40
0
40
0
40
0
40
0
40
1
40
1
40
1
40
1
41
1
41
1
41
1
41
1
10
-6.9678062716154843
20
-13.963385859948881
30
0
10
-7.1766130897973026
20
-13.902483871312519
30
0
10
-7.2670960443427557
20
-13.881603189494339
30
0
10
-7.289716782979121
20
-13.890303473585247
30
0
0
SPLINE
5
598
100
AcDbEntity
8
0
100
AcDbSpline
70
4
71
3
72
8
73
4
74
0
42
0.000000001
43
0.0000000001
44
0.0000000001
40
0
40
0
40
0
40
0
40
1
40
1
40
1
40
1
41
1
41
1
41
1
41
1
10
-7.289716782979121
20
-13.890303473585247
30
0
10
-7.3071173511609375
20
-13.897263700857973
30
0
10
-7.3036372375245735
20
-13.921624496312518
30
0
10
-7.2723162147973026
20
-14.010367394039791
30
0
0
SPLINE
5
599
100
AcDbEntity
8
0
100
AcDbSpline
70
4
71
3
72
8
73
4
74
0
42
0.000000001
43
0.0000000001
44
0.0000000001
40
0
40
0
40
0
40
0
40
1
40
1
40
1
40
1
41
1
41
1
41
1
41
1
10
-7.2723162147973026
20
-14.010367394039791
30
0
10
-7.2496954761609382
20
-14.073009439494337
30
0
10
-7.235775021615483
20
-14.128691257676154
30
0
10
-7.2409951920700282
20
-14.133911428130702
30
0
0
SPLINE
5
600
100
AcDbEntity
8
0
100
AcDbSpline
70
4
71
3
72
8
73
4
74
0
42
0.000000001
43
0.0000000001
44
0.0000000001
40
0
40
0
40
0
40
0
40
1
40
1
40
1
40
1
41
1
41
1
41
1
41
1
10
-7.2409951920700282
20
-14.133911428130702
30
0
10
-7.2618758738882114
20
-14.154792109948882
30
0
10
-7.3262579761609379
20
-14.142611712221612
30
0
10
-7.37671962388821
20
-14.109550632676154
30
0
0
SPLINE
5
601
100
AcDbEntity
8
0
100
AcDbSpline
70
4
71
3
72
8
73
4
74
0
42
0.000000001
43
0.0000000001
44
0.0000000001
40
0
40
0
40
0
40
0
40
1
40
1
40
1
40
1
41
1
41
1
41
1
41
1
10
-7.37671962388821
20
-14.109550632676154
30
0
10
-7.4045605329791204
20
-14.090410007676157
30
0
10
-7.4341414988882102
20
-14.074749496312517
30
0
10
-7.4393616693427553
20
-14.074749496312517
30
0
0
SPLINE
5
602
100
AcDbEntity
8
0
100
AcDbSpline
70
4
71
3
72
8
73
4
74
0
42
0.000000001
43
0.0000000001
44
0.0000000001
40
0
40
0
40
0
40
0
40
1
40
1
40
1
40
1
41
1
41
1
41
1
41
1
10
-7.4393616693427553
20
-14.074749496312517
30
0
10
-7.4445818397973023
20
-14.074749496312517
30
0
10
-7.4376216125245742
20
-14.121731030403428
30
0
10
-7.421961101160937
20
-14.177412848585249
30
0
0
SPLINE
5
603
100
AcDbEntity
8
0
100
AcDbSpline
70
4
71
3
72
8
73
4
74
0
42
0.000000001
43
0.0000000001
44
0.0000000001
40
0
40
0
40
0
40
0
40
1
40
1
40
1
40
1
41
1
41
1
41
1
41
1
10
-7.421961101160937
20
-14.177412848585249
30
0
10
-7.3558389420700285
20
-14.433201200857972
30
0
10
-7.5089639420700278
20
-14.753371655403427
30
0
10
-7.7299511579791194
20
-14.819493814494338
30
0
0
CIRCLE
5
604
100
AcDbEntity
8
0
100
AcDbCircle
10
-12.295868011472487
20
-14.35446048258458
30
0
40
0.10500000000000005
210
0
220
-0
230
1
0
SPLINE
5
605
100
AcDbEntity
8
0
100
AcDbSpline
70
4
71
3
72
8
73
4
74
0
42
0.000000001
43
0.0000000001
44
0.0000000001
40
0
40
0
40
0
40
0
40
1
40
1
40
1
40
1
41
1
41
1
41
1
41
1
10
-12.546141732586891
20
-12.913855678146035
30
0
10
-12.546141732586891
20
-12.992158234964217
30
0
10
-12.542661618950527
20
-13.056540337236942
30
0
10
-12.537441448495983
20
-13.056540337236942
30
0
0
SPLINE
5
606
100
AcDbEntity
8
0
100
AcDbSpline
70
4
71
3
72
8
73
4
74
0
42
0.000000001
43
0.0000000001
44
0.0000000001
40
0
40
0
40
0
40
0
40
1
40
1
40
1
40
1
41
1
41
1
41
1
41
1
10
-12.537441448495983
20
-13.056540337236942
30
0
10
-12.532221278041435
20
-13.056540337236942
30
0
10
-12.473059346223256
20
-13.025219314509672
30
0
10
-12.408677243950528
20
-12.988678121327853
30
0
0
LINE
5
607
100
AcDbEntity
8
0
100
AcDbLine
10
-12.408677243950526
20
-12.988678121327853
30
0
11
-12.288613323495982
21
-12.920815905418761
31
0
0
LINE
5
608
100
AcDbEntity
8
0
100
AcDbLine
10
-12.288613323495982
20
-12.920815905418761
30
0
11
-12.170289459859621
21
-12.988678121327853
31
0
0
SPLINE
5
609
100
AcDbEntity
8
0
100
AcDbSpline
70
4
71
3
72
8
73
4
74
0
42
0.000000001
43
0.0000000001
44
0.0000000001
40
0
40
0
40
0
40
0
40
1
40
1
40
1
40
1
41
1
41
1
41
1
41
1
10
-12.170289459859621
20
-12.988678121327853
30
0
10
-12.10416730076871
20
-13.025219314509672
30
0
10
-12.04500536895053
20
-13.054800280418762
30
0
10
-12.036305084859618
20
-13.056540337236942
30
0
0
SPLINE
5
610
100
AcDbEntity
8
0
100
AcDbSpline
70
4
71
3
72
8
73
4
74
0
42
0.000000001
43
0.0000000001
44
0.0000000001
40
0
40
0
40
0
40
0
40
1
40
1
40
1
40
1
41
1
41
1
41
1
41
1
10
-12.036305084859618
20
-13.056540337236942
30
0
10
-12.029344857586892
20
-13.056540337236942
30
0
10
-12.024124687132348
20
-12.992158234964217
30
0
10
-12.024124687132348
20
-12.912115621327853
30
0
0
LINE
5
611
100
AcDbEntity
8
0
100
AcDbLine
10
-12.024124687132348
20
-12.912115621327853
30
0
11
-12.024124687132348
21
-12.767690905418762
31
0
0
LINE
5
612
100
AcDbEntity
8
0
100
AcDbLine
10
-12.024124687132348
20
-12.767690905418762
30
0
11
-11.763116164405075
21
-12.614565905418763
31
0
0
LINE
5
613
100
AcDbEntity
8
0
100
AcDbLine
10
-11.763116164405075
20
-12.614565905418763
30
0
11
-11.8274982666778
21
-12.572804541782398
31
0
0
SPLINE
5
614
100
AcDbEntity
8
0
100
AcDbSpline
70
4
71
3
72
8
73
4
74
0
42
0.000000001
43
0.0000000001
44
0.0000000001
40
0
40
0
40
0
40
0
40
1
40
1
40
1
40
1
41
1
41
1
41
1
41
1
10
-11.8274982666778
20
-12.572804541782398
30
0
10
-11.864039459859621
20
-12.551923859964216
30
0
10
-11.9232013916778
20
-12.517122723600581
30
0
10
-11.958002528041439
20
-12.496242041782399
30
0
0
LINE
5
615
100
AcDbEntity
8
0
100
AcDbLine
10
-11.958002528041439
20
-12.496242041782399
30
0
11
-12.024124687132348
21
-12.457960791782398
31
0
0
LINE
5
616
100
AcDbEntity
8
0
100
AcDbLine
10
-12.024124687132348
20
-12.457960791782398
30
0
11
-12.024124687132348
21
-12.313536075873309
31
0
0
SPLINE
5
617
100
AcDbEntity
8
0
100
AcDbSpline
70
4
71
3
72
8
73
4
74
0
42
0.000000001
43
0.0000000001
44
0.0000000001
40
0
40
0
40
0
40
0
40
1
40
1
40
1
40
1
41
1
41
1
41
1
41
1
10
-12.024124687132348
20
-12.313536075873309
30
0
10
-12.024124687132348
20
-12.233493462236943
30
0
10
-12.02760480076871
20
-12.169111359964218
30
0
10
-12.032824971223256
20
-12.169111359964218
30
0
0
SPLINE
5
618
100
AcDbEntity
8
0
100
AcDbSpline
70
4
71
3
72
8
73
4
74
0
42
0.000000001
43
0.0000000001
44
0.0000000001
40
0
40
0
40
0
40
0
40
1
40
1
40
1
40
1
41
1
41
1
41
1
41
1
10
-12.032824971223256
20
-12.169111359964218
30
0
10
-12.038045141677802
20
-12.169111359964218
30
0
10
-12.097207073495982
20
-12.200432382691488
30
0
10
-12.163329232586891
20
-12.236973575873309
30
0
0
LINE
5
619
100
AcDbEntity
8
0
100
AcDbLine
10
-12.163329232586891
20
-12.236973575873309
30
0
11
-12.285133209859616
21
-12.306575848600582
31
0
0
LINE
5
620
100
AcDbEntity
8
0
100
AcDbLine
10
-12.285133209859616
20
-12.306575848600582
30
0
11
-12.406937187132346
21
-12.236973575873309
31
0
0
SPLINE
5
621
100
AcDbEntity
8
0
100
AcDbSpline
70
4
71
3
72
8
73
4
74
0
42
0.000000001
43
0.0000000001
44
0.0000000001
40
0
40
0
40
0
40
0
40
1
40
1
40
1
40
1
41
1
41
1
41
1
41
1
10
-12.406937187132348
20
-12.236973575873309
30
0
10
-12.473059346223256
20
-12.200432382691488
30
0
10
-12.532221278041435
20
-12.169111359964218
30
0
10
-12.537441448495983
20
-12.169111359964218
30
0
0
SPLINE
5
622
100
AcDbEntity
8
0
100
AcDbSpline
70
4
71
3
72
8
73
4
74
0
42
0.000000001
43
0.0000000001
44
0.0000000001
40
0
40
0
40
0
40
0
40
1
40
1
40
1
40
1
41
1
41
1
41
1
41
1
10
-12.537441448495983
20
-12.169111359964218
30
0
10
-12.542661618950527
20
-12.169111359964218
30
0
10
-12.546141732586891
20
-12.233493462236943
30
0
10
-12.546141732586891
20
-12.313536075873309
30
0
0
LINE
5
623
100
AcDbEntity
8
0
100
AcDbLine
10
-12.546141732586893
20
-12.313536075873309
30
0
11
-12.546141732586891
21
-12.456220734964216
31
0
0
LINE
5
624
100
AcDbEntity
8
0
100
AcDbLine
10
-12.546141732586891
20
-12.456220734964216
30
0
11
-12.676645993950526
21
-12.531043178146035
31
0
0
SPLINE
5
625
100
AcDbEntity
8
0
100
AcDbSpline
70
4
71
3
72
8
73
4
74
0
42
0.000000001
43
0.0000000001
44
0.0000000001
40
0
40
0
40
0
40
0
40
1
40
1
40
1
40
1
41
1
41
1
41
1
41
1
10
-12.676645993950528
20
-12.531043178146035
30
0
10
-12.74798832349598
20
-12.572804541782398
30
0
10
-12.807150255314168
20
-12.609345734964217
30
0
10
-12.807150255314168
20
-12.612825848600581
30
0
0
SPLINE
5
626
100
AcDbEntity
8
0
100
AcDbSpline
70
4
71
3
72
8
73
4
74
0
42
0.000000001
43
0.0000000001
44
0.0000000001
40
0
40
0
40
0
40
0
40
1
40
1
40
1
40
1
41
1
41
1
41
1
41
1
10
-12.807150255314168
20
-12.612825848600581
30
0
10
-12.807150255314168
20
-12.616305962236943
30
0
10
-12.74798832349598
20
-12.652847155418764
30
0
10
-12.676645993950528
20
-12.694608519055125
30
0
0
LINE
5
627
100
AcDbEntity
8
0
100
AcDbLine
10
-12.676645993950528
20
-12.694608519055128
30
0
11
-12.546141732586893
21
-12.769430962236942
31
0
0
LINE
5
628
100
AcDbEntity
8
0
100
AcDbLine
10
-12.546141732586893
20
-12.769430962236942
30
0
11
-12.546141732586891
21
-12.913855678146035
31
0
0
SPLINE
5
629
100
AcDbEntity
8
0
100
AcDbSpline
70
4
71
3
72
8
73
4
74
0
42
0.000000001
43
0.0000000001
44
0.0000000001
40
0
40
0
40
0
40
0
40
1
40
1
40
1
40
1
41
1
41
1
41
1
41
1
10
-12.213790880314166
20
-14.775716473600582
30
0
10
-12.295573550768708
20
-14.822698007691487
30
0
10
-12.295573550768708
20
-14.822698007691487
30
0
10
-12.375616164405074
20
-14.768756246327854
30
0
0
SPLINE
5
630
100
AcDbEntity
8
0
100
AcDbSpline
70
4
71
3
72
8
73
4
74
0
42
0.000000001
43
0.0000000001
44
0.0000000001
40
0
40
0
40
0
40
0
40
1
40
1
40
1
40
1
41
1
41
1
41
1
41
1
10
-12.375616164405074
20
-14.768756246327854
30
0
10
-12.438258209859619
20
-14.728734939509671
30
0
10
-12.441738323495985
20
-14.721774712236945
30
0
10
-12.441738323495985
20
-14.631291757691489
30
0
0
LINE
5
631
100
AcDbEntity
8
0
100
AcDbLine
10
-12.441738323495985
20
-14.631291757691486
30
0
11
-12.441738323495985
21
-14.537328689509669
31
0
0
LINE
5
632
100
AcDbEntity
8
0
100
AcDbLine
10
-12.441738323495985
20
-14.537328689509669
30
0
11
-12.605303664405074
21
-14.631291757691489
31
0
0
SPLINE
5
633
100
AcDbEntity
8
0
100
AcDbSpline
70
4
71
3
72
8
73
4
74
0
42
0.000000001
43
0.0000000001
44
0.0000000001
40
0
40
0
40
0
40
0
40
1
40
1
40
1
40
1
41
1
41
1
41
1
41
1
10
-12.605303664405074
20
-14.631291757691489
30
0
10
-12.695786618950528
20
-14.683493462236942
30
0
10
-12.77408917576871
20
-14.726994882691487
30
0
10
-12.779309346223256
20
-14.726994882691487
30
0
0
SPLINE
5
634
100
AcDbEntity
8
0
100
AcDbSpline
70
4
71
3
72
8
73
4
74
0
42
0.000000001
43
0.0000000001
44
0.0000000001
40
0
40
0
40
0
40
0
40
1
40
1
40
1
40
1
41
1
41
1
41
1
41
1
10
-12.779309346223256
20
-14.726994882691487
30
0
10
-12.786269573495982
20
-14.726994882691487
30
0
10
-12.789749687132348
20
-14.653912496327852
30
0
10
-12.789749687132348
20
-14.563429541782398
30
0
0
LINE
5
635
100
AcDbEntity
8
0
100
AcDbLine
10
-12.789749687132348
20
-14.563429541782398
30
0
11
-12.789749687132348
21
-14.399864200873308
31
0
0
LINE
5
636
100
AcDbEntity
8
0
100
AcDbLine
10
-12.789749687132348
20
-14.399864200873308
30
0
11
-12.441738323495983
21
-14.198017609964218
31
0
0
LINE
5
637
100
AcDbEntity
8
0
100
AcDbLine
10
-12.441738323495983
20
-14.198017609964218
30
0
11
-12.441738323495985
21
-14.104054541782398
31
0
0
SPLINE
5
638
100
AcDbEntity
8
0
100
AcDbSpline
70
4
71
3
72
8
73
4
74
0
42
0.000000001
43
0.0000000001
44
0.0000000001
40
0
40
0
40
0
40
0
40
1
40
1
40
1
40
1
41
1
41
1
41
1
41
1
10
-12.441738323495985
20
-14.104054541782398
30
0
10
-12.441738323495985
20
-14.010091473600582
30
0
10
-12.441738323495985
20
-14.010091473600582
30
0
10
-12.480019573495982
20
-14.034452269055125
30
0
0
SPLINE
5
639
100
AcDbEntity
8
0
100
AcDbSpline
70
4
71
3
72
8
73
4
74
0
42
0.000000001
43
0.0000000001
44
0.0000000001
40
0
40
0
40
0
40
0
40
1
40
1
40
1
40
1
41
1
41
1
41
1
41
1
10
-12.480019573495982
20
-14.034452269055125
30
0
10
-12.55658207349598
20
-14.083173859964216
30
0
10
-12.770609062132348
20
-14.204977837236942
30
0
10
-12.779309346223256
20
-14.204977837236942
30
0
0
SPLINE
5
640
100
AcDbEntity
8
0
100
AcDbSpline
70
4
71
3
72
8
73
4
74
0
42
0.000000001
43
0.0000000001
44
0.0000000001
40
0
40
0
40
0
40
0
40
1
40
1
40
1
40
1
41
1
41
1
41
1
41
1
10
-12.779309346223256
20
-14.204977837236942
30
0
10
-12.784529516677798
20
-14.204977837236942
30
0
10
-12.789749687132348
20
-14.131895450873307
30
0
10
-12.789749687132348
20
-14.041412496327853
30
0
0
LINE
5
641
100
AcDbEntity
8
0
100
AcDbLine
10
-12.789749687132344
20
-14.041412496327853
30
0
11
-12.789749687132348
21
-13.877847155418763
31
0
0
LINE
5
642
100
AcDbEntity
8
0
100
AcDbLine
10
-12.789749687132348
20
-13.877847155418763
30
0
11
-12.615744005314166
21
-13.776923859964217
31
0
0
LINE
5
643
100
AcDbEntity
8
0
100
AcDbLine
10
-12.615744005314166
20
-13.776923859964217
30
0
11
-12.441738323495985
21
-13.674260507691489
31
0
0
LINE
5
644
100
AcDbEntity
8
0
100
AcDbLine
10
-12.441738323495985
20
-13.674260507691489
30
0
11
-12.441738323495985
21
-13.470673859964217
31
0
0
SPLINE
5
645
100
AcDbEntity
8
0
100
AcDbSpline
70
4
71
3
72
8
73
4
74
0
42
0.000000001
43
0.0000000001
44
0.0000000001
40
0
40
0
40
0
40
0
40
1
40
1
40
1
40
1
41
1
41
1
41
1
41
1
10
-12.441738323495985
20
-13.470673859964217
30
0
10
-12.441738323495985
20
-13.357570166782399
30
0
10
-12.445218437132343
20
-13.265347155418761
30
0
10
-12.450438607586893
20
-13.265347155418761
30
0
0
SPLINE
5
646
100
AcDbEntity
8
0
100
AcDbSpline
70
4
71
3
72
8
73
4
74
0
42
0.000000001
43
0.0000000001
44
0.0000000001
40
0
40
0
40
0
40
0
40
1
40
1
40
1
40
1
41
1
41
1
41
1
41
1
10
-12.450438607586893
20
-13.265347155418761
30
0
10
-12.457398834859621
20
-13.265347155418761
30
0
10
-12.483499687132348
20
-13.277527553146035
30
0
10
-12.511340596223254
20
-13.291448007691489
30
0
0
SPLINE
5
647
100
AcDbEntity
8
0
100
AcDbSpline
70
4
71
3
72
8
73
4
74
0
42
0.000000001
43
0.0000000001
44
0.0000000001
40
0
40
0
40
0
40
0
40
1
40
1
40
1
40
1
41
1
41
1
41
1
41
1
10
-12.511340596223254
20
-13.291448007691489
30
0
10
-12.55658207349598
20
-13.315808803146036
30
0
10
-12.561802243950529
20
-13.324509087236944
30
0
10
-12.560062187132345
20
-13.40629175769149
30
0
0
SPLINE
5
648
100
AcDbEntity
8
0
100
AcDbSpline
70
4
71
3
72
8
73
4
74
0
42
0.000000001
43
0.0000000001
44
0.0000000001
40
0
40
0
40
0
40
0
40
1
40
1
40
1
40
1
41
1
41
1
41
1
41
1
10
-12.560062187132345
20
-13.40629175769149
30
0
10
-12.558322130314163
20
-13.489814484964217
30
0
10
-12.563542300768709
20
-13.501994882691488
30
0
10
-12.620964175768711
20
-13.554196587236943
30
0
0
SPLINE
5
649
100
AcDbEntity
8
0
100
AcDbSpline
70
4
71
3
72
8
73
4
74
0
42
0.000000001
43
0.0000000001
44
0.0000000001
40
0
40
0
40
0
40
0
40
1
40
1
40
1
40
1
41
1
41
1
41
1
41
1
10
-12.620964175768711
20
-13.554196587236943
30
0
10
-12.695786618950528
20
-13.623798859964216
30
0
10
-12.7653888916778
20
-13.630759087236944
30
0
10
-12.850651675768709
20
-13.578557382691487
30
0
0
SPLINE
5
650
100
AcDbEntity
8
0
100
AcDbSpline
70
4
71
3
72
8
73
4
74
0
42
0.000000001
43
0.0000000001
44
0.0000000001
40
0
40
0
40
0
40
0
40
1
40
1
40
1
40
1
41
1
41
1
41
1
41
1
10
-12.850651675768709
20
-13.578557382691487
30
0
10
-12.962015312132346
20
-13.508955109964218
30
0
10
-12.97419570985962
20
-13.359310223600581
30
0
10
-12.875012471223256
20
-13.275787496327853
30
0
0
SPLINE
5
651
100
AcDbEntity
8
0
100
AcDbSpline
70
4
71
3
72
8
73
4
74
0
42
0.000000001
43
0.0000000001
44
0.0000000001
40
0
40
0
40
0
40
0
40
1
40
1
40
1
40
1
41
1
41
1
41
1
41
1
10
-12.875012471223256
20
-13.275787496327853
30
0
10
-12.845431505314163
20
-13.251426700873306
30
0
10
-12.810630368950527
20
-13.230546019055124
30
0
10
-12.796709914405072
20
-13.230546019055124
30
0
0
SPLINE
5
652
100
AcDbEntity
8
0
100
AcDbSpline
70
4
71
3
72
8
73
4
74
0
42
0.000000001
43
0.0000000001
44
0.0000000001
40
0
40
0
40
0
40
0
40
1
40
1
40
1
40
1
41
1
41
1
41
1
41
1
10
-12.796709914405072
20
-13.230546019055124
30
0
10
-12.779309346223256
20
-13.230546019055124
30
0
10
-12.772349118950528
20
-13.207925280418761
30
0
10
-12.772349118950528
20
-13.145283234964216
30
0
0
LINE
5
653
100
AcDbEntity
8
0
100
AcDbLine
10
-12.772349118950528
20
-13.145283234964214
30
0
11
-12.772349118950528
21
-13.058280394055126
31
0
0
LINE
5
654
100
AcDbEntity
8
0
100
AcDbLine
10
-12.772349118950528
20
-13.058280394055126
30
0
11
-12.941134630314163
21
-13.15746363269149
31
0
0
LINE
5
655
100
AcDbEntity
8
0
100
AcDbLine
10
-12.941134630314163
20
-13.15746363269149
30
0
11
-13.111660198495983
21
-13.258386928146036
31
0
0
LINE
5
656
100
AcDbEntity
8
0
100
AcDbLine
10
-13.111660198495983
20
-13.258386928146036
30
0
11
-13.129060766677801
21
-13.682960791782399
31
0
0
LINE
5
657
100
AcDbEntity
8
0
100
AcDbLine
10
-13.129060766677801
20
-13.682960791782399
30
0
11
-13.266525255314166
21
-13.761263348600577
31
0
0
SPLINE
5
658
100
AcDbEntity
8
0
100
AcDbSpline
70
4
71
3
72
8
73
4
74
0
42
0.000000001
43
0.0000000001
44
0.0000000001
40
0
40
0
40
0
40
0
40
1
40
1
40
1
40
1
41
1
41
1
41
1
41
1
10
-13.266525255314166
20
-13.761263348600577
30
0
10
-13.34134769849598
20
-13.804764769055126
30
0
10
-13.405729800768709
20
-13.839565905418761
30
0
10
-13.409209914405075
20
-13.839565905418761
30
0
0
SPLINE
5
659
100
AcDbEntity
8
0
100
AcDbSpline
70
4
71
3
72
8
73
4
74
0
42
0.000000001
43
0.0000000001
44
0.0000000001
40
0
40
0
40
0
40
0
40
1
40
1
40
1
40
1
41
1
41
1
41
1
41
1
10
-13.409209914405075
20
-13.839565905418761
30
0
10
-13.412690028041437
20
-13.839565905418761
30
0
10
-13.416170141677803
20
-13.749082950873309
30
0
10
-13.416170141677803
20
-13.639459371327852
30
0
0
SPLINE
5
660
100
AcDbEntity
8
0
100
AcDbSpline
70
4
71
3
72
8
73
4
74
0
42
0.000000001
43
0.0000000001
44
0.0000000001
40
0
40
0
40
0
40
0
40
1
40
1
40
1
40
1
41
1
41
1
41
1
41
1
10
-13.416170141677803
20
-13.639459371327852
30
0
10
-13.416170141677803
20
-13.5298357917824
30
0
10
-13.419650255314163
20
-13.439352837236942
30
0
10
-13.423130368950529
20
-13.439352837236942
30
0
0
SPLINE
5
661
100
AcDbEntity
8
0
100
AcDbSpline
70
4
71
3
72
8
73
4
74
0
42
0.000000001
43
0.0000000001
44
0.0000000001
40
0
40
0
40
0
40
0
40
1
40
1
40
1
40
1
41
1
41
1
41
1
41
1
10
-13.423130368950529
20
-13.439352837236942
30
0
10
-13.426610482586891
20
-13.439352837236942
30
0
10
-13.46489173258689
20
-13.460233519055127
30
0
10
-13.510133209859616
20
-13.484594314509671
30
0
0
LINE
5
662
100
AcDbEntity
8
0
100
AcDbLine
10
-13.510133209859616
20
-13.484594314509671
30
0
11
-13.590175823495981
21
-13.529835791782396
31
0
0
LINE
5
663
100
AcDbEntity
8
0
100
AcDbLine
10
-13.590175823495981
20
-13.529835791782396
30
0
11
-13.590175823495981
21
-13.952669598600579
31
0
0
LINE
5
664
100
AcDbEntity
8
0
100
AcDbLine
10
-13.590175823495981
20
-13.952669598600579
30
0
11
-13.717199971223256
21
-14.022271871327851
31
0
0
SPLINE
5
665
100
AcDbEntity
8
0
100
AcDbSpline
70
4
71
3
72
8
73
4
74
0
42
0.000000001
43
0.0000000001
44
0.0000000001
40
0
40
0
40
0
40
0
40
1
40
1
40
1
40
1
41
1
41
1
41
1
41
1
10
-13.717199971223256
20
-14.022271871327851
30
0
10
-13.785062187132345
20
-14.060553121327853
30
0
10
-13.84770423258689
20
-14.09535425769149
30
0
10
-13.85466445985962
20
-14.097094314509672
30
0
0
SPLINE
5
666
100
AcDbEntity
8
0
100
AcDbSpline
70
4
71
3
72
8
73
4
74
0
42
0.000000001
43
0.0000000001
44
0.0000000001
40
0
40
0
40
0
40
0
40
1
40
1
40
1
40
1
41
1
41
1
41
1
41
1
10
-13.85466445985962
20
-14.097094314509672
30
0
10
-13.863364743950525
20
-14.100574428146032
30
0
10
-13.868584914405075
20
-14.013571587236942
30
0
10
-13.868584914405075
20
-13.902207950873308
30
0
0
SPLINE
5
667
100
AcDbEntity
8
0
100
AcDbSpline
70
4
71
3
72
8
73
4
74
0
42
0.000000001
43
0.0000000001
44
0.0000000001
40
0
40
0
40
0
40
0
40
1
40
1
40
1
40
1
41
1
41
1
41
1
41
1
10
-13.868584914405075
20
-13.902207950873308
30
0
10
-13.868584914405075
20
-13.790844314509672
30
0
10
-13.872065028041437
20
-13.700361359964216
30
0
10
-13.877285198495983
20
-13.700361359964216
30
0
0
SPLINE
5
668
100
AcDbEntity
8
0
100
AcDbSpline
70
4
71
3
72
8
73
4
74
0
42
0.000000001
43
0.0000000001
44
0.0000000001
40
0
40
0
40
0
40
0
40
1
40
1
40
1
40
1
41
1
41
1
41
1
41
1
10
-13.877285198495983
20
-13.700361359964216
30
0
10
-13.880765312132345
20
-13.700361359964216
30
0
10
-13.922526675768708
20
-13.72298209860058
30
0
10
-13.969508209859619
20
-13.750823007691489
30
0
0
LINE
5
669
100
AcDbEntity
8
0
100
AcDbLine
10
-13.969508209859619
20
-13.750823007691489
30
0
11
-14.053030937132345
21
-13.79954459860058
31
0
0
LINE
5
670
100
AcDbEntity
8
0
100
AcDbLine
10
-14.053030937132345
20
-13.79954459860058
30
0
11
-14.126113323495984
21
-13.757783234964219
31
0
0
SPLINE
5
671
100
AcDbEntity
8
0
100
AcDbSpline
70
4
71
3
72
8
73
4
74
0
42
0.000000001
43
0.0000000001
44
0.0000000001
40
0
40
0
40
0
40
0
40
1
40
1
40
1
40
1
41
1
41
1
41
1
41
1
10
-14.126113323495984
20
-13.757783234964219
30
0
10
-14.195715596223257
20
-13.716021871327852
30
0
10
-14.19919570985962
20
-13.710801700873306
30
0
10
-14.19919570985962
20
-13.630759087236944
30
0
0
SPLINE
5
672
100
AcDbEntity
8
0
100
AcDbSpline
70
4
71
3
72
8
73
4
74
0
42
0.000000001
43
0.0000000001
44
0.0000000001
40
0
40
0
40
0
40
0
40
1
40
1
40
1
40
1
41
1
41
1
41
1
41
1
10
-14.19919570985962
20
-13.630759087236944
30
0
10
-14.19919570985962
20
-13.547236359964216
30
0
10
-14.197455653041438
20
-13.545496303146034
30
0
10
-14.110452812132344
20
-13.495034655418763
30
0
0
LINE
5
673
100
AcDbEntity
8
0
100
AcDbLine
10
-14.11045281213234
20
-13.49503465541876
30
0
11
-14.021709914405072
21
-13.444573007691488
31
0
0
LINE
5
674
100
AcDbEntity
8
0
100
AcDbLine
10
-14.021709914405072
20
-13.444573007691488
30
0
11
-14.197455653041434
21
-13.343649712236944
31
0
0
SPLINE
5
675
100
AcDbEntity
8
0
100
AcDbSpline
70
4
71
3
72
8
73
4
74
0
42
0.000000001
43
0.0000000001
44
0.0000000001
40
0
40
0
40
0
40
0
40
1
40
1
40
1
40
1
41
1
41
1
41
1
41
1
10
-14.197455653041438
20
-13.343649712236944
30
0
10
-14.293158778041436
20
-13.289707950873307
30
0
10
-14.373201391677801
20
-13.240986359964216
30
0
10
-14.373201391677801
20
-13.239246303146032
30
0
0
SPLINE
5
676
100
AcDbEntity
8
0
100
AcDbSpline
70
4
71
3
72
8
73
4
74
0
42
0.000000001
43
0.0000000001
44
0.0000000001
40
0
40
0
40
0
40
0
40
1
40
1
40
1
40
1
41
1
41
1
41
1
41
1
10
-14.373201391677801
20
-13.239246303146032
30
0
10
-14.373201391677801
20
-13.23402613269149
30
0
10
-14.131333493950526
20
-13.094821587236943
30
0
10
-14.093052243950526
20
-13.077421019055125
30
0
0
SPLINE
5
677
100
AcDbEntity
8
0
100
AcDbSpline
70
4
71
3
72
8
73
4
74
0
42
0.000000001
43
0.0000000001
44
0.0000000001
40
0
40
0
40
0
40
0
40
1
40
1
40
1
40
1
41
1
41
1
41
1
41
1
10
-14.093052243950526
20
-13.077421019055125
30
0
10
-14.087832073495981
20
-13.075680962236943
30
0
10
-14.007789459859618
20
-13.115702269055125
30
0
10
-13.915566448495982
20
-13.169644030418763
30
0
0
SPLINE
5
678
100
AcDbEntity
8
0
100
AcDbSpline
70
4
71
3
72
8
73
4
74
0
42
0.000000001
43
0.0000000001
44
0.0000000001
40
0
40
0
40
0
40
0
40
1
40
1
40
1
40
1
41
1
41
1
41
1
41
1
10
-13.915566448495982
20
-13.169644030418763
30
0
10
-13.823343437132342
20
-13.221845734964216
30
0
10
-13.738080653041438
20
-13.265347155418761
30
0
10
-13.725900255314164
20
-13.265347155418761
30
0
0
SPLINE
5
679
100
AcDbEntity
8
0
100
AcDbSpline
70
4
71
3
72
8
73
4
74
0
42
0.000000001
43
0.0000000001
44
0.0000000001
40
0
40
0
40
0
40
0
40
1
40
1
40
1
40
1
41
1
41
1
41
1
41
1
10
-13.725900255314164
20
-13.265347155418761
30
0
10
-13.71371985758689
20
-13.265347155418761
30
0
10
-13.673698550768707
20
-13.246206530418762
30
0
10
-13.63715735758689
20
-13.2235857917824
30
0
0
LINE
5
680
100
AcDbEntity
8
0
100
AcDbLine
10
-13.63715735758689
20
-13.2235857917824
30
0
11
-13.569295141677799
21
-13.181824428146033
31
0
0
LINE
5
681
100
AcDbEntity
8
0
100
AcDbLine
10
-13.569295141677799
20
-13.181824428146033
30
0
11
-13.745040880314164
21
-13.082641189509669
31
0
0
SPLINE
5
682
100
AcDbEntity
8
0
100
AcDbSpline
70
4
71
3
72
8
73
4
74
0
42
0.000000001
43
0.0000000001
44
0.0000000001
40
0
40
0
40
0
40
0
40
1
40
1
40
1
40
1
41
1
41
1
41
1
41
1
10
-13.745040880314164
20
-13.082641189509669
30
0
10
-13.842484062132346
20
-13.028699428146034
30
0
10
-13.920786618950528
20
-12.981717894055127
30
0
10
-13.920786618950528
20
-12.978237780418761
30
0
0
SPLINE
5
683
100
AcDbEntity
8
0
100
AcDbSpline
70
4
71
3
72
8
73
4
74
0
42
0.000000001
43
0.0000000001
44
0.0000000001
40
0
40
0
40
0
40
0
40
1
40
1
40
1
40
1
41
1
41
1
41
1
41
1
10
-13.920786618950528
20
-12.978237780418761
30
0
10
-13.920786618950528
20
-12.971277553146034
30
0
10
-13.645857641677802
20
-12.812932382691487
30
0
10
-13.633677243950528
20
-12.812932382691487
30
0
0
SPLINE
5
684
100
AcDbEntity
8
0
100
AcDbSpline
70
4
71
3
72
8
73
4
74
0
42
0.000000001
43
0.0000000001
44
0.0000000001
40
0
40
0
40
0
40
0
40
1
40
1
40
1
40
1
41
1
41
1
41
1
41
1
10
-13.633677243950528
20
-12.812932382691487
30
0
10
-13.628457073495982
20
-12.812932382691487
30
0
10
-13.550154516677802
20
-12.856433803146032
30
0
10
-13.459671562132348
20
-12.908635507691489
30
0
0
SPLINE
5
685
100
AcDbEntity
8
0
100
AcDbSpline
70
4
71
3
72
8
73
4
74
0
42
0.000000001
43
0.0000000001
44
0.0000000001
40
0
40
0
40
0
40
0
40
1
40
1
40
1
40
1
41
1
41
1
41
1
41
1
10
-13.459671562132348
20
-12.908635507691489
30
0
10
-13.370928664405074
20
-12.960837212236944
30
0
10
-13.289145993950527
20
-13.004338632691489
30
0
10
-13.278705653041435
20
-13.004338632691489
30
0
0
SPLINE
5
686
100
AcDbEntity
8
0
100
AcDbSpline
70
4
71
3
72
8
73
4
74
0
42
0.000000001
43
0.0000000001
44
0.0000000001
40
0
40
0
40
0
40
0
40
1
40
1
40
1
40
1
41
1
41
1
41
1
41
1
10
-13.278705653041435
20
-13.004338632691489
30
0
10
-13.266525255314166
20
-13.004338632691489
30
0
10
-13.179522414405072
20
-12.959097155418764
30
0
10
-13.085559346223256
20
-12.903415337236943
30
0
0
LINE
5
687
100
AcDbEntity
8
0
100
AcDbLine
10
-13.08555934622326
20
-12.903415337236941
30
0
11
-12.911553664405073
21
-12.802492041782399
31
0
0
LINE
5
688
100
AcDbEntity
8
0
100
AcDbLine
10
-12.911553664405073
20
-12.802492041782399
30
0
11
-12.981155937132346
21
-12.762470734964216
31
0
0
LINE
5
689
100
AcDbEntity
8
0
100
AcDbLine
10
-12.981155937132346
20
-12.762470734964216
30
0
11
-13.05075820985962
21
-12.724189484964217
31
0
0
LINE
5
690
100
AcDbEntity
8
0
100
AcDbLine
10
-13.05075820985962
20
-12.724189484964217
30
0
11
-13.104699971223253
21
-12.767690905418762
31
0
0
SPLINE
5
691
100
AcDbEntity
8
0
100
AcDbSpline
70
4
71
3
72
8
73
4
74
0
42
0.000000001
43
0.0000000001
44
0.0000000001
40
0
40
0
40
0
40
0
40
1
40
1
40
1
40
1
41
1
41
1
41
1
41
1
10
-13.104699971223253
20
-12.767690905418762
30
0
10
-13.134280937132345
20
-12.792051700873307
30
0
10
-13.179522414405072
20
-12.812932382691487
30
0
10
-13.205623266677799
20
-12.812932382691487
30
0
0
SPLINE
5
692
100
AcDbEntity
8
0
100
AcDbSpline
70
4
71
3
72
8
73
4
74
0
42
0.000000001
43
0.0000000001
44
0.0000000001
40
0
40
0
40
0
40
0
40
1
40
1
40
1
40
1
41
1
41
1
41
1
41
1
10
-13.205623266677799
20
-12.812932382691487
30
0
10
-13.275225539405076
20
-12.812932382691487
30
0
10
-13.367448550768708
20
-12.743330109964216
30
0
10
-13.395289459859617
20
-12.671987780418762
30
0
0
SPLINE
5
693
100
AcDbEntity
8
0
100
AcDbSpline
70
4
71
3
72
8
73
4
74
0
42
0.000000001
43
0.0000000001
44
0.0000000001
40
0
40
0
40
0
40
0
40
1
40
1
40
1
40
1
41
1
41
1
41
1
41
1
10
-13.395289459859617
20
-12.671987780418762
30
0
10
-13.438790880314162
20
-12.557144030418764
30
0
10
-13.3587482666778
20
-12.440560223600581
30
0
10
-13.221283778041435
20
-12.419679541782399
30
0
0
SPLINE
5
694
100
AcDbEntity
8
0
100
AcDbSpline
70
4
71
3
72
8
73
4
74
0
42
0.000000001
43
0.0000000001
44
0.0000000001
40
0
40
0
40
0
40
0
40
1
40
1
40
1
40
1
41
1
41
1
41
1
41
1
10
-13.221283778041435
20
-12.419679541782399
30
0
10
-13.174302243950525
20
-12.410979257691491
30
0
10
-13.151681505314162
20
-12.417939484964217
30
0
10
-13.106440028041437
20
-12.456220734964216
30
0
0
LINE
5
695
100
AcDbEntity
8
0
100
AcDbLine
10
-13.106440028041437
20
-12.456220734964214
30
0
11
-13.05075820985962
21
-12.501462212236945
31
0
0
LINE
5
696
100
AcDbEntity
8
0
100
AcDbLine
10
-13.05075820985962
20
-12.501462212236945
30
0
11
-12.981155937132346
21
-12.463180962236944
31
0
0
SPLINE
5
697
100
AcDbEntity
8
0
100
AcDbSpline
70
4
71
3
72
8
73
4
74
0
42
0.000000001
43
0.0000000001
44
0.0000000001
40
0
40
0
40
0
40
0
40
1
40
1
40
1
40
1
41
1
41
1
41
1
41
1
10
-12.981155937132346
20
-12.463180962236944
30
0
10
-12.942874687132345
20
-12.442300280418761
30
0
10
-12.915033778041435
20
-12.421419598600579
30
0
10
-12.918513891677801
20
-12.416199428146037
30
0
0
SPLINE
5
698
100
AcDbEntity
8
0
100
AcDbSpline
70
4
71
3
72
8
73
4
74
0
42
0.000000001
43
0.0000000001
44
0.0000000001
40
0
40
0
40
0
40
0
40
1
40
1
40
1
40
1
41
1
41
1
41
1
41
1
10
-12.918513891677801
20
-12.416199428146037
30
0
10
-12.923734062132347
20
-12.412719314509671
30
0
10
-13.005516732586891
20
-12.36399772360058
30
0
10
-13.101219857586891
20
-12.308315905418759
30
0
0
LINE
5
699
100
AcDbEntity
8
0
100
AcDbLine
10
-13.101219857586887
20
-12.308315905418759
30
0
11
-13.275225539405076
21
-12.209132666782397
31
0
0
LINE
5
700
100
AcDbEntity
8
0
100
AcDbLine
10
-13.275225539405076
20
-12.209132666782397
30
0
11
-13.43705082349598
21
-12.303095734964216
31
0
0
SPLINE
5
701
100
AcDbEntity
8
0
100
AcDbSpline
70
4
71
3
72
8
73
4
74
0
42
0.000000001
43
0.0000000001
44
0.0000000001
40
0
40
0
40
0
40
0
40
1
40
1
40
1
40
1
41
1
41
1
41
1
41
1
10
-13.43705082349598
20
-12.303095734964216
30
0
10
-13.525793721223256
20
-12.355297439509672
30
0
10
-13.607576391677801
20
-12.402278973600582
30
0
10
-13.619756789405074
20
-12.407499144055125
30
0
0
SPLINE
5
702
100
AcDbEntity
8
0
100
AcDbSpline
70
4
71
3
72
8
73
4
74
0
42
0.000000001
43
0.0000000001
44
0.0000000001
40
0
40
0
40
0
40
0
40
1
40
1
40
1
40
1
41
1
41
1
41
1
41
1
10
-13.619756789405074
20
-12.407499144055125
30
0
10
-13.635417300768706
20
-12.414459371327853
30
0
10
-13.920786618950528
20
-12.263074428146034
30
0
10
-13.920786618950528
20
-12.247413916782397
30
0
0
SPLINE
5
703
100
AcDbEntity
8
0
100
AcDbSpline
70
4
71
3
72
8
73
4
74
0
42
0.000000001
43
0.0000000001
44
0.0000000001
40
0
40
0
40
0
40
0
40
1
40
1
40
1
40
1
41
1
41
1
41
1
41
1
10
-13.920786618950528
20
-12.247413916782397
30
0
10
-13.920786618950528
20
-12.243933803146035
30
0
10
-13.840744005314162
20
-12.196952269055126
30
0
10
-13.745040880314164
20
-12.143010507691489
30
0
0
LINE
5
704
100
AcDbEntity
8
0
100
AcDbLine
10
-13.745040880314164
20
-12.143010507691489
30
0
11
-13.569295141677802
21
-12.042087212236945
31
0
0
LINE
5
705
100
AcDbEntity
8
0
100
AcDbLine
10
-13.569295141677802
20
-12.042087212236945
30
0
11
-13.644117584859616
21
-11.995105678146034
31
0
0
SPLINE
5
706
100
AcDbEntity
8
0
100
AcDbSpline
70
4
71
3
72
8
73
4
74
0
42
0.000000001
43
0.0000000001
44
0.0000000001
40
0
40
0
40
0
40
0
40
1
40
1
40
1
40
1
41
1
41
1
41
1
41
1
10
-13.644117584859616
20
-11.995105678146034
30
0
10
-13.692839175768709
20
-11.963784655418761
30
0
10
-13.72938036895053
20
-11.951604257691487
30
0
10
-13.746780937132346
20
-11.960304541782399
30
0
0
SPLINE
5
707
100
AcDbEntity
8
0
100
AcDbSpline
70
4
71
3
72
8
73
4
74
0
42
0.000000001
43
0.0000000001
44
0.0000000001
40
0
40
0
40
0
40
0
40
1
40
1
40
1
40
1
41
1
41
1
41
1
41
1
10
-13.746780937132346
20
-11.960304541782399
30
0
10
-13.760701391677797
20
-11.969004825873307
30
0
10
-13.842484062132346
20
-12.014246303146036
30
0
10
-13.927746846223254
20
-12.062967894055127
30
0
0
SPLINE
5
708
100
AcDbEntity
8
0
100
AcDbSpline
70
4
71
3
72
8
73
4
74
0
42
0.000000001
43
0.0000000001
44
0.0000000001
40
0
40
0
40
0
40
0
40
1
40
1
40
1
40
1
41
1
41
1
41
1
41
1
10
-13.927746846223254
20
-12.062967894055127
30
0
10
-14.013009630314164
20
-12.113429541782399
30
0
10
-14.087832073495981
20
-12.149970734964217
30
0
10
-14.093052243950526
20
-12.148230678146035
30
0
0
SPLINE
5
709
100
AcDbEntity
8
0
100
AcDbSpline
70
4
71
3
72
8
73
4
74
0
42
0.000000001
43
0.0000000001
44
0.0000000001
40
0
40
0
40
0
40
0
40
1
40
1
40
1
40
1
41
1
41
1
41
1
41
1
10
-14.093052243950526
20
-12.148230678146035
30
0
10
-14.131333493950526
20
-12.130830109964219
30
0
10
-14.373201391677799
20
-11.99162556450967
30
0
10
-14.373201391677799
20
-11.986405394055124
30
0
0
SPLINE
5
710
100
AcDbEntity
8
0
100
AcDbSpline
70
4
71
3
72
8
73
4
74
0
42
0.000000001
43
0.0000000001
44
0.0000000001
40
0
40
0
40
0
40
0
40
1
40
1
40
1
40
1
41
1
41
1
41
1
41
1
10
-14.373201391677799
20
-11.986405394055124
30
0
10
-14.373201391677799
20
-11.984665337236946
30
0
10
-14.293158778041436
20
-11.935943746327855
30
0
10
-14.197455653041438
20
-11.882001984964218
30
0
0
LINE
5
711
100
AcDbEntity
8
0
100
AcDbLine
10
-14.197455653041438
20
-11.882001984964218
30
0
11
-14.01996985758689
21
-11.781078689509672
31
0
0
LINE
5
712
100
AcDbEntity
8
0
100
AcDbLine
10
-14.01996985758689
20
-11.781078689509672
30
0
11
-14.110452812132344
21
-11.727136928146034
31
0
0
SPLINE
5
713
100
AcDbEntity
8
0
100
AcDbSpline
70
4
71
3
72
8
73
4
74
0
42
0.000000001
43
0.0000000001
44
0.0000000001
40
0
40
0
40
0
40
0
40
1
40
1
40
1
40
1
41
1
41
1
41
1
41
1
10
-14.110452812132344
20
-11.727136928146034
30
0
10
-14.197455653041438
20
-11.674935223600579
30
0
10
-14.19919570985962
20
-11.671455109964219
30
0
10
-14.19919570985962
20
-11.591412496327854
30
0
0
SPLINE
5
714
100
AcDbEntity
8
0
100
AcDbSpline
70
4
71
3
72
8
73
4
74
0
42
0.000000001
43
0.0000000001
44
0.0000000001
40
0
40
0
40
0
40
0
40
1
40
1
40
1
40
1
41
1
41
1
41
1
41
1
10
-14.19919570985962
20
-11.591412496327854
30
0
10
-14.19919570985962
20
-11.514849996327854
30
0
10
-14.195715596223257
20
-11.507889769055126
30
0
10
-14.126113323495984
20
-11.466128405418763
30
0
0
LINE
5
715
100
AcDbEntity
8
0
100
AcDbLine
10
-14.126113323495986
20
-11.466128405418763
30
0
11
-14.053030937132347
21
-11.422626984964218
31
0
0
LINE
5
716
100
AcDbEntity
8
0
100
AcDbLine
10
-14.053030937132347
20
-11.422626984964218
30
0
11
-13.868584914405075
21
-11.527030394055126
31
0
0
LINE
5
717
100
AcDbEntity
8
0
100
AcDbLine
10
-13.868584914405075
20
-11.527030394055126
30
0
11
-13.868584914405075
21
-11.325183803146032
31
0
0
SPLINE
5
718
100
AcDbEntity
8
0
100
AcDbSpline
70
4
71
3
72
8
73
4
74
0
42
0.000000001
43
0.0000000001
44
0.0000000001
40
0
40
0
40
0
40
0
40
1
40
1
40
1
40
1
41
1
41
1
41
1
41
1
10
-13.868584914405075
20
-11.325183803146032
30
0
10
-13.868584914405075
20
-11.2138201667824
30
0
10
-13.863364743950525
20
-11.125077269055126
30
0
10
-13.85466445985962
20
-11.128557382691488
30
0
0
SPLINE
5
719
100
AcDbEntity
8
0
100
AcDbSpline
70
4
71
3
72
8
73
4
74
0
42
0.000000001
43
0.0000000001
44
0.0000000001
40
0
40
0
40
0
40
0
40
1
40
1
40
1
40
1
41
1
41
1
41
1
41
1
10
-13.85466445985962
20
-11.128557382691488
30
0
10
-13.84770423258689
20
-11.132037496327854
30
0
10
-13.785062187132345
20
-11.165098575873309
30
0
10
-13.717199971223256
20
-11.203379825873307
30
0
0
LINE
5
720
100
AcDbEntity
8
0
100
AcDbLine
10
-13.717199971223256
20
-11.203379825873307
30
0
11
-13.590175823495981
21
-11.272982098600579
31
0
0
LINE
5
721
100
AcDbEntity
8
0
100
AcDbLine
10
-13.590175823495981
20
-11.272982098600579
30
0
11
-13.590175823495981
21
-11.690595734964216
31
0
0
LINE
5
722
100
AcDbEntity
8
0
100
AcDbLine
10
-13.590175823495981
20
-11.690595734964216
30
0
11
-13.416170141677803
21
-11.788038916782398
31
0
0
LINE
5
723
100
AcDbEntity
8
0
100
AcDbLine
10
-13.416170141677803
20
-11.788038916782398
30
0
11
-13.416170141677803
21
-11.587932382691491
31
0
0
SPLINE
5
724
100
AcDbEntity
8
0
100
AcDbSpline
70
4
71
3
72
8
73
4
74
0
42
0.000000001
43
0.0000000001
44
0.0000000001
40
0
40
0
40
0
40
0
40
1
40
1
40
1
40
1
41
1
41
1
41
1
41
1
10
-13.416170141677803
20
-11.587932382691491
30
0
10
-13.416170141677803
20
-11.476568746327855
30
0
10
-13.410949971223252
20
-11.386085791782397
30
0
10
-13.402249687132345
20
-11.387825848600581
30
0
0
SPLINE
5
725
100
AcDbEntity
8
0
100
AcDbSpline
70
4
71
3
72
8
73
4
74
0
42
0.000000001
43
0.0000000001
44
0.0000000001
40
0
40
0
40
0
40
0
40
1
40
1
40
1
40
1
41
1
41
1
41
1
41
1
10
-13.402249687132345
20
-11.387825848600581
30
0
10
-13.395289459859617
20
-11.387825848600581
30
0
10
-13.334387471223256
20
-11.420886928146034
30
0
10
-13.268265312132346
20
-11.462648291782401
30
0
0
LINE
5
726
100
AcDbEntity
8
0
100
AcDbLine
10
-13.268265312132346
20
-11.462648291782401
30
0
11
-13.14646133485962
21
-11.535730678146034
31
0
0
LINE
5
727
100
AcDbEntity
8
0
100
AcDbLine
10
-13.14646133485962
20
-11.535730678146034
30
0
11
-13.141241164405077
21
-11.742797439509669
31
0
0
LINE
5
728
100
AcDbEntity
8
0
100
AcDbLine
10
-13.141241164405077
20
-11.742797439509669
30
0
11
-13.136020993950527
21
-11.951604257691487
31
0
0
LINE
5
729
100
AcDbEntity
8
0
100
AcDbLine
10
-13.136020993950527
20
-11.951604257691487
30
0
11
-12.96375536895053
21
-12.052527553146035
31
0
0
SPLINE
5
730
100
AcDbEntity
8
0
100
AcDbSpline
70
4
71
3
72
8
73
4
74
0
42
0.000000001
43
0.0000000001
44
0.0000000001
40
0
40
0
40
0
40
0
40
1
40
1
40
1
40
1
41
1
41
1
41
1
41
1
10
-12.96375536895053
20
-12.052527553146035
30
0
10
-12.86979230076871
20
-12.106469314509672
30
0
10
-12.788009630314164
20
-12.151710791782397
30
0
10
-12.782789459859618
20
-12.151710791782397
30
0
0
SPLINE
5
731
100
AcDbEntity
8
0
100
AcDbSpline
70
4
71
3
72
8
73
4
74
0
42
0.000000001
43
0.0000000001
44
0.0000000001
40
0
40
0
40
0
40
0
40
1
40
1
40
1
40
1
41
1
41
1
41
1
41
1
10
-12.782789459859618
20
-12.151710791782397
30
0
10
-12.777569289405074
20
-12.151710791782397
30
0
10
-12.772349118950528
20
-12.116909655418761
30
0
10
-12.772349118950528
20
-12.073408234964216
30
0
0
SPLINE
5
732
100
AcDbEntity
8
0
100
AcDbSpline
70
4
71
3
72
8
73
4
74
0
42
0.000000001
43
0.0000000001
44
0.0000000001
40
0
40
0
40
0
40
0
40
1
40
1
40
1
40
1
41
1
41
1
41
1
41
1
10
-12.772349118950528
20
-12.073408234964216
30
0
10
-12.772349118950528
20
-12.017726416782399
30
0
10
-12.779309346223256
20
-11.995105678146034
30
0
10
-12.796709914405072
20
-11.995105678146034
30
0
0
SPLINE
5
733
100
AcDbEntity
8
0
100
AcDbSpline
70
4
71
3
72
8
73
4
74
0
42
0.000000001
43
0.0000000001
44
0.0000000001
40
0
40
0
40
0
40
0
40
1
40
1
40
1
40
1
41
1
41
1
41
1
41
1
10
-12.796709914405072
20
-11.995105678146034
30
0
10
-12.810630368950527
20
-11.995105678146034
30
0
10
-12.845431505314163
20
-11.974224996327854
30
0
10
-12.875012471223256
20
-11.949864200873309
30
0
0
SPLINE
5
734
100
AcDbEntity
8
0
100
AcDbSpline
70
4
71
3
72
8
73
4
74
0
42
0.000000001
43
0.0000000001
44
0.0000000001
40
0
40
0
40
0
40
0
40
1
40
1
40
1
40
1
41
1
41
1
41
1
41
1
10
-12.875012471223256
20
-11.949864200873309
30
0
10
-12.9759357666778
20
-11.864601416782397
30
0
10
-12.962015312132346
20
-11.716696587236944
30
0
10
-12.847171562132347
20
-11.645354257691491
30
0
0
SPLINE
5
735
100
AcDbEntity
8
0
100
AcDbSpline
70
4
71
3
72
8
73
4
74
0
42
0.000000001
43
0.0000000001
44
0.0000000001
40
0
40
0
40
0
40
0
40
1
40
1
40
1
40
1
41
1
41
1
41
1
41
1
10
-12.847171562132347
20
-11.645354257691491
30
0
10
-12.709707073495982
20
-11.560091473600579
30
0
10
-12.532221278041435
20
-11.681895450873307
30
0
10
-12.558322130314163
20
-11.847200848600581
30
0
0
SPLINE
5
736
100
AcDbEntity
8
0
100
AcDbSpline
70
4
71
3
72
8
73
4
74
0
42
0.000000001
43
0.0000000001
44
0.0000000001
40
0
40
0
40
0
40
0
40
1
40
1
40
1
40
1
41
1
41
1
41
1
41
1
10
-12.558322130314163
20
-11.847200848600581
30
0
10
-12.56528235758689
20
-11.894182382691492
30
0
10
-12.558322130314163
20
-11.90462272360058
30
0
10
-12.493940028041438
20
-11.941163916782399
30
0
0
LINE
5
737
100
AcDbEntity
8
0
100
AcDbLine
10
-12.493940028041438
20
-11.941163916782399
30
0
11
-12.422597698495982
21
-11.98118522360058
31
0
0
LINE
5
738
100
AcDbEntity
8
0
100
AcDbLine
10
-12.422597698495982
20
-11.98118522360058
30
0
11
-12.433038039405075
21
-11.553131246327855
31
0
0
LINE
5
739
100
AcDbEntity
8
0
100
AcDbLine
10
-12.433038039405075
20
-11.553131246327855
30
0
11
-12.610523834859617
21
-11.450467894055127
31
0
0
LINE
5
740
100
AcDbEntity
8
0
100
AcDbLine
10
-12.610523834859617
20
-11.450467894055127
30
0
11
-12.789749687132348
21
-11.347804541782399
31
0
0
LINE
5
741
100
AcDbEntity
8
0
100
AcDbLine
10
-12.789749687132348
20
-11.347804541782399
30
0
11
-12.789749687132348
21
-11.184239200873307
31
0
0
SPLINE
5
742
100
AcDbEntity
8
0
100
AcDbSpline
70
4
71
3
72
8
73
4
74
0
42
0.000000001
43
0.0000000001
44
0.0000000001
40
0
40
0
40
0
40
0
40
1
40
1
40
1
40
1
41
1
41
1
41
1
41
1
10
-12.789749687132348
20
-11.184239200873307
30
0
10
-12.789749687132348
20
-11.093756246327855
30
0
10
-12.786269573495982
20
-11.020673859964218
30
0
10
-12.779309346223256
20
-11.020673859964218
30
0
0
SPLINE
5
743
100
AcDbEntity
8
0
100
AcDbSpline
70
4
71
3
72
8
73
4
74
0
42
0.000000001
43
0.0000000001
44
0.0000000001
40
0
40
0
40
0
40
0
40
1
40
1
40
1
40
1
41
1
41
1
41
1
41
1
10
-12.779309346223256
20
-11.020673859964218
30
0
10
-12.77408917576871
20
-11.020673859964218
30
0
10
-12.695786618950528
20
-11.064175280418763
30
0
10
-12.605303664405072
20
-11.116376984964218
30
0
0
SPLINE
5
744
100
AcDbEntity
8
0
100
AcDbSpline
70
4
71
3
72
8
73
4
74
0
42
0.000000001
43
0.0000000001
44
0.0000000001
40
0
40
0
40
0
40
0
40
1
40
1
40
1
40
1
41
1
41
1
41
1
41
1
10
-12.605303664405072
20
-11.116376984964218
30
0
10
-12.513080653041438
20
-11.168578689509671
30
0
10
-12.436518153041435
20
-11.212080109964216
30
0
10
-12.431297982586891
20
-11.212080109964216
30
0
0
SPLINE
5
745
100
AcDbEntity
8
0
100
AcDbSpline
70
4
71
3
72
8
73
4
74
0
42
0.000000001
43
0.0000000001
44
0.0000000001
40
0
40
0
40
0
40
0
40
1
40
1
40
1
40
1
41
1
41
1
41
1
41
1
10
-12.431297982586891
20
-11.212080109964216
30
0
10
-12.427817868950527
20
-11.212080109964216
30
0
10
-12.424337755314166
20
-11.173798859964217
30
0
10
-12.424337755314166
20
-11.125077269055126
30
0
0
LINE
5
746
100
AcDbEntity
8
0
100
AcDbLine
10
-12.424337755314166
20
-11.125077269055126
30
0
11
-12.424337755314166
21
-11.038074428146034
31
0
0
LINE
5
747
100
AcDbEntity
8
0
100
AcDbLine
10
-12.424337755314166
20
-11.038074428146034
30
0
11
-12.789749687132348
21
-10.825787496327854
31
0
0
LINE
5
748
100
AcDbEntity
8
0
100
AcDbLine
10
-12.789749687132348
20
-10.825787496327854
30
0
11
-12.789749687132348
21
-10.662222155418764
31
0
0
SPLINE
5
749
100
AcDbEntity
8
0
100
AcDbSpline
70
4
71
3
72
8
73
4
74
0
42
0.000000001
43
0.0000000001
44
0.0000000001
40
0
40
0
40
0
40
0
40
1
40
1
40
1
40
1
41
1
41
1
41
1
41
1
10
-12.789749687132348
20
-10.662222155418764
30
0
10
-12.789749687132348
20
-10.57173920087331
30
0
10
-12.786269573495982
20
-10.498656814509673
30
0
10
-12.779309346223256
20
-10.498656814509673
30
0
0
SPLINE
5
750
100
AcDbEntity
8
0
100
AcDbSpline
70
4
71
3
72
8
73
4
74
0
42
0.000000001
43
0.0000000001
44
0.0000000001
40
0
40
0
40
0
40
0
40
1
40
1
40
1
40
1
41
1
41
1
41
1
41
1
10
-12.779309346223256
20
-10.498656814509673
30
0
10
-12.77408917576871
20
-10.498656814509673
30
0
10
-12.695786618950528
20
-10.542158234964218
30
0
10
-12.605303664405072
20
-10.594359939509669
30
0
0
SPLINE
5
751
100
AcDbEntity
8
0
100
AcDbSpline
70
4
71
3
72
8
73
4
74
0
42
0.000000001
43
0.0000000001
44
0.0000000001
40
0
40
0
40
0
40
0
40
1
40
1
40
1
40
1
41
1
41
1
41
1
41
1
10
-12.605303664405072
20
-10.594359939509669
30
0
10
-12.513080653041438
20
-10.646561644055126
30
0
10
-12.436518153041435
20
-10.690063064509671
30
0
10
-12.431297982586891
20
-10.690063064509671
30
0
0
SPLINE
5
752
100
AcDbEntity
8
0
100
AcDbSpline
70
4
71
3
72
8
73
4
74
0
42
0.000000001
43
0.0000000001
44
0.0000000001
40
0
40
0
40
0
40
0
40
1
40
1
40
1
40
1
41
1
41
1
41
1
41
1
10
-12.431297982586891
20
-10.690063064509671
30
0
10
-12.427817868950527
20
-10.690063064509671
30
0
10
-12.424337755314166
20
-10.643081530418764
30
0
10
-12.424337755314166
20
-10.585659655418761
30
0
0
SPLINE
5
753
100
AcDbEntity
8
0
100
AcDbSpline
70
4
71
3
72
8
73
4
74
0
42
0.000000001
43
0.0000000001
44
0.0000000001
40
0
40
0
40
0
40
0
40
1
40
1
40
1
40
1
41
1
41
1
41
1
41
1
10
-12.424337755314166
20
-10.585659655418761
30
0
10
-12.424337755314166
20
-10.482996303146036
30
0
10
-12.424337755314166
20
-10.481256246327852
30
0
10
-12.354735482586891
20
-10.446455109964216
30
0
0
LINE
5
754
100
AcDbEntity
8
0
100
AcDbLine
10
-12.354735482586891
20
-10.446455109964216
30
0
11
-12.285133209859616
21
-10.411653973600579
31
0
0
LINE
5
755
100
AcDbEntity
8
0
100
AcDbLine
10
-12.285133209859616
20
-10.411653973600579
30
0
11
-12.215530937132344
21
-10.446455109964216
31
0
0
SPLINE
5
756
100
AcDbEntity
8
0
100
AcDbSpline
70
4
71
3
72
8
73
4
74
0
42
0.000000001
43
0.0000000001
44
0.0000000001
40
0
40
0
40
0
40
0
40
1
40
1
40
1
40
1
41
1
41
1
41
1
41
1
10
-12.215530937132346
20
-10.446455109964216
30
0
10
-12.145928664405075
20
-10.481256246327852
30
0
10
-12.145928664405075
20
-10.482996303146036
30
0
10
-12.145928664405075
20
-10.585659655418761
30
0
0
SPLINE
5
757
100
AcDbEntity
8
0
100
AcDbSpline
70
4
71
3
72
8
73
4
74
0
42
0.000000001
43
0.0000000001
44
0.0000000001
40
0
40
0
40
0
40
0
40
1
40
1
40
1
40
1
41
1
41
1
41
1
41
1
10
-12.145928664405075
20
-10.585659655418761
30
0
10
-12.145928664405075
20
-10.643081530418764
30
0
10
-12.142448550768709
20
-10.690063064509671
30
0
10
-12.138968437132343
20
-10.690063064509671
30
0
0
SPLINE
5
758
100
AcDbEntity
8
0
100
AcDbSpline
70
4
71
3
72
8
73
4
74
0
42
0.000000001
43
0.0000000001
44
0.0000000001
40
0
40
0
40
0
40
0
40
1
40
1
40
1
40
1
41
1
41
1
41
1
41
1
10
-12.138968437132343
20
-10.690063064509671
30
0
10
-12.135488323495981
20
-10.690063064509671
30
0
10
-12.058925823495981
20
-10.646561644055126
30
0
10
-11.970182925768711
20
-10.594359939509669
30
0
0
SPLINE
5
759
100
AcDbEntity
8
0
100
AcDbSpline
70
4
71
3
72
8
73
4
74
0
42
0.000000001
43
0.0000000001
44
0.0000000001
40
0
40
0
40
0
40
0
40
1
40
1
40
1
40
1
41
1
41
1
41
1
41
1
10
-11.970182925768711
20
-10.594359939509669
30
0
10
-11.879699971223253
20
-10.542158234964218
30
0
10
-11.801397414405072
20
-10.498656814509673
30
0
10
-11.792697130314163
20
-10.498656814509673
30
0
0
SPLINE
5
760
100
AcDbEntity
8
0
100
AcDbSpline
70
4
71
3
72
8
73
4
74
0
42
0.000000001
43
0.0000000001
44
0.0000000001
40
0
40
0
40
0
40
0
40
1
40
1
40
1
40
1
41
1
41
1
41
1
41
1
10
-11.792697130314163
20
-10.498656814509673
30
0
10
-11.785736903041435
20
-10.498656814509673
30
0
10
-11.780516732586891
20
-10.57173920087331
30
0
10
-11.780516732586891
20
-10.662222155418764
30
0
0
LINE
5
761
100
AcDbEntity
8
0
100
AcDbLine
10
-11.780516732586891
20
-10.662222155418764
30
0
11
-11.780516732586891
21
-10.825787496327854
31
0
0
LINE
5
762
100
AcDbEntity
8
0
100
AcDbLine
10
-11.780516732586891
20
-10.825787496327854
30
0
11
-11.963222698495983
21
-10.928450848600582
31
0
0
LINE
5
763
100
AcDbEntity
8
0
100
AcDbLine
10
-11.963222698495983
20
-10.928450848600582
30
0
11
-12.145928664405073
21
-11.029374144055126
31
0
0
LINE
5
764
100
AcDbEntity
8
0
100
AcDbLine
10
-12.145928664405073
20
-11.029374144055126
30
0
11
-12.145928664405075
21
-11.121597155418762
31
0
0
SPLINE
5
765
100
AcDbEntity
8
0
100
AcDbSpline
70
4
71
3
72
8
73
4
74
0
42
0.000000001
43
0.0000000001
44
0.0000000001
40
0
40
0
40
0
40
0
40
1
40
1
40
1
40
1
41
1
41
1
41
1
41
1
10
-12.145928664405075
20
-11.121597155418762
30
0
10
-12.145928664405075
20
-11.170318746327853
30
0
10
-12.142448550768709
20
-11.212080109964216
30
0
10
-12.137228380314166
20
-11.212080109964216
30
0
0
SPLINE
5
766
100
AcDbEntity
8
0
100
AcDbSpline
70
4
71
3
72
8
73
4
74
0
42
0.000000001
43
0.0000000001
44
0.0000000001
40
0
40
0
40
0
40
0
40
1
40
1
40
1
40
1
41
1
41
1
41
1
41
1
10
-12.137228380314166
20
-11.212080109964216
30
0
10
-12.1337482666778
20
-11.212080109964216
30
0
10
-12.062405937132343
20
-11.172058803146037
30
0
10
-11.98236332349598
20
-11.125077269055126
30
0
0
SPLINE
5
767
100
AcDbEntity
8
0
100
AcDbSpline
70
4
71
3
72
8
73
4
74
0
42
0.000000001
43
0.0000000001
44
0.0000000001
40
0
40
0
40
0
40
0
40
1
40
1
40
1
40
1
41
1
41
1
41
1
41
1
10
-11.98236332349598
20
-11.125077269055126
30
0
10
-11.763116164405075
20
-10.996313064509673
30
0
10
-11.780516732586891
20
-10.991092894055127
30
0
10
-11.780516732586891
20
-11.182499144055129
30
0
0
LINE
5
768
100
AcDbEntity
8
0
100
AcDbLine
10
-11.780516732586891
20
-11.182499144055129
30
0
11
-11.780516732586891
21
-11.346064484964218
31
0
0
LINE
5
769
100
AcDbEntity
8
0
100
AcDbLine
10
-11.780516732586891
20
-11.346064484964218
30
0
11
-11.958002528041439
21
-11.448727837236943
31
0
0
LINE
5
770
100
AcDbEntity
8
0
100
AcDbLine
10
-11.958002528041439
20
-11.448727837236943
30
0
11
-12.137228380314166
21
-11.551391189509671
31
0
0
LINE
5
771
100
AcDbEntity
8
0
100
AcDbLine
10
-12.137228380314166
20
-11.551391189509671
30
0
11
-12.147668721223253
21
-11.9794451667824
31
0
0
LINE
5
772
100
AcDbEntity
8
0
100
AcDbLine
10
-12.147668721223253
20
-11.9794451667824
30
0
11
-12.078066448495983
21
-11.939423859964217
31
0
0
SPLINE
5
773
100
AcDbEntity
8
0
100
AcDbSpline
70
4
71
3
72
8
73
4
74
0
42
0.000000001
43
0.0000000001
44
0.0000000001
40
0
40
0
40
0
40
0
40
1
40
1
40
1
40
1
41
1
41
1
41
1
41
1
10
-12.078066448495983
20
-11.939423859964217
30
0
10
-12.01020423258689
20
-11.901142609964216
30
0
10
-12.00846417576871
20
-11.895922439509672
30
0
10
-12.011944289405074
20
-11.815879825873308
30
0
0
SPLINE
5
774
100
AcDbEntity
8
0
100
AcDbSpline
70
4
71
3
72
8
73
4
74
0
42
0.000000001
43
0.0000000001
44
0.0000000001
40
0
40
0
40
0
40
0
40
1
40
1
40
1
40
1
41
1
41
1
41
1
41
1
10
-12.011944289405074
20
-11.815879825873308
30
0
10
-12.015424403041436
20
-11.737577269055127
30
0
10
-12.01020423258689
20
-11.727136928146034
30
0
10
-11.947562187132345
20
-11.669715053146035
30
0
0
SPLINE
5
775
100
AcDbEntity
8
0
100
AcDbSpline
70
4
71
3
72
8
73
4
74
0
42
0.000000001
43
0.0000000001
44
0.0000000001
40
0
40
0
40
0
40
0
40
1
40
1
40
1
40
1
41
1
41
1
41
1
41
1
10
-11.947562187132345
20
-11.669715053146035
30
0
10
-11.890140312132345
20
-11.615773291782398
30
0
10
-11.872739743950525
20
-11.60881306450967
30
0
10
-11.81531786895053
20
-11.617513348600582
30
0
0
SPLINE
5
776
100
AcDbEntity
8
0
100
AcDbSpline
70
4
71
3
72
8
73
4
74
0
42
0.000000001
43
0.0000000001
44
0.0000000001
40
0
40
0
40
0
40
0
40
1
40
1
40
1
40
1
41
1
41
1
41
1
41
1
10
-11.81531786895053
20
-11.617513348600582
30
0
10
-11.590850539405071
20
-11.647094314509671
30
0
10
-11.557789459859618
20
-11.913323007691492
30
0
10
-11.766596278041437
20
-11.993365621327854
30
0
0
SPLINE
5
777
100
AcDbEntity
8
0
100
AcDbSpline
70
4
71
3
72
8
73
4
74
0
42
0.000000001
43
0.0000000001
44
0.0000000001
40
0
40
0
40
0
40
0
40
1
40
1
40
1
40
1
41
1
41
1
41
1
41
1
10
-11.766596278041437
20
-11.993365621327854
30
0
10
-11.8083576416778
20
-12.00902613269149
30
0
10
-11.81531786895053
20
-12.021206530418763
30
0
10
-11.81531786895053
20
-12.082108519055124
30
0
0
SPLINE
5
778
100
AcDbEntity
8
0
100
AcDbSpline
70
4
71
3
72
8
73
4
74
0
42
0.000000001
43
0.0000000001
44
0.0000000001
40
0
40
0
40
0
40
0
40
1
40
1
40
1
40
1
41
1
41
1
41
1
41
1
10
-11.81531786895053
20
-12.082108519055124
30
0
10
-11.81531786895053
20
-12.125609939509669
30
0
10
-11.80661758485962
20
-12.151710791782397
30
0
10
-11.792697130314163
20
-12.151710791782397
30
0
0
SPLINE
5
779
100
AcDbEntity
8
0
100
AcDbSpline
70
4
71
3
72
8
73
4
74
0
42
0.000000001
43
0.0000000001
44
0.0000000001
40
0
40
0
40
0
40
0
40
1
40
1
40
1
40
1
41
1
41
1
41
1
41
1
10
-11.792697130314163
20
-12.151710791782397
30
0
10
-11.782256789405071
20
-12.151710791782397
30
0
10
-11.700474118950529
20
-12.109949428146036
30
0
10
-11.615211334859621
20
-12.059487780418761
30
0
0
LINE
5
780
100
AcDbEntity
8
0
100
AcDbLine
10
-11.615211334859621
20
-12.059487780418763
30
0
11
-11.458606221223256
21
-11.967264769055127
31
0
0
LINE
5
781
100
AcDbEntity
8
0
100
AcDbLine
10
-11.458606221223256
20
-11.967264769055127
30
0
11
-11.45338605076871
21
-11.754977837236943
31
0
0
LINE
5
782
100
AcDbEntity
8
0
100
AcDbLine
10
-11.45338605076871
20
-11.754977837236943
30
0
11
-11.448165880314164
21
-11.544430962236943
31
0
0
LINE
5
783
100
AcDbEntity
8
0
100
AcDbLine
10
-11.448165880314164
20
-11.544430962236943
30
0
11
-11.310701391677799
21
-11.466128405418763
31
0
0
SPLINE
5
784
100
AcDbEntity
8
0
100
AcDbSpline
70
4
71
3
72
8
73
4
74
0
42
0.000000001
43
0.0000000001
44
0.0000000001
40
0
40
0
40
0
40
0
40
1
40
1
40
1
40
1
41
1
41
1
41
1
41
1
10
-11.310701391677799
20
-11.466128405418763
30
0
10
-11.235878948495984
20
-11.422626984964218
30
0
10
-11.168016732586892
20
-11.386085791782397
30
0
10
-11.162796562132344
20
-11.386085791782397
30
0
0
SPLINE
5
785
100
AcDbEntity
8
0
100
AcDbSpline
70
4
71
3
72
8
73
4
74
0
42
0.000000001
43
0.0000000001
44
0.0000000001
40
0
40
0
40
0
40
0
40
1
40
1
40
1
40
1
41
1
41
1
41
1
41
1
10
-11.162796562132344
20
-11.386085791782397
30
0
10
-11.157576391677798
20
-11.386085791782397
30
0
10
-11.154096278041438
20
-11.476568746327855
30
0
10
-11.154096278041438
20
-11.587932382691491
30
0
0
LINE
5
786
100
AcDbEntity
8
0
100
AcDbLine
10
-11.154096278041436
20
-11.587932382691491
30
0
11
-11.154096278041438
21
-11.788038916782398
31
0
0
LINE
5
787
100
AcDbEntity
8
0
100
AcDbLine
10
-11.154096278041438
20
-11.788038916782398
30
0
11
-11.079273834859618
21
-11.748017609964219
31
0
0
LINE
5
788
100
AcDbEntity
8
0
100
AcDbLine
10
-11.079273834859618
20
-11.748017609964219
30
0
11
-11.006191448495981
21
-11.707996303146036
31
0
0
LINE
5
789
100
AcDbEntity
8
0
100
AcDbLine
10
-11.006191448495981
20
-11.707996303146036
30
0
11
-10.995751107586887
21
-11.283422439509673
31
0
0
LINE
5
790
100
AcDbEntity
8
0
100
AcDbLine
10
-10.995751107586887
20
-11.283422439509673
30
0
11
-10.858286618950528
21
-11.205119882691491
31
0
0
SPLINE
5
791
100
AcDbEntity
8
0
100
AcDbSpline
70
4
71
3
72
8
73
4
74
0
42
0.000000001
43
0.0000000001
44
0.0000000001
40
0
40
0
40
0
40
0
40
1
40
1
40
1
40
1
41
1
41
1
41
1
41
1
10
-10.858286618950528
20
-11.205119882691491
30
0
10
-10.783464175768708
20
-11.161618462236945
30
0
10
-10.715601959859619
20
-11.125077269055126
30
0
10
-10.710381789405073
20
-11.125077269055126
30
0
0
SPLINE
5
792
100
AcDbEntity
8
0
100
AcDbSpline
70
4
71
3
72
8
73
4
74
0
42
0.000000001
43
0.0000000001
44
0.0000000001
40
0
40
0
40
0
40
0
40
1
40
1
40
1
40
1
41
1
41
1
41
1
41
1
10
-10.710381789405073
20
-11.125077269055126
30
0
10
-10.705161618950527
20
-11.125077269055126
30
0
10
-10.701681505314165
20
-11.215560223600582
30
0
10
-10.701681505314165
20
-11.326923859964218
30
0
0
LINE
5
793
100
AcDbEntity
8
0
100
AcDbLine
10
-10.701681505314163
20
-11.326923859964218
30
0
11
-10.701681505314165
21
-11.527030394055126
31
0
0
LINE
5
794
100
AcDbEntity
8
0
100
AcDbLine
10
-10.701681505314165
20
-11.527030394055126
30
0
11
-10.60945849395053
21
-11.476568746327855
31
0
0
LINE
5
795
100
AcDbEntity
8
0
100
AcDbLine
10
-10.60945849395053
20
-11.476568746327855
30
0
11
-10.518975539405071
21
-11.4243670417824
31
0
0
LINE
5
796
100
AcDbEntity
8
0
100
AcDbLine
10
-10.518975539405071
20
-11.4243670417824
30
0
11
-10.444153096223257
21
-11.467868462236947
31
0
0
SPLINE
5
797
100
AcDbEntity
8
0
100
AcDbSpline
70
4
71
3
72
8
73
4
74
0
42
0.000000001
43
0.0000000001
44
0.0000000001
40
0
40
0
40
0
40
0
40
1
40
1
40
1
40
1
41
1
41
1
41
1
41
1
10
-10.444153096223257
20
-11.467868462236947
30
0
10
-10.374550823495984
20
-11.509629825873308
30
0
10
-10.371070709859618
20
-11.514849996327854
30
0
10
-10.371070709859618
20
-11.594892609964216
30
0
0
SPLINE
5
798
100
AcDbEntity
8
0
100
AcDbSpline
70
4
71
3
72
8
73
4
74
0
42
0.000000001
43
0.0000000001
44
0.0000000001
40
0
40
0
40
0
40
0
40
1
40
1
40
1
40
1
41
1
41
1
41
1
41
1
10
-10.371070709859618
20
-11.594892609964216
30
0
10
-10.371070709859618
20
-11.678415337236943
30
0
10
-10.372810766677798
20
-11.680155394055127
30
0
10
-10.459813607586891
20
-11.730617041782399
30
0
0
LINE
5
799
100
AcDbEntity
8
0
100
AcDbLine
10
-10.459813607586891
20
-11.730617041782399
30
0
11
-10.548556505314167
21
-11.781078689509672
31
0
0
LINE
5
800
100
AcDbEntity
8
0
100
AcDbLine
10
-10.548556505314167
20
-11.781078689509672
30
0
11
-10.372810766677798
21
-11.8837420417824
31
0
0
LINE
5
801
100
AcDbEntity
8
0
100
AcDbLine
10
-10.372810766677798
20
-11.8837420417824
30
0
11
-10.19706502804144
21
-11.984665337236946
31
0
0
LINE
5
802
100
AcDbEntity
8
0
100
AcDbLine
10
-10.19706502804144
20
-11.984665337236946
30
0
11
-10.270147414405075
21
-12.029906814509671
31
0
0
SPLINE
5
803
100
AcDbEntity
8
0
100
AcDbSpline
70
4
71
3
72
8
73
4
74
0
42
0.000000001
43
0.0000000001
44
0.0000000001
40
0
40
0
40
0
40
0
40
1
40
1
40
1
40
1
41
1
41
1
41
1
41
1
10
-10.270147414405075
20
-12.029906814509671
30
0
10
-10.311908778041435
20
-12.056007666782399
30
0
10
-10.378030937132344
20
-12.094288916782398
30
0
10
-10.416312187132347
20
-12.115169598600581
30
0
0
LINE
5
804
100
AcDbEntity
8
0
100
AcDbLine
10
-10.416312187132347
20
-12.115169598600581
30
0
11
-10.487654516677802
21
-12.155190905418763
31
0
0
LINE
5
805
100
AcDbEntity
8
0
100
AcDbLine
10
-10.487654516677802
20
-12.155190905418763
30
0
11
-10.654699971223256
21
-12.057747723600581
31
0
0
SPLINE
5
806
100
AcDbEntity
8
0
100
AcDbSpline
70
4
71
3
72
8
73
4
74
0
42
0.000000001
43
0.0000000001
44
0.0000000001
40
0
40
0
40
0
40
0
40
1
40
1
40
1
40
1
41
1
41
1
41
1
41
1
10
-10.654699971223256
20
-12.057747723600581
30
0
10
-10.745182925768713
20
-12.003805962236944
30
0
10
-10.830445709859614
20
-11.960304541782399
30
0
10
-10.844366164405077
20
-11.960304541782399
30
0
0
SPLINE
5
807
100
AcDbEntity
8
0
100
AcDbSpline
70
4
71
3
72
8
73
4
74
0
42
0.000000001
43
0.0000000001
44
0.0000000001
40
0
40
0
40
0
40
0
40
1
40
1
40
1
40
1
41
1
41
1
41
1
41
1
10
-10.844366164405077
20
-11.960304541782399
30
0
10
-10.856546562132342
20
-11.960304541782399
30
0
10
-10.896567868950529
20
-11.9794451667824
30
0
10
-10.933109062132342
20
-12.002065905418762
30
0
0
LINE
5
808
100
AcDbEntity
8
0
100
AcDbLine
10
-10.933109062132344
20
-12.002065905418762
30
0
11
-11.000971278041437
21
-12.043827269055127
31
0
0
LINE
5
809
100
AcDbEntity
8
0
100
AcDbLine
10
-11.000971278041437
20
-12.043827269055127
30
0
11
-10.825225539405075
21
-12.143010507691489
31
0
0
SPLINE
5
810
100
AcDbEntity
8
0
100
AcDbSpline
70
4
71
3
72
8
73
4
74
0
42
0.000000001
43
0.0000000001
44
0.0000000001
40
0
40
0
40
0
40
0
40
1
40
1
40
1
40
1
41
1
41
1
41
1
41
1
10
-10.825225539405075
20
-12.143010507691489
30
0
10
-10.727782357586889
20
-12.198692325873308
30
0
10
-10.65121985758689
20
-12.245673859964217
30
0
10
-10.652959914405074
20
-12.247413916782397
30
0
0
SPLINE
5
811
100
AcDbEntity
8
0
100
AcDbSpline
70
4
71
3
72
8
73
4
74
0
42
0.000000001
43
0.0000000001
44
0.0000000001
40
0
40
0
40
0
40
0
40
1
40
1
40
1
40
1
41
1
41
1
41
1
41
1
10
-10.652959914405074
20
-12.247413916782397
30
0
10
-10.666880368950528
20
-12.259594314509672
30
0
10
-10.931369005314165
20
-12.412719314509671
30
0
10
-10.938329232586891
20
-12.412719314509671
30
0
0
SPLINE
5
812
100
AcDbEntity
8
0
100
AcDbSpline
70
4
71
3
72
8
73
4
74
0
42
0.000000001
43
0.0000000001
44
0.0000000001
40
0
40
0
40
0
40
0
40
1
40
1
40
1
40
1
41
1
41
1
41
1
41
1
10
-10.938329232586891
20
-12.412719314509671
30
0
10
-10.943549403041434
20
-12.412719314509671
30
0
10
-11.020111903041435
20
-12.369217894055126
30
0
10
-11.110594857586893
20
-12.317016189509671
30
0
0
SPLINE
5
813
100
AcDbEntity
8
0
100
AcDbSpline
70
4
71
3
72
8
73
4
74
0
42
0.000000001
43
0.0000000001
44
0.0000000001
40
0
40
0
40
0
40
0
40
1
40
1
40
1
40
1
41
1
41
1
41
1
41
1
10
-11.110594857586893
20
-12.317016189509671
30
0
10
-11.199337755314163
20
-12.264814484964218
30
0
10
-11.282860482586889
20
-12.221313064509673
30
0
10
-11.295040880314165
20
-12.221313064509673
30
0
0
SPLINE
5
814
100
AcDbEntity
8
0
100
AcDbSpline
70
4
71
3
72
8
73
4
74
0
42
0.000000001
43
0.0000000001
44
0.0000000001
40
0
40
0
40
0
40
0
40
1
40
1
40
1
40
1
41
1
41
1
41
1
41
1
10
-11.295040880314165
20
-12.221313064509673
30
0
10
-11.307221278041437
20
-12.221313064509673
30
0
10
-11.380303664405073
20
-12.25785425769149
30
0
10
-11.456866164405072
20
-12.303095734964216
30
0
0
SPLINE
5
815
100
AcDbEntity
8
0
100
AcDbSpline
70
4
71
3
72
8
73
4
74
0
42
0.000000001
43
0.0000000001
44
0.0000000001
40
0
40
0
40
0
40
0
40
1
40
1
40
1
40
1
41
1
41
1
41
1
41
1
10
-11.456866164405072
20
-12.303095734964216
30
0
10
-11.679593437132347
20
-12.431859939509671
30
0
10
-11.669153096223253
20
-12.417939484964217
30
0
10
-11.587370425768709
20
-12.463180962236944
30
0
0
LINE
5
816
100
AcDbEntity
8
0
100
AcDbLine
10
-11.587370425768707
20
-12.463180962236944
30
0
11
-11.517768153041436
21
-12.503202269055127
31
0
0
LINE
5
817
100
AcDbEntity
8
0
100
AcDbLine
10
-11.517768153041436
20
-12.503202269055127
30
0
11
-11.479486903041435
21
-12.46840113269149
31
0
0
SPLINE
5
818
100
AcDbEntity
8
0
100
AcDbSpline
70
4
71
3
72
8
73
4
74
0
42
0.000000001
43
0.0000000001
44
0.0000000001
40
0
40
0
40
0
40
0
40
1
40
1
40
1
40
1
41
1
41
1
41
1
41
1
10
-11.479486903041435
20
-12.46840113269149
30
0
10
-11.42380508485962
20
-12.416199428146037
30
0
10
-11.35942298258689
20
-12.405759087236945
30
0
10
-11.288080653041437
20
-12.435340053146035
30
0
0
SPLINE
5
819
100
AcDbEntity
8
0
100
AcDbSpline
70
4
71
3
72
8
73
4
74
0
42
0.000000001
43
0.0000000001
44
0.0000000001
40
0
40
0
40
0
40
0
40
1
40
1
40
1
40
1
41
1
41
1
41
1
41
1
10
-11.288080653041437
20
-12.435340053146035
30
0
10
-11.127995425768709
20
-12.503202269055127
30
0
10
-11.126255368950527
20
-12.722449428146037
30
0
10
-11.284600539405075
20
-12.788571587236945
30
0
0
SPLINE
5
820
100
AcDbEntity
8
0
100
AcDbSpline
70
4
71
3
72
8
73
4
74
0
42
0.000000001
43
0.0000000001
44
0.0000000001
40
0
40
0
40
0
40
0
40
1
40
1
40
1
40
1
41
1
41
1
41
1
41
1
10
-11.284600539405075
20
-12.788571587236945
30
0
10
-11.369863323495982
20
-12.823372723600579
30
0
10
-11.404664459859619
20
-12.819892609964219
30
0
10
-11.465566448495981
20
-12.767690905418762
30
0
0
LINE
5
821
100
AcDbEntity
8
0
100
AcDbLine
10
-11.465566448495981
20
-12.767690905418762
30
0
11
-11.519508209859618
21
-12.724189484964217
31
0
0
LINE
5
822
100
AcDbEntity
8
0
100
AcDbLine
10
-11.519508209859618
20
-12.724189484964217
30
0
11
-11.589110482586889
21
-12.762470734964216
31
0
0
SPLINE
5
823
100
AcDbEntity
8
0
100
AcDbSpline
70
4
71
3
72
8
73
4
74
0
42
0.000000001
43
0.0000000001
44
0.0000000001
40
0
40
0
40
0
40
0
40
1
40
1
40
1
40
1
41
1
41
1
41
1
41
1
10
-11.589110482586889
20
-12.762470734964216
30
0
10
-11.62739173258689
20
-12.783351416782399
30
0
10
-11.6552326416778
20
-12.804232098600579
30
0
10
-11.651752528041436
20
-12.809452269055127
30
0
0
SPLINE
5
824
100
AcDbEntity
8
0
100
AcDbSpline
70
4
71
3
72
8
73
4
74
0
42
0.000000001
43
0.0000000001
44
0.0000000001
40
0
40
0
40
0
40
0
40
1
40
1
40
1
40
1
41
1
41
1
41
1
41
1
10
-11.651752528041436
20
-12.809452269055127
30
0
10
-11.646532357586892
20
-12.812932382691487
30
0
10
-11.566489743950527
20
-12.861653973600582
30
0
10
-11.470786618950527
20
-12.915595734964219
30
0
0
LINE
5
825
100
AcDbEntity
8
0
100
AcDbLine
10
-11.470786618950527
20
-12.915595734964219
30
0
11
-11.298520993950529
21
-13.016519030418763
31
0
0
LINE
5
826
100
AcDbEntity
8
0
100
AcDbLine
10
-11.298520993950529
20
-13.016519030418763
30
0
11
-11.126255368950527
21
-12.915595734964219
31
0
0
SPLINE
5
827
100
AcDbEntity
8
0
100
AcDbSpline
70
4
71
3
72
8
73
4
74
0
42
0.000000001
43
0.0000000001
44
0.0000000001
40
0
40
0
40
0
40
0
40
1
40
1
40
1
40
1
41
1
41
1
41
1
41
1
10
-11.126255368950527
20
-12.915595734964219
30
0
10
-11.032292300768713
20
-12.859913916782398
30
0
10
-10.948769573495985
20
-12.814672439509671
30
0
10
-10.940069289405074
20
-12.812932382691487
30
0
0
SPLINE
5
828
100
AcDbEntity
8
0
100
AcDbSpline
70
4
71
3
72
8
73
4
74
0
42
0.000000001
43
0.0000000001
44
0.0000000001
40
0
40
0
40
0
40
0
40
1
40
1
40
1
40
1
41
1
41
1
41
1
41
1
10
-10.940069289405074
20
-12.812932382691487
30
0
10
-10.933109062132342
20
-12.812932382691487
30
0
10
-10.863506789405072
20
-12.849473575873308
30
0
10
-10.786944289405072
20
-12.894715053146035
30
0
0
LINE
5
829
100
AcDbEntity
8
0
100
AcDbLine
10
-10.786944289405072
20
-12.894715053146033
30
0
11
-10.647739743950524
21
-12.9747576667824
31
0
0
LINE
5
830
100
AcDbEntity
8
0
100
AcDbLine
10
-10.647739743950524
20
-12.9747576667824
30
0
11
-10.696461334859618
21
-13.004338632691489
31
0
0
SPLINE
5
831
100
AcDbEntity
8
0
100
AcDbSpline
70
4
71
3
72
8
73
4
74
0
42
0.000000001
43
0.0000000001
44
0.0000000001
40
0
40
0
40
0
40
0
40
1
40
1
40
1
40
1
41
1
41
1
41
1
41
1
10
-10.696461334859618
20
-13.004338632691489
30
0
10
-10.722562187132349
20
-13.021739200873306
30
0
10
-10.802604800768712
20
-13.068720734964216
30
0
10
-10.873947130314161
20
-13.108742041782399
30
0
0
LINE
5
832
100
AcDbEntity
8
0
100
AcDbLine
10
-10.873947130314159
20
-13.108742041782399
30
0
11
-11.002711334859615
21
-13.181824428146037
31
0
0
LINE
5
833
100
AcDbEntity
8
0
100
AcDbLine
10
-11.002711334859615
20
-13.181824428146037
30
0
11
-10.926148834859617
21
-13.230546019055124
31
0
0
SPLINE
5
834
100
AcDbEntity
8
0
100
AcDbSpline
70
4
71
3
72
8
73
4
74
0
42
0.000000001
43
0.0000000001
44
0.0000000001
40
0
40
0
40
0
40
0
40
1
40
1
40
1
40
1
41
1
41
1
41
1
41
1
10
-10.926148834859617
20
-13.230546019055124
30
0
10
-10.8513263916778
20
-13.277527553146035
30
0
10
-10.849586334859618
20
-13.277527553146035
30
0
10
-10.797384630314163
20
-13.247946587236944
30
0
0
SPLINE
5
835
100
AcDbEntity
8
0
100
AcDbSpline
70
4
71
3
72
8
73
4
74
0
42
0.000000001
43
0.0000000001
44
0.0000000001
40
0
40
0
40
0
40
0
40
1
40
1
40
1
40
1
41
1
41
1
41
1
41
1
10
-10.797384630314163
20
-13.247946587236944
30
0
10
-10.605978380314168
20
-13.136582950873308
30
0
10
-10.494614743950525
20
-13.073940905418763
30
0
10
-10.484174403041436
20
-13.073940905418763
30
0
0
SPLINE
5
836
100
AcDbEntity
8
0
100
AcDbSpline
70
4
71
3
72
8
73
4
74
0
42
0.000000001
43
0.0000000001
44
0.0000000001
40
0
40
0
40
0
40
0
40
1
40
1
40
1
40
1
41
1
41
1
41
1
41
1
10
-10.484174403041436
20
-13.073940905418763
30
0
10
-10.478954232586894
20
-13.073940905418763
30
0
10
-10.4110920166778
20
-13.110482098600579
30
0
10
-10.334529516677797
20
-13.153983519055124
30
0
0
SPLINE
5
837
100
AcDbEntity
8
0
100
AcDbSpline
70
4
71
3
72
8
73
4
74
0
42
0.000000001
43
0.0000000001
44
0.0000000001
40
0
40
0
40
0
40
0
40
1
40
1
40
1
40
1
41
1
41
1
41
1
41
1
10
-10.334529516677797
20
-13.153983519055124
30
0
10
-10.176184346223254
20
-13.246206530418764
30
0
10
-10.169224118950527
20
-13.225325848600582
30
0
10
-10.400651675768708
20
-13.359310223600581
30
0
0
SPLINE
5
838
100
AcDbEntity
8
0
100
AcDbSpline
70
4
71
3
72
8
73
4
74
0
42
0.000000001
43
0.0000000001
44
0.0000000001
40
0
40
0
40
0
40
0
40
1
40
1
40
1
40
1
41
1
41
1
41
1
41
1
10
-10.400651675768708
20
-13.359310223600581
30
0
10
-10.480694289405072
20
-13.404551700873306
30
0
10
-10.545076391677799
20
-13.444573007691488
30
0
10
-10.545076391677799
20
-13.448053121327851
30
0
0
SPLINE
5
839
100
AcDbEntity
8
0
100
AcDbSpline
70
4
71
3
72
8
73
4
74
0
42
0.000000001
43
0.0000000001
44
0.0000000001
40
0
40
0
40
0
40
0
40
1
40
1
40
1
40
1
41
1
41
1
41
1
41
1
10
-10.545076391677799
20
-13.448053121327851
30
0
10
-10.545076391677799
20
-13.451533234964216
30
0
10
-10.50505508485962
20
-13.475894030418763
30
0
10
-10.458073550768711
20
-13.501994882691488
30
0
0
SPLINE
5
840
100
AcDbEntity
8
0
100
AcDbSpline
70
4
71
3
72
8
73
4
74
0
42
0.000000001
43
0.0000000001
44
0.0000000001
40
0
40
0
40
0
40
0
40
1
40
1
40
1
40
1
41
1
41
1
41
1
41
1
10
-10.458073550768711
20
-13.501994882691488
30
0
10
-10.372810766677798
20
-13.548976416782399
30
0
10
-10.371070709859618
20
-13.550716473600582
30
0
10
-10.371070709859618
20
-13.632499144055124
30
0
0
SPLINE
5
841
100
AcDbEntity
8
0
100
AcDbSpline
70
4
71
3
72
8
73
4
74
0
42
0.000000001
43
0.0000000001
44
0.0000000001
40
0
40
0
40
0
40
0
40
1
40
1
40
1
40
1
41
1
41
1
41
1
41
1
10
-10.371070709859618
20
-13.632499144055124
30
0
10
-10.371070709859618
20
-13.710801700873306
30
0
10
-10.374550823495984
20
-13.716021871327856
30
0
10
-10.444153096223257
20
-13.757783234964219
30
0
0
LINE
5
842
100
AcDbEntity
8
0
100
AcDbLine
10
-10.444153096223257
20
-13.757783234964215
30
0
11
-10.518975539405075
21
-13.803024712236946
31
0
0
LINE
5
843
100
AcDbEntity
8
0
100
AcDbLine
10
-10.518975539405075
20
-13.803024712236946
30
0
11
-10.60945849395053
21
-13.750823007691489
31
0
0
LINE
5
844
100
AcDbEntity
8
0
100
AcDbLine
10
-10.60945849395053
20
-13.750823007691489
30
0
11
-10.701681505314161
21
-13.700361359964216
31
0
0
LINE
5
845
100
AcDbEntity
8
0
100
AcDbLine
10
-10.701681505314161
20
-13.700361359964216
30
0
11
-10.701681505314165
21
-13.900467894055126
31
0
0
SPLINE
5
846
100
AcDbEntity
8
0
100
AcDbSpline
70
4
71
3
72
8
73
4
74
0
42
0.000000001
43
0.0000000001
44
0.0000000001
40
0
40
0
40
0
40
0
40
1
40
1
40
1
40
1
41
1
41
1
41
1
41
1
10
-10.701681505314165
20
-13.900467894055126
30
0
10
-10.701681505314165
20
-14.010091473600582
30
0
10
-10.705161618950527
20
-14.100574428146036
30
0
10
-10.710381789405073
20
-14.100574428146036
30
0
0
SPLINE
5
847
100
AcDbEntity
8
0
100
AcDbSpline
70
4
71
3
72
8
73
4
74
0
42
0.000000001
43
0.0000000001
44
0.0000000001
40
0
40
0
40
0
40
0
40
1
40
1
40
1
40
1
41
1
41
1
41
1
41
1
10
-10.710381789405073
20
-14.100574428146036
30
0
10
-10.715601959859619
20
-14.100574428146036
30
0
10
-10.781724118950526
20
-14.064033234964219
30
0
10
-10.858286618950528
20
-14.020531814509672
30
0
0
LINE
5
848
100
AcDbEntity
8
0
100
AcDbLine
10
-10.858286618950528
20
-14.020531814509672
30
0
11
-10.997491164405073
21
-13.938749144055125
31
0
0
LINE
5
849
100
AcDbEntity
8
0
100
AcDbLine
10
-10.997491164405073
20
-13.938749144055125
30
0
11
-10.997491164405073
21
-13.528095734964216
31
0
0
LINE
5
850
100
AcDbEntity
8
0
100
AcDbLine
10
-10.997491164405073
20
-13.528095734964216
30
0
11
-11.07057355076871
21
-13.484594314509671
31
0
0
LINE
5
851
100
AcDbEntity
8
0
100
AcDbLine
10
-11.07057355076871
20
-13.484594314509671
30
0
11
-11.14539599395053
21
-13.439352837236942
31
0
0
LINE
5
852
100
AcDbEntity
8
0
100
AcDbLine
10
-11.14539599395053
20
-13.439352837236942
30
0
11
-11.150616164405072
21
-13.641199428146036
31
0
0
SPLINE
5
853
100
AcDbEntity
8
0
100
AcDbSpline
70
4
71
3
72
8
73
4
74
0
42
0.000000001
43
0.0000000001
44
0.0000000001
40
0
40
0
40
0
40
0
40
1
40
1
40
1
40
1
41
1
41
1
41
1
41
1
10
-11.150616164405072
20
-13.641199428146036
30
0
10
-11.152356221223252
20
-13.750823007691489
30
0
10
-11.161056505314166
20
-13.839565905418761
30
0
10
-11.168016732586892
20
-13.8360857917824
30
0
0
SPLINE
5
854
100
AcDbEntity
8
0
100
AcDbSpline
70
4
71
3
72
8
73
4
74
0
42
0.000000001
43
0.0000000001
44
0.0000000001
40
0
40
0
40
0
40
0
40
1
40
1
40
1
40
1
41
1
41
1
41
1
41
1
10
-11.168016732586892
20
-13.8360857917824
30
0
10
-11.17497695985962
20
-13.832605678146034
30
0
10
-11.241099118950528
20
-13.797804541782398
30
0
10
-11.315921562132345
20
-13.756043178146035
30
0
0
LINE
5
855
100
AcDbEntity
8
0
100
AcDbLine
10
-11.315921562132345
20
-13.756043178146035
30
0
11
-11.449905937132348
21
-13.681220734964219
31
0
0
LINE
5
856
100
AcDbEntity
8
0
100
AcDbLine
10
-11.449905937132348
20
-13.681220734964219
30
0
11
-11.449905937132348
21
-13.267087212236945
31
0
0
LINE
5
857
100
AcDbEntity
8
0
100
AcDbLine
10
-11.449905937132348
20
-13.267087212236945
30
0
11
-11.613471278041434
21
-13.171384087236945
31
0
0
SPLINE
5
858
100
AcDbEntity
8
0
100
AcDbSpline
70
4
71
3
72
8
73
4
74
0
42
0.000000001
43
0.0000000001
44
0.0000000001
40
0
40
0
40
0
40
0
40
1
40
1
40
1
40
1
41
1
41
1
41
1
41
1
10
-11.613471278041436
20
-13.171384087236945
30
0
10
-11.703954232586891
20
-13.117442325873307
30
0
10
-11.787476959859621
20
-13.073940905418763
30
0
10
-11.796177243950529
20
-13.073940905418763
30
0
0
SPLINE
5
859
100
AcDbEntity
8
0
100
AcDbSpline
70
4
71
3
72
8
73
4
74
0
42
0.000000001
43
0.0000000001
44
0.0000000001
40
0
40
0
40
0
40
0
40
1
40
1
40
1
40
1
41
1
41
1
41
1
41
1
10
-11.796177243950529
20
-13.073940905418763
30
0
10
-11.80661758485962
20
-13.073940905418763
30
0
10
-11.81531786895053
20
-13.108742041782399
30
0
10
-11.81531786895053
20
-13.152243462236942
30
0
0
SPLINE
5
860
100
AcDbEntity
8
0
100
AcDbSpline
70
4
71
3
72
8
73
4
74
0
42
0.000000001
43
0.0000000001
44
0.0000000001
40
0
40
0
40
0
40
0
40
1
40
1
40
1
40
1
41
1
41
1
41
1
41
1
10
-11.81531786895053
20
-13.152243462236942
30
0
10
-11.81531786895053
20
-13.218365621327854
30
0
10
-11.81009769849598
20
-13.230546019055124
30
0
10
-11.782256789405071
20
-13.230546019055124
30
0
0
SPLINE
5
861
100
AcDbEntity
8
0
100
AcDbSpline
70
4
71
3
72
8
73
4
74
0
42
0.000000001
43
0.0000000001
44
0.0000000001
40
0
40
0
40
0
40
0
40
1
40
1
40
1
40
1
41
1
41
1
41
1
41
1
10
-11.782256789405071
20
-13.230546019055124
30
0
10
-11.763116164405075
20
-13.230546019055124
30
0
10
-11.724834914405076
20
-13.251426700873306
30
0
10
-11.695253948495983
20
-13.275787496327853
30
0
0
SPLINE
5
862
100
AcDbEntity
8
0
100
AcDbSpline
70
4
71
3
72
8
73
4
74
0
42
0.000000001
43
0.0000000001
44
0.0000000001
40
0
40
0
40
0
40
0
40
1
40
1
40
1
40
1
41
1
41
1
41
1
41
1
10
-11.695253948495983
20
-13.275787496327853
30
0
10
-11.596070709859617
20
-13.359310223600581
30
0
10
-11.608251107586893
20
-13.508955109964218
30
0
10
-11.71961474395053
20
-13.578557382691487
30
0
0
SPLINE
5
863
100
AcDbEntity
8
0
100
AcDbSpline
70
4
71
3
72
8
73
4
74
0
42
0.000000001
43
0.0000000001
44
0.0000000001
40
0
40
0
40
0
40
0
40
1
40
1
40
1
40
1
41
1
41
1
41
1
41
1
10
-11.71961474395053
20
-13.578557382691487
30
0
10
-11.804877528041438
20
-13.630759087236944
30
0
10
-11.874479800768711
20
-13.623798859964216
30
0
10
-11.951042300768711
20
-13.554196587236945
30
0
0
SPLINE
5
864
100
AcDbEntity
8
0
100
AcDbSpline
70
4
71
3
72
8
73
4
74
0
42
0.000000001
43
0.0000000001
44
0.0000000001
40
0
40
0
40
0
40
0
40
1
40
1
40
1
40
1
41
1
41
1
41
1
41
1
10
-11.951042300768711
20
-13.554196587236945
30
0
10
-12.01020423258689
20
-13.498514769055125
30
0
10
-12.015424403041436
20
-13.486334371327853
30
0
10
-12.011944289405074
20
-13.408031814509672
30
0
0
SPLINE
5
865
100
AcDbEntity
8
0
100
AcDbSpline
70
4
71
3
72
8
73
4
74
0
42
0.000000001
43
0.0000000001
44
0.0000000001
40
0
40
0
40
0
40
0
40
1
40
1
40
1
40
1
41
1
41
1
41
1
41
1
10
-12.011944289405074
20
-13.408031814509672
30
0
10
-12.00846417576871
20
-13.326249144055124
30
0
10
-12.01020423258689
20
-13.321028973600582
30
0
10
-12.078066448495983
20
-13.284487780418761
30
0
0
LINE
5
866
100
AcDbEntity
8
0
100
AcDbLine
10
-12.078066448495983
20
-13.284487780418761
30
0
11
-12.147668721223253
21
-13.244466473600582
31
0
0
LINE
5
867
100
AcDbEntity
8
0
100
AcDbLine
10
-12.147668721223253
20
-13.244466473600582
30
0
11
-12.137228380314166
21
-13.672520450873307
31
0
0
LINE
5
868
100
AcDbEntity
8
0
100
AcDbLine
10
-12.137228380314166
20
-13.672520450873307
30
0
11
-11.958002528041439
21
-13.775183803146035
31
0
0
LINE
5
869
100
AcDbEntity
8
0
100
AcDbLine
10
-11.958002528041439
20
-13.775183803146035
30
0
11
-11.780516732586891
21
-13.877847155418763
31
0
0
LINE
5
870
100
AcDbEntity
8
0
100
AcDbLine
10
-11.780516732586891
20
-13.877847155418763
30
0
11
-11.780516732586891
21
-14.041412496327853
31
0
0
SPLINE
5
871
100
AcDbEntity
8
0
100
AcDbSpline
70
4
71
3
72
8
73
4
74
0
42
0.000000001
43
0.0000000001
44
0.0000000001
40
0
40
0
40
0
40
0
40
1
40
1
40
1
40
1
41
1
41
1
41
1
41
1
10
-11.780516732586891
20
-14.041412496327853
30
0
10
-11.780516732586891
20
-14.131895450873307
30
0
10
-11.783996846223255
20
-14.204977837236942
30
0
10
-11.790957073495983
20
-14.204977837236942
30
0
0
SPLINE
5
872
100
AcDbEntity
8
0
100
AcDbSpline
70
4
71
3
72
8
73
4
74
0
42
0.000000001
43
0.0000000001
44
0.0000000001
40
0
40
0
40
0
40
0
40
1
40
1
40
1
40
1
41
1
41
1
41
1
41
1
10
-11.790957073495983
20
-14.204977837236942
30
0
10
-11.796177243950529
20
-14.204977837236942
30
0
10
-11.874479800768711
20
-14.161476416782397
30
0
10
-11.964962755314165
20
-14.109274712236944
30
0
0
SPLINE
5
873
100
AcDbEntity
8
0
100
AcDbSpline
70
4
71
3
72
8
73
4
74
0
42
0.000000001
43
0.0000000001
44
0.0000000001
40
0
40
0
40
0
40
0
40
1
40
1
40
1
40
1
41
1
41
1
41
1
41
1
10
-11.964962755314165
20
-14.109274712236944
30
0
10
-12.057185766677801
20
-14.057073007691489
30
0
10
-12.135488323495981
20
-14.013571587236942
30
0
10
-12.138968437132343
20
-14.013571587236942
30
0
0
SPLINE
5
874
100
AcDbEntity
8
0
100
AcDbSpline
70
4
71
3
72
8
73
4
74
0
42
0.000000001
43
0.0000000001
44
0.0000000001
40
0
40
0
40
0
40
0
40
1
40
1
40
1
40
1
41
1
41
1
41
1
41
1
10
-12.138968437132343
20
-14.013571587236942
30
0
10
-12.144188607586893
20
-14.013571587236942
30
0
10
-12.145928664405075
20
-14.053592894055127
30
0
10
-12.142448550768709
20
-14.104054541782398
30
0
0
LINE
5
875
100
AcDbEntity
8
0
100
AcDbLine
10
-12.142448550768709
20
-14.104054541782398
30
0
11
-12.137228380314166
21
-14.194537496327854
31
0
0
LINE
5
876
100
AcDbEntity
8
0
100
AcDbLine
10
-12.137228380314166
20
-14.194537496327854
30
0
11
-11.958002528041439
21
-14.29720084860058
31
0
0
LINE
5
877
100
AcDbEntity
8
0
100
AcDbLine
10
-11.958002528041439
20
-14.29720084860058
30
0
11
-11.780516732586893
21
-14.399864200873308
31
0
0
LINE
5
878
100
AcDbEntity
8
0
100
AcDbLine
10
-11.780516732586893
20
-14.399864200873308
30
0
11
-11.780516732586891
21
-14.563429541782398
31
0
0
SPLINE
5
879
100
AcDbEntity
8
0
100
AcDbSpline
70
4
71
3
72
8
73
4
74
0
42
0.000000001
43
0.0000000001
44
0.0000000001
40
0
40
0
40
0
40
0
40
1
40
1
40
1
40
1
41
1
41
1
41
1
41
1
10
-11.780516732586891
20
-14.563429541782398
30
0
10
-11.780516732586891
20
-14.653912496327854
30
0
10
-11.783996846223257
20
-14.726994882691487
30
0
10
-11.790957073495983
20
-14.726994882691487
30
0
0
SPLINE
5
880
100
AcDbEntity
8
0
100
AcDbSpline
70
4
71
3
72
8
73
4
74
0
42
0.000000001
43
0.0000000001
44
0.0000000001
40
0
40
0
40
0
40
0
40
1
40
1
40
1
40
1
41
1
41
1
41
1
41
1
10
-11.790957073495983
20
-14.726994882691487
30
0
10
-11.796177243950529
20
-14.726994882691487
30
0
10
-11.874479800768711
20
-14.683493462236942
30
0
10
-11.964962755314165
20
-14.631291757691489
30
0
0
SPLINE
5
881
100
AcDbEntity
8
0
100
AcDbSpline
70
4
71
3
72
8
73
4
74
0
42
0.000000001
43
0.0000000001
44
0.0000000001
40
0
40
0
40
0
40
0
40
1
40
1
40
1
40
1
41
1
41
1
41
1
41
1
10
-11.964962755314165
20
-14.631291757691489
30
0
10
-12.057185766677801
20
-14.579090053146034
30
0
10
-12.133748266677804
20
-14.535588632691489
30
0
10
-12.138968437132347
20
-14.535588632691489
30
0
0
SPLINE
5
882
100
AcDbEntity
8
0
100
AcDbSpline
70
4
71
3
72
8
73
4
74
0
42
0.000000001
43
0.0000000001
44
0.0000000001
40
0
40
0
40
0
40
0
40
1
40
1
40
1
40
1
41
1
41
1
41
1
41
1
10
-12.138968437132347
20
-14.535588632691489
30
0
10
-12.142448550768709
20
-14.535588632691489
30
0
10
-12.145928664405075
20
-14.580830109964218
30
0
10
-12.145928664405075
20
-14.636511928146033
30
0
0
SPLINE
5
883
100
AcDbEntity
8
0
100
AcDbSpline
70
4
71
3
72
8
73
4
74
0
42
0.000000001
43
0.0000000001
44
0.0000000001
40
0
40
0
40
0
40
0
40
1
40
1
40
1
40
1
41
1
41
1
41
1
41
1
10
-12.145928664405075
20
-14.636511928146033
30
0
10
-12.145928664405075
20
-14.735695166782396
30
0
10
-12.147668721223255
20
-14.739175280418761
30
0
10
-12.213790880314166
20
-14.775716473600582
30
0
0
SPLINE
5
884
100
AcDbEntity
8
0
100
AcDbSpline
70
4
71
3
72
8
73
4
74
0
42
0.000000001
43
0.0000000001
44
0.0000000001
40
0
40
0
40
0
40
0
40
1
40
1
40
1
40
1
41
1
41
1
41
1
41
1
10
-16.108167283642167
20
-14.658912526255611
30
0
10
-16.120347681369442
20
-14.660652583073798
30
0
10
-16.355255351823988
20
-14.380503435346526
30
0
10
-16.633664442733078
20
-14.037712242164705
30
0
0
SPLINE
5
885
100
AcDbEntity
8
0
100
AcDbSpline
70
4
71
3
72
8
73
4
74
0
42
0.000000001
43
0.0000000001
44
0.0000000001
40
0
40
0
40
0
40
0
40
1
40
1
40
1
40
1
41
1
41
1
41
1
41
1
10
-16.633664442733078
20
-14.037712242164705
30
0
10
-16.91033347682399
20
-13.693180992164708
30
0
10
-17.138280920005808
20
-13.402591503528345
30
0
10
-17.138280920005808
20
-13.392151162619253
30
0
0
SPLINE
5
886
100
AcDbEntity
8
0
100
AcDbSpline
70
4
71
3
72
8
73
4
74
0
42
0.000000001
43
0.0000000001
44
0.0000000001
40
0
40
0
40
0
40
0
40
1
40
1
40
1
40
1
41
1
41
1
41
1
41
1
10
-17.138280920005808
20
-13.392151162619253
30
0
10
-17.138280920005808
20
-13.379970764891979
30
0
10
-17.070418704096717
20
-13.34864974216471
30
0
10
-16.985155920005806
20
-13.320808833073796
30
0
0
SPLINE
5
887
100
AcDbEntity
8
0
100
AcDbSpline
70
4
71
3
72
8
73
4
74
0
42
0.000000001
43
0.0000000001
44
0.0000000001
40
0
40
0
40
0
40
0
40
1
40
1
40
1
40
1
41
1
41
1
41
1
41
1
10
-16.985155920005806
20
-13.320808833073796
30
0
10
-16.901633192733076
20
-13.291227867164706
30
0
10
-16.833770976823985
20
-13.263386958073797
30
0
10
-16.833770976823985
20
-13.258166787619254
30
0
0
SPLINE
5
888
100
AcDbEntity
8
0
100
AcDbSpline
70
4
71
3
72
8
73
4
74
0
42
0.000000001
43
0.0000000001
44
0.0000000001
40
0
40
0
40
0
40
0
40
1
40
1
40
1
40
1
41
1
41
1
41
1
41
1
10
-16.833770976823985
20
-13.258166787619254
30
0
10
-16.833770976823985
20
-13.251206560346528
30
0
10
-16.99733631773308
20
-13.014558833073799
30
0
10
-17.19744285182399
20
-12.732669628528344
30
0
0
SPLINE
5
889
100
AcDbEntity
8
0
100
AcDbSpline
70
4
71
3
72
8
73
4
74
0
42
0.000000001
43
0.0000000001
44
0.0000000001
40
0
40
0
40
0
40
0
40
1
40
1
40
1
40
1
41
1
41
1
41
1
41
1
10
-17.19744285182399
20
-12.732669628528344
30
0
10
-17.395809329096718
20
-12.45078042398289
30
0
10
-17.555894556369445
20
-12.214132696710164
30
0
10
-17.552414442733077
20
-12.207172469437433
30
0
0
SPLINE
5
890
100
AcDbEntity
8
0
100
AcDbSpline
70
4
71
3
72
8
73
4
74
0
42
0.000000001
43
0.0000000001
44
0.0000000001
40
0
40
0
40
0
40
0
40
1
40
1
40
1
40
1
41
1
41
1
41
1
41
1
10
-17.552414442733077
20
-12.207172469437433
30
0
10
-17.548934329096713
20
-12.198472185346525
30
0
10
-17.423650238187623
20
-12.193252014891982
30
0
10
-17.275745408642173
20
-12.193252014891982
30
0
0
SPLINE
5
891
100
AcDbEntity
8
0
100
AcDbSpline
70
4
71
3
72
8
73
4
74
0
42
0.000000001
43
0.0000000001
44
0.0000000001
40
0
40
0
40
0
40
0
40
1
40
1
40
1
40
1
41
1
41
1
41
1
41
1
10
-17.275745408642173
20
-12.193252014891982
30
0
10
-17.127840579096713
20
-12.193252014891982
30
0
10
-17.007776658642168
20
-12.189771901255616
30
0
10
-17.007776658642168
20
-12.184551730801068
30
0
0
SPLINE
5
892
100
AcDbEntity
8
0
100
AcDbSpline
70
4
71
3
72
8
73
4
74
0
42
0.000000001
43
0.0000000001
44
0.0000000001
40
0
40
0
40
0
40
0
40
1
40
1
40
1
40
1
41
1
41
1
41
1
41
1
10
-17.007776658642168
20
-12.184551730801068
30
0
10
-17.007776658642168
20
-12.181071617164708
30
0
10
-17.261824954096713
20
-11.753017639891979
30
0
10
-17.573295124551262
20
-11.236220764891979
30
0
0
SPLINE
5
893
100
AcDbEntity
8
0
100
AcDbSpline
70
4
71
3
72
8
73
4
74
0
42
0.000000001
43
0.0000000001
44
0.0000000001
40
0
40
0
40
0
40
0
40
1
40
1
40
1
40
1
41
1
41
1
41
1
41
1
10
-17.573295124551262
20
-11.236220764891979
30
0
10
-17.884765295005806
20
-10.719423889891981
30
0
10
-18.138813590460352
20
-10.287889798982887
30
0
10
-18.138813590460352
20
-10.279189514891979
30
0
0
SPLINE
5
894
100
AcDbEntity
8
0
100
AcDbSpline
70
4
71
3
72
8
73
4
74
0
42
0.000000001
43
0.0000000001
44
0.0000000001
40
0
40
0
40
0
40
0
40
1
40
1
40
1
40
1
41
1
41
1
41
1
41
1
10
-18.138813590460352
20
-10.279189514891979
30
0
10
-18.138813590460352
20
-10.258308833073801
30
0
10
-14.091441431369441
20
-10.254828719437436
30
0
10
-14.079261033642169
20
-10.275709401255618
30
0
0
SPLINE
5
895
100
AcDbEntity
8
0
100
AcDbSpline
70
4
71
3
72
8
73
4
74
0
42
0.000000001
43
0.0000000001
44
0.0000000001
40
0
40
0
40
0
40
0
40
1
40
1
40
1
40
1
41
1
41
1
41
1
41
1
10
-14.079261033642169
20
-10.275709401255618
30
0
10
-14.074040863187623
20
-10.282669628528344
30
0
10
-14.328089158642175
20
-10.714203719437434
30
0
10
-14.641299385914902
20
-11.236220764891984
30
0
0
LINE
5
896
100
AcDbEntity
8
0
100
AcDbLine
10
-14.641299385914902
20
-11.236220764891984
30
0
11
-15.213778079096718
21
-12.184551730801074
31
0
0
LINE
5
897
100
AcDbEntity
8
0
100
AcDbLine
10
-15.213778079096718
20
-12.184551730801074
30
0
11
-14.933628931369443
21
-12.189771901255616
31
0
0
SPLINE
5
898
100
AcDbEntity
8
0
100
AcDbSpline
70
4
71
3
72
8
73
4
74
0
42
0.000000001
43
0.0000000001
44
0.0000000001
40
0
40
0
40
0
40
0
40
1
40
1
40
1
40
1
41
1
41
1
41
1
41
1
10
-14.933628931369443
20
-12.189771901255616
30
0
10
-14.705681488187622
20
-12.193252014891982
30
0
10
-14.656959897278533
20
-12.198472185346525
30
0
10
-14.663920124551259
20
-12.217612810346525
30
0
0
SPLINE
5
899
100
AcDbEntity
8
0
100
AcDbSpline
70
4
71
3
72
8
73
4
74
0
42
0.000000001
43
0.0000000001
44
0.0000000001
40
0
40
0
40
0
40
0
40
1
40
1
40
1
40
1
41
1
41
1
41
1
41
1
10
-14.663920124551259
20
-12.217612810346525
30
0
10
-14.669140295005805
20
-12.231533264891981
30
0
10
-14.836185749551257
20
-12.471661105801072
30
0
10
-15.032812170005808
20
-12.751810253528344
30
0
0
LINE
5
900
100
AcDbEntity
8
0
100
AcDbLine
10
-15.032812170005805
20
-12.751810253528344
30
0
11
-15.39126387455126
21
-13.26164690125562
31
0
0
LINE
5
901
100
AcDbEntity
8
0
100
AcDbLine
10
-15.39126387455126
20
-13.26164690125562
30
0
11
-15.234658760914897
21
-13.315588662619254
31
0
0
SPLINE
5
902
100
AcDbEntity
8
0
100
AcDbSpline
70
4
71
3
72
8
73
4
74
0
42
0.000000001
43
0.0000000001
44
0.0000000001
40
0
40
0
40
0
40
0
40
1
40
1
40
1
40
1
41
1
41
1
41
1
41
1
10
-15.234658760914897
20
-13.315588662619254
30
0
10
-15.149395976823984
20
-13.343429571710162
30
0
10
-15.07457353364217
20
-13.373010537619253
30
0
10
-15.067613306369447
20
-13.378230708073797
30
0
0
SPLINE
5
903
100
AcDbEntity
8
0
100
AcDbSpline
70
4
71
3
72
8
73
4
74
0
42
0.000000001
43
0.0000000001
44
0.0000000001
40
0
40
0
40
0
40
0
40
1
40
1
40
1
40
1
41
1
41
1
41
1
41
1
10
-15.067613306369447
20
-13.378230708073797
30
0
10
-15.055432908642167
20
-13.392151162619253
30
0
10
-16.080326374551259
20
-14.653692355801068
30
0
10
-16.108167283642167
20
-14.658912526255611
30
0
0
SPLINE
5
904
100
AcDbEntity
8
0
100
AcDbSpline
70
4
71
3
72
8
73
4
74
0
42
0.000000001
43
0.0000000001
44
0.0000000001
40
0
40
0
40
0
40
0
40
1
40
1
40
1
40
1
41
1
41
1
41
1
41
1
10
-15.829758192733079
20
-13.825425310346525
30
0
10
-15.787996829096711
20
-13.87414690125561
30
0
10
-15.746235465460353
20
-13.915908264891975
30
0
10
-15.739275238187624
20
-13.915908264891975
30
0
0
SPLINE
5
905
100
AcDbEntity
8
0
100
AcDbSpline
70
4
71
3
72
8
73
4
74
0
42
0.000000001
43
0.0000000001
44
0.0000000001
40
0
40
0
40
0
40
0
40
1
40
1
40
1
40
1
41
1
41
1
41
1
41
1
10
-15.739275238187624
20
-13.915908264891975
30
0
10
-15.732315010914897
20
-13.915908264891975
30
0
10
-15.688813590460345
20
-13.875886958073799
30
0
10
-15.641832056369443
20
-13.82890542398289
30
0
0
SPLINE
5
906
100
AcDbEntity
8
0
100
AcDbSpline
70
4
71
3
72
8
73
4
74
0
42
0.000000001
43
0.0000000001
44
0.0000000001
40
0
40
0
40
0
40
0
40
1
40
1
40
1
40
1
41
1
41
1
41
1
41
1
10
-15.641832056369443
20
-13.82890542398289
30
0
10
-15.579190010914898
20
-13.764523321710165
30
0
10
-15.561789442733076
20
-13.736682412619251
30
0
10
-15.577449954096718
20
-13.726242071710153
30
0
0
SPLINE
5
907
100
AcDbEntity
8
0
100
AcDbSpline
70
4
71
3
72
8
73
4
74
0
42
0.000000001
43
0.0000000001
44
0.0000000001
40
0
40
0
40
0
40
0
40
1
40
1
40
1
40
1
41
1
41
1
41
1
41
1
10
-15.577449954096718
20
-13.726242071710153
30
0
10
-15.593110465460352
20
-13.715801730801068
30
0
10
-15.591370408642172
20
-13.705361389891983
30
0
10
-15.563529499551263
20
-13.681000594437434
30
0
0
SPLINE
5
908
100
AcDbEntity
8
0
100
AcDbSpline
70
4
71
3
72
8
73
4
74
0
42
0.000000001
43
0.0000000001
44
0.0000000001
40
0
40
0
40
0
40
0
40
1
40
1
40
1
40
1
41
1
41
1
41
1
41
1
10
-15.563529499551263
20
-13.681000594437434
30
0
10
-15.542648817733079
20
-13.66185996943743
30
0
10
-15.532208476823984
20
-13.637499173982892
30
0
10
-15.537428647278535
20
-13.618358548982892
30
0
0
SPLINE
5
909
100
AcDbEntity
8
0
100
AcDbSpline
70
4
71
3
72
8
73
4
74
0
42
0.000000001
43
0.0000000001
44
0.0000000001
40
0
40
0
40
0
40
0
40
1
40
1
40
1
40
1
41
1
41
1
41
1
41
1
10
-15.537428647278535
20
-13.618358548982892
30
0
10
-15.544388874551261
20
-13.599217923982891
30
0
10
-15.526988306369445
20
-13.559196617164709
30
0
10
-15.49566728364217
20
-13.513955139891983
30
0
0
SPLINE
5
910
100
AcDbEntity
8
0
100
AcDbSpline
70
4
71
3
72
8
73
4
74
0
42
0.000000001
43
0.0000000001
44
0.0000000001
40
0
40
0
40
0
40
0
40
1
40
1
40
1
40
1
41
1
41
1
41
1
41
1
10
-15.49566728364217
20
-13.513955139891983
30
0
10
-15.466086317733081
20
-13.473933833073795
30
0
10
-15.446945692733081
20
-13.435652583073802
30
0
10
-15.452165863187627
20
-13.426952298982894
30
0
0
SPLINE
5
911
100
AcDbEntity
8
0
100
AcDbSpline
70
4
71
3
72
8
73
4
74
0
42
0.000000001
43
0.0000000001
44
0.0000000001
40
0
40
0
40
0
40
0
40
1
40
1
40
1
40
1
41
1
41
1
41
1
41
1
10
-15.452165863187627
20
-13.426952298982894
30
0
10
-15.457386033642168
20
-13.41825201489198
30
0
10
-15.504367567733079
20
-13.411291787619254
30
0
10
-15.556569272278532
20
-13.411291787619254
30
0
0
SPLINE
5
912
100
AcDbEntity
8
0
100
AcDbSpline
70
4
71
3
72
8
73
4
74
0
42
0.000000001
43
0.0000000001
44
0.0000000001
40
0
40
0
40
0
40
0
40
1
40
1
40
1
40
1
41
1
41
1
41
1
41
1
10
-15.556569272278532
20
-13.411291787619254
30
0
10
-15.648792283642166
20
-13.411291787619254
30
0
10
-15.650532340460352
20
-13.411291787619254
30
0
10
-15.650532340460352
20
-13.359090083073797
30
0
0
SPLINE
5
913
100
AcDbEntity
8
0
100
AcDbSpline
70
4
71
3
72
8
73
4
74
0
42
0.000000001
43
0.0000000001
44
0.0000000001
40
0
40
0
40
0
40
0
40
1
40
1
40
1
40
1
41
1
41
1
41
1
41
1
10
-15.650532340460352
20
-13.359090083073797
30
0
10
-15.650532340460352
20
-13.310368492164706
30
0
10
-15.654012454096717
20
-13.306888378528345
30
0
10
-15.718394556369443
20
-13.306888378528345
30
0
0
SPLINE
5
914
100
AcDbEntity
8
0
100
AcDbSpline
70
4
71
3
72
8
73
4
74
0
42
0.000000001
43
0.0000000001
44
0.0000000001
40
0
40
0
40
0
40
0
40
1
40
1
40
1
40
1
41
1
41
1
41
1
41
1
10
-15.718394556369443
20
-13.306888378528345
30
0
10
-15.781036601823988
20
-13.306888378528345
30
0
10
-15.787996829096711
20
-13.312108548982888
30
0
10
-15.793216999551259
20
-13.355609969437436
30
0
0
SPLINE
5
915
100
AcDbEntity
8
0
100
AcDbSpline
70
4
71
3
72
8
73
4
74
0
42
0.000000001
43
0.0000000001
44
0.0000000001
40
0
40
0
40
0
40
0
40
1
40
1
40
1
40
1
41
1
41
1
41
1
41
1
10
-15.793216999551259
20
-13.355609969437436
30
0
10
-15.79843717000581
20
-13.39911138989198
30
0
10
-15.805397397278533
20
-13.402591503528345
30
0
10
-15.87673972682399
20
-13.404331560346527
30
0
0
SPLINE
5
916
100
AcDbEntity
8
0
100
AcDbSpline
70
4
71
3
72
8
73
4
74
0
42
0.000000001
43
0.0000000001
44
0.0000000001
40
0
40
0
40
0
40
0
40
1
40
1
40
1
40
1
41
1
41
1
41
1
41
1
10
-15.87673972682399
20
-13.404331560346527
30
0
10
-15.991583476823989
20
-13.407811673982893
30
0
10
-15.998543704096718
20
-13.40955173080107
30
0
10
-15.998543704096718
20
-13.430432412619254
30
0
0
SPLINE
5
917
100
AcDbEntity
8
0
100
AcDbSpline
70
4
71
3
72
8
73
4
74
0
42
0.000000001
43
0.0000000001
44
0.0000000001
40
0
40
0
40
0
40
0
40
1
40
1
40
1
40
1
41
1
41
1
41
1
41
1
10
-15.998543704096718
20
-13.430432412619254
30
0
10
-15.998543704096718
20
-13.440872753528344
30
0
10
-15.977663022278533
20
-13.475673889891979
30
0
10
-15.95330222682399
20
-13.506994912619252
30
0
0
SPLINE
5
918
100
AcDbEntity
8
0
100
AcDbSpline
70
4
71
3
72
8
73
4
74
0
42
0.000000001
43
0.0000000001
44
0.0000000001
40
0
40
0
40
0
40
0
40
1
40
1
40
1
40
1
41
1
41
1
41
1
41
1
10
-15.95330222682399
20
-13.506994912619252
30
0
10
-15.921981204096715
20
-13.548756276255618
30
0
10
-15.911540863187627
20
-13.578337242164709
30
0
10
-15.920241147278535
20
-13.602698037619252
30
0
0
SPLINE
5
919
100
AcDbEntity
8
0
100
AcDbSpline
70
4
71
3
72
8
73
4
74
0
42
0.000000001
43
0.0000000001
44
0.0000000001
40
0
40
0
40
0
40
0
40
1
40
1
40
1
40
1
41
1
41
1
41
1
41
1
10
-15.920241147278535
20
-13.602698037619252
30
0
10
-15.927201374551265
20
-13.6270588330738
30
0
10
-15.921981204096715
20
-13.651419628528343
30
0
10
-15.901100522278533
20
-13.674040367164704
30
0
0
SPLINE
5
920
100
AcDbEntity
8
0
100
AcDbSpline
70
4
71
3
72
8
73
4
74
0
42
0.000000001
43
0.0000000001
44
0.0000000001
40
0
40
0
40
0
40
0
40
1
40
1
40
1
40
1
41
1
41
1
41
1
41
1
10
-15.901100522278533
20
-13.674040367164704
30
0
10
-15.878479783642174
20
-13.698401162619252
30
0
10
-15.874999670005804
20
-13.712321617164703
30
0
10
-15.888920124551259
20
-13.721021901255611
30
0
0
SPLINE
5
921
100
AcDbEntity
8
0
100
AcDbSpline
70
4
71
3
72
8
73
4
74
0
42
0.000000001
43
0.0000000001
44
0.0000000001
40
0
40
0
40
0
40
0
40
1
40
1
40
1
40
1
41
1
41
1
41
1
41
1
10
-15.888920124551259
20
-13.721021901255611
30
0
10
-15.902840579096715
20
-13.729722185346519
30
0
10
-15.881959897278531
20
-13.766263378528341
30
0
10
-15.829758192733079
20
-13.825425310346525
30
0
0
ARC
5
922
100
AcDbEntity
8
0
100
AcDbCircle
10
-16.113007817264823
20
-14.347700637700438
30
0
40
0.10500000000000091
210
0
220
0
230
1
100
AcDbArc
50
-189.50384889908443
51
87.593962108276045
0
SPLINE
5
923
100
AcDbEntity
8
0
100
AcDbSpline
70
4
71
3
72
8
73
4
74
0
42
0.000000001
43
0.0000000001
44
0.0000000001
40
0.51545679123949395
40
0.51545679123949395
40
0.51545679123949395
40
0.51545679123949395
40
1
40
1
40
1
40
1
41
1
41
1
41
1
41
1
10
-16.108599818339091
20
-14.24279320447728
30
0
10
-16.106321306928624
20
-14.189931584481947
30
0
10
-16.104687170005807
20
-14.128052554879499
30
0
10
-16.104687170005807
20
-14.069033264891974
30
0
0
SPLINE
5
924
100
AcDbEntity
8
0
100
AcDbSpline
70
4
71
3
72
8
73
4
74
0
42
0.000000001
43
0.0000000001
44
0.0000000001
40
0
40
0
40
0
40
0
40
1
40
1
40
1
40
1
41
1
41
1
41
1
41
1
10
-16.104687170005807
20
-14.069033264891974
30
0
10
-16.102947113187629
20
-13.945489230801067
30
0
10
-16.106427226823985
20
-13.846305992164707
30
0
10
-16.109907340460353
20
-13.846305992164707
30
0
0
SPLINE
5
925
100
AcDbEntity
8
0
100
AcDbSpline
70
4
71
3
72
8
73
4
74
0
42
0.000000001
43
0.0000000001
44
0.0000000001
40
0
40
0
40
0
40
0
40
1
40
1
40
1
40
1
41
1
41
1
41
1
41
1
10
-16.109907340460353
20
-13.846305992164707
30
0
10
-16.113387454096717
20
-13.846305992164707
30
0
10
-16.142968420005804
20
-13.872406844437434
30
0
10
-16.177769556369444
20
-13.903727867164701
30
0
0
SPLINE
5
926
100
AcDbEntity
8
0
100
AcDbSpline
70
4
71
3
72
8
73
4
74
0
42
0.000000001
43
0.0000000001
44
0.0000000001
40
0
40
0
40
0
40
0
40
1
40
1
40
1
40
1
41
1
41
1
41
1
41
1
10
-16.177769556369444
20
-13.903727867164701
30
0
10
-16.243891715460354
20
-13.968109969437426
30
0
10
-16.372655920005812
20
-14.013351446710157
30
0
10
-16.43181785182399
20
-13.994210821710164
30
0
0
SPLINE
5
927
100
AcDbEntity
8
0
100
AcDbSpline
70
4
71
3
72
8
73
4
74
0
42
0.000000001
43
0.0000000001
44
0.0000000001
40
0
40
0
40
0
40
0
40
1
40
1
40
1
40
1
41
1
41
1
41
1
41
1
10
-16.43181785182399
20
-13.994210821710164
30
0
10
-16.452698533642174
20
-13.988990651255609
30
0
10
-16.468359045005805
20
-13.988990651255609
30
0
10
-16.468359045005805
20
-13.994210821710164
30
0
0
SPLINE
5
928
100
AcDbEntity
8
0
100
AcDbSpline
70
4
71
3
72
8
73
4
74
0
42
0.000000001
43
0.0000000001
44
0.0000000001
40
0
40
0
40
0
40
0
40
1
40
1
40
1
40
1
41
1
41
1
41
1
41
1
10
-16.468359045005805
20
-13.994210821710164
30
0
10
-16.468359045005805
20
-14.001171048982883
30
0
10
-16.391796545005807
20
-14.10383440125562
30
0
10
-16.297833476823989
20
-14.225638378528339
30
0
0
LINE
5
929
100
AcDbEntity
8
0
100
AcDbLine
10
-16.297833476823989
20
-14.225638378528339
30
0
11
-16.21656664103325
21
-14.330363682382385
31
0
0
SPLINE
5
930
100
AcDbEntity
8
0
100
AcDbSpline
70
4
71
3
72
8
73
4
74
0
42
0.000000001
43
0.0000000001
44
0.0000000001
40
0
40
0
40
0
40
0
40
1
40
1
40
1
40
1
41
1
41
1
41
1
41
1
10
-16.847691431369444
20
-11.51288979898289
30
0
10
-16.9573150109149
20
-11.699075878528346
30
0
10
-16.865091999551264
20
-12.008805992164708
30
0
10
-16.677165863187625
20
-12.087108548982892
30
0
0
SPLINE
5
931
100
AcDbEntity
8
0
100
AcDbSpline
70
4
71
3
72
8
73
4
74
0
42
0.000000001
43
0.0000000001
44
0.0000000001
40
0
40
0
40
0
40
0
40
1
40
1
40
1
40
1
41
1
41
1
41
1
41
1
10
-16.677165863187625
20
-12.087108548982892
30
0
10
-16.598863306369445
20
-12.120169628528343
30
0
10
-16.437038022278529
20
-12.097548889891982
30
0
10
-16.358735465460349
20
-12.041867071710167
30
0
0
SPLINE
5
932
100
AcDbEntity
8
0
100
AcDbSpline
70
4
71
3
72
8
73
4
74
0
42
0.000000001
43
0.0000000001
44
0.0000000001
40
0
40
0
40
0
40
0
40
1
40
1
40
1
40
1
41
1
41
1
41
1
41
1
10
-16.358735465460349
20
-12.041867071710167
30
0
10
-16.26999256773308
20
-11.980965083073801
30
0
10
-16.212570692733081
20
-11.869601446710162
30
0
10
-16.186469840460354
20
-11.716476446710162
30
0
0
SPLINE
5
933
100
AcDbEntity
8
0
100
AcDbSpline
70
4
71
3
72
8
73
4
74
0
42
0.000000001
43
0.0000000001
44
0.0000000001
40
0
40
0
40
0
40
0
40
1
40
1
40
1
40
1
41
1
41
1
41
1
41
1
10
-16.186469840460354
20
-11.716476446710162
30
0
10
-16.139488306369444
20
-11.429367071710164
30
0
10
-16.31001387455126
20
-11.178798889891985
30
0
10
-16.581462738187621
20
-11.135297469437436
30
0
0
SPLINE
5
934
100
AcDbEntity
8
0
100
AcDbSpline
70
4
71
3
72
8
73
4
74
0
42
0.000000001
43
0.0000000001
44
0.0000000001
40
0
40
0
40
0
40
0
40
1
40
1
40
1
40
1
41
1
41
1
41
1
41
1
10
-16.581462738187621
20
-11.135297469437436
30
0
10
-16.746768135914898
20
-11.107456560346527
30
0
10
-16.959055067733079
20
-11.161398321710161
30
0
10
-17.077378931369445
20
-11.258841503528343
30
0
0
SPLINE
5
935
100
AcDbEntity
8
0
100
AcDbSpline
70
4
71
3
72
8
73
4
74
0
42
0.000000001
43
0.0000000001
44
0.0000000001
40
0
40
0
40
0
40
0
40
1
40
1
40
1
40
1
41
1
41
1
41
1
41
1
10
-17.077378931369445
20
-11.258841503528343
30
0
10
-17.129580635914898
20
-11.300602867164709
30
0
10
-17.233984045005805
20
-11.434587242164708
30
0
10
-17.233984045005805
20
-11.458948037619257
30
0
0
SPLINE
5
936
100
AcDbEntity
8
0
100
AcDbSpline
70
4
71
3
72
8
73
4
74
0
42
0.000000001
43
0.0000000001
44
0.0000000001
40
0
40
0
40
0
40
0
40
1
40
1
40
1
40
1
41
1
41
1
41
1
41
1
10
-17.233984045005805
20
-11.458948037619257
30
0
10
-17.233984045005805
20
-11.485048889891981
30
0
10
-17.023437170005806
20
-11.845240651255613
30
0
10
-17.007776658642168
20
-11.845240651255613
30
0
0
SPLINE
5
937
100
AcDbEntity
8
0
100
AcDbSpline
70
4
71
3
72
8
73
4
74
0
42
0.000000001
43
0.0000000001
44
0.0000000001
40
0
40
0
40
0
40
0
40
1
40
1
40
1
40
1
41
1
41
1
41
1
41
1
10
-17.007776658642168
20
-11.845240651255613
30
0
10
-17.002556488187622
20
-11.845240651255613
30
0
10
-17.002556488187622
20
-11.796519060346528
30
0
10
-17.004296545005808
20
-11.737357128528345
30
0
0
SPLINE
5
938
100
AcDbEntity
8
0
100
AcDbSpline
70
4
71
3
72
8
73
4
74
0
42
0.000000001
43
0.0000000001
44
0.0000000001
40
0
40
0
40
0
40
0
40
1
40
1
40
1
40
1
41
1
41
1
41
1
41
1
10
-17.004296545005808
20
-11.737357128528345
30
0
10
-17.019957056369446
20
-11.464168208073799
30
0
10
-16.863351942733075
20
-11.269281844437435
30
0
10
-16.628444272278532
20
-11.265801730801074
30
0
0
SPLINE
5
939
100
AcDbEntity
8
0
100
AcDbSpline
70
4
71
3
72
8
73
4
74
0
42
0.000000001
43
0.0000000001
44
0.0000000001
40
0
40
0
40
0
40
0
40
1
40
1
40
1
40
1
41
1
41
1
41
1
41
1
10
-16.628444272278532
20
-11.265801730801074
30
0
10
-16.574502510914897
20
-11.265801730801074
30
0
10
-16.508380351823988
20
-11.276242071710167
30
0
10
-16.485759613187629
20
-11.288422469437435
30
0
0
SPLINE
5
940
100
AcDbEntity
8
0
100
AcDbSpline
70
4
71
3
72
8
73
4
74
0
42
0.000000001
43
0.0000000001
44
0.0000000001
40
0
40
0
40
0
40
0
40
1
40
1
40
1
40
1
41
1
41
1
41
1
41
1
10
-16.485759613187629
20
-11.288422469437435
30
0
10
-16.275212738187623
20
-11.396305992164708
30
0
10
-16.221270976823988
20
-11.678195196710163
30
0
10
-16.381356204096715
20
-11.843500594437437
30
0
0
SPLINE
5
941
100
AcDbEntity
8
0
100
AcDbSpline
70
4
71
3
72
8
73
4
74
0
42
0.000000001
43
0.0000000001
44
0.0000000001
40
0
40
0
40
0
40
0
40
1
40
1
40
1
40
1
41
1
41
1
41
1
41
1
10
-16.381356204096715
20
-11.843500594437437
30
0
10
-16.565802226823987
20
-12.034906844437435
30
0
10
-16.816370408642172
20
-11.871341503528345
30
0
10
-16.698046545005806
20
-11.636433833073797
30
0
0
SPLINE
5
942
100
AcDbEntity
8
0
100
AcDbSpline
70
4
71
3
72
8
73
4
74
0
42
0.000000001
43
0.0000000001
44
0.0000000001
40
0
40
0
40
0
40
0
40
1
40
1
40
1
40
1
41
1
41
1
41
1
41
1
10
-16.698046545005806
20
-11.636433833073797
30
0
10
-16.659765295005812
20
-11.556391219437439
30
0
10
-16.598863306369445
20
-11.551171048982889
30
0
10
-16.598863306369445
20
-11.627733548982889
30
0
0
SPLINE
5
943
100
AcDbEntity
8
0
100
AcDbSpline
70
4
71
3
72
8
73
4
74
0
42
0.000000001
43
0.0000000001
44
0.0000000001
40
0
40
0
40
0
40
0
40
1
40
1
40
1
40
1
41
1
41
1
41
1
41
1
10
-16.598863306369445
20
-11.627733548982889
30
0
10
-16.600603363187624
20
-11.657314514891981
30
0
10
-16.60582353364217
20
-11.700815935346528
30
0
10
-16.612783760914898
20
-11.726916787619254
30
0
0
SPLINE
5
944
100
AcDbEntity
8
0
100
AcDbSpline
70
4
71
3
72
8
73
4
74
0
42
0.000000001
43
0.0000000001
44
0.0000000001
40
0
40
0
40
0
40
0
40
1
40
1
40
1
40
1
41
1
41
1
41
1
41
1
10
-16.612783760914898
20
-11.726916787619254
30
0
10
-16.628444272278532
20
-11.786078719437436
30
0
10
-16.586682908642175
20
-11.833060253528345
30
0
10
-16.531001090460354
20
-11.819139798982889
30
0
0
SPLINE
5
945
100
AcDbEntity
8
0
100
AcDbSpline
70
4
71
3
72
8
73
4
74
0
42
0.000000001
43
0.0000000001
44
0.0000000001
40
0
40
0
40
0
40
0
40
1
40
1
40
1
40
1
41
1
41
1
41
1
41
1
10
-16.531001090460354
20
-11.819139798982889
30
0
10
-16.437038022278529
20
-11.79129888989198
30
0
10
-16.381356204096715
20
-11.659054571710163
30
0
10
-16.41441728364217
20
-11.535510537619256
30
0
0
SPLINE
5
946
100
AcDbEntity
8
0
100
AcDbSpline
70
4
71
3
72
8
73
4
74
0
42
0.000000001
43
0.0000000001
44
0.0000000001
40
0
40
0
40
0
40
0
40
1
40
1
40
1
40
1
41
1
41
1
41
1
41
1
10
-16.41441728364217
20
-11.535510537619256
30
0
10
-16.468359045005805
20
-11.335404003528343
30
0
10
-16.734587738187624
20
-11.321483548982892
30
0
10
-16.847691431369444
20
-11.51288979898289
30
0
0
LINE
5
947
100
AcDbEntity
8
0
100
AcDbLine
10
-16.703266715460355
20
-12.365517639891982
30
0
11
-16.638884613187628
21
-12.302875594437433
31
0
0
SPLINE
5
948
100
AcDbEntity
8
0
100
AcDbSpline
70
4
71
3
72
8
73
4
74
0
42
0.000000001
43
0.0000000001
44
0.0000000001
40
0
40
0
40
0
40
0
40
1
40
1
40
1
40
1
41
1
41
1
41
1
41
1
10
-16.638884613187628
20
-12.302875594437433
30
0
10
-16.604083476823991
20
-12.268074458073798
30
0
10
-16.577982624551264
20
-12.233273321710165
30
0
10
-16.583202795005803
20
-12.224573037619257
30
0
0
SPLINE
5
949
100
AcDbEntity
8
0
100
AcDbSpline
70
4
71
3
72
8
73
4
74
0
42
0.000000001
43
0.0000000001
44
0.0000000001
40
0
40
0
40
0
40
0
40
1
40
1
40
1
40
1
41
1
41
1
41
1
41
1
10
-16.583202795005803
20
-12.224573037619257
30
0
10
-16.588422965460349
20
-12.217612810346525
30
0
10
-16.609303647278534
20
-12.210652583073799
30
0
10
-16.630184329096718
20
-12.210652583073799
30
0
0
SPLINE
5
950
100
AcDbEntity
8
0
100
AcDbSpline
70
4
71
3
72
8
73
4
74
0
42
0.000000001
43
0.0000000001
44
0.0000000001
40
0
40
0
40
0
40
0
40
1
40
1
40
1
40
1
41
1
41
1
41
1
41
1
10
-16.630184329096718
20
-12.210652583073799
30
0
10
-16.651065010914898
20
-12.210652583073799
30
0
10
-16.703266715460355
20
-12.194992071710166
30
0
10
-16.745028079096716
20
-12.17585144671016
30
0
0
SPLINE
5
951
100
AcDbEntity
8
0
100
AcDbSpline
70
4
71
3
72
8
73
4
74
0
42
0.000000001
43
0.0000000001
44
0.0000000001
40
0
40
0
40
0
40
0
40
1
40
1
40
1
40
1
41
1
41
1
41
1
41
1
10
-16.745028079096716
20
-12.17585144671016
30
0
10
-16.786789442733074
20
-12.156710821710165
30
0
10
-16.823330635914896
20
-12.142790367164709
30
0
10
-16.82681074955126
20
-12.146270480801073
30
0
0
SPLINE
5
952
100
AcDbEntity
8
0
100
AcDbSpline
70
4
71
3
72
8
73
4
74
0
42
0.000000001
43
0.0000000001
44
0.0000000001
40
0
40
0
40
0
40
0
40
1
40
1
40
1
40
1
41
1
41
1
41
1
41
1
10
-16.82681074955126
20
-12.146270480801073
30
0
10
-16.830290863187628
20
-12.148010537619257
30
0
10
-16.802449954096712
20
-12.198472185346525
30
0
10
-16.767648817733072
20
-12.257634117164708
30
0
0
LINE
5
953
100
AcDbEntity
8
0
100
AcDbLine
10
-16.767648817733075
20
-12.257634117164708
30
0
11
-16.703266715460355
21
-12.365517639891982
31
0
0
SPLINE
5
954
100
AcDbEntity
8
0
100
AcDbSpline
70
4
71
3
72
8
73
4
74
0
42
0.000000001
43
0.0000000001
44
0.0000000001
40
0
40
0
40
0
40
0
40
1
40
1
40
1
40
1
41
1
41
1
41
1
41
1
10
-17.051278079096718
20
-12.65958724216471
30
0
10
-16.901633192733076
20
-12.870134117164708
30
0
10
-16.877272397278539
20
-12.897975026255617
30
0
10
-16.872052226823989
20
-12.857953719437434
30
0
0
SPLINE
5
955
100
AcDbEntity
8
0
100
AcDbSpline
70
4
71
3
72
8
73
4
74
0
42
0.000000001
43
0.0000000001
44
0.0000000001
40
0
40
0
40
0
40
0
40
1
40
1
40
1
40
1
41
1
41
1
41
1
41
1
10
-16.872052226823989
20
-12.857953719437434
30
0
10
-16.870312170005807
20
-12.831852867164709
30
0
10
-16.859871829096715
20
-12.763990651255618
30
0
10
-16.849431488187619
20
-12.706568776255619
30
0
0
SPLINE
5
956
100
AcDbEntity
8
0
100
AcDbSpline
70
4
71
3
72
8
73
4
74
0
42
0.000000001
43
0.0000000001
44
0.0000000001
40
0
40
0
40
0
40
0
40
1
40
1
40
1
40
1
41
1
41
1
41
1
41
1
10
-16.849431488187619
20
-12.706568776255619
30
0
10
-16.838991147278534
20
-12.649146901255619
30
0
10
-16.807670124551262
20
-12.560404003528346
30
0
10
-16.779829215460353
20
-12.508202298982889
30
0
0
SPLINE
5
957
100
AcDbEntity
8
0
100
AcDbSpline
70
4
71
3
72
8
73
4
74
0
42
0.000000001
43
0.0000000001
44
0.0000000001
40
0
40
0
40
0
40
0
40
1
40
1
40
1
40
1
41
1
41
1
41
1
41
1
10
-16.779829215460353
20
-12.508202298982889
30
0
10
-16.751988306369448
20
-12.456000594437432
30
0
10
-16.73110762455126
20
-12.412499173982889
30
0
10
-16.734587738187624
20
-12.410759117164707
30
0
0
SPLINE
5
958
100
AcDbEntity
8
0
100
AcDbSpline
70
4
71
3
72
8
73
4
74
0
42
0.000000001
43
0.0000000001
44
0.0000000001
40
0
40
0
40
0
40
0
40
1
40
1
40
1
40
1
41
1
41
1
41
1
41
1
10
-16.734587738187624
20
-12.410759117164707
30
0
10
-16.751988306369448
20
-12.396838662619254
30
0
10
-17.235724101823987
20
-12.386398321710164
30
0
10
-17.230503931369444
20
-12.400318776255615
30
0
0
SPLINE
5
959
100
AcDbEntity
8
0
100
AcDbSpline
70
4
71
3
72
8
73
4
74
0
42
0.000000001
43
0.0000000001
44
0.0000000001
40
0
40
0
40
0
40
0
40
1
40
1
40
1
40
1
41
1
41
1
41
1
41
1
10
-17.230503931369444
20
-12.400318776255615
30
0
10
-17.228763874551259
20
-12.409019060346528
30
0
10
-17.146981204096715
20
-12.525602867164706
30
0
10
-17.051278079096718
20
-12.65958724216471
30
0
0
SPLINE
5
960
100
AcDbEntity
8
0
100
AcDbSpline
70
4
71
3
72
8
73
4
74
0
42
0.000000001
43
0.0000000001
44
0.0000000001
40
0
40
0
40
0
40
0
40
1
40
1
40
1
40
1
41
1
41
1
41
1
41
1
10
-15.516547965460351
20
-12.723969344437435
30
0
10
-15.526988306369445
20
-12.746590083073801
30
0
10
-15.39996415864217
20
-12.918855708073799
30
0
10
-15.372123249551265
20
-12.922335821710165
30
0
0
SPLINE
5
961
100
AcDbEntity
8
0
100
AcDbSpline
70
4
71
3
72
8
73
4
74
0
42
0.000000001
43
0.0000000001
44
0.0000000001
40
0
40
0
40
0
40
0
40
1
40
1
40
1
40
1
41
1
41
1
41
1
41
1
10
-15.372123249551265
20
-12.922335821710165
30
0
10
-15.366903079096717
20
-12.924075878528342
30
0
10
-15.325141715460354
20
-12.885794628528343
30
0
10
-15.27816018136944
20
-12.838813094437434
30
0
0
SPLINE
5
962
100
AcDbEntity
8
0
100
AcDbSpline
70
4
71
3
72
8
73
4
74
0
42
0.000000001
43
0.0000000001
44
0.0000000001
40
0
40
0
40
0
40
0
40
1
40
1
40
1
40
1
41
1
41
1
41
1
41
1
10
-15.27816018136944
20
-12.838813094437434
30
0
10
-15.229438590460353
20
-12.788351446710161
30
0
10
-15.19985762455126
20
-12.744850026255618
30
0
10
-15.206817851823992
20
-12.732669628528344
30
0
0
SPLINE
5
963
100
AcDbEntity
8
0
100
AcDbSpline
70
4
71
3
72
8
73
4
74
0
42
0.000000001
43
0.0000000001
44
0.0000000001
40
0
40
0
40
0
40
0
40
1
40
1
40
1
40
1
41
1
41
1
41
1
41
1
10
-15.206817851823992
20
-12.732669628528344
30
0
10
-15.213778079096718
20
-12.722229287619253
30
0
10
-15.205077795005806
20
-12.697868492164705
30
0
10
-15.18941728364217
20
-12.680467923982887
30
0
0
SPLINE
5
964
100
AcDbEntity
8
0
100
AcDbSpline
70
4
71
3
72
8
73
4
74
0
42
0.000000001
43
0.0000000001
44
0.0000000001
40
0
40
0
40
0
40
0
40
1
40
1
40
1
40
1
41
1
41
1
41
1
41
1
10
-15.18941728364217
20
-12.680467923982887
30
0
10
-15.172016715460353
20
-12.661327298982894
30
0
10
-15.163316431369443
20
-12.635226446710162
30
0
10
-15.168536601823988
20
-12.621305992164706
30
0
0
SPLINE
5
965
100
AcDbEntity
8
0
100
AcDbSpline
70
4
71
3
72
8
73
4
74
0
42
0.000000001
43
0.0000000001
44
0.0000000001
40
0
40
0
40
0
40
0
40
1
40
1
40
1
40
1
41
1
41
1
41
1
41
1
10
-15.168536601823988
20
-12.621305992164706
30
0
10
-15.173756772278535
20
-12.607385537619253
30
0
10
-15.156356204096713
20
-12.56736423080107
30
0
10
-15.126775238187625
20
-12.530823037619253
30
0
0
SPLINE
5
966
100
AcDbEntity
8
0
100
AcDbSpline
70
4
71
3
72
8
73
4
74
0
42
0.000000001
43
0.0000000001
44
0.0000000001
40
0
40
0
40
0
40
0
40
1
40
1
40
1
40
1
41
1
41
1
41
1
41
1
10
-15.126775238187625
20
-12.530823037619253
30
0
10
-15.09893432909672
20
-12.494281844437436
30
0
10
-15.078053647278534
20
-12.457740651255619
30
0
10
-15.081533760914901
20
-12.447300310346529
30
0
0
SPLINE
5
967
100
AcDbEntity
8
0
100
AcDbSpline
70
4
71
3
72
8
73
4
74
0
42
0.000000001
43
0.0000000001
44
0.0000000001
40
0
40
0
40
0
40
0
40
1
40
1
40
1
40
1
41
1
41
1
41
1
41
1
10
-15.081533760914901
20
-12.447300310346529
30
0
10
-15.085013874551265
20
-12.436859969437437
30
0
10
-15.131995408642171
20
-12.426419628528347
30
0
10
-15.185937170005806
20
-12.422939514891981
30
0
0
SPLINE
5
968
100
AcDbEntity
8
0
100
AcDbSpline
70
4
71
3
72
8
73
4
74
0
42
0.000000001
43
0.0000000001
44
0.0000000001
40
0
40
0
40
0
40
0
40
1
40
1
40
1
40
1
41
1
41
1
41
1
41
1
10
-15.185937170005806
20
-12.422939514891981
30
0
10
-15.283380351823986
20
-12.417719344437439
30
0
10
-15.285120408642172
20
-12.415979287619255
30
0
10
-15.285120408642172
20
-12.367257696710164
30
0
0
SPLINE
5
969
100
AcDbEntity
8
0
100
AcDbSpline
70
4
71
3
72
8
73
4
74
0
42
0.000000001
43
0.0000000001
44
0.0000000001
40
0
40
0
40
0
40
0
40
1
40
1
40
1
40
1
41
1
41
1
41
1
41
1
10
-15.285120408642172
20
-12.367257696710164
30
0
10
-15.285120408642172
20
-12.318536105801073
30
0
10
-15.288600522278534
20
-12.315055992164707
30
0
10
-15.354722681369443
20
-12.315055992164707
30
0
0
SPLINE
5
970
100
AcDbEntity
8
0
100
AcDbSpline
70
4
71
3
72
8
73
4
74
0
42
0.000000001
43
0.0000000001
44
0.0000000001
40
0
40
0
40
0
40
0
40
1
40
1
40
1
40
1
41
1
41
1
41
1
41
1
10
-15.354722681369443
20
-12.315055992164707
30
0
10
-15.420844840460356
20
-12.315055992164707
30
0
10
-15.424324954096717
20
-12.316796048982891
30
0
10
-15.424324954096717
20
-12.368997753528346
30
0
0
LINE
5
971
100
AcDbEntity
8
0
100
AcDbLine
10
-15.424324954096717
20
-12.368997753528346
30
0
11
-15.424324954096717
21
-12.424679571710163
31
0
0
LINE
5
972
100
AcDbEntity
8
0
100
AcDbLine
10
-15.424324954096717
20
-12.424679571710163
30
0
11
-15.507847681369444
21
-12.414239230801073
31
0
0
SPLINE
5
973
100
AcDbEntity
8
0
100
AcDbSpline
70
4
71
3
72
8
73
4
74
0
42
0.000000001
43
0.0000000001
44
0.0000000001
40
0
40
0
40
0
40
0
40
1
40
1
40
1
40
1
41
1
41
1
41
1
41
1
10
-15.507847681369444
20
-12.414239230801073
30
0
10
-15.629651658642169
20
-12.40031877625562
30
0
10
-15.641832056369443
20
-12.415979287619255
30
0
10
-15.582670124551258
20
-12.509942355801071
30
0
0
SPLINE
5
974
100
AcDbEntity
8
0
100
AcDbSpline
70
4
71
3
72
8
73
4
74
0
42
0.000000001
43
0.0000000001
44
0.0000000001
40
0
40
0
40
0
40
0
40
1
40
1
40
1
40
1
41
1
41
1
41
1
41
1
10
-15.582670124551258
20
-12.509942355801071
30
0
10
-15.546128931369447
20
-12.56736423080107
30
0
10
-15.537428647278535
20
-12.595205139891979
30
0
10
-15.551349101823988
20
-12.609125594437437
30
0
0
SPLINE
5
975
100
AcDbEntity
8
0
100
AcDbSpline
70
4
71
3
72
8
73
4
74
0
42
0.000000001
43
0.0000000001
44
0.0000000001
40
0
40
0
40
0
40
0
40
1
40
1
40
1
40
1
41
1
41
1
41
1
41
1
10
-15.551349101823988
20
-12.609125594437437
30
0
10
-15.563529499551263
20
-12.621305992164706
30
0
10
-15.560049385914901
20
-12.636966503528345
30
0
10
-15.539168704096715
20
-12.661327298982894
30
0
0
SPLINE
5
976
100
AcDbEntity
8
0
100
AcDbSpline
70
4
71
3
72
8
73
4
74
0
42
0.000000001
43
0.0000000001
44
0.0000000001
40
0
40
0
40
0
40
0
40
1
40
1
40
1
40
1
41
1
41
1
41
1
41
1
10
-15.539168704096715
20
-12.661327298982894
30
0
10
-15.521768135914895
20
-12.680467923982887
30
0
10
-15.51132779500581
20
-12.708308833073801
30
0
10
-15.516547965460351
20
-12.723969344437435
30
0
0
SPLINE
5
977
100
AcDbEntity
8
0
100
AcDbSpline
70
4
71
3
72
8
73
4
74
0
42
0.000000001
43
0.0000000001
44
0.0000000001
40
0
40
0
40
0
40
0
40
1
40
1
40
1
40
1
41
1
41
1
41
1
41
1
10
-16.741547965460345
20
-12.767470764891979
30
0
10
-16.755468420005808
20
-12.953656844437434
30
0
10
-16.705006772278537
20
-13.077200878528346
30
0
10
-16.583202795005803
20
-13.152023321710164
30
0
0
SPLINE
5
978
100
AcDbEntity
8
0
100
AcDbSpline
70
4
71
3
72
8
73
4
74
0
42
0.000000001
43
0.0000000001
44
0.0000000001
40
0
40
0
40
0
40
0
40
1
40
1
40
1
40
1
41
1
41
1
41
1
41
1
10
-16.583202795005803
20
-13.152023321710164
30
0
10
-16.518820692733076
20
-13.190304571710163
30
0
10
-16.416157340460355
20
-13.195524742164706
30
0
10
-16.350035181369442
20
-13.160723605801072
30
0
0
SPLINE
5
979
100
AcDbEntity
8
0
100
AcDbSpline
70
4
71
3
72
8
73
4
74
0
42
0.000000001
43
0.0000000001
44
0.0000000001
40
0
40
0
40
0
40
0
40
1
40
1
40
1
40
1
41
1
41
1
41
1
41
1
10
-16.350035181369442
20
-13.160723605801072
30
0
10
-16.162109045005806
20
-13.06328042398289
30
0
10
-16.099466999551264
20
-12.767470764891979
30
0
10
-16.242151658642172
20
-12.642186673982893
30
0
0
SPLINE
5
980
100
AcDbEntity
8
0
100
AcDbSpline
70
4
71
3
72
8
73
4
74
0
42
0.000000001
43
0.0000000001
44
0.0000000001
40
0
40
0
40
0
40
0
40
1
40
1
40
1
40
1
41
1
41
1
41
1
41
1
10
-16.242151658642172
20
-12.642186673982893
30
0
10
-16.301313590460349
20
-12.586504855801071
30
0
10
-16.343074954096714
20
-12.581284685346528
30
0
10
-16.416157340460355
20
-12.619565935346527
30
0
0
SPLINE
5
981
100
AcDbEntity
8
0
100
AcDbSpline
70
4
71
3
72
8
73
4
74
0
42
0.000000001
43
0.0000000001
44
0.0000000001
40
0
40
0
40
0
40
0
40
1
40
1
40
1
40
1
41
1
41
1
41
1
41
1
10
-16.416157340460355
20
-12.619565935346527
30
0
10
-16.480539442733079
20
-12.652627014891985
30
0
10
-16.520560749551262
20
-12.727449458073801
30
0
10
-16.520560749551262
20
-12.812712242164709
30
0
0
SPLINE
5
982
100
AcDbEntity
8
0
100
AcDbSpline
70
4
71
3
72
8
73
4
74
0
42
0.000000001
43
0.0000000001
44
0.0000000001
40
0
40
0
40
0
40
0
40
1
40
1
40
1
40
1
41
1
41
1
41
1
41
1
10
-16.520560749551262
20
-12.812712242164709
30
0
10
-16.520560749551262
20
-12.918855708073799
30
0
10
-16.438778079096714
20
-12.981497753528343
30
0
10
-16.398756772278539
20
-12.904935253528343
30
0
0
SPLINE
5
983
100
AcDbEntity
8
0
100
AcDbSpline
70
4
71
3
72
8
73
4
74
0
42
0.000000001
43
0.0000000001
44
0.0000000001
40
0
40
0
40
0
40
0
40
1
40
1
40
1
40
1
41
1
41
1
41
1
41
1
10
-16.398756772278539
20
-12.904935253528343
30
0
10
-16.383096260914897
20
-12.878834401255617
30
0
10
-16.383096260914897
20
-12.856213662619252
30
0
10
-16.398756772278539
20
-12.819672469437435
30
0
0
SPLINE
5
984
100
AcDbEntity
8
0
100
AcDbSpline
70
4
71
3
72
8
73
4
74
0
42
0.000000001
43
0.0000000001
44
0.0000000001
40
0
40
0
40
0
40
0
40
1
40
1
40
1
40
1
41
1
41
1
41
1
41
1
10
-16.398756772278539
20
-12.819672469437435
30
0
10
-16.421377510914894
20
-12.763990651255618
30
0
10
-16.410937170005802
20
-12.732669628528344
30
0
10
-16.369175806369444
20
-12.732669628528344
30
0
0
SPLINE
5
985
100
AcDbEntity
8
0
100
AcDbSpline
70
4
71
3
72
8
73
4
74
0
42
0.000000001
43
0.0000000001
44
0.0000000001
40
0
40
0
40
0
40
0
40
1
40
1
40
1
40
1
41
1
41
1
41
1
41
1
10
-16.369175806369444
20
-12.732669628528344
30
0
10
-16.313493988187624
20
-12.732669628528344
30
0
10
-16.276952795005808
20
-12.786611389891977
30
0
10
-16.276952795005808
20
-12.866654003528343
30
0
0
SPLINE
5
986
100
AcDbEntity
8
0
100
AcDbSpline
70
4
71
3
72
8
73
4
74
0
42
0.000000001
43
0.0000000001
44
0.0000000001
40
0
40
0
40
0
40
0
40
1
40
1
40
1
40
1
41
1
41
1
41
1
41
1
10
-16.276952795005808
20
-12.866654003528343
30
0
10
-16.276952795005808
20
-13.023259117164708
30
0
10
-16.43529796546035
20
-13.099821617164707
30
0
10
-16.553621829096716
20
-13.000638378528349
30
0
0
SPLINE
5
987
100
AcDbEntity
8
0
100
AcDbSpline
70
4
71
3
72
8
73
4
74
0
42
0.000000001
43
0.0000000001
44
0.0000000001
40
0
40
0
40
0
40
0
40
1
40
1
40
1
40
1
41
1
41
1
41
1
41
1
10
-16.553621829096716
20
-13.000638378528349
30
0
10
-16.736327795005806
20
-12.847513378528344
30
0
10
-16.588422965460349
20
-12.492541787619254
30
0
10
-16.341334897278529
20
-12.489061673982889
30
0
0
SPLINE
5
988
100
AcDbEntity
8
0
100
AcDbSpline
70
4
71
3
72
8
73
4
74
0
42
0.000000001
43
0.0000000001
44
0.0000000001
40
0
40
0
40
0
40
0
40
1
40
1
40
1
40
1
41
1
41
1
41
1
41
1
10
-16.341334897278529
20
-12.489061673982889
30
0
10
-16.261292283642167
20
-12.489061673982889
30
0
10
-16.1916900109149
20
-12.523862810346523
30
0
10
-16.134268135914894
20
-12.591725026255618
30
0
0
LINE
5
989
100
AcDbEntity
8
0
100
AcDbLine
10
-16.134268135914898
20
-12.591725026255618
30
0
11
-16.090766715460351
21
-12.642186673982888
31
0
0
LINE
5
990
100
AcDbEntity
8
0
100
AcDbLine
10
-16.090766715460351
20
-12.642186673982888
30
0
11
-16.080326374551259
21
-12.240233548982891
31
0
0
SPLINE
5
991
100
AcDbEntity
8
0
100
AcDbSpline
70
4
71
3
72
8
73
4
74
0
42
0.000000001
43
0.0000000001
44
0.0000000001
40
0
40
0
40
0
40
0
40
1
40
1
40
1
40
1
41
1
41
1
41
1
41
1
10
-16.080326374551259
20
-12.240233548982891
30
0
10
-16.075106204096713
20
-12.0192463330738
30
0
10
-16.073366147278534
20
-11.834800310346528
30
0
10
-16.076846260914898
20
-11.831320196710163
30
0
0
SPLINE
5
992
100
AcDbEntity
8
0
100
AcDbSpline
70
4
71
3
72
8
73
4
74
0
42
0.000000001
43
0.0000000001
44
0.0000000001
40
0
40
0
40
0
40
0
40
1
40
1
40
1
40
1
41
1
41
1
41
1
41
1
10
-16.076846260914898
20
-11.831320196710163
30
0
10
-16.080326374551259
20
-11.827840083073797
30
0
10
-16.108167283642167
20
-11.874821617164709
30
0
10
-16.139488306369444
20
-11.933983548982892
30
0
0
SPLINE
5
993
100
AcDbEntity
8
0
100
AcDbSpline
70
4
71
3
72
8
73
4
74
0
42
0.000000001
43
0.0000000001
44
0.0000000001
40
0
40
0
40
0
40
0
40
1
40
1
40
1
40
1
41
1
41
1
41
1
41
1
10
-16.139488306369444
20
-11.933983548982892
30
0
10
-16.177769556369444
20
-12.014026162619253
30
0
10
-16.231711317733076
20
-12.08014832171016
30
0
10
-16.325674385914901
20
-12.167151162619252
30
0
0
SPLINE
5
994
100
AcDbEntity
8
0
100
AcDbSpline
70
4
71
3
72
8
73
4
74
0
42
0.000000001
43
0.0000000001
44
0.0000000001
40
0
40
0
40
0
40
0
40
1
40
1
40
1
40
1
41
1
41
1
41
1
41
1
10
-16.325674385914901
20
-12.167151162619252
30
0
10
-16.671945692733079
20
-12.485581560346528
30
0
10
-16.725887454096714
20
-12.563884117164712
30
0
10
-16.741547965460345
20
-12.767470764891979
30
0
0
SPLINE
5
995
100
AcDbEntity
8
0
100
AcDbSpline
70
4
71
3
72
8
73
4
74
0
42
0.000000001
43
0.0000000001
44
0.0000000001
40
0
40
0
40
0
40
0
40
1
40
1
40
1
40
1
41
1
41
1
41
1
41
1
10
-16.212570692733081
20
-13.371270480801071
30
0
10
-16.15688887455126
20
-13.430432412619254
30
0
10
-16.109907340460353
20
-13.475673889891979
30
0
10
-16.109907340460353
20
-13.473933833073795
30
0
0
SPLINE
5
996
100
AcDbEntity
8
0
100
AcDbSpline
70
4
71
3
72
8
73
4
74
0
42
0.000000001
43
0.0000000001
44
0.0000000001
40
0
40
0
40
0
40
0
40
1
40
1
40
1
40
1
41
1
41
1
41
1
41
1
10
-16.109907340460353
20
-13.473933833073795
30
0
10
-16.108167283642167
20
-13.473933833073795
30
0
10
-16.101207056369436
20
-13.378230708073797
30
0
10
-16.095986885914897
20
-13.263386958073797
30
0
0
LINE
5
997
100
AcDbEntity
8
0
100
AcDbLine
10
-16.095986885914897
20
-13.263386958073797
30
0
11
-16.083806488187626
21
-13.054580139891982
31
0
0
LINE
5
998
100
AcDbEntity
8
0
100
AcDbLine
10
-16.083806488187626
20
-13.054580139891982
30
0
11
-16.167329215460352
21
-13.143323037619256
31
0
0
SPLINE
5
999
100
AcDbEntity
8
0
100
AcDbSpline
70
4
71
3
72
8
73
4
74
0
42
0.000000001
43
0.0000000001
44
0.0000000001
40
0
40
0
40
0
40
0
40
1
40
1
40
1
40
1
41
1
41
1
41
1
41
1
10
-16.167329215460352
20
-13.143323037619256
30
0
10
-16.212570692733081
20
-13.192044628528347
30
0
10
-16.264772397278534
20
-13.239026162619254
30
0
10
-16.282172965460351
20
-13.249466503528346
30
0
0
SPLINE
5
1000
100
AcDbEntity
8
0
100
AcDbSpline
70
4
71
3
72
8
73
4
74
0
42
0.000000001
43
0.0000000001
44
0.0000000001
40
0
40
0
40
0
40
0
40
1
40
1
40
1
40
1
41
1
41
1
41
1
41
1
10
-16.282172965460351
20
-13.249466503528346
30
0
10
-16.31001387455126
20
-13.263386958073797
30
0
10
-16.303053647278535
20
-13.277307412619255
30
0
10
-16.212570692733081
20
-13.371270480801071
30
0
0
SPLINE
5
1001
100
AcDbEntity
8
0
100
AcDbSpline
70
4
71
3
72
8
73
4
74
0
42
0.000000001
43
0.0000000001
44
0.0000000001
40
0
40
0
40
0
40
0
40
1
40
1
40
1
40
1
41
1
41
1
41
1
41
1
10
-16.468359045005805
20
-13.620098605801068
30
0
10
-16.503160181369442
20
-13.640979287619253
30
0
10
-16.503160181369442
20
-13.811504855801074
30
0
10
-16.470099101823987
20
-13.851526162619249
30
0
0
SPLINE
5
1002
100
AcDbEntity
8
0
100
AcDbSpline
70
4
71
3
72
8
73
4
74
0
42
0.000000001
43
0.0000000001
44
0.0000000001
40
0
40
0
40
0
40
0
40
1
40
1
40
1
40
1
41
1
41
1
41
1
41
1
10
-16.470099101823987
20
-13.851526162619249
30
0
10
-16.440518135914896
20
-13.888067355801073
30
0
10
-16.360475522278531
20
-13.88980741261925
30
0
10
-16.296093420005803
20
-13.856746333073794
30
0
0
SPLINE
5
1003
100
AcDbEntity
8
0
100
AcDbSpline
70
4
71
3
72
8
73
4
74
0
42
0.000000001
43
0.0000000001
44
0.0000000001
40
0
40
0
40
0
40
0
40
1
40
1
40
1
40
1
41
1
41
1
41
1
41
1
10
-16.296093420005803
20
-13.856746333073794
30
0
10
-16.174289442733077
20
-13.794104287619245
30
0
10
-16.14818859046035
20
-13.635759117164708
30
0
10
-16.235191431369444
20
-13.510475026255618
30
0
0
SPLINE
5
1004
100
AcDbEntity
8
0
100
AcDbSpline
70
4
71
3
72
8
73
4
74
0
42
0.000000001
43
0.0000000001
44
0.0000000001
40
0
40
0
40
0
40
0
40
1
40
1
40
1
40
1
41
1
41
1
41
1
41
1
10
-16.235191431369444
20
-13.510475026255618
30
0
10
-16.303053647278535
20
-13.414771901255619
30
0
10
-16.438778079096714
20
-13.313848605801072
30
0
10
-16.517080635914898
20
-13.299928151255614
30
0
0
SPLINE
5
1005
100
AcDbEntity
8
0
100
AcDbSpline
70
4
71
3
72
8
73
4
74
0
42
0.000000001
43
0.0000000001
44
0.0000000001
40
0
40
0
40
0
40
0
40
1
40
1
40
1
40
1
41
1
41
1
41
1
41
1
10
-16.517080635914898
20
-13.299928151255614
30
0
10
-16.593643135914899
20
-13.287747753528345
30
0
10
-16.604083476823991
20
-13.296448037619253
30
0
10
-16.567542283642165
20
-13.33820940125562
30
0
0
SPLINE
5
1006
100
AcDbEntity
8
0
100
AcDbSpline
70
4
71
3
72
8
73
4
74
0
42
0.000000001
43
0.0000000001
44
0.0000000001
40
0
40
0
40
0
40
0
40
1
40
1
40
1
40
1
41
1
41
1
41
1
41
1
10
-16.567542283642165
20
-13.33820940125562
30
0
10
-16.550141715460349
20
-13.355609969437436
30
0
10
-16.537961317733078
20
-13.378230708073797
30
0
10
-16.537961317733078
20
-13.388671048982888
30
0
0
SPLINE
5
1007
100
AcDbEntity
8
0
100
AcDbSpline
70
4
71
3
72
8
73
4
74
0
42
0.000000001
43
0.0000000001
44
0.0000000001
40
0
40
0
40
0
40
0
40
1
40
1
40
1
40
1
41
1
41
1
41
1
41
1
10
-16.537961317733078
20
-13.388671048982888
30
0
10
-16.537961317733078
20
-13.39911138989198
30
0
10
-16.612783760914898
20
-13.42521224216471
30
0
10
-16.703266715460355
20
-13.447832980801071
30
0
0
LINE
5
1008
100
AcDbEntity
8
0
100
AcDbLine
10
-16.703266715460355
20
-13.447832980801071
30
0
11
-16.868572113187621
21
-13.489594344437435
31
0
0
LINE
5
1009
100
AcDbEntity
8
0
100
AcDbLine
10
-16.868572113187621
20
-13.489594344437435
30
0
11
-16.751988306369448
21
-13.644459401255617
31
0
0
LINE
5
1010
100
AcDbEntity
8
0
100
AcDbLine
10
-16.751988306369448
20
-13.644459401255617
30
0
11
-16.633664442733082
21
-13.7993244580738
31
0
0
LINE
5
1011
100
AcDbEntity
8
0
100
AcDbLine
10
-16.633664442733082
20
-13.7993244580738
30
0
11
-16.616263874551262
21
-13.698401162619252
31
0
0
SPLINE
5
1012
100
AcDbEntity
8
0
100
AcDbSpline
70
4
71
3
72
8
73
4
74
0
42
0.000000001
43
0.0000000001
44
0.0000000001
40
0
40
0
40
0
40
0
40
1
40
1
40
1
40
1
41
1
41
1
41
1
41
1
10
-16.616263874551262
20
-13.698401162619252
30
0
10
-16.584942851823989
20
-13.52091536716471
30
0
10
-16.449218420005806
20
-13.442612810346528
30
0
10
-16.337854783642172
20
-13.538315935346526
30
0
0
SPLINE
5
1013
100
AcDbEntity
8
0
100
AcDbSpline
70
4
71
3
72
8
73
4
74
0
42
0.000000001
43
0.0000000001
44
0.0000000001
40
0
40
0
40
0
40
0
40
1
40
1
40
1
40
1
41
1
41
1
41
1
41
1
10
-16.337854783642172
20
-13.538315935346526
30
0
10
-16.250851942733078
20
-13.61139832171016
30
0
10
-16.263032340460349
20
-13.801064514891976
30
0
10
-16.351775238187628
20
-13.766263378528341
30
0
0
SPLINE
5
1014
100
AcDbEntity
8
0
100
AcDbSpline
70
4
71
3
72
8
73
4
74
0
42
0.000000001
43
0.0000000001
44
0.0000000001
40
0
40
0
40
0
40
0
40
1
40
1
40
1
40
1
41
1
41
1
41
1
41
1
10
-16.351775238187628
20
-13.766263378528341
30
0
10
-16.367435749551262
20
-13.761043208073799
30
0
10
-16.386576374551264
20
-13.724502014891977
30
0
10
-16.393536601823985
20
-13.684480708073799
30
0
0
SPLINE
5
1015
100
AcDbEntity
8
0
100
AcDbSpline
70
4
71
3
72
8
73
4
74
0
42
0.000000001
43
0.0000000001
44
0.0000000001
40
0
40
0
40
0
40
0
40
1
40
1
40
1
40
1
41
1
41
1
41
1
41
1
10
-16.393536601823985
20
-13.684480708073799
30
0
10
-16.409197113187624
20
-13.609658264891983
30
0
10
-16.426597681369444
20
-13.593997753528344
30
0
10
-16.468359045005805
20
-13.620098605801068
30
0
0
SPLINE
5
1016
100
AcDbEntity
8
0
100
AcDbSpline
70
4
71
3
72
8
73
4
74
0
42
0.000000001
43
0.0000000001
44
0.0000000001
40
0
40
0
40
0
40
0
40
1
40
1
40
1
40
1
41
1
41
1
41
1
41
1
10
-16.120347681369442
20
-10.514097185346525
30
0
10
-16.08728660182399
20
-10.547158264891983
30
0
10
-16.059445692733082
20
-10.57499917398289
30
0
10
-16.055965579096714
20
-10.57499917398289
30
0
0
SPLINE
5
1017
100
AcDbEntity
8
0
100
AcDbSpline
70
4
71
3
72
8
73
4
74
0
42
0.000000001
43
0.0000000001
44
0.0000000001
40
0
40
0
40
0
40
0
40
1
40
1
40
1
40
1
41
1
41
1
41
1
41
1
10
-16.055965579096714
20
-10.57499917398289
30
0
10
-16.052485465460354
20
-10.57499917398289
30
0
10
-16.050745408642172
20
-10.547158264891983
30
0
10
-16.050745408642172
20
-10.514097185346525
30
0
0
SPLINE
5
1018
100
AcDbEntity
8
0
100
AcDbSpline
70
4
71
3
72
8
73
4
74
0
42
0.000000001
43
0.0000000001
44
0.0000000001
40
0
40
0
40
0
40
0
40
1
40
1
40
1
40
1
41
1
41
1
41
1
41
1
10
-16.050745408642172
20
-10.514097185346525
30
0
10
-16.050745408642172
20
-10.454935253528344
30
0
10
-16.052485465460354
20
-10.45319519671016
30
0
10
-16.115127510914895
20
-10.45319519671016
30
0
0
LINE
5
1019
100
AcDbEntity
8
0
100
AcDbLine
10
-16.115127510914895
20
-10.45319519671016
30
0
11
-16.179509613187623
21
-10.45319519671016
31
0
0
LINE
5
1020
100
AcDbEntity
8
0
100
AcDbLine
10
-16.179509613187623
20
-10.45319519671016
30
0
11
-16.120347681369442
21
-10.514097185346525
31
0
0
SPLINE
5
1021
100
AcDbEntity
8
0
100
AcDbSpline
70
4
71
3
72
8
73
4
74
0
42
0.000000001
43
0.0000000001
44
0.0000000001
40
0
40
0
40
0
40
0
40
1
40
1
40
1
40
1
41
1
41
1
41
1
41
1
10
-17.728160181369439
20
-10.658521901255616
30
0
10
-17.681178647278532
20
-10.736824458073798
30
0
10
-17.637677226823989
20
-10.801206560346523
30
0
10
-17.630716999551261
20
-10.801206560346523
30
0
0
SPLINE
5
1022
100
AcDbEntity
8
0
100
AcDbSpline
70
4
71
3
72
8
73
4
74
0
42
0.000000001
43
0.0000000001
44
0.0000000001
40
0
40
0
40
0
40
0
40
1
40
1
40
1
40
1
41
1
41
1
41
1
41
1
10
-17.630716999551261
20
-10.801206560346523
30
0
10
-17.622016715460351
20
-10.801206560346523
30
0
10
-17.616796545005808
20
-10.77336565125562
30
0
10
-17.616796545005808
20
-10.740304571710164
30
0
0
SPLINE
5
1023
100
AcDbEntity
8
0
100
AcDbSpline
70
4
71
3
72
8
73
4
74
0
42
0.000000001
43
0.0000000001
44
0.0000000001
40
0
40
0
40
0
40
0
40
1
40
1
40
1
40
1
41
1
41
1
41
1
41
1
10
-17.616796545005808
20
-10.740304571710164
30
0
10
-17.616796545005808
20
-10.653301730801074
30
0
10
-17.580255351823983
20
-10.576739230801069
30
0
10
-17.501952795005803
20
-10.501916787619257
30
0
0
LINE
5
1024
100
AcDbEntity
8
0
100
AcDbLine
10
-17.501952795005803
20
-10.501916787619257
30
0
11
-17.435830635914897
21
-10.435794628528344
31
0
0
LINE
5
1025
100
AcDbEntity
8
0
100
AcDbLine
10
-17.435830635914897
20
-10.435794628528344
30
0
11
-17.863884613187622
21
-10.435794628528344
31
0
0
LINE
5
1026
100
AcDbEntity
8
0
100
AcDbLine
10
-17.863884613187622
20
-10.435794628528344
30
0
11
-17.839523817733077
21
-10.475815935346526
31
0
0
SPLINE
5
1027
100
AcDbEntity
8
0
100
AcDbSpline
70
4
71
3
72
8
73
4
74
0
42
0.000000001
43
0.0000000001
44
0.0000000001
40
0
40
0
40
0
40
0
40
1
40
1
40
1
40
1
41
1
41
1
41
1
41
1
10
-17.839523817733077
20
-10.475815935346526
30
0
10
-17.825603363187625
20
-10.496696617164709
30
0
10
-17.77514171546035
20
-10.578479287619251
30
0
10
-17.728160181369439
20
-10.658521901255616
30
0
0
SPLINE
5
1028
100
AcDbEntity
8
0
100
AcDbSpline
70
4
71
3
72
8
73
4
74
0
42
0.000000001
43
0.0000000001
44
0.0000000001
40
0
40
0
40
0
40
0
40
1
40
1
40
1
40
1
41
1
41
1
41
1
41
1
10
-16.720667283642172
20
-11.015233548982893
30
0
10
-16.598863306369445
20
-11.008273321710162
30
0
10
-16.529261033642172
20
-11.018713662619254
30
0
10
-16.419637454096719
20
-11.060475026255618
30
0
0
SPLINE
5
1029
100
AcDbEntity
8
0
100
AcDbSpline
70
4
71
3
72
8
73
4
74
0
42
0.000000001
43
0.0000000001
44
0.0000000001
40
0
40
0
40
0
40
0
40
1
40
1
40
1
40
1
41
1
41
1
41
1
41
1
10
-16.419637454096719
20
-11.060475026255618
30
0
10
-16.417897397278534
20
-11.062215083073802
30
0
10
-16.383096260914897
20
-11.046554571710162
30
0
10
-16.341334897278529
20
-11.027413946710162
30
0
0
SPLINE
5
1030
100
AcDbEntity
8
0
100
AcDbSpline
70
4
71
3
72
8
73
4
74
0
42
0.000000001
43
0.0000000001
44
0.0000000001
40
0
40
0
40
0
40
0
40
1
40
1
40
1
40
1
41
1
41
1
41
1
41
1
10
-16.341334897278529
20
-11.027413946710162
30
0
10
-16.118607624551263
20
-10.921270480801072
30
0
10
-16.094246829096715
20
-10.540198037619252
30
0
10
-16.311753931369445
20
-10.540198037619252
30
0
0
SPLINE
5
1031
100
AcDbEntity
8
0
100
AcDbSpline
70
4
71
3
72
8
73
4
74
0
42
0.000000001
43
0.0000000001
44
0.0000000001
40
0
40
0
40
0
40
0
40
1
40
1
40
1
40
1
41
1
41
1
41
1
41
1
10
-16.311753931369445
20
-10.540198037619252
30
0
10
-16.350035181369442
20
-10.540198037619252
30
0
10
-16.388316431369439
20
-10.554118492164708
30
0
10
-16.410937170005802
20
-10.57499917398289
30
0
0
SPLINE
5
1032
100
AcDbEntity
8
0
100
AcDbSpline
70
4
71
3
72
8
73
4
74
0
42
0.000000001
43
0.0000000001
44
0.0000000001
40
0
40
0
40
0
40
0
40
1
40
1
40
1
40
1
41
1
41
1
41
1
41
1
10
-16.410937170005802
20
-10.57499917398289
30
0
10
-16.457918704096716
20
-10.616760537619257
30
0
10
-16.4787993859149
20
-10.707243492164707
30
0
10
-16.450958476823992
20
-10.740304571710164
30
0
0
SPLINE
5
1033
100
AcDbEntity
8
0
100
AcDbSpline
70
4
71
3
72
8
73
4
74
0
42
0.000000001
43
0.0000000001
44
0.0000000001
40
0
40
0
40
0
40
0
40
1
40
1
40
1
40
1
41
1
41
1
41
1
41
1
10
-16.450958476823992
20
-10.740304571710164
30
0
10
-16.419637454096719
20
-10.778585821710164
30
0
10
-16.398756772278539
20
-10.771625594437438
30
0
10
-16.379616147278536
20
-10.715943776255616
30
0
0
SPLINE
5
1034
100
AcDbEntity
8
0
100
AcDbSpline
70
4
71
3
72
8
73
4
74
0
42
0.000000001
43
0.0000000001
44
0.0000000001
40
0
40
0
40
0
40
0
40
1
40
1
40
1
40
1
41
1
41
1
41
1
41
1
10
-16.379616147278536
20
-10.715943776255616
30
0
10
-16.358735465460349
20
-10.655041787619256
30
0
10
-16.325674385914901
20
-10.639381276255616
30
0
10
-16.283913022278533
20
-10.668962242164708
30
0
0
SPLINE
5
1035
100
AcDbEntity
8
0
100
AcDbSpline
70
4
71
3
72
8
73
4
74
0
42
0.000000001
43
0.0000000001
44
0.0000000001
40
0
40
0
40
0
40
0
40
1
40
1
40
1
40
1
41
1
41
1
41
1
41
1
10
-16.283913022278533
20
-10.668962242164708
30
0
10
-16.214310749551256
20
-10.721163946710163
30
0
10
-16.316974101823991
20
-10.870808833073797
30
0
10
-16.421377510914894
20
-10.870808833073797
30
0
0
SPLINE
5
1036
100
AcDbEntity
8
0
100
AcDbSpline
70
4
71
3
72
8
73
4
74
0
42
0.000000001
43
0.0000000001
44
0.0000000001
40
0
40
0
40
0
40
0
40
1
40
1
40
1
40
1
41
1
41
1
41
1
41
1
10
-16.421377510914894
20
-10.870808833073797
30
0
10
-16.511860465460355
20
-10.870808833073797
30
0
10
-16.572762454096718
20
-10.801206560346523
30
0
10
-16.572762454096718
20
-10.698543208073799
30
0
0
SPLINE
5
1037
100
AcDbEntity
8
0
100
AcDbSpline
70
4
71
3
72
8
73
4
74
0
42
0.000000001
43
0.0000000001
44
0.0000000001
40
0
40
0
40
0
40
0
40
1
40
1
40
1
40
1
41
1
41
1
41
1
41
1
10
-16.572762454096718
20
-10.698543208073799
30
0
10
-16.572762454096718
20
-10.618500594437434
30
0
10
-16.527520976823986
20
-10.517577298982891
30
0
10
-16.471839158642169
20
-10.477555992164708
30
0
0
SPLINE
5
1038
100
AcDbEntity
8
0
100
AcDbSpline
70
4
71
3
72
8
73
4
74
0
42
0.000000001
43
0.0000000001
44
0.0000000001
40
0
40
0
40
0
40
0
40
1
40
1
40
1
40
1
41
1
41
1
41
1
41
1
10
-16.471839158642169
20
-10.477555992164708
30
0
10
-16.44399824955126
20
-10.456675310346526
30
0
10
-16.706746829096712
20
-10.435794628528344
30
0
10
-16.981675806369442
20
-10.435794628528344
30
0
0
LINE
5
1039
100
AcDbEntity
8
0
100
AcDbLine
10
-16.981675806369442
20
-10.435794628528345
30
0
11
-17.120880351823988
21
-10.435794628528344
31
0
0
LINE
5
1040
100
AcDbEntity
8
0
100
AcDbLine
10
-17.120880351823988
20
-10.435794628528344
30
0
11
-17.028657340460349
21
-10.517577298982891
31
0
0
SPLINE
5
1041
100
AcDbEntity
8
0
100
AcDbSpline
70
4
71
3
72
8
73
4
74
0
42
0.000000001
43
0.0000000001
44
0.0000000001
40
0
40
0
40
0
40
0
40
1
40
1
40
1
40
1
41
1
41
1
41
1
41
1
10
-17.028657340460349
20
-10.517577298982891
30
0
10
-16.89641302227853
20
-10.630680992164708
30
0
10
-16.861611885914897
20
-10.707243492164707
30
0
10
-16.861611885914897
20
-10.881249173982889
30
0
0
LINE
5
1042
100
AcDbEntity
8
0
100
AcDbLine
10
-16.861611885914897
20
-10.881249173982887
30
0
11
-16.859871829096715
21
-11.022193776255619
31
0
0
LINE
5
1043
100
AcDbEntity
8
0
100
AcDbLine
10
-16.859871829096715
20
-11.022193776255619
30
0
11
-16.720667283642172
21
-11.015233548982893
31
0
0
SPLINE
5
1044
100
AcDbEntity
8
0
100
AcDbSpline
70
4
71
3
72
8
73
4
74
0
42
0.000000001
43
0.0000000001
44
0.0000000001
40
0
40
0
40
0
40
0
40
1
40
1
40
1
40
1
41
1
41
1
41
1
41
1
10
-15.050212738187625
20
-10.976952298982889
30
0
10
-15.060653079096717
20
-10.992612810346529
30
0
10
-14.9284087609149
20
-11.16661849216471
30
0
10
-14.904047965460352
20
-11.16661849216471
30
0
0
SPLINE
5
1045
100
AcDbEntity
8
0
100
AcDbSpline
70
4
71
3
72
8
73
4
74
0
42
0.000000001
43
0.0000000001
44
0.0000000001
40
0
40
0
40
0
40
0
40
1
40
1
40
1
40
1
41
1
41
1
41
1
41
1
10
-14.904047965460352
20
-11.16661849216471
30
0
10
-14.898827795005806
20
-11.16661849216471
30
0
10
-14.855326374551261
20
-11.13181735580107
30
0
10
-14.808344840460352
20
-11.088315935346527
30
0
0
SPLINE
5
1046
100
AcDbEntity
8
0
100
AcDbSpline
70
4
71
3
72
8
73
4
74
0
42
0.000000001
43
0.0000000001
44
0.0000000001
40
0
40
0
40
0
40
0
40
1
40
1
40
1
40
1
41
1
41
1
41
1
41
1
10
-14.808344840460352
20
-11.088315935346527
30
0
10
-14.756143135914895
20
-11.039594344437436
30
0
10
-14.72830222682399
20
-11.001313094437437
30
0
10
-14.733522397278536
20
-10.985652583073803
30
0
0
SPLINE
5
1047
100
AcDbEntity
8
0
100
AcDbSpline
70
4
71
3
72
8
73
4
74
0
42
0.000000001
43
0.0000000001
44
0.0000000001
40
0
40
0
40
0
40
0
40
1
40
1
40
1
40
1
41
1
41
1
41
1
41
1
10
-14.733522397278536
20
-10.985652583073803
30
0
10
-14.738742567733079
20
-10.971732128528345
30
0
10
-14.731782340460351
20
-10.950851446710162
30
0
10
-14.717861885914896
20
-10.938671048982894
30
0
0
SPLINE
5
1048
100
AcDbEntity
8
0
100
AcDbSpline
70
4
71
3
72
8
73
4
74
0
42
0.000000001
43
0.0000000001
44
0.0000000001
40
0
40
0
40
0
40
0
40
1
40
1
40
1
40
1
41
1
41
1
41
1
41
1
10
-14.717861885914896
20
-10.938671048982894
30
0
10
-14.702201374551262
20
-10.926490651255619
30
0
10
-14.695241147278535
20
-10.902129855801071
30
0
10
-14.70046131773308
20
-10.881249173982889
30
0
0
SPLINE
5
1049
100
AcDbEntity
8
0
100
AcDbSpline
70
4
71
3
72
8
73
4
74
0
42
0.000000001
43
0.0000000001
44
0.0000000001
40
0
40
0
40
0
40
0
40
1
40
1
40
1
40
1
41
1
41
1
41
1
41
1
10
-14.70046131773308
20
-10.881249173982889
30
0
10
-14.705681488187622
20
-10.856888378528346
30
0
10
-14.690020976823991
20
-10.820347185346529
30
0
10
-14.656959897278533
20
-10.776845764891981
30
0
0
SPLINE
5
1050
100
AcDbEntity
8
0
100
AcDbSpline
70
4
71
3
72
8
73
4
74
0
42
0.000000001
43
0.0000000001
44
0.0000000001
40
0
40
0
40
0
40
0
40
1
40
1
40
1
40
1
41
1
41
1
41
1
41
1
10
-14.656959897278533
20
-10.776845764891981
30
0
10
-14.629118988187622
20
-10.738564514891982
30
0
10
-14.606498249551265
20
-10.702023321710165
30
0
10
-14.606498249551265
20
-10.695063094437439
30
0
0
SPLINE
5
1051
100
AcDbEntity
8
0
100
AcDbSpline
70
4
71
3
72
8
73
4
74
0
42
0.000000001
43
0.0000000001
44
0.0000000001
40
0
40
0
40
0
40
0
40
1
40
1
40
1
40
1
41
1
41
1
41
1
41
1
10
-14.606498249551265
20
-10.695063094437439
30
0
10
-14.606498249551265
20
-10.68636281034653
30
0
10
-14.653479783642171
20
-10.675922469437438
30
0
10
-14.71090165864217
20
-10.668962242164708
30
0
0
SPLINE
5
1052
100
AcDbEntity
8
0
100
AcDbSpline
70
4
71
3
72
8
73
4
74
0
42
0.000000001
43
0.0000000001
44
0.0000000001
40
0
40
0
40
0
40
0
40
1
40
1
40
1
40
1
41
1
41
1
41
1
41
1
10
-14.71090165864217
20
-10.668962242164708
30
0
10
-14.811824954096718
20
-10.658521901255616
30
0
10
-14.81530506773308
20
-10.655041787619256
30
0
10
-14.81530506773308
20
-10.608060253528349
30
0
0
SPLINE
5
1053
100
AcDbEntity
8
0
100
AcDbSpline
70
4
71
3
72
8
73
4
74
0
42
0.000000001
43
0.0000000001
44
0.0000000001
40
0
40
0
40
0
40
0
40
1
40
1
40
1
40
1
41
1
41
1
41
1
41
1
10
-14.81530506773308
20
-10.608060253528349
30
0
10
-14.81530506773308
20
-10.561078719437434
30
0
10
-14.820525238187626
20
-10.557598605801074
30
0
10
-14.884907340460352
20
-10.557598605801074
30
0
0
SPLINE
5
1054
100
AcDbEntity
8
0
100
AcDbSpline
70
4
71
3
72
8
73
4
74
0
42
0.000000001
43
0.0000000001
44
0.0000000001
40
0
40
0
40
0
40
0
40
1
40
1
40
1
40
1
41
1
41
1
41
1
41
1
10
-14.884907340460352
20
-10.557598605801074
30
0
10
-14.951029499551259
20
-10.557598605801074
30
0
10
-14.954509613187629
20
-10.561078719437434
30
0
10
-14.954509613187629
20
-10.609800310346525
30
0
0
LINE
5
1055
100
AcDbEntity
8
0
100
AcDbLine
10
-14.954509613187629
20
-10.609800310346525
30
0
11
-14.954509613187629
21
-10.662002014891982
31
0
0
LINE
5
1056
100
AcDbEntity
8
0
100
AcDbLine
10
-14.954509613187629
20
-10.662002014891982
30
0
11
-15.058913022278533
21
-10.662002014891982
31
0
0
SPLINE
5
1057
100
AcDbEntity
8
0
100
AcDbSpline
70
4
71
3
72
8
73
4
74
0
42
0.000000001
43
0.0000000001
44
0.0000000001
40
0
40
0
40
0
40
0
40
1
40
1
40
1
40
1
41
1
41
1
41
1
41
1
10
-15.058913022278533
20
-10.662002014891982
30
0
10
-15.116334897278536
20
-10.662002014891982
30
0
10
-15.163316431369443
20
-10.667222185346525
30
0
10
-15.163316431369443
20
-10.675922469437438
30
0
0
SPLINE
5
1058
100
AcDbEntity
8
0
100
AcDbSpline
70
4
71
3
72
8
73
4
74
0
42
0.000000001
43
0.0000000001
44
0.0000000001
40
0
40
0
40
0
40
0
40
1
40
1
40
1
40
1
41
1
41
1
41
1
41
1
10
-15.163316431369443
20
-10.675922469437438
30
0
10
-15.163316431369443
20
-10.682882696710164
30
0
10
-15.140695692733079
20
-10.722904003528347
30
0
10
-15.11111472682399
20
-10.76640542398289
30
0
0
SPLINE
5
1059
100
AcDbEntity
8
0
100
AcDbSpline
70
4
71
3
72
8
73
4
74
0
42
0.000000001
43
0.0000000001
44
0.0000000001
40
0
40
0
40
0
40
0
40
1
40
1
40
1
40
1
41
1
41
1
41
1
41
1
10
-15.11111472682399
20
-10.76640542398289
30
0
10
-15.07631359046035
20
-10.818607128528347
30
0
10
-15.065873249551261
20
-10.846448037619254
30
0
10
-15.079793704096716
20
-10.855148321710164
30
0
0
SPLINE
5
1060
100
AcDbEntity
8
0
100
AcDbSpline
70
4
71
3
72
8
73
4
74
0
42
0.000000001
43
0.0000000001
44
0.0000000001
40
0
40
0
40
0
40
0
40
1
40
1
40
1
40
1
41
1
41
1
41
1
41
1
10
-15.079793704096716
20
-10.855148321710164
30
0
10
-15.093714158642173
20
-10.863848605801072
30
0
10
-15.090234045005804
20
-10.881249173982889
30
0
10
-15.069353363187625
20
-10.912570196710163
30
0
0
SPLINE
5
1061
100
AcDbEntity
8
0
100
AcDbSpline
70
4
71
3
72
8
73
4
74
0
42
0.000000001
43
0.0000000001
44
0.0000000001
40
0
40
0
40
0
40
0
40
1
40
1
40
1
40
1
41
1
41
1
41
1
41
1
10
-15.069353363187625
20
-10.912570196710163
30
0
10
-15.053692851823991
20
-10.938671048982894
30
0
10
-15.044992567733077
20
-10.966511958073797
30
0
10
-15.050212738187625
20
-10.976952298982889
30
0
0
SPLINE
5
1062
100
AcDbEntity
8
0
100
AcDbSpline
70
4
71
3
72
8
73
4
74
0
42
0.000000001
43
0.0000000001
44
0.0000000001
40
0
40
0
40
0
40
0
40
1
40
1
40
1
40
1
41
1
41
1
41
1
41
1
10
-17.359268135914895
20
-11.276242071710167
30
0
10
-17.317506772278534
20
-11.351064514891982
30
0
10
-17.310546545005806
20
-11.354544628528343
30
0
10
-17.289665863187622
20
-11.328443776255616
30
0
0
SPLINE
5
1063
100
AcDbEntity
8
0
100
AcDbSpline
70
4
71
3
72
8
73
4
74
0
42
0.000000001
43
0.0000000001
44
0.0000000001
40
0
40
0
40
0
40
0
40
1
40
1
40
1
40
1
41
1
41
1
41
1
41
1
10
-17.289665863187622
20
-11.328443776255616
30
0
10
-17.277485465460359
20
-11.3110432080738
30
0
10
-17.235724101823987
20
-11.264061673982892
30
0
10
-17.195702795005808
20
-11.222300310346526
30
0
0
SPLINE
5
1064
100
AcDbEntity
8
0
100
AcDbSpline
70
4
71
3
72
8
73
4
74
0
42
0.000000001
43
0.0000000001
44
0.0000000001
40
0
40
0
40
0
40
0
40
1
40
1
40
1
40
1
41
1
41
1
41
1
41
1
10
-17.195702795005808
20
-11.222300310346526
30
0
10
-17.155681488187625
20
-11.180538946710161
30
0
10
-17.101739726823983
20
-11.135297469437436
30
0
10
-17.07563887455126
20
-11.123117071710162
30
0
0
SPLINE
5
1065
100
AcDbEntity
8
0
100
AcDbSpline
70
4
71
3
72
8
73
4
74
0
42
0.000000001
43
0.0000000001
44
0.0000000001
40
0
40
0
40
0
40
0
40
1
40
1
40
1
40
1
41
1
41
1
41
1
41
1
10
-17.07563887455126
20
-11.123117071710162
30
0
10
-16.967755351823985
20
-11.067435253528345
30
0
10
-16.929474101823988
20
-10.832527583073798
30
0
10
-17.00603660182399
20
-10.708983548982889
30
0
0
SPLINE
5
1066
100
AcDbEntity
8
0
100
AcDbSpline
70
4
71
3
72
8
73
4
74
0
42
0.000000001
43
0.0000000001
44
0.0000000001
40
0
40
0
40
0
40
0
40
1
40
1
40
1
40
1
41
1
41
1
41
1
41
1
10
-17.00603660182399
20
-10.708983548982889
30
0
10
-17.082599101823991
20
-10.585439514891982
30
0
10
-17.227023817733077
20
-10.503656844437435
30
0
10
-17.327947113187623
20
-10.529757696710165
30
0
0
SPLINE
5
1067
100
AcDbEntity
8
0
100
AcDbSpline
70
4
71
3
72
8
73
4
74
0
42
0.000000001
43
0.0000000001
44
0.0000000001
40
0
40
0
40
0
40
0
40
1
40
1
40
1
40
1
41
1
41
1
41
1
41
1
10
-17.327947113187623
20
-10.529757696710165
30
0
10
-17.406249670005806
20
-10.54889832171016
30
0
10
-17.491512454096718
20
-10.637641219437434
30
0
10
-17.503692851823988
20
-10.714203719437434
30
0
0
SPLINE
5
1068
100
AcDbEntity
8
0
100
AcDbSpline
70
4
71
3
72
8
73
4
74
0
42
0.000000001
43
0.0000000001
44
0.0000000001
40
0
40
0
40
0
40
0
40
1
40
1
40
1
40
1
41
1
41
1
41
1
41
1
10
-17.503692851823988
20
-10.714203719437434
30
0
10
-17.517613306369444
20
-10.797726446710163
30
0
10
-17.48803234046035
20
-10.896909685346529
30
0
10
-17.437570692733075
20
-10.931710821710162
30
0
0
SPLINE
5
1069
100
AcDbEntity
8
0
100
AcDbSpline
70
4
71
3
72
8
73
4
74
0
42
0.000000001
43
0.0000000001
44
0.0000000001
40
0
40
0
40
0
40
0
40
1
40
1
40
1
40
1
41
1
41
1
41
1
41
1
10
-17.437570692733075
20
-10.931710821710162
30
0
10
-17.388849101823986
20
-10.966511958073797
30
0
10
-17.287925806369444
20
-10.96477190125562
30
0
10
-17.247904499551261
20
-10.928230708073798
30
0
0
SPLINE
5
1070
100
AcDbEntity
8
0
100
AcDbSpline
70
4
71
3
72
8
73
4
74
0
42
0.000000001
43
0.0000000001
44
0.0000000001
40
0
40
0
40
0
40
0
40
1
40
1
40
1
40
1
41
1
41
1
41
1
41
1
10
-17.247904499551261
20
-10.928230708073798
30
0
10
-17.204403079096718
20
-10.889949458073797
30
0
10
-17.204403079096718
20
-10.77336565125562
30
0
10
-17.249644556369439
20
-10.750744912619256
30
0
0
SPLINE
5
1071
100
AcDbEntity
8
0
100
AcDbSpline
70
4
71
3
72
8
73
4
74
0
42
0.000000001
43
0.0000000001
44
0.0000000001
40
0
40
0
40
0
40
0
40
1
40
1
40
1
40
1
41
1
41
1
41
1
41
1
10
-17.249644556369439
20
-10.750744912619256
30
0
10
-17.287925806369444
20
-10.729864230801073
30
0
10
-17.303586317733082
20
-10.742044628528342
30
0
10
-17.303586317733082
20
-10.792506276255615
30
0
0
SPLINE
5
1072
100
AcDbEntity
8
0
100
AcDbSpline
70
4
71
3
72
8
73
4
74
0
42
0.000000001
43
0.0000000001
44
0.0000000001
40
0
40
0
40
0
40
0
40
1
40
1
40
1
40
1
41
1
41
1
41
1
41
1
10
-17.303586317733082
20
-10.792506276255615
30
0
10
-17.303586317733082
20
-10.815127014891981
30
0
10
-17.315766715460349
20
-10.84296792398289
30
0
10
-17.331427226823987
20
-10.855148321710164
30
0
0
SPLINE
5
1073
100
AcDbEntity
8
0
100
AcDbSpline
70
4
71
3
72
8
73
4
74
0
42
0.000000001
43
0.0000000001
44
0.0000000001
40
0
40
0
40
0
40
0
40
1
40
1
40
1
40
1
41
1
41
1
41
1
41
1
10
-17.331427226823987
20
-10.855148321710164
30
0
10
-17.355788022278535
20
-10.874288946710163
30
0
10
-17.364488306369445
20
-10.872548889891981
30
0
10
-17.394069272278532
20
-10.836007696710164
30
0
0
SPLINE
5
1074
100
AcDbEntity
8
0
100
AcDbSpline
70
4
71
3
72
8
73
4
74
0
42
0.000000001
43
0.0000000001
44
0.0000000001
40
0
40
0
40
0
40
0
40
1
40
1
40
1
40
1
41
1
41
1
41
1
41
1
10
-17.394069272278532
20
-10.836007696710164
30
0
10
-17.435830635914897
20
-10.785546048982889
30
0
10
-17.423650238187623
20
-10.721163946710163
30
0
10
-17.36274824955126
20
-10.667222185346525
30
0
0
SPLINE
5
1075
100
AcDbEntity
8
0
100
AcDbSpline
70
4
71
3
72
8
73
4
74
0
42
0.000000001
43
0.0000000001
44
0.0000000001
40
0
40
0
40
0
40
0
40
1
40
1
40
1
40
1
41
1
41
1
41
1
41
1
10
-17.36274824955126
20
-10.667222185346525
30
0
10
-17.195702795005808
20
-10.515837242164709
30
0
10
-17.00603660182399
20
-10.811646901255616
30
0
10
-17.155681488187625
20
-10.989132696710163
30
0
0
SPLINE
5
1076
100
AcDbEntity
8
0
100
AcDbSpline
70
4
71
3
72
8
73
4
74
0
42
0.000000001
43
0.0000000001
44
0.0000000001
40
0
40
0
40
0
40
0
40
1
40
1
40
1
40
1
41
1
41
1
41
1
41
1
10
-17.155681488187625
20
-10.989132696710163
30
0
10
-17.230503931369444
20
-11.077875594437437
30
0
10
-17.320986885914898
20
-11.097016219437435
30
0
10
-17.458451374551263
20
-11.05177474216471
30
0
0
LINE
5
1077
100
AcDbEntity
8
0
100
AcDbLine
10
-17.458451374551263
20
-11.05177474216471
30
0
11
-17.500212738187631
21
-11.039594344437436
31
0
0
LINE
5
1078
100
AcDbEntity
8
0
100
AcDbLine
10
-17.500212738187631
20
-11.039594344437436
30
0
11
-17.453231204096713
21
-11.116156844437436
31
0
0
SPLINE
5
1079
100
AcDbEntity
8
0
100
AcDbSpline
70
4
71
3
72
8
73
4
74
0
42
0.000000001
43
0.0000000001
44
0.0000000001
40
0
40
0
40
0
40
0
40
1
40
1
40
1
40
1
41
1
41
1
41
1
41
1
10
-17.453231204096713
20
-11.116156844437436
30
0
10
-17.427130351823987
20
-11.1579182080738
30
0
10
-17.385368988187626
20
-11.229260537619252
30
0
10
-17.359268135914895
20
-11.276242071710167
30
0
0
SPLINE
5
1080
100
AcDbEntity
8
0
100
AcDbSpline
70
4
71
3
72
8
73
4
74
0
42
0.000000001
43
0.0000000001
44
0.0000000001
40
0
40
0
40
0
40
0
40
1
40
1
40
1
40
1
41
1
41
1
41
1
41
1
10
-16.125567851823988
20
-11.363244912619257
30
0
10
-16.101207056369436
20
-11.41718667398289
30
0
10
-16.07858631773308
20
-11.462428151255615
30
0
10
-16.075106204096713
20
-11.462428151255615
30
0
0
SPLINE
5
1081
100
AcDbEntity
8
0
100
AcDbSpline
70
4
71
3
72
8
73
4
74
0
42
0.000000001
43
0.0000000001
44
0.0000000001
40
0
40
0
40
0
40
0
40
1
40
1
40
1
40
1
41
1
41
1
41
1
41
1
10
-16.075106204096713
20
-11.462428151255615
30
0
10
-16.071626090460349
20
-11.462428151255615
30
0
10
-16.068145976823988
20
-11.335404003528343
30
0
10
-16.068145976823988
20
-11.182279003528343
30
0
0
LINE
5
1082
100
AcDbEntity
8
0
100
AcDbLine
10
-16.068145976823985
20
-11.182279003528343
30
0
11
-16.068145976823988
21
-10.900389798982889
31
0
0
LINE
5
1083
100
AcDbEntity
8
0
100
AcDbLine
10
-16.068145976823988
20
-10.900389798982889
30
0
11
-16.12730790864217
21
-10.978692355801071
31
0
0
SPLINE
5
1084
100
AcDbEntity
8
0
100
AcDbSpline
70
4
71
3
72
8
73
4
74
0
42
0.000000001
43
0.0000000001
44
0.0000000001
40
0
40
0
40
0
40
0
40
1
40
1
40
1
40
1
41
1
41
1
41
1
41
1
10
-16.12730790864217
20
-10.978692355801071
30
0
10
-16.160368988187628
20
-11.020453719437436
30
0
10
-16.207350522278535
20
-11.069175310346527
30
0
10
-16.231711317733076
20
-11.086575878528345
30
0
0
SPLINE
5
1085
100
AcDbEntity
8
0
100
AcDbSpline
70
4
71
3
72
8
73
4
74
0
42
0.000000001
43
0.0000000001
44
0.0000000001
40
0
40
0
40
0
40
0
40
1
40
1
40
1
40
1
41
1
41
1
41
1
41
1
10
-16.231711317733076
20
-11.086575878528345
30
0
10
-16.290873249551264
20
-11.124857128528344
30
0
10
-16.289133192733079
20
-11.149217923982887
30
0
10
-16.223011033642166
20
-11.211859969437436
30
0
0
SPLINE
5
1086
100
AcDbEntity
8
0
100
AcDbSpline
70
4
71
3
72
8
73
4
74
0
42
0.000000001
43
0.0000000001
44
0.0000000001
40
0
40
0
40
0
40
0
40
1
40
1
40
1
40
1
41
1
41
1
41
1
41
1
10
-16.223011033642166
20
-11.211859969437436
30
0
10
-16.193430067733079
20
-11.239700878528343
30
0
10
-16.14818859046035
20
-11.307563094437434
30
0
10
-16.125567851823988
20
-11.363244912619257
30
0
0
LINE
5
1087
100
AcDbEntity
8
0
100
AcDbLine
10
-15.746235465460353
20
-11.91310286716471
30
0
11
-15.655752510914898
21
-11.822619912619253
31
0
0
SPLINE
5
1088
100
AcDbEntity
8
0
100
AcDbSpline
70
4
71
3
72
8
73
4
74
0
42
0.000000001
43
0.0000000001
44
0.0000000001
40
0
40
0
40
0
40
0
40
1
40
1
40
1
40
1
41
1
41
1
41
1
41
1
10
-15.655752510914898
20
-11.822619912619253
30
0
10
-15.598330635914898
20
-11.766938094437437
30
0
10
-15.570489726823986
20
-11.726916787619254
30
0
10
-15.580930067733078
20
-11.716476446710162
30
0
0
SPLINE
5
1089
100
AcDbEntity
8
0
100
AcDbSpline
70
4
71
3
72
8
73
4
74
0
42
0.000000001
43
0.0000000001
44
0.0000000001
40
0
40
0
40
0
40
0
40
1
40
1
40
1
40
1
41
1
41
1
41
1
41
1
10
-15.580930067733078
20
-11.716476446710162
30
0
10
-15.591370408642172
20
-11.706036105801072
30
0
10
-15.58441018136944
20
-11.68515542398289
30
0
10
-15.561789442733076
20
-11.657314514891981
30
0
0
SPLINE
5
1090
100
AcDbEntity
8
0
100
AcDbSpline
70
4
71
3
72
8
73
4
74
0
42
0.000000001
43
0.0000000001
44
0.0000000001
40
0
40
0
40
0
40
0
40
1
40
1
40
1
40
1
41
1
41
1
41
1
41
1
10
-15.561789442733076
20
-11.657314514891981
30
0
10
-15.537428647278535
20
-11.625993492164712
30
0
10
-15.533948533642169
20
-11.60859292398289
30
0
10
-15.547868988187629
20
-11.59989263989198
30
0
0
SPLINE
5
1091
100
AcDbEntity
8
0
100
AcDbSpline
70
4
71
3
72
8
73
4
74
0
42
0.000000001
43
0.0000000001
44
0.0000000001
40
0
40
0
40
0
40
0
40
1
40
1
40
1
40
1
41
1
41
1
41
1
41
1
10
-15.547868988187629
20
-11.59989263989198
30
0
10
-15.561789442733076
20
-11.592932412619255
30
0
10
-15.547868988187629
20
-11.561611389891981
30
0
10
-15.502627510914897
20
-11.504189514891982
30
0
0
LINE
5
1092
100
AcDbEntity
8
0
100
AcDbLine
10
-15.502627510914898
20
-11.504189514891982
30
0
11
-15.438245408642171
21
-11.418926730801074
31
0
0
LINE
5
1093
100
AcDbEntity
8
0
100
AcDbLine
10
-15.438245408642171
20
-11.418926730801074
30
0
11
-15.526988306369445
21
-11.408486389891982
31
0
0
SPLINE
5
1094
100
AcDbEntity
8
0
100
AcDbSpline
70
4
71
3
72
8
73
4
74
0
42
0.000000001
43
0.0000000001
44
0.0000000001
40
0
40
0
40
0
40
0
40
1
40
1
40
1
40
1
41
1
41
1
41
1
41
1
10
-15.526988306369445
20
-11.408486389891982
30
0
10
-15.654012454096717
20
-11.391085821710165
30
0
10
-15.664452795005806
20
-11.385865651255617
30
0
10
-15.655752510914898
20
-11.333663946710166
30
0
0
SPLINE
5
1095
100
AcDbEntity
8
0
100
AcDbSpline
70
4
71
3
72
8
73
4
74
0
42
0.000000001
43
0.0000000001
44
0.0000000001
40
0
40
0
40
0
40
0
40
1
40
1
40
1
40
1
41
1
41
1
41
1
41
1
10
-15.655752510914898
20
-11.333663946710166
30
0
10
-15.647052226823989
20
-11.291902583073799
30
0
10
-15.650532340460352
20
-11.288422469437435
30
0
10
-15.716654499551263
20
-11.288422469437435
30
0
0
SPLINE
5
1096
100
AcDbEntity
8
0
100
AcDbSpline
70
4
71
3
72
8
73
4
74
0
42
0.000000001
43
0.0000000001
44
0.0000000001
40
0
40
0
40
0
40
0
40
1
40
1
40
1
40
1
41
1
41
1
41
1
41
1
10
-15.716654499551263
20
-11.288422469437435
30
0
10
-15.779296545005808
20
-11.288422469437435
30
0
10
-15.786256772278536
20
-11.293642639891983
30
0
10
-15.794957056369443
20
-11.34062417398289
30
0
0
SPLINE
5
1097
100
AcDbEntity
8
0
100
AcDbSpline
70
4
71
3
72
8
73
4
74
0
42
0.000000001
43
0.0000000001
44
0.0000000001
40
0
40
0
40
0
40
0
40
1
40
1
40
1
40
1
41
1
41
1
41
1
41
1
10
-15.794957056369443
20
-11.34062417398289
30
0
10
-15.805397397278533
20
-11.389345764891983
30
0
10
-15.810617567733077
20
-11.391085821710165
30
0
10
-15.911540863187627
20
-11.396305992164708
30
0
0
LINE
5
1098
100
AcDbEntity
8
0
100
AcDbLine
10
-15.911540863187627
20
-11.396305992164708
30
0
11
-16.017684329096713
21
-11.40152616261925
31
0
0
LINE
5
1099
100
AcDbEntity
8
0
100
AcDbLine
10
-16.017684329096713
20
-11.40152616261925
30
0
11
-15.963742567733078
21
-11.486788946710165
31
0
0
SPLINE
5
1100
100
AcDbEntity
8
0
100
AcDbSpline
70
4
71
3
72
8
73
4
74
0
42
0.000000001
43
0.0000000001
44
0.0000000001
40
0
40
0
40
0
40
0
40
1
40
1
40
1
40
1
41
1
41
1
41
1
41
1
10
-15.963742567733078
20
-11.486788946710165
30
0
10
-15.927201374551265
20
-11.544210821710164
30
0
10
-15.915020976823984
20
-11.577271901255616
30
0
10
-15.927201374551265
20
-11.58945229898289
30
0
0
SPLINE
5
1101
100
AcDbEntity
8
0
100
AcDbSpline
70
4
71
3
72
8
73
4
74
0
42
0.000000001
43
0.0000000001
44
0.0000000001
40
0
40
0
40
0
40
0
40
1
40
1
40
1
40
1
41
1
41
1
41
1
41
1
10
-15.927201374551265
20
-11.58945229898289
30
0
10
-15.939381772278535
20
-11.601632696710164
30
0
10
-15.934161601823988
20
-11.620773321710164
30
0
10
-15.909800806369441
20
-11.650354287619255
30
0
0
SPLINE
5
1102
100
AcDbEntity
8
0
100
AcDbSpline
70
4
71
3
72
8
73
4
74
0
42
0.000000001
43
0.0000000001
44
0.0000000001
40
0
40
0
40
0
40
0
40
1
40
1
40
1
40
1
41
1
41
1
41
1
41
1
10
-15.909800806369441
20
-11.650354287619255
30
0
10
-15.887180067733082
20
-11.679935253528345
30
0
10
-15.881959897278531
20
-11.699075878528346
30
0
10
-15.894140295005807
20
-11.706036105801072
30
0
0
SPLINE
5
1103
100
AcDbEntity
8
0
100
AcDbSpline
70
4
71
3
72
8
73
4
74
0
42
0.000000001
43
0.0000000001
44
0.0000000001
40
0
40
0
40
0
40
0
40
1
40
1
40
1
40
1
41
1
41
1
41
1
41
1
10
-15.894140295005807
20
-11.706036105801072
30
0
10
-15.906320692733079
20
-11.712996333073797
30
0
10
-15.881959897278531
20
-11.754757696710163
30
0
10
-15.829758192733079
20
-11.815659685346528
30
0
0
LINE
5
1104
100
AcDbEntity
8
0
100
AcDbLine
10
-15.829758192733079
20
-11.815659685346528
30
0
11
-15.746235465460353
21
-11.91310286716471
31
0
0
ENDSEC
0
SECTION
2
OBJECTS
0
DICTIONARY
5
C
100
AcDbDictionary
3
ACAD_GROUP
350
D
3
ACAD_MLINESTYLE
350
17
0
DICTIONARY
5
D
100
AcDbDictionary
0
DICTIONARY
5
1A
330
C
100
AcDbDictionary
0
DICTIONARY
5
17
100
AcDbDictionary
0
ENDSEC
0
EOF
