999
dxflib 2.2.0.0
  0
SECTION
  2
HEADER
  9
$ACADVER
  1
AC1015
  9
$HANDSEED
  5
FFFF
  9
$INSUNITS
 70
4
  9
$DIMEXE
 40
1.25
  9
$TEXTSTYLE
  7
Standard
  9
$LIMMIN
 10
0.0
 20
0.0
  0
ENDSEC
  0
SECTION
  2
TABLES
  0
TABLE
  2
VPORT
  5
8
100
AcDbSymbolTable
 70
1
  0
VPORT
  5
30
100
AcDbSymbolTableRecord
100
AcDbViewportTableRecord
  2
*Active
 70
0
 10
0.0
 20
0.0
 11
1.0
 21
1.0
 12
286.30555555555549
 22
148.5
 13
0.0
 23
0.0
 14
10.0
 24
10.0
 15
10.0
 25
10.0
 16
0.0
 26
0.0
 36
1.0
 17
0.0
 27
0.0
 37
0.0
 40
297.0
 41
1.92798353909465
 42
50.0
 43
0.0
 44
0.0
 50
0.0
 51
0.0
 71
0
 72
100
 73
1
 74
3
 75
1
 76
1
 77
0
 78
0
281
0
 65
1
110
0.0
120
0.0
130
0.0
111
1.0
121
0.0
131
0.0
112
0.0
122
1.0
132
0.0
 79
0
146
0.0
  0
ENDTAB
  0
TABLE
  2
LTYPE
  5
5
100
AcDbSymbolTable
 70
25
  0
LTYPE
  5
14
100
AcDbSymbolTableRecord
100
AcDbLinetypeTableRecord
  2
BYBLOCK
 70
0
  3

 72
65
 73
0
 40
0.0
  0
LTYPE
  5
15
100
AcDbSymbolTableRecord
100
AcDbLinetypeTableRecord
  2
BYLAYER
 70
0
  3

 72
65
 73
0
 40
0.0
  0
LTYPE
  5
16
100
AcDbSymbolTableRecord
100
AcDbLinetypeTableRecord
  2
CONTINUOUS
 70
0
  3
Solid line
 72
65
 73
0
 40
0.0
  0
LTYPE
  5
31
100
AcDbSymbolTableRecord
100
AcDbLinetypeTableRecord
  2
ACAD_ISO02W100
 70
0
  3
ISO Dashed __ __ __ __ __ __ __ __ __ __ _
 72
65
 73
2
 40
15.0
 49
12.0
 74
0
 49
-3.0
 74
0
  0
LTYPE
  5
32
100
AcDbSymbolTableRecord
100
AcDbLinetypeTableRecord
  2
ACAD_ISO03W100
 70
0
  3
ISO Dashed with Distance __    __    __    _
 72
65
 73
2
 40
30.0
 49
12.0
 74
0
 49
-18.0
 74
0
  0
LTYPE
  5
33
100
AcDbSymbolTableRecord
100
AcDbLinetypeTableRecord
  2
ACAD_ISO04W100
 70
0
  3
ISO Long Dashed Dotted ____ . ____ . __
 72
65
 73
4
 40
30.0
 49
24.0
 74
0
 49
-3.0
 74
0
 49
0.0
 74
0
 49
-3.0
 74
0
  0
LTYPE
  5
34
100
AcDbSymbolTableRecord
100
AcDbLinetypeTableRecord
  2
ACAD_ISO05W100
 70
0
  3
ISO Long Dashed Double Dotted ____ .. __
 72
65
 73
6
 40
33.0
 49
24.0
 74
0
 49
-3.0
 74
0
 49
0.0
 74
0
 49
-3.0
 74
0
 49
0.0
 74
0
 49
-3.0
 74
0
  0
LTYPE
  5
35
100
AcDbSymbolTableRecord
100
AcDbLinetypeTableRecord
  2
BORDER
 70
0
  3
Border __ __ . __ __ . __ __ . __ __ . __ __ .
 72
65
 73
6
 40
44.450000000000003
 49
12.699999999999999
 74
0
 49
-6.3499999999999996
 74
0
 49
12.699999999999999
 74
0
 49
-6.3499999999999996
 74
0
 49
0.0
 74
0
 49
-6.3499999999999996
 74
0
  0
LTYPE
  5
36
100
AcDbSymbolTableRecord
100
AcDbLinetypeTableRecord
  2
BORDER2
 70
0
  3
Border (.5x) __.__.__.__.__.__.__.__.__.__.__.
 72
65
 73
6
 40
22.225000000000001
 49
6.3499999999999996
 74
0
 49
-3.1749999999999998
 74
0
 49
6.3499999999999996
 74
0
 49
-3.1749999999999998
 74
0
 49
0.0
 74
0
 49
-3.1749999999999998
 74
0
  0
LTYPE
  5
37
100
AcDbSymbolTableRecord
100
AcDbLinetypeTableRecord
  2
BORDERX2
 70
0
  3
Border (2x) ____  ____  .  ____  ____  .  ___
 72
65
 73
6
 40
88.900000000000006
 49
25.399999999999999
 74
0
 49
-12.699999999999999
 74
0
 49
25.399999999999999
 74
0
 49
-12.699999999999999
 74
0
 49
0.0
 74
0
 49
-12.699999999999999
 74
0
  0
LTYPE
  5
38
100
AcDbSymbolTableRecord
100
AcDbLinetypeTableRecord
  2
CENTER
 70
0
  3
Center ____ _ ____ _ ____ _ ____ _ ____ _ ____
 72
65
 73
4
 40
50.799999999999997
 49
31.75
 74
0
 49
-6.3499999999999996
 74
0
 49
6.3499999999999996
 74
0
 49
-6.3499999999999996
 74
0
  0
LTYPE
  5
39
100
AcDbSymbolTableRecord
100
AcDbLinetypeTableRecord
  2
CENTER2
 70
0
  3
Center (.5x) ___ _ ___ _ ___ _ ___ _ ___ _ ___
 72
65
 73
4
 40
28.574999999999999
 49
19.050000000000001
 74
0
 49
-3.1749999999999998
 74
0
 49
3.1749999999999998
 74
0
 49
-3.1749999999999998
 74
0
  0
LTYPE
  5
3A
100
AcDbSymbolTableRecord
100
AcDbLinetypeTableRecord
  2
CENTERX2
 70
0
  3
Center (2x) ________  __  ________  __  _____
 72
65
 73
4
 40
101.59999999999999
 49
63.5
 74
0
 49
-12.699999999999999
 74
0
 49
12.699999999999999
 74
0
 49
-12.699999999999999
 74
0
  0
LTYPE
  5
3B
100
AcDbSymbolTableRecord
100
AcDbLinetypeTableRecord
  2
DASHDOT
 70
0
  3
Dash dot __ . __ . __ . __ . __ . __ . __ . __
 72
65
 73
4
 40
25.399999999999999
 49
12.699999999999999
 74
0
 49
-6.3499999999999996
 74
0
 49
0.0
 74
0
 49
-6.3499999999999996
 74
0
  0
LTYPE
  5
3C
100
AcDbSymbolTableRecord
100
AcDbLinetypeTableRecord
  2
DASHDOT2
 70
0
  3
Dash dot (.5x) _._._._._._._._._._._._._._._.
 72
65
 73
4
 40
12.699999999999999
 49
6.3499999999999996
 74
0
 49
-3.1749999999999998
 74
0
 49
0.0
 74
0
 49
-3.1749999999999998
 74
0
  0
LTYPE
  5
3D
100
AcDbSymbolTableRecord
100
AcDbLinetypeTableRecord
  2
DASHDOTX2
 70
0
  3
Dash dot (2x) ____  .  ____  .  ____  .  ___
 72
65
 73
4
 40
50.799999999999997
 49
25.399999999999999
 74
0
 49
-12.699999999999999
 74
0
 49
0.0
 74
0
 49
-12.699999999999999
 74
0
  0
LTYPE
  5
3E
100
AcDbSymbolTableRecord
100
AcDbLinetypeTableRecord
  2
DASHED
 70
0
  3
Dashed __ __ __ __ __ __ __ __ __ __ __ __ __ _
 72
65
 73
2
 40
19.050000000000001
 49
12.699999999999999
 74
0
 49
-6.3499999999999996
 74
0
  0
LTYPE
  5
3F
100
AcDbSymbolTableRecord
100
AcDbLinetypeTableRecord
  2
DASHED2
 70
0
  3
Dashed (.5x) _ _ _ _ _ _ _ _ _ _ _ _ _ _ _ _ _
 72
65
 73
2
 40
9.5250000000000004
 49
6.3499999999999996
 74
0
 49
-3.1749999999999998
 74
0
  0
LTYPE
  5
40
100
AcDbSymbolTableRecord
100
AcDbLinetypeTableRecord
  2
DASHEDX2
 70
0
  3
Dashed (2x) ____  ____  ____  ____  ____  ___
 72
65
 73
2
 40
38.100000000000001
 49
25.399999999999999
 74
0
 49
-12.699999999999999
 74
0
  0
LTYPE
  5
41
100
AcDbSymbolTableRecord
100
AcDbLinetypeTableRecord
  2
DIVIDE
 70
0
  3
Divide ____ . . ____ . . ____ . . ____ . . ____
 72
65
 73
6
 40
31.75
 49
12.699999999999999
 74
0
 49
-6.3499999999999996
 74
0
 49
0.0
 74
0
 49
-6.3499999999999996
 74
0
 49
0.0
 74
0
 49
-6.3499999999999996
 74
0
  0
LTYPE
  5
42
100
AcDbSymbolTableRecord
100
AcDbLinetypeTableRecord
  2
DIVIDE2
 70
0
  3
Divide (.5x) __..__..__..__..__..__..__..__.._
 72
65
 73
6
 40
15.875
 49
6.3499999999999996
 74
0
 49
-3.1749999999999998
 74
0
 49
0.0
 74
0
 49
-3.1749999999999998
 74
0
 49
0.0
 74
0
 49
-3.1749999999999998
 74
0
  0
LTYPE
  5
43
100
AcDbSymbolTableRecord
100
AcDbLinetypeTableRecord
  2
DIVIDEX2
 70
0
  3
Divide (2x) ________  .  .  ________  .  .  _
 72
65
 73
6
 40
63.5
 49
25.399999999999999
 74
0
 49
-12.699999999999999
 74
0
 49
0.0
 74
0
 49
-12.699999999999999
 74
0
 49
0.0
 74
0
 49
-12.699999999999999
 74
0
  0
LTYPE
  5
44
100
AcDbSymbolTableRecord
100
AcDbLinetypeTableRecord
  2
DOT
 70
0
  3
Dot . . . . . . . . . . . . . . . . . . . . . .
 72
65
 73
2
 40
6.3499999999999996
 49
0.0
 74
0
 49
-6.3499999999999996
 74
0
  0
LTYPE
  5
45
100
AcDbSymbolTableRecord
100
AcDbLinetypeTableRecord
  2
DOT2
 70
0
  3
Dot (.5x) .....................................
 72
65
 73
2
 40
3.1749999999999998
 49
0.0
 74
0
 49
-3.1749999999999998
 74
0
  0
LTYPE
  5
46
100
AcDbSymbolTableRecord
100
AcDbLinetypeTableRecord
  2
DOTX2
 70
0
  3
Dot (2x) .  .  .  .  .  .  .  .  .  .  .  .  .
 72
65
 73
2
 40
12.699999999999999
 49
0.0
 74
0
 49
-12.699999999999999
 74
0
  0
ENDTAB
  0
TABLE
  2
LAYER
  5
2
100
AcDbSymbolTable
 70
3
  0
LAYER
  5
10
100
AcDbSymbolTableRecord
100
AcDbLayerTableRecord
  2
0
 70
0
 62
250
  6
CONTINUOUS
370
100
390
F
  0
LAYER
  5
47
100
AcDbSymbolTableRecord
100
AcDbLayerTableRecord
  2
color#00000000
 70
0
 62
7
  6
CONTINUOUS
370
100
390
F
  0
LAYER
  5
48
100
AcDbSymbolTableRecord
100
AcDbLayerTableRecord
  2
color#000000ff
 70
0
 62
7
  6
CONTINUOUS
370
100
390
F
  0
ENDTAB
  0
TABLE
  2
STYLE
  5
3
100
AcDbSymbolTable
 70
1
  0
STYLE
  5
11
100
AcDbSymbolTableRecord
100
AcDbTextStyleTableRecord
  2
Standard
 70
0
 40
0.0
 41
0.75
 50
0.0
 71
0
 42
2.5
  3
txt
  4

  0
ENDTAB
  0
TABLE
  2
VIEW
  5
6
100
AcDbSymbolTable
 70
0
  0
ENDTAB
  0
TABLE
  2
UCS
  5
7
100
AcDbSymbolTable
 70
0
  0
ENDTAB
  0
TABLE
  2
APPID
  5
9
100
AcDbSymbolTable
 70
1
  0
APPID
  5
12
100
AcDbSymbolTableRecord
100
AcDbRegAppTableRecord
  2
ACAD
 70
0
  0
ENDTAB
  0
TABLE
  2
DIMSTYLE
  5
A
100
AcDbSymbolTable
 70
1
100
AcDbDimStyleTable
 71
0
  0
DIMSTYLE
105
27
100
AcDbSymbolTableRecord
100
AcDbDimStyleTableRecord
  2
Standard
 41
1.0
 42
1.0
 43
3.75
 44
1.0
 70
0
 73
0
 74
0
 77
1
 78
8
140
1.0
141
2.5
143
0.03937007874016
147
1.0
171
3
172
1
271
2
272
2
274
3
278
44
283
0
284
8
340
11
  0
ENDTAB
  0
TABLE
  2
BLOCK_RECORD
  5
1
100
AcDbSymbolTable
 70
1
  0
BLOCK_RECORD
  5
1F
100
AcDbSymbolTableRecord
100
AcDbBlockTableRecord
  2
*Model_Space
340
22
  0
BLOCK_RECORD
  5
1B
100
AcDbSymbolTableRecord
100
AcDbBlockTableRecord
  2
*Paper_Space
340
1E
  0
BLOCK_RECORD
  5
23
100
AcDbSymbolTableRecord
100
AcDbBlockTableRecord
  2
*Paper_Space0
340
26
  0
ENDTAB
  0
ENDSEC
  0
SECTION
  2
BLOCKS
  0
BLOCK
  5
20
100
AcDbEntity
  8
0
100
AcDbBlockBegin
  2
*Model_Space
 70
0
 10
0.0
 20
0.0
 30
0.0
  3
*Model_Space
  1

  0
ENDBLK
  5
21
100
AcDbEntity
  8
0
100
AcDbBlockEnd
  0
BLOCK
  5
1C
100
AcDbEntity
 67
1
  8
0
100
AcDbBlockBegin
  2
*Paper_Space
 70
0
 10
0.0
 20
0.0
 30
0.0
  3
*Paper_Space
  1

  0
ENDBLK
  5
1D
100
AcDbEntity
 67
1
  8
0
100
AcDbBlockEnd
  0
BLOCK
  5
24
100
AcDbEntity
  8
0
100
AcDbBlockBegin
  2
*Paper_Space0
 70
0
 10
0.0
 20
0.0
 30
0.0
  3
*Paper_Space0
  1

  0
ENDBLK
  5
25
100
AcDbEntity
  8
0
100
AcDbBlockEnd
  0
ENDSEC
  0
SECTION
  2
ENTITIES
  0
LINE
  5
49
100
AcDbEntity
100
AcDbLine
  8
color#000000ff
 62
256
370
-1
  6
BYLAYER
 10
2.2901387040861461
 20
3.7087018605972513
 30
0.0
 11
2.6750775960392978
 21
3.7059480583676558
 31
0.0
  0
LINE
  5
4A
100
AcDbEntity
100
AcDbLine
  8
color#000000ff
 62
256
370
-1
  6
BYLAYER
 10
2.6750775960392978
 20
3.7059480583676558
 30
0.0
 11
2.7417229798719553
 21
3.521596545267351
 31
0.0
  0
LINE
  5
4B
100
AcDbEntity
100
AcDbLine
  8
color#000000ff
 62
256
370
-1
  6
BYLAYER
 10
2.7417229798719553
 20
3.521596545267351
 30
0.0
 11
2.8513466549702251
 21
3.5137635018785307
 31
0.0
  0
LINE
  5
4C
100
AcDbEntity
100
AcDbLine
  8
color#000000ff
 62
256
370
-1
  6
BYLAYER
 10
2.8513466549702251
 20
3.5137635018785307
 30
0.0
 11
2.9154799698364773
 21
3.4980311213140758
 31
0.0
  0
LINE
  5
4D
100
AcDbEntity
100
AcDbLine
  8
color#000000ff
 62
256
370
-1
  6
BYLAYER
 10
2.9154799698364773
 20
3.4980311213140758
 30
0.0
 11
2.9561609225241408
 21
3.4819534715689211
 31
0.0
  0
LINE
  5
4E
100
AcDbEntity
100
AcDbLine
  8
color#000000ff
 62
256
370
-1
  6
BYLAYER
 10
2.9561609225241408
 20
3.4819534715689211
 30
0.0
 11
2.985107837044592
 21
3.4666221112916875
 31
0.0
  0
LINE
  5
4F
100
AcDbEntity
100
AcDbLine
  8
color#000000ff
 62
256
370
-1
  6
BYLAYER
 10
2.985107837044592
 20
3.4666221112916875
 30
0.0
 11
3.0124014021494281
 21
3.4482619049208725
 31
0.0
  0
LINE
  5
50
100
AcDbEntity
100
AcDbLine
  8
color#000000ff
 62
256
370
-1
  6
BYLAYER
 10
3.0124014021494281
 20
3.4482619049208725
 30
0.0
 11
3.0377599633609664
 21
3.4266718715478506
 31
0.0
  0
LINE
  5
51
100
AcDbEntity
100
AcDbLine
  8
color#000000ff
 62
256
370
-1
  6
BYLAYER
 10
3.0377599633609664
 20
3.4266718715478506
 30
0.0
 11
3.0843640799228766
 21
3.3617017261225186
 31
0.0
  0
LINE
  5
52
100
AcDbEntity
100
AcDbLine
  8
color#000000ff
 62
256
370
-1
  6
BYLAYER
 10
3.0843640799228766
 20
3.3617017261225186
 30
0.0
 11
3.1209240294265084
 21
3.2695681609195453
 31
0.0
  0
LINE
  5
53
100
AcDbEntity
100
AcDbLine
  8
color#000000ff
 62
256
370
-1
  6
BYLAYER
 10
3.1209240294265084
 20
3.2695681609195453
 30
0.0
 11
3.3802521824280158
 21
3.3372570840221116
 31
0.0
  0
LINE
  5
54
100
AcDbEntity
100
AcDbLine
  8
color#000000ff
 62
256
370
-1
  6
BYLAYER
 10
3.3802521824280158
 20
3.3372570840221116
 30
0.0
 11
3.5433911629733541
 21
3.3530159283051582
 31
0.0
  0
LINE
  5
55
100
AcDbEntity
100
AcDbLine
  8
color#000000ff
 62
256
370
-1
  6
BYLAYER
 10
3.5433911629733541
 20
3.3530159283051582
 30
0.0
 11
3.5343418659361552
 21
3.5108567230346375
 31
0.0
  0
LINE
  5
56
100
AcDbEntity
100
AcDbLine
  8
color#000000ff
 62
256
370
-1
  6
BYLAYER
 10
3.5343418659361552
 20
3.5108567230346375
 30
0.0
 11
3.5269454998384493
 21
3.5279569105173985
 31
0.0
  0
LINE
  5
57
100
AcDbEntity
100
AcDbLine
  8
color#000000ff
 62
256
370
-1
  6
BYLAYER
 10
3.5269454998384493
 20
3.5279569105173985
 30
0.0
 11
3.4939095559371744
 21
3.5797851069739348
 31
0.0
  0
LINE
  5
58
100
AcDbEntity
100
AcDbLine
  8
color#000000ff
 62
256
370
-1
  6
BYLAYER
 10
3.4939095559371744
 20
3.5797851069739348
 30
0.0
 11
3.4553589489600287
 21
3.6176346146241491
 31
0.0
  0
LINE
  5
59
100
AcDbEntity
100
AcDbLine
  8
color#000000ff
 62
256
370
-1
  6
BYLAYER
 10
3.4553589489600287
 20
3.6176346146241491
 30
0.0
 11
3.4164227601644015
 21
3.6422820636946751
 31
0.0
  0
LINE
  5
5A
100
AcDbEntity
100
AcDbLine
  8
color#000000ff
 62
256
370
-1
  6
BYLAYER
 10
3.4164227601644015
 20
3.6422820636946751
 30
0.0
 11
3.3805891886052164
 21
3.6559813054319616
 31
0.0
  0
LINE
  5
5B
100
AcDbEntity
100
AcDbLine
  8
color#000000ff
 62
256
370
-1
  6
BYLAYER
 10
3.3805891886052164
 20
3.6559813054319616
 30
0.0
 11
3.3578719960507128
 21
3.6607599033335134
 31
0.0
  0
LINE
  5
5C
100
AcDbEntity
100
AcDbLine
  8
color#000000ff
 62
256
370
-1
  6
BYLAYER
 10
3.3578719960507128
 20
3.6607599033335134
 30
0.0
 11
3.3319387119200035
 21
3.6591000953229655
 31
0.0
  0
LINE
  5
5D
100
AcDbEntity
100
AcDbLine
  8
color#000000ff
 62
256
370
-1
  6
BYLAYER
 10
3.3319387119200035
 20
3.6591000953229655
 30
0.0
 11
3.2425484806677676
 21
3.625671686947574
 31
0.0
  0
LINE
  5
5E
100
AcDbEntity
100
AcDbLine
  8
color#000000ff
 62
256
370
-1
  6
BYLAYER
 10
3.2425484806677676
 20
3.625671686947574
 30
0.0
 11
3.2381681592552463
 21
3.6254521228095404
 31
0.0
  0
LINE
  5
5F
100
AcDbEntity
100
AcDbLine
  8
color#000000ff
 62
256
370
-1
  6
BYLAYER
 10
3.2381681592552463
 20
3.6254521228095404
 30
0.0
 11
3.2032807963668271
 21
3.6490896656953957
 31
0.0
  0
LINE
  5
60
100
AcDbEntity
100
AcDbLine
  8
color#000000ff
 62
256
370
-1
  6
BYLAYER
 10
3.2032807963668271
 20
3.6490896656953957
 30
0.0
 11
3.2033049445498483
 21
3.6660719707220881
 31
0.0
  0
LINE
  5
61
100
AcDbEntity
100
AcDbLine
  8
color#000000ff
 62
256
370
-1
  6
BYLAYER
 10
3.2033049445498483
 20
3.6660719707220881
 30
0.0
 11
3.2789634429605807
 21
3.7051536249107193
 31
0.0
  0
LINE
  5
62
100
AcDbEntity
100
AcDbLine
  8
color#000000ff
 62
256
370
-1
  6
BYLAYER
 10
3.2789634429605807
 20
3.7051536249107193
 30
0.0
 11
3.3142100963749801
 21
3.7049149462161166
 31
0.0
  0
LINE
  5
63
100
AcDbEntity
100
AcDbLine
  8
color#000000ff
 62
256
370
-1
  6
BYLAYER
 10
3.3142100963749801
 20
3.7049149462161166
 30
0.0
 11
3.349419160470771
 21
3.7007773281713701
 31
0.0
  0
LINE
  5
64
100
AcDbEntity
100
AcDbLine
  8
color#000000ff
 62
256
370
-1
  6
BYLAYER
 10
3.349419160470771
 20
3.7007773281713701
 30
0.0
 11
3.3840774687048345
 21
3.692833875996639
 31
0.0
  0
LINE
  5
65
100
AcDbEntity
100
AcDbLine
  8
color#000000ff
 62
256
370
-1
  6
BYLAYER
 10
3.3840774687048345
 20
3.692833875996639
 30
0.0
 11
3.4176718545340488
 21
3.6811776949120834
 31
0.0
  0
LINE
  5
66
100
AcDbEntity
100
AcDbLine
  8
color#000000ff
 62
256
370
-1
  6
BYLAYER
 10
3.4176718545340488
 20
3.6811776949120834
 30
0.0
 11
3.4392236281739796
 21
3.671390258236753
 31
0.0
  0
LINE
  5
67
100
AcDbEntity
100
AcDbLine
  8
color#000000ff
 62
256
370
-1
  6
BYLAYER
 10
3.4392236281739796
 20
3.671390258236753
 30
0.0
 11
3.4599224240464794
 21
3.6600216866534714
 31
0.0
  0
LINE
  5
68
100
AcDbEntity
100
AcDbLine
  8
color#000000ff
 62
256
370
-1
  6
BYLAYER
 10
3.4599224240464794
 20
3.6600216866534714
 30
0.0
 11
3.4796161928054383
 21
3.6470995668941368
 31
0.0
  0
LINE
  5
69
100
AcDbEntity
100
AcDbLine
  8
color#000000ff
 62
256
370
-1
  6
BYLAYER
 10
3.4796161928054383
 20
3.6470995668941368
 30
0.0
 11
3.498152885104747
 21
3.6326514856906491
 31
0.0
  0
LINE
  5
6A
100
AcDbEntity
100
AcDbLine
  8
color#000000ff
 62
256
370
-1
  6
BYLAYER
 10
3.498152885104747
 20
3.6326514856906491
 30
0.0
 11
3.5153804515982947
 21
3.616705029774907
 31
0.0
  0
LINE
  5
6B
100
AcDbEntity
100
AcDbLine
  8
color#000000ff
 62
256
370
-1
  6
BYLAYER
 10
3.5153804515982947
 20
3.616705029774907
 30
0.0
 11
3.5311468429399699
 21
3.5992877858788104
 31
0.0
  0
LINE
  5
6C
100
AcDbEntity
100
AcDbLine
  8
color#000000ff
 62
256
370
-1
  6
BYLAYER
 10
3.5311468429399699
 20
3.5992877858788104
 30
0.0
 11
3.5453000097836638
 21
3.5804273407342584
 31
0.0
  0
LINE
  5
6D
100
AcDbEntity
100
AcDbLine
  8
color#000000ff
 62
256
370
-1
  6
BYLAYER
 10
3.5453000097836638
 20
3.5804273407342584
 30
0.0
 11
3.5576879027832669
 21
3.5601512810731495
 31
0.0
  0
LINE
  5
6E
100
AcDbEntity
100
AcDbLine
  8
color#000000ff
 62
256
370
-1
  6
BYLAYER
 10
3.5576879027832669
 20
3.5601512810731495
 30
0.0
 11
3.5631723561708739
 21
3.5494910166526057
 31
0.0
  0
LINE
  5
6F
100
AcDbEntity
100
AcDbLine
  8
color#000000ff
 62
256
370
-1
  6
BYLAYER
 10
3.5631723561708739
 20
3.5494910166526057
 30
0.0
 11
3.5810980787463551
 21
3.5043663041506852
 31
0.0
  0
LINE
  5
70
100
AcDbEntity
100
AcDbLine
  8
color#000000ff
 62
256
370
-1
  6
BYLAYER
 10
3.5810980787463551
 20
3.5043663041506852
 30
0.0
 11
3.5872944766416901
 21
3.3529221751791751
 31
0.0
  0
LINE
  5
71
100
AcDbEntity
100
AcDbLine
  8
color#000000ff
 62
256
370
-1
  6
BYLAYER
 10
3.5872944766416901
 20
3.3529221751791751
 30
0.0
 11
3.6673904711511054
 21
3.3517316349529169
 31
0.0
  0
LINE
  5
72
100
AcDbEntity
100
AcDbLine
  8
color#000000ff
 62
256
370
-1
  6
BYLAYER
 10
3.6673904711511054
 20
3.3517316349529169
 30
0.0
 11
3.7474349824486604
 21
3.3451475886824005
 31
0.0
  0
LINE
  5
73
100
AcDbEntity
100
AcDbLine
  8
color#000000ff
 62
256
370
-1
  6
BYLAYER
 10
3.7474349824486604
 20
3.3451475886824005
 30
0.0
 11
3.8070955598635394
 21
3.3365420549676665
 31
0.0
  0
LINE
  5
74
100
AcDbEntity
100
AcDbLine
  8
color#000000ff
 62
256
370
-1
  6
BYLAYER
 10
3.8070955598635394
 20
3.3365420549676665
 30
0.0
 11
3.8661724176436536
 21
3.3246932020970914
 31
0.0
  0
LINE
  5
75
100
AcDbEntity
100
AcDbLine
  8
color#000000ff
 62
256
370
-1
  6
BYLAYER
 10
3.8661724176436536
 20
3.3246932020970914
 30
0.0
 11
3.9244278013626777
 21
3.3095112563538396
 31
0.0
  0
LINE
  5
76
100
AcDbEntity
100
AcDbLine
  8
color#000000ff
 62
256
370
-1
  6
BYLAYER
 10
3.9244278013626777
 20
3.3095112563538396
 30
0.0
 11
3.9816239565942859
 21
3.2909064440210769
 31
0.0
  0
LINE
  5
77
100
AcDbEntity
100
AcDbLine
  8
color#000000ff
 62
256
370
-1
  6
BYLAYER
 10
3.9816239565942859
 20
3.2909064440210769
 30
0.0
 11
4.0375231289121549
 21
3.2687889913819697
 31
0.0
  0
LINE
  5
78
100
AcDbEntity
100
AcDbLine
  8
color#000000ff
 62
256
370
-1
  6
BYLAYER
 10
4.0375231289121549
 20
3.2687889913819697
 30
0.0
 11
4.0739512881342979
 21
3.2520482234193691
 31
0.0
  0
LINE
  5
79
100
AcDbEntity
100
AcDbLine
  8
color#000000ff
 62
256
370
-1
  6
BYLAYER
 10
4.0739512881342979
 20
3.2520482234193691
 30
0.0
 11
4.1096268961160183
 21
3.233679782937775
 31
0.0
  0
LINE
  5
7A
100
AcDbEntity
100
AcDbLine
  8
color#000000ff
 62
256
370
-1
  6
BYLAYER
 10
4.1096268961160183
 20
3.233679782937775
 30
0.0
 11
4.1444795071013685
 21
3.2136570703173848
 31
0.0
  0
LINE
  5
7B
100
AcDbEntity
100
AcDbLine
  8
color#000000ff
 62
256
370
-1
  6
BYLAYER
 10
4.1444795071013685
 20
3.2136570703173848
 30
0.0
 11
4.1820141839172615
 21
3.1882693667558164
 31
0.0
  0
LINE
  5
7C
100
AcDbEntity
100
AcDbLine
  8
color#000000ff
 62
256
370
-1
  6
BYLAYER
 10
4.1820141839172615
 20
3.1882693667558164
 30
0.0
 11
4.2178714748396349
 21
3.1599053801513315
 31
0.0
  0
LINE
  5
7D
100
AcDbEntity
100
AcDbLine
  8
color#000000ff
 62
256
370
-1
  6
BYLAYER
 10
4.2178714748396349
 20
3.1599053801513315
 30
0.0
 11
4.2515358829230712
 21
3.1287290393872684
 31
0.0
  0
LINE
  5
7E
100
AcDbEntity
100
AcDbLine
  8
color#000000ff
 62
256
370
-1
  6
BYLAYER
 10
4.2515358829230712
 20
3.1287290393872684
 30
0.0
 11
4.2824919112221513
 21
3.0949042733469652
 31
0.0
  0
LINE
  5
7F
100
AcDbEntity
100
AcDbLine
  8
color#000000ff
 62
256
370
-1
  6
BYLAYER
 10
4.2824919112221513
 20
3.0949042733469652
 30
0.0
 11
4.3013700415929854
 21
3.0709640344793896
 31
0.0
  0
LINE
  5
80
100
AcDbEntity
100
AcDbLine
  8
color#000000ff
 62
256
370
-1
  6
BYLAYER
 10
4.3013700415929854
 20
3.0709640344793896
 30
0.0
 11
4.3186625980260178
 21
3.0459681465137356
 31
0.0
  0
LINE
  5
81
100
AcDbEntity
100
AcDbLine
  8
color#000000ff
 62
256
370
-1
  6
BYLAYER
 10
4.3186625980260178
 20
3.0459681465137356
 30
0.0
 11
4.3342168406855688
 21
3.0199651809709924
 31
0.0
  0
LINE
  5
82
100
AcDbEntity
100
AcDbLine
  8
color#000000ff
 62
256
370
-1
  6
BYLAYER
 10
4.3342168406855688
 20
3.0199651809709924
 30
0.0
 11
4.3478800297359612
 21
2.9930037093721498
 31
0.0
  0
LINE
  5
83
100
AcDbEntity
100
AcDbLine
  8
color#000000ff
 62
256
370
-1
  6
BYLAYER
 10
4.3478800297359612
 20
2.9930037093721498
 30
0.0
 11
4.3594994253415127
 21
2.9651323032381964
 31
0.0
  0
LINE
  5
84
100
AcDbEntity
100
AcDbLine
  8
color#000000ff
 62
256
370
-1
  6
BYLAYER
 10
4.3594994253415127
 20
2.9651323032381964
 30
0.0
 11
4.3689222876665452
 21
2.9363995340901226
 31
0.0
  0
LINE
  5
85
100
AcDbEntity
100
AcDbLine
  8
color#000000ff
 62
256
370
-1
  6
BYLAYER
 10
4.3689222876665452
 20
2.9363995340901226
 30
0.0
 11
4.3727622876502155
 21
2.9217253169860986
 31
0.0
  0
LINE
  5
86
100
AcDbEntity
100
AcDbLine
  8
color#000000ff
 62
256
370
-1
  6
BYLAYER
 10
4.3727622876502155
 20
2.9217253169860986
 30
0.0
 11
4.3759958768753773
 21
2.9068539734489152
 31
0.0
  0
LINE
  5
87
100
AcDbEntity
100
AcDbLine
  8
color#000000ff
 62
256
370
-1
  6
BYLAYER
 10
4.3759958768753773
 20
2.9068539734489152
 30
0.0
 11
4.3786039628625693
 21
2.8917915749186962
 31
0.0
  0
LINE
  5
88
100
AcDbEntity
100
AcDbLine
  8
color#000000ff
 62
256
370
-1
  6
BYLAYER
 10
4.3786039628625693
 20
2.8917915749186962
 30
0.0
 11
4.3805674531323326
 21
2.8765441928355653
 31
0.0
  0
LINE
  5
89
100
AcDbEntity
100
AcDbLine
  8
color#000000ff
 62
256
370
-1
  6
BYLAYER
 10
4.3805674531323326
 20
2.8765441928355653
 30
0.0
 11
4.3818672552052043
 21
2.8611178986396464
 31
0.0
  0
LINE
  5
8A
100
AcDbEntity
100
AcDbLine
  8
color#000000ff
 62
256
370
-1
  6
BYLAYER
 10
4.3818672552052043
 20
2.8611178986396464
 30
0.0
 11
4.3836589841950264
 21
2.8183725848621548
 31
0.0
  0
LINE
  5
8B
100
AcDbEntity
100
AcDbLine
  8
color#000000ff
 62
256
370
-1
  6
BYLAYER
 10
4.3836589841950264
 20
2.8183725848621548
 30
0.0
 11
4.3818404757354523
 21
2.7757184697294912
 31
0.0
  0
LINE
  5
8C
100
AcDbEntity
100
AcDbLine
  8
color#000000ff
 62
256
370
-1
  6
BYLAYER
 10
4.3818404757354523
 20
2.7757184697294912
 30
0.0
 11
4.3764854631710444
 21
2.7334202552244391
 31
0.0
  0
LINE
  5
8D
100
AcDbEntity
100
AcDbLine
  8
color#000000ff
 62
256
370
-1
  6
BYLAYER
 10
4.3764854631710444
 20
2.7334202552244391
 30
0.0
 11
4.3676676798463632
 21
2.6917426433297837
 31
0.0
  0
LINE
  5
8E
100
AcDbEntity
100
AcDbLine
  8
color#000000ff
 62
256
370
-1
  6
BYLAYER
 10
4.3676676798463632
 20
2.6917426433297837
 30
0.0
 11
4.3554608591059703
 21
2.6509503360283095
 31
0.0
  0
LINE
  5
8F
100
AcDbEntity
100
AcDbLine
  8
color#000000ff
 62
256
370
-1
  6
BYLAYER
 10
4.3554608591059703
 20
2.6509503360283095
 30
0.0
 11
4.3399387342944271
 21
2.6113080353028004
 31
0.0
  0
LINE
  5
90
100
AcDbEntity
100
AcDbLine
  8
color#000000ff
 62
256
370
-1
  6
BYLAYER
 10
4.3399387342944271
 20
2.6113080353028004
 30
0.0
 11
4.321175038756297
 21
2.5730804431360417
 31
0.0
  0
LINE
  5
91
100
AcDbEntity
100
AcDbLine
  8
color#000000ff
 62
256
370
-1
  6
BYLAYER
 10
4.321175038756297
 20
2.5730804431360417
 30
0.0
 11
4.2992435058361407
 21
2.5365322615108163
 31
0.0
  0
LINE
  5
92
100
AcDbEntity
100
AcDbLine
  8
color#000000ff
 62
256
370
-1
  6
BYLAYER
 10
4.2992435058361407
 20
2.5365322615108163
 30
0.0
 11
4.2742178688785177
 21
2.5019281924099102
 31
0.0
  0
LINE
  5
93
100
AcDbEntity
100
AcDbLine
  8
color#000000ff
 62
256
370
-1
  6
BYLAYER
 10
4.2742178688785177
 20
2.5019281924099102
 30
0.0
 11
4.2558515757474682
 21
2.4800695925513514
 31
0.0
  0
LINE
  5
94
100
AcDbEntity
100
AcDbLine
  8
color#000000ff
 62
256
370
-1
  6
BYLAYER
 10
4.2558515757474682
 20
2.4800695925513514
 30
0.0
 11
4.0887266027820939
 21
2.3446934709478668
 31
0.0
  0
LINE
  5
95
100
AcDbEntity
100
AcDbLine
  8
color#000000ff
 62
256
370
-1
  6
BYLAYER
 10
4.0887266027820939
 20
2.3446934709478668
 30
0.0
 11
4.4197931309231935
 21
2.3425696733845118
 31
0.0
  0
LINE
  5
96
100
AcDbEntity
100
AcDbLine
  8
color#000000ff
 62
256
370
-1
  6
BYLAYER
 10
4.4197931309231935
 20
2.3425696733845118
 30
0.0
 11
4.4211427288576663
 21
2.2522537278072758
 31
0.0
  0
LINE
  5
97
100
AcDbEntity
100
AcDbLine
  8
color#000000ff
 62
256
370
-1
  6
BYLAYER
 10
4.4211427288576663
 20
2.2522537278072758
 30
0.0
 11
0.5444546596217045
 21
2.252440064429333
 31
0.0
  0
LINE
  5
98
100
AcDbEntity
100
AcDbLine
  8
color#000000ff
 62
256
370
-1
  6
BYLAYER
 10
0.5444546596217045
 20
2.252440064429333
 30
0.0
 11
0.5436320331088484
 21
2.3385891648333179
 31
0.0
  0
LINE
  5
99
100
AcDbEntity
100
AcDbLine
  8
color#000000ff
 62
256
370
-1
  6
BYLAYER
 10
0.5436320331088484
 20
2.3385891648333179
 30
0.0
 11
1.0019883720106313
 21
2.3412767593975725
 31
0.0
  0
LINE
  5
9A
100
AcDbEntity
100
AcDbLine
  8
color#000000ff
 62
256
370
-1
  6
BYLAYER
 10
1.0019883720106313
 20
2.3412767593975725
 30
0.0
 11
0.781483629028206
 21
2.4255228305835521
 31
0.0
  0
LINE
  5
9B
100
AcDbEntity
100
AcDbLine
  8
color#000000ff
 62
256
370
-1
  6
BYLAYER
 10
0.781483629028206
 20
2.4255228305835521
 30
0.0
 11
0.7215167700375822
 21
2.4599600918910736
 31
0.0
  0
LINE
  5
9C
100
AcDbEntity
100
AcDbLine
  8
color#000000ff
 62
256
370
-1
  6
BYLAYER
 10
0.7215167700375822
 20
2.4599600918910736
 30
0.0
 11
0.6876077514852685
 21
2.4839623983153314
 31
0.0
  0
LINE
  5
9D
100
AcDbEntity
100
AcDbLine
  8
color#000000ff
 62
256
370
-1
  6
BYLAYER
 10
0.6876077514852685
 20
2.4839623983153314
 30
0.0
 11
0.6555836191653719
 21
2.5108764019850165
 31
0.0
  0
LINE
  5
9E
100
AcDbEntity
100
AcDbLine
  8
color#000000ff
 62
256
370
-1
  6
BYLAYER
 10
0.6555836191653719
 20
2.5108764019850165
 30
0.0
 11
0.6453746597812181
 21
2.520552298456912
 31
0.0
  0
LINE
  5
9F
100
AcDbEntity
100
AcDbLine
  8
color#000000ff
 62
256
370
-1
  6
BYLAYER
 10
0.6453746597812181
 20
2.520552298456912
 30
0.0
 11
0.6182932286465984
 21
2.5487905610570434
 31
0.0
  0
LINE
  5
A0
100
AcDbEntity
100
AcDbLine
  8
color#000000ff
 62
256
370
-1
  6
BYLAYER
 10
0.6182932286465984
 20
2.5487905610570434
 30
0.0
 11
0.5896058427138132
 21
2.5887596795779371
 31
0.0
  0
LINE
  5
A1
100
AcDbEntity
100
AcDbLine
  8
color#000000ff
 62
256
370
-1
  6
BYLAYER
 10
0.5896058427138132
 20
2.5887596795779371
 30
0.0
 11
0.5714395102091713
 21
2.6237144722892931
 31
0.0
  0
LINE
  5
A2
100
AcDbEntity
100
AcDbLine
  8
color#000000ff
 62
256
370
-1
  6
BYLAYER
 10
0.5714395102091713
 20
2.6237144722892931
 30
0.0
 11
0.5581048488998908
 21
2.6606443437319354
 31
0.0
  0
LINE
  5
A3
100
AcDbEntity
100
AcDbLine
  8
color#000000ff
 62
256
370
-1
  6
BYLAYER
 10
0.5581048488998908
 20
2.6606443437319354
 30
0.0
 11
0.5501368773321835
 21
2.6989277272827294
 31
0.0
  0
LINE
  5
A4
100
AcDbEntity
100
AcDbLine
  8
color#000000ff
 62
256
370
-1
  6
BYLAYER
 10
0.5501368773321835
 20
2.6989277272827294
 30
0.0
 11
0.5480046358935159
 21
2.7281545960950715
 31
0.0
  0
LINE
  5
A5
100
AcDbEntity
100
AcDbLine
  8
color#000000ff
 62
256
370
-1
  6
BYLAYER
 10
0.5480046358935159
 20
2.7281545960950715
 30
0.0
 11
0.5494178163159098
 21
2.7575309608236025
 31
0.0
  0
LINE
  5
A6
100
AcDbEntity
100
AcDbLine
  8
color#000000ff
 62
256
370
-1
  6
BYLAYER
 10
0.5494178163159098
 20
2.7575309608236025
 30
0.0
 11
0.5524410776063342
 21
2.7770687642162417
 31
0.0
  0
LINE
  5
A7
100
AcDbEntity
100
AcDbLine
  8
color#000000ff
 62
256
370
-1
  6
BYLAYER
 10
0.5524410776063342
 20
2.7770687642162417
 30
0.0
 11
0.5651068592035514
 21
2.8056769575827807
 31
0.0
  0
LINE
  5
A8
100
AcDbEntity
100
AcDbLine
  8
color#000000ff
 62
256
370
-1
  6
BYLAYER
 10
0.5651068592035514
 20
2.8056769575827807
 30
0.0
 11
0.5873223744854315
 21
2.8287285339282136
 31
0.0
  0
LINE
  5
A9
100
AcDbEntity
100
AcDbLine
  8
color#000000ff
 62
256
370
-1
  6
BYLAYER
 10
0.5873223744854315
 20
2.8287285339282136
 30
0.0
 11
0.6069497668385844
 21
2.8383006725845132
 31
0.0
  0
LINE
  5
AA
100
AcDbEntity
100
AcDbLine
  8
color#000000ff
 62
256
370
-1
  6
BYLAYER
 10
0.6069497668385844
 20
2.8383006725845132
 30
0.0
 11
0.6195706242985182
 21
2.8401841425923968
 31
0.0
  0
LINE
  5
AB
100
AcDbEntity
100
AcDbLine
  8
color#000000ff
 62
256
370
-1
  6
BYLAYER
 10
0.6195706242985182
 20
2.8401841425923968
 30
0.0
 11
0.6324622136475083
 21
2.8385663755227979
 31
0.0
  0
LINE
  5
AC
100
AcDbEntity
100
AcDbLine
  8
color#000000ff
 62
256
370
-1
  6
BYLAYER
 10
0.6324622136475083
 20
2.8385663755227979
 30
0.0
 11
0.6410605143046038
 21
2.8352977315492871
 31
0.0
  0
LINE
  5
AD
100
AcDbEntity
100
AcDbLine
  8
color#000000ff
 62
256
370
-1
  6
BYLAYER
 10
0.6410605143046038
 20
2.8352977315492871
 30
0.0
 11
0.6495593919748302
 21
2.8301054808819095
 31
0.0
  0
LINE
  5
AE
100
AcDbEntity
100
AcDbLine
  8
color#000000ff
 62
256
370
-1
  6
BYLAYER
 10
0.6495593919748302
 20
2.8301054808819095
 30
0.0
 11
0.6525893751169422
 21
2.8255029642073648
 31
0.0
  0
LINE
  5
AF
100
AcDbEntity
100
AcDbLine
  8
color#000000ff
 62
256
370
-1
  6
BYLAYER
 10
0.6525893751169422
 20
2.8255029642073648
 30
0.0
 11
0.6548299002808021
 21
2.8210743152807143
 31
0.0
  0
LINE
  5
B0
100
AcDbEntity
100
AcDbLine
  8
color#000000ff
 62
256
370
-1
  6
BYLAYER
 10
0.6548299002808021
 20
2.8210743152807143
 30
0.0
 11
0.6563308900112981
 21
2.816806853947821
 31
0.0
  0
LINE
  5
B1
100
AcDbEntity
100
AcDbLine
  8
color#000000ff
 62
256
370
-1
  6
BYLAYER
 10
0.6563308900112981
 20
2.816806853947821
 30
0.0
 11
0.6571422668533163
 21
2.8126879000545491
 31
0.0
  0
LINE
  5
B2
100
AcDbEntity
100
AcDbLine
  8
color#000000ff
 62
256
370
-1
  6
BYLAYER
 10
0.6571422668533163
 20
2.8126879000545491
 30
0.0
 11
0.6568958720514699
 21
2.804844793970322
 31
0.0
  0
LINE
  5
B3
100
AcDbEntity
100
AcDbLine
  8
color#000000ff
 62
256
370
-1
  6
BYLAYER
 10
0.6568958720514699
 20
2.804844793970322
 30
0.0
 11
0.6544900962343585
 21
2.7974435557949415
 31
0.0
  0
LINE
  5
B4
100
AcDbEntity
100
AcDbLine
  8
color#000000ff
 62
256
370
-1
  6
BYLAYER
 10
0.6544900962343585
 20
2.7974435557949415
 30
0.0
 11
0.6447979229907283
 21
2.7835609182383507
 31
0.0
  0
LINE
  5
B5
100
AcDbEntity
100
AcDbLine
  8
color#000000ff
 62
256
370
-1
  6
BYLAYER
 10
0.6447979229907283
 20
2.7835609182383507
 30
0.0
 11
0.6054318162395241
 21
2.7419679471393192
 31
0.0
  0
LINE
  5
B6
100
AcDbEntity
100
AcDbLine
  8
color#000000ff
 62
256
370
-1
  6
BYLAYER
 10
0.6054318162395241
 20
2.7419679471393192
 30
0.0
 11
0.6015637274443745
 21
2.7339786646544137
 31
0.0
  0
LINE
  5
B7
100
AcDbEntity
100
AcDbLine
  8
color#000000ff
 62
256
370
-1
  6
BYLAYER
 10
0.6015637274443745
 20
2.7339786646544137
 30
0.0
 11
0.5995300612249253
 21
2.7254168377474342
 31
0.0
  0
LINE
  5
B8
100
AcDbEntity
100
AcDbLine
  8
color#000000ff
 62
256
370
-1
  6
BYLAYER
 10
0.5995300612249253
 20
2.7254168377474342
 30
0.0
 11
0.5993259429433059
 21
2.7208895197503256
 31
0.0
  0
LINE
  5
B9
100
AcDbEntity
100
AcDbLine
  8
color#000000ff
 62
256
370
-1
  6
BYLAYER
 10
0.5993259429433059
 20
2.7208895197503256
 30
0.0
 11
0.5982447401916701
 21
2.6973106416070243
 31
0.0
  0
LINE
  5
BA
100
AcDbEntity
100
AcDbLine
  8
color#000000ff
 62
256
370
-1
  6
BYLAYER
 10
0.5982447401916701
 20
2.6973106416070243
 30
0.0
 11
0.6005954368682683
 21
2.6743657836331973
 31
0.0
  0
LINE
  5
BB
100
AcDbEntity
100
AcDbLine
  8
color#000000ff
 62
256
370
-1
  6
BYLAYER
 10
0.6005954368682683
 20
2.6743657836331973
 30
0.0
 11
0.6084947980468549
 21
2.644937011777281
 31
0.0
  0
LINE
  5
BC
100
AcDbEntity
100
AcDbLine
  8
color#000000ff
 62
256
370
-1
  6
BYLAYER
 10
0.6084947980468549
 20
2.644937011777281
 30
0.0
 11
0.6249213296414233
 21
2.6103658735492994
 31
0.0
  0
LINE
  5
BD
100
AcDbEntity
100
AcDbLine
  8
color#000000ff
 62
256
370
-1
  6
BYLAYER
 10
0.6249213296414233
 20
2.6103658735492994
 30
0.0
 11
0.6627262604950976
 21
2.5612954539074813
 31
0.0
  0
LINE
  5
BE
100
AcDbEntity
100
AcDbLine
  8
color#000000ff
 62
256
370
-1
  6
BYLAYER
 10
0.6627262604950976
 20
2.5612954539074813
 30
0.0
 11
0.697118133053227
 21
2.5305506620797291
 31
0.0
  0
LINE
  5
BF
100
AcDbEntity
100
AcDbLine
  8
color#000000ff
 62
256
370
-1
  6
BYLAYER
 10
0.697118133053227
 20
2.5305506620797291
 30
0.0
 11
0.7282687197421245
 21
2.5089006554785604
 31
0.0
  0
LINE
  5
C0
100
AcDbEntity
100
AcDbLine
  8
color#000000ff
 62
256
370
-1
  6
BYLAYER
 10
0.7282687197421245
 20
2.5089006554785604
 30
0.0
 11
0.7722715204483525
 21
2.4845324337078423
 31
0.0
  0
LINE
  5
C1
100
AcDbEntity
100
AcDbLine
  8
color#000000ff
 62
256
370
-1
  6
BYLAYER
 10
0.7722715204483525
 20
2.4845324337078423
 30
0.0
 11
0.8186078634010064
 21
2.4650597764546176
 31
0.0
  0
LINE
  5
C2
100
AcDbEntity
100
AcDbLine
  8
color#000000ff
 62
256
370
-1
  6
BYLAYER
 10
0.8186078634010064
 20
2.4650597764546176
 30
0.0
 11
0.8789991252965927
 21
2.4471952959789647
 31
0.0
  0
LINE
  5
C3
100
AcDbEntity
100
AcDbLine
  8
color#000000ff
 62
256
370
-1
  6
BYLAYER
 10
0.8789991252965927
 20
2.4471952959789647
 30
0.0
 11
0.9537205565220955
 21
2.4345660127573172
 31
0.0
  0
LINE
  5
C4
100
AcDbEntity
100
AcDbLine
  8
color#000000ff
 62
256
370
-1
  6
BYLAYER
 10
0.9537205565220955
 20
2.4345660127573172
 30
0.0
 11
1.0417304857923666
 21
2.4308338111105767
 31
0.0
  0
LINE
  5
C5
100
AcDbEntity
100
AcDbLine
  8
color#000000ff
 62
256
370
-1
  6
BYLAYER
 10
1.0417304857923666
 20
2.4308338111105767
 30
0.0
 11
1.1147967709199988
 21
2.4328331003065031
 31
0.0
  0
LINE
  5
C6
100
AcDbEntity
100
AcDbLine
  8
color#000000ff
 62
256
370
-1
  6
BYLAYER
 10
1.1147967709199988
 20
2.4328331003065031
 30
0.0
 11
1.2053110819325081
 21
2.4426771220343619
 31
0.0
  0
LINE
  5
C7
100
AcDbEntity
100
AcDbLine
  8
color#000000ff
 62
256
370
-1
  6
BYLAYER
 10
1.2053110819325081
 20
2.4426771220343619
 30
0.0
 11
1.312555310604953
 21
2.4637320461313146
 31
0.0
  0
LINE
  5
C8
100
AcDbEntity
100
AcDbLine
  8
color#000000ff
 62
256
370
-1
  6
BYLAYER
 10
1.312555310604953
 20
2.4637320461313146
 30
0.0
 11
1.5387472871946604
 21
2.5347748288779326
 31
0.0
  0
LINE
  5
C9
100
AcDbEntity
100
AcDbLine
  8
color#000000ff
 62
256
370
-1
  6
BYLAYER
 10
1.5387472871946604
 20
2.5347748288779326
 30
0.0
 11
1.555748161210478
 21
2.5412478314536133
 31
0.0
  0
LINE
  5
CA
100
AcDbEntity
100
AcDbLine
  8
color#000000ff
 62
256
370
-1
  6
BYLAYER
 10
1.555748161210478
 20
2.5412478314536133
 30
0.0
 11
1.8955991715969018
 21
2.6905329714228583
 31
0.0
  0
LINE
  5
CB
100
AcDbEntity
100
AcDbLine
  8
color#000000ff
 62
256
370
-1
  6
BYLAYER
 10
1.8955991715969018
 20
2.6905329714228583
 30
0.0
 11
1.8121514527803366
 21
2.7721280768036065
 31
0.0
  0
LINE
  5
CC
100
AcDbEntity
100
AcDbLine
  8
color#000000ff
 62
256
370
-1
  6
BYLAYER
 10
1.8121514527803366
 20
2.7721280768036065
 30
0.0
 11
1.7772668880912184
 21
2.8190174048018775
 31
0.0
  0
LINE
  5
CD
100
AcDbEntity
100
AcDbLine
  8
color#000000ff
 62
256
370
-1
  6
BYLAYER
 10
1.7772668880912184
 20
2.8190174048018775
 30
0.0
 11
1.7598835789317651
 21
2.8491171676392812
 31
0.0
  0
LINE
  5
CE
100
AcDbEntity
100
AcDbLine
  8
color#000000ff
 62
256
370
-1
  6
BYLAYER
 10
1.7598835789317651
 20
2.8491171676392812
 30
0.0
 11
1.7457836507121056
 21
2.8806992540613092
 31
0.0
  0
LINE
  5
CF
100
AcDbEntity
100
AcDbLine
  8
color#000000ff
 62
256
370
-1
  6
BYLAYER
 10
1.7457836507121056
 20
2.8806992540613092
 30
0.0
 11
1.7384594389662709
 21
2.9025806021748446
 31
0.0
  0
LINE
  5
D0
100
AcDbEntity
100
AcDbLine
  8
color#000000ff
 62
256
370
-1
  6
BYLAYER
 10
1.7384594389662709
 20
2.9025806021748446
 30
0.0
 11
1.7329719674558681
 21
2.9251254268648554
 31
0.0
  0
LINE
  5
D1
100
AcDbEntity
100
AcDbLine
  8
color#000000ff
 62
256
370
-1
  6
BYLAYER
 10
1.7329719674558681
 20
2.9251254268648554
 30
0.0
 11
1.7294722201079957
 21
2.948335594569111
 31
0.0
  0
LINE
  5
D2
100
AcDbEntity
100
AcDbLine
  8
color#000000ff
 62
256
370
-1
  6
BYLAYER
 10
1.7294722201079957
 20
2.948335594569111
 30
0.0
 11
1.7281111808497518
 21
2.9722129717253791
 31
0.0
  0
LINE
  5
D3
100
AcDbEntity
100
AcDbLine
  8
color#000000ff
 62
256
370
-1
  6
BYLAYER
 10
1.7281111808497518
 20
2.9722129717253791
 30
0.0
 11
1.7274758459673409
 21
2.9943567906935002
 31
0.0
  0
LINE
  5
D4
100
AcDbEntity
100
AcDbLine
  8
color#000000ff
 62
256
370
-1
  6
BYLAYER
 10
1.7274758459673409
 20
2.9943567906935002
 30
0.0
 11
1.7290257195827019
 21
3.0162176767686759
 31
0.0
  0
LINE
  5
D5
100
AcDbEntity
100
AcDbLine
  8
color#000000ff
 62
256
370
-1
  6
BYLAYER
 10
1.7290257195827019
 20
3.0162176767686759
 30
0.0
 11
1.7326510201334271
 21
3.0376918832919162
 31
0.0
  0
LINE
  5
D6
100
AcDbEntity
100
AcDbLine
  8
color#000000ff
 62
256
370
-1
  6
BYLAYER
 10
1.7326510201334271
 20
3.0376918832919162
 30
0.0
 11
1.7382419660571065
 21
3.0586756636042334
 31
0.0
  0
LINE
  5
D7
100
AcDbEntity
100
AcDbLine
  8
color#000000ff
 62
256
370
-1
  6
BYLAYER
 10
1.7382419660571065
 20
3.0586756636042334
 30
0.0
 11
1.7456887757913315
 21
3.0790652710466371
 31
0.0
  0
LINE
  5
D8
100
AcDbEntity
100
AcDbLine
  8
color#000000ff
 62
256
370
-1
  6
BYLAYER
 10
1.7456887757913315
 20
3.0790652710466371
 30
0.0
 11
1.7548816677736945
 21
3.0987569589601378
 31
0.0
  0
LINE
  5
D9
100
AcDbEntity
100
AcDbLine
  8
color#000000ff
 62
256
370
-1
  6
BYLAYER
 10
1.7548816677736945
 20
3.0987569589601378
 30
0.0
 11
1.7657108604417844
 21
3.1176469806857483
 31
0.0
  0
LINE
  5
DA
100
AcDbEntity
100
AcDbLine
  8
color#000000ff
 62
256
370
-1
  6
BYLAYER
 10
1.7657108604417844
 20
3.1176469806857483
 30
0.0
 11
1.7847825660618915
 21
3.1442519433553269
 31
0.0
  0
LINE
  5
DB
100
AcDbEntity
100
AcDbLine
  8
color#000000ff
 62
256
370
-1
  6
BYLAYER
 10
1.7847825660618915
 20
3.1442519433553269
 30
0.0
 11
1.8069184269363379
 21
3.1684695821453359
 31
0.0
  0
LINE
  5
DC
100
AcDbEntity
100
AcDbLine
  8
color#000000ff
 62
256
370
-1
  6
BYLAYER
 10
1.8069184269363379
 20
3.1684695821453359
 30
0.0
 11
1.8317479302919932
 21
3.1899497520816862
 31
0.0
  0
LINE
  5
DD
100
AcDbEntity
100
AcDbLine
  8
color#000000ff
 62
256
370
-1
  6
BYLAYER
 10
1.8317479302919932
 20
3.1899497520816862
 30
0.0
 11
1.8589005633557278
 21
3.2083423081902893
 31
0.0
  0
LINE
  5
DE
100
AcDbEntity
100
AcDbLine
  8
color#000000ff
 62
256
370
-1
  6
BYLAYER
 10
1.8589005633557278
 20
3.2083423081902893
 30
0.0
 11
1.8781099770764693
 21
3.2187157601489611
 31
0.0
  0
LINE
  5
DF
100
AcDbEntity
100
AcDbLine
  8
color#000000ff
 62
256
370
-1
  6
BYLAYER
 10
1.8781099770764693
 20
3.2187157601489611
 30
0.0
 11
1.8880058133544124
 21
3.2232971054970569
 31
0.0
  0
LINE
  5
E0
100
AcDbEntity
100
AcDbLine
  8
color#000000ff
 62
256
370
-1
  6
BYLAYER
 10
1.8880058133544124
 20
3.2232971054970569
 30
0.0
 11
1.9418783932084955
 21
3.2444513437753382
 31
0.0
  0
LINE
  5
E1
100
AcDbEntity
100
AcDbLine
  8
color#000000ff
 62
256
370
-1
  6
BYLAYER
 10
1.9418783932084955
 20
3.2444513437753382
 30
0.0
 11
2.1219515339082369
 21
3.2613275347263584
 31
0.0
  0
LINE
  5
E2
100
AcDbEntity
100
AcDbLine
  8
color#000000ff
 62
256
370
-1
  6
BYLAYER
 10
2.1219515339082369
 20
3.2613275347263584
 30
0.0
 11
2.2901387040861461
 21
3.7087018605972513
 31
0.0
  0
LINE
  5
E3
100
AcDbEntity
100
AcDbLine
  8
color#000000ff
 62
256
370
-1
  6
BYLAYER
 10
2.7620711664112387
 20
3.4741431862871388
 30
0.0
 11
2.868165618948713
 21
3.1797824793136384
 31
0.0
  0
LINE
  5
E4
100
AcDbEntity
100
AcDbLine
  8
color#000000ff
 62
256
370
-1
  6
BYLAYER
 10
2.868165618948713
 20
3.1797824793136384
 30
0.0
 11
3.0217243501846198
 21
3.2385864169735714
 31
0.0
  0
LINE
  5
E5
100
AcDbEntity
100
AcDbLine
  8
color#000000ff
 62
256
370
-1
  6
BYLAYER
 10
3.0217243501846198
 20
3.2385864169735714
 30
0.0
 11
3.0074074094571315
 21
3.3121294762358993
 31
0.0
  0
LINE
  5
E6
100
AcDbEntity
100
AcDbLine
  8
color#000000ff
 62
256
370
-1
  6
BYLAYER
 10
3.0074074094571315
 20
3.3121294762358993
 30
0.0
 11
2.9819395894018634
 21
3.3662400917417856
 31
0.0
  0
LINE
  5
E7
100
AcDbEntity
100
AcDbLine
  8
color#000000ff
 62
256
370
-1
  6
BYLAYER
 10
2.9819395894018634
 20
3.3662400917417856
 30
0.0
 11
2.9542827006836387
 21
3.4013393590994108
 31
0.0
  0
LINE
  5
E8
100
AcDbEntity
100
AcDbLine
  8
color#000000ff
 62
256
370
-1
  6
BYLAYER
 10
2.9542827006836387
 20
3.4013393590994108
 30
0.0
 11
2.9254356247106204
 21
3.425584101860403
 31
0.0
  0
LINE
  5
E9
100
AcDbEntity
100
AcDbLine
  8
color#000000ff
 62
256
370
-1
  6
BYLAYER
 10
2.9254356247106204
 20
3.425584101860403
 30
0.0
 11
2.9105466120117565
 21
3.4358421971213788
 31
0.0
  0
LINE
  5
EA
100
AcDbEntity
100
AcDbLine
  8
color#000000ff
 62
256
370
-1
  6
BYLAYER
 10
2.9105466120117565
 20
3.4358421971213788
 30
0.0
 11
2.7620711664112387
 21
3.4741431862871388
 31
0.0
  0
LINE
  5
EB
100
AcDbEntity
100
AcDbLine
  8
color#000000ff
 62
256
370
-1
  6
BYLAYER
 10
2.3805281476018272
 20
3.2823910589023702
 30
0.0
 11
2.3345547040935251
 21
3.1546863699269725
 31
0.0
  0
LINE
  5
EC
100
AcDbEntity
100
AcDbLine
  8
color#000000ff
 62
256
370
-1
  6
BYLAYER
 10
2.3345547040935251
 20
3.1546863699269725
 30
0.0
 11
2.435031522382241
 21
2.9714356937815931
 31
0.0
  0
LINE
  5
ED
100
AcDbEntity
100
AcDbLine
  8
color#000000ff
 62
256
370
-1
  6
BYLAYER
 10
2.435031522382241
 20
2.9714356937815931
 30
0.0
 11
2.4867161358084013
 21
2.9896394329348315
 31
0.0
  0
LINE
  5
EE
100
AcDbEntity
100
AcDbLine
  8
color#000000ff
 62
256
370
-1
  6
BYLAYER
 10
2.4867161358084013
 20
2.9896394329348315
 30
0.0
 11
2.3805281476018272
 21
3.2823910589023702
 31
0.0
  0
LINE
  5
EF
100
AcDbEntity
100
AcDbLine
  8
color#000000ff
 62
256
370
-1
  6
BYLAYER
 10
3.5599865043222101
 20
3.2584989885239701
 30
0.0
 11
3.4972745264148313
 21
3.1694394768773497
 31
0.0
  0
LINE
  5
F0
100
AcDbEntity
100
AcDbLine
  8
color#000000ff
 62
256
370
-1
  6
BYLAYER
 10
3.4972745264148313
 20
3.1694394768773497
 30
0.0
 11
3.4634429943639793
 21
3.1282028486293179
 31
0.0
  0
LINE
  5
F1
100
AcDbEntity
100
AcDbLine
  8
color#000000ff
 62
256
370
-1
  6
BYLAYER
 10
3.4634429943639793
 20
3.1282028486293179
 30
0.0
 11
3.4257572790232369
 21
3.0906215371892789
 31
0.0
  0
LINE
  5
F2
100
AcDbEntity
100
AcDbLine
  8
color#000000ff
 62
256
370
-1
  6
BYLAYER
 10
3.4257572790232369
 20
3.0906215371892789
 30
0.0
 11
3.373926716857913
 21
3.0489121986483316
 31
0.0
  0
LINE
  5
F3
100
AcDbEntity
100
AcDbLine
  8
color#000000ff
 62
256
370
-1
  6
BYLAYER
 10
3.373926716857913
 20
3.0489121986483316
 30
0.0
 11
3.3176813639067806
 21
3.0132073960764774
 31
0.0
  0
LINE
  5
F4
100
AcDbEntity
100
AcDbLine
  8
color#000000ff
 62
256
370
-1
  6
BYLAYER
 10
3.3176813639067806
 20
3.0132073960764774
 30
0.0
 11
3.2579142038390869
 21
2.9836699647273868
 31
0.0
  0
LINE
  5
F5
100
AcDbEntity
100
AcDbLine
  8
color#000000ff
 62
256
370
-1
  6
BYLAYER
 10
3.2579142038390869
 20
2.9836699647273868
 30
0.0
 11
3.1828021473702943
 21
2.9565952491596934
 31
0.0
  0
LINE
  5
F6
100
AcDbEntity
100
AcDbLine
  8
color#000000ff
 62
256
370
-1
  6
BYLAYER
 10
3.1828021473702943
 20
2.9565952491596934
 30
0.0
 11
3.0463259887038765
 21
2.9265221515705124
 31
0.0
  0
LINE
  5
F7
100
AcDbEntity
100
AcDbLine
  8
color#000000ff
 62
256
370
-1
  6
BYLAYER
 10
3.0463259887038765
 20
2.9265221515705124
 30
0.0
 11
2.9921866977993226
 21
2.8482478629069559
 31
0.0
  0
LINE
  5
F8
100
AcDbEntity
100
AcDbLine
  8
color#000000ff
 62
256
370
-1
  6
BYLAYER
 10
2.9921866977993226
 20
2.8482478629069559
 30
0.0
 11
3.1840138422377007
 21
2.3399718878410316
 31
0.0
  0
LINE
  5
F9
100
AcDbEntity
100
AcDbLine
  8
color#000000ff
 62
256
370
-1
  6
BYLAYER
 10
3.1840138422377007
 20
2.3399718878410316
 30
0.0
 11
3.4474911820654883
 21
2.3411024983406432
 31
0.0
  0
LINE
  5
FA
100
AcDbEntity
100
AcDbLine
  8
color#000000ff
 62
256
370
-1
  6
BYLAYER
 10
3.4474911820654883
 20
2.3411024983406432
 30
0.0
 11
3.3527847846364476
 21
2.4150394634452228
 31
0.0
  0
LINE
  5
FB
100
AcDbEntity
100
AcDbLine
  8
color#000000ff
 62
256
370
-1
  6
BYLAYER
 10
3.3527847846364476
 20
2.4150394634452228
 30
0.0
 11
3.2985702869449307
 21
2.4797732148679543
 31
0.0
  0
LINE
  5
FC
100
AcDbEntity
100
AcDbLine
  8
color#000000ff
 62
256
370
-1
  6
BYLAYER
 10
3.2985702869449307
 20
2.4797732148679543
 30
0.0
 11
3.2929710285569174
 21
2.4884420666043474
 31
0.0
  0
LINE
  5
FD
100
AcDbEntity
100
AcDbLine
  8
color#000000ff
 62
256
370
-1
  6
BYLAYER
 10
3.2929710285569174
 20
2.4884420666043474
 30
0.0
 11
3.2780038554419484
 21
2.5155946180831013
 31
0.0
  0
LINE
  5
FE
100
AcDbEntity
100
AcDbLine
  8
color#000000ff
 62
256
370
-1
  6
BYLAYER
 10
3.2780038554419484
 20
2.5155946180831013
 30
0.0
 11
3.262493929220275
 21
2.5539903209877992
 31
0.0
  0
LINE
  5
FF
100
AcDbEntity
100
AcDbLine
  8
color#000000ff
 62
256
370
-1
  6
BYLAYER
 10
3.262493929220275
 20
2.5539903209877992
 30
0.0
 11
3.2523403365378112
 21
2.5941345686746531
 31
0.0
  0
LINE
  5
100
100
AcDbEntity
100
AcDbLine
  8
color#000000ff
 62
256
370
-1
  6
BYLAYER
 10
3.2523403365378112
 20
2.5941345686746531
 30
0.0
 11
3.248420601347465
 21
2.6248934937666024
 31
0.0
  0
LINE
  5
101
100
AcDbEntity
100
AcDbLine
  8
color#000000ff
 62
256
370
-1
  6
BYLAYER
 10
3.248420601347465
 20
2.6248934937666024
 30
0.0
 11
3.2478089472142981
 21
2.6558231228115474
 31
0.0
  0
LINE
  5
102
100
AcDbEntity
100
AcDbLine
  8
color#000000ff
 62
256
370
-1
  6
BYLAYER
 10
3.2478089472142981
 20
2.6558231228115474
 30
0.0
 11
3.2506318641846144
 21
2.6865750904579304
 31
0.0
  0
LINE
  5
103
100
AcDbEntity
100
AcDbLine
  8
color#000000ff
 62
256
370
-1
  6
BYLAYER
 10
3.2506318641846144
 20
2.6865750904579304
 30
0.0
 11
3.2570158423047153
 21
2.7168010313541937
 31
0.0
  0
LINE
  5
104
100
AcDbEntity
100
AcDbLine
  8
color#000000ff
 62
256
370
-1
  6
BYLAYER
 10
3.2570158423047153
 20
2.7168010313541937
 30
0.0
 11
3.2670873716209057
 21
2.7461525801487805
 31
0.0
  0
LINE
  5
105
100
AcDbEntity
100
AcDbLine
  8
color#000000ff
 62
256
370
-1
  6
BYLAYER
 10
3.2670873716209057
 20
2.7461525801487805
 30
0.0
 11
3.2759128282721437
 21
2.7650624736829772
 31
0.0
  0
LINE
  5
106
100
AcDbEntity
100
AcDbLine
  8
color#000000ff
 62
256
370
-1
  6
BYLAYER
 10
3.2759128282721437
 20
2.7650624736829772
 30
0.0
 11
3.2817184041493759
 21
2.776610450809375
 31
0.0
  0
LINE
  5
107
100
AcDbEntity
100
AcDbLine
  8
color#000000ff
 62
256
370
-1
  6
BYLAYER
 10
3.2817184041493759
 20
2.776610450809375
 30
0.0
 11
3.2880924456999598
 21
2.7878627354999819
 31
0.0
  0
LINE
  5
108
100
AcDbEntity
100
AcDbLine
  8
color#000000ff
 62
256
370
-1
  6
BYLAYER
 10
3.2880924456999598
 20
2.7878627354999819
 30
0.0
 11
3.2950112376447107
 21
2.7988029717868828
 31
0.0
  0
LINE
  5
109
100
AcDbEntity
100
AcDbLine
  8
color#000000ff
 62
256
370
-1
  6
BYLAYER
 10
3.2950112376447107
 20
2.7988029717868828
 30
0.0
 11
3.3103882115999621
 21
2.8196818752778978
 31
0.0
  0
LINE
  5
10A
100
AcDbEntity
100
AcDbLine
  8
color#000000ff
 62
256
370
-1
  6
BYLAYER
 10
3.3103882115999621
 20
2.8196818752778978
 30
0.0
 11
3.3276596037816395
 21
2.8391163135390864
 31
0.0
  0
LINE
  5
10B
100
AcDbEntity
100
AcDbLine
  8
color#000000ff
 62
256
370
-1
  6
BYLAYER
 10
3.3276596037816395
 20
2.8391163135390864
 30
0.0
 11
3.3466356919562474
 21
2.8569754388271158
 31
0.0
  0
LINE
  5
10C
100
AcDbEntity
100
AcDbLine
  8
color#000000ff
 62
256
370
-1
  6
BYLAYER
 10
3.3466356919562474
 20
2.8569754388271158
 30
0.0
 11
3.3671267538902958
 21
2.8731284033986535
 31
0.0
  0
LINE
  5
10D
100
AcDbEntity
100
AcDbLine
  8
color#000000ff
 62
256
370
-1
  6
BYLAYER
 10
3.3671267538902958
 20
2.8731284033986535
 30
0.0
 11
3.3889430673502909
 21
2.8874443595103672
 31
0.0
  0
LINE
  5
10E
100
AcDbEntity
100
AcDbLine
  8
color#000000ff
 62
256
370
-1
  6
BYLAYER
 10
3.3889430673502909
 20
2.8874443595103672
 30
0.0
 11
3.41189491010274
 21
2.8997924594189222
 31
0.0
  0
LINE
  5
10F
100
AcDbEntity
100
AcDbLine
  8
color#000000ff
 62
256
370
-1
  6
BYLAYER
 10
3.41189491010274
 20
2.8997924594189222
 30
0.0
 11
3.4357925599141512
 21
2.9100418553809866
 31
0.0
  0
LINE
  5
110
100
AcDbEntity
100
AcDbLine
  8
color#000000ff
 62
256
370
-1
  6
BYLAYER
 10
3.4357925599141512
 20
2.9100418553809866
 30
0.0
 11
3.4604462945510299
 21
2.9180616996532285
 31
0.0
  0
LINE
  5
111
100
AcDbEntity
100
AcDbLine
  8
color#000000ff
 62
256
370
-1
  6
BYLAYER
 10
3.4604462945510299
 20
2.9180616996532285
 30
0.0
 11
3.4856663917798856
 21
2.9237211444923128
 31
0.0
  0
LINE
  5
112
100
AcDbEntity
100
AcDbLine
  8
color#000000ff
 62
256
370
-1
  6
BYLAYER
 10
3.4856663917798856
 20
2.9237211444923128
 30
0.0
 11
3.4984295381683381
 21
2.9256248272046306
 31
0.0
  0
LINE
  5
113
100
AcDbEntity
100
AcDbLine
  8
color#000000ff
 62
256
370
-1
  6
BYLAYER
 10
3.4984295381683381
 20
2.9256248272046306
 30
0.0
 11
3.5112631293672263
 21
2.9268893421549089
 31
0.0
  0
LINE
  5
114
100
AcDbEntity
100
AcDbLine
  8
color#000000ff
 62
256
370
-1
  6
BYLAYER
 10
3.5112631293672263
 20
2.9268893421549089
 30
0.0
 11
3.5241434500973603
 21
2.9274983333752314
 31
0.0
  0
LINE
  5
115
100
AcDbEntity
100
AcDbLine
  8
color#000000ff
 62
256
370
-1
  6
BYLAYER
 10
3.5241434500973603
 20
2.9274983333752314
 30
0.0
 11
3.5370467850795557
 21
2.9274354448976827
 31
0.0
  0
LINE
  5
116
100
AcDbEntity
100
AcDbLine
  8
color#000000ff
 62
256
370
-1
  6
BYLAYER
 10
3.5370467850795557
 20
2.9274354448976827
 30
0.0
 11
3.5499494190346272
 21
2.9266843207543443
 31
0.0
  0
LINE
  5
117
100
AcDbEntity
100
AcDbLine
  8
color#000000ff
 62
256
370
-1
  6
BYLAYER
 10
3.5499494190346272
 20
2.9266843207543443
 30
0.0
 11
3.5628276366833846
 21
2.9252286049773009
 31
0.0
  0
LINE
  5
118
100
AcDbEntity
100
AcDbLine
  8
color#000000ff
 62
256
370
-1
  6
BYLAYER
 10
3.5628276366833846
 20
2.9252286049773009
 30
0.0
 11
3.5756577227466453
 21
2.9230519415986351
 31
0.0
  0
LINE
  5
119
100
AcDbEntity
100
AcDbLine
  8
color#000000ff
 62
256
370
-1
  6
BYLAYER
 10
3.5756577227466453
 20
2.9230519415986351
 30
0.0
 11
3.5884159619452198
 21
2.9201379746504319
 31
0.0
  0
LINE
  5
11A
100
AcDbEntity
100
AcDbLine
  8
color#000000ff
 62
256
370
-1
  6
BYLAYER
 10
3.5884159619452198
 20
2.9201379746504319
 30
0.0
 11
3.60207815776117
 21
2.91404407824789
 31
0.0
  0
LINE
  5
11B
100
AcDbEntity
100
AcDbLine
  8
color#000000ff
 62
256
370
-1
  6
BYLAYER
 10
3.60207815776117
 20
2.91404407824789
 30
0.0
 11
3.6201896129719278
 21
2.853761853052029
 31
0.0
  0
LINE
  5
11C
100
AcDbEntity
100
AcDbLine
  8
color#000000ff
 62
256
370
-1
  6
BYLAYER
 10
3.6201896129719278
 20
2.853761853052029
 30
0.0
 11
3.6135619319963284
 21
2.8516955604458185
 31
0.0
  0
LINE
  5
11D
100
AcDbEntity
100
AcDbLine
  8
color#000000ff
 62
256
370
-1
  6
BYLAYER
 10
3.6135619319963284
 20
2.8516955604458185
 30
0.0
 11
3.6070223455021893
 21
2.8502888135430386
 31
0.0
  0
LINE
  5
11E
100
AcDbEntity
100
AcDbLine
  8
color#000000ff
 62
256
370
-1
  6
BYLAYER
 10
3.6070223455021893
 20
2.8502888135430386
 30
0.0
 11
3.5941818733573987
 21
2.8492532048125412
 31
0.0
  0
LINE
  5
11F
100
AcDbEntity
100
AcDbLine
  8
color#000000ff
 62
256
370
-1
  6
BYLAYER
 10
3.5941818733573987
 20
2.8492532048125412
 30
0.0
 11
3.575421982495584
 21
2.8513916842723352
 31
0.0
  0
LINE
  5
120
100
AcDbEntity
100
AcDbLine
  8
color#000000ff
 62
256
370
-1
  6
BYLAYER
 10
3.575421982495584
 20
2.8513916842723352
 30
0.0
 11
3.5031304456987762
 21
2.878652428286153
 31
0.0
  0
LINE
  5
121
100
AcDbEntity
100
AcDbLine
  8
color#000000ff
 62
256
370
-1
  6
BYLAYER
 10
3.5031304456987762
 20
2.878652428286153
 30
0.0
 11
3.4787141577969298
 21
2.8842192224789693
 31
0.0
  0
LINE
  5
122
100
AcDbEntity
100
AcDbLine
  8
color#000000ff
 62
256
370
-1
  6
BYLAYER
 10
3.4787141577969298
 20
2.8842192224789693
 30
0.0
 11
3.4662159375061639
 21
2.8845358286685956
 31
0.0
  0
LINE
  5
123
100
AcDbEntity
100
AcDbLine
  8
color#000000ff
 62
256
370
-1
  6
BYLAYER
 10
3.4662159375061639
 20
2.8845358286685956
 30
0.0
 11
3.4534561127197883
 21
2.8826725688264201
 31
0.0
  0
LINE
  5
124
100
AcDbEntity
100
AcDbLine
  8
color#000000ff
 62
256
370
-1
  6
BYLAYER
 10
3.4534561127197883
 20
2.8826725688264201
 30
0.0
 11
3.4469621095151881
 21
2.8807980191213876
 31
0.0
  0
LINE
  5
125
100
AcDbEntity
100
AcDbLine
  8
color#000000ff
 62
256
370
-1
  6
BYLAYER
 10
3.4469621095151881
 20
2.8807980191213876
 30
0.0
 11
3.4403835182360125
 21
2.8782279388819823
 31
0.0
  0
LINE
  5
126
100
AcDbEntity
100
AcDbLine
  8
color#000000ff
 62
256
370
-1
  6
BYLAYER
 10
3.4403835182360125
 20
2.8782279388819823
 30
0.0
 11
3.428236158755829
 21
2.8740414880298135
 31
0.0
  0
LINE
  5
127
100
AcDbEntity
100
AcDbLine
  8
color#000000ff
 62
256
370
-1
  6
BYLAYER
 10
3.428236158755829
 20
2.8740414880298135
 30
0.0
 11
3.4165207184175714
 21
2.8691471664184278
 31
0.0
  0
LINE
  5
128
100
AcDbEntity
100
AcDbLine
  8
color#000000ff
 62
256
370
-1
  6
BYLAYER
 10
3.4165207184175714
 20
2.8691471664184278
 30
0.0
 11
3.405244568257999
 21
2.8635763612828655
 31
0.0
  0
LINE
  5
129
100
AcDbEntity
100
AcDbLine
  8
color#000000ff
 62
256
370
-1
  6
BYLAYER
 10
3.405244568257999
 20
2.8635763612828655
 30
0.0
 11
3.3944150793138697
 21
2.8573604598581688
 31
0.0
  0
LINE
  5
12A
100
AcDbEntity
100
AcDbLine
  8
color#000000ff
 62
256
370
-1
  6
BYLAYER
 10
3.3944150793138697
 20
2.8573604598581688
 30
0.0
 11
3.3840396226219394
 21
2.850530849379378
 31
0.0
  0
LINE
  5
12B
100
AcDbEntity
100
AcDbLine
  8
color#000000ff
 62
256
370
-1
  6
BYLAYER
 10
3.3840396226219394
 20
2.850530849379378
 30
0.0
 11
3.3741255692189678
 21
2.8431189170815352
 31
0.0
  0
LINE
  5
12C
100
AcDbEntity
100
AcDbLine
  8
color#000000ff
 62
256
370
-1
  6
BYLAYER
 10
3.3741255692189678
 20
2.8431189170815352
 30
0.0
 11
3.3646802901417119
 21
2.8351560501996804
 31
0.0
  0
LINE
  5
12D
100
AcDbEntity
100
AcDbLine
  8
color#000000ff
 62
256
370
-1
  6
BYLAYER
 10
3.3646802901417119
 20
2.8351560501996804
 30
0.0
 11
3.3557111564269277
 21
2.8266736359688562
 31
0.0
  0
LINE
  5
12E
100
AcDbEntity
100
AcDbLine
  8
color#000000ff
 62
256
370
-1
  6
BYLAYER
 10
3.3557111564269277
 20
2.8266736359688562
 30
0.0
 11
3.347225539111375
 21
2.817703061624103
 31
0.0
  0
LINE
  5
12F
100
AcDbEntity
100
AcDbLine
  8
color#000000ff
 62
256
370
-1
  6
BYLAYER
 10
3.347225539111375
 20
2.817703061624103
 30
0.0
 11
3.339230809231811
 21
2.8082757144004624
 31
0.0
  0
LINE
  5
130
100
AcDbEntity
100
AcDbLine
  8
color#000000ff
 62
256
370
-1
  6
BYLAYER
 10
3.339230809231811
 20
2.8082757144004624
 30
0.0
 11
3.3317343378249924
 21
2.7984229815329758
 31
0.0
  0
LINE
  5
131
100
AcDbEntity
100
AcDbLine
  8
color#000000ff
 62
256
370
-1
  6
BYLAYER
 10
3.3317343378249924
 20
2.7984229815329758
 30
0.0
 11
3.3247434959276783
 21
2.7881762502566838
 31
0.0
  0
LINE
  5
132
100
AcDbEntity
100
AcDbLine
  8
color#000000ff
 62
256
370
-1
  6
BYLAYER
 10
3.3247434959276783
 20
2.7881762502566838
 30
0.0
 11
3.3182656545766251
 21
2.7775669078066283
 31
0.0
  0
LINE
  5
133
100
AcDbEntity
100
AcDbLine
  8
color#000000ff
 62
256
370
-1
  6
BYLAYER
 10
3.3182656545766251
 20
2.7775669078066283
 30
0.0
 11
3.3068784576603334
 21
2.7553859383253911
 31
0.0
  0
LINE
  5
134
100
AcDbEntity
100
AcDbLine
  8
color#000000ff
 62
256
370
-1
  6
BYLAYER
 10
3.3068784576603334
 20
2.7553859383253911
 30
0.0
 11
3.2976317153701782
 21
2.732131170969593
 31
0.0
  0
LINE
  5
135
100
AcDbEntity
100
AcDbLine
  8
color#000000ff
 62
256
370
-1
  6
BYLAYER
 10
3.2976317153701782
 20
2.732131170969593
 30
0.0
 11
3.2905843960002192
 21
2.7080537036195662
 31
0.0
  0
LINE
  5
136
100
AcDbEntity
100
AcDbLine
  8
color#000000ff
 62
256
370
-1
  6
BYLAYER
 10
3.2905843960002192
 20
2.7080537036195662
 30
0.0
 11
3.2857954678445207
 21
2.6834046341556386
 31
0.0
  0
LINE
  5
137
100
AcDbEntity
100
AcDbLine
  8
color#000000ff
 62
256
370
-1
  6
BYLAYER
 10
3.2857954678445207
 20
2.6834046341556386
 30
0.0
 11
3.2833238991971414
 21
2.6584350604581402
 31
0.0
  0
LINE
  5
138
100
AcDbEntity
100
AcDbLine
  8
color#000000ff
 62
256
370
-1
  6
BYLAYER
 10
3.2833238991971414
 20
2.6584350604581402
 30
0.0
 11
3.2832286583521419
 21
2.6333960804074024
 31
0.0
  0
LINE
  5
139
100
AcDbEntity
100
AcDbLine
  8
color#000000ff
 62
256
370
-1
  6
BYLAYER
 10
3.2832286583521419
 20
2.6333960804074024
 30
0.0
 11
3.2855687136035865
 21
2.6085387918837539
 31
0.0
  0
LINE
  5
13A
100
AcDbEntity
100
AcDbLine
  8
color#000000ff
 62
256
370
-1
  6
BYLAYER
 10
3.2855687136035865
 20
2.6085387918837539
 30
0.0
 11
3.2876704048573688
 21
2.5962567500321914
 31
0.0
  0
LINE
  5
13B
100
AcDbEntity
100
AcDbLine
  8
color#000000ff
 62
256
370
-1
  6
BYLAYER
 10
3.2876704048573688
 20
2.5962567500321914
 30
0.0
 11
3.290403033245533
 21
2.5841142927675249
 31
0.0
  0
LINE
  5
13C
100
AcDbEntity
100
AcDbLine
  8
color#000000ff
 62
256
370
-1
  6
BYLAYER
 10
3.290403033245533
 20
2.5841142927675249
 30
0.0
 11
3.2937325820362884
 21
2.5708129314787667
 31
0.0
  0
LINE
  5
13D
100
AcDbEntity
100
AcDbLine
  8
color#000000ff
 62
256
370
-1
  6
BYLAYER
 10
3.2937325820362884
 20
2.5708129314787667
 30
0.0
 11
3.2977357214539422
 21
2.5578498112589099
 31
0.0
  0
LINE
  5
13E
100
AcDbEntity
100
AcDbLine
  8
color#000000ff
 62
256
370
-1
  6
BYLAYER
 10
3.2977357214539422
 20
2.5578498112589099
 30
0.0
 11
3.3023875285647915
 21
2.5452272134955174
 31
0.0
  0
LINE
  5
13F
100
AcDbEntity
100
AcDbLine
  8
color#000000ff
 62
256
370
-1
  6
BYLAYER
 10
3.3023875285647915
 20
2.5452272134955174
 30
0.0
 11
3.3076630804351317
 21
2.5329474195761508
 31
0.0
  0
LINE
  5
140
100
AcDbEntity
100
AcDbLine
  8
color#000000ff
 62
256
370
-1
  6
BYLAYER
 10
3.3076630804351317
 20
2.5329474195761508
 30
0.0
 11
3.3135374541312603
 21
2.5210127108883729
 31
0.0
  0
LINE
  5
141
100
AcDbEntity
100
AcDbLine
  8
color#000000ff
 62
256
370
-1
  6
BYLAYER
 10
3.3135374541312603
 20
2.5210127108883729
 30
0.0
 11
3.3199857267194717
 21
2.5094253688197452
 31
0.0
  0
LINE
  5
142
100
AcDbEntity
100
AcDbLine
  8
color#000000ff
 62
256
370
-1
  6
BYLAYER
 10
3.3199857267194717
 20
2.5094253688197452
 30
0.0
 11
3.3269829752660627
 21
2.4981876747578302
 31
0.0
  0
LINE
  5
143
100
AcDbEntity
100
AcDbLine
  8
color#000000ff
 62
256
370
-1
  6
BYLAYER
 10
3.3269829752660627
 20
2.4981876747578302
 30
0.0
 11
3.3345042768373299
 21
2.4873019100901894
 31
0.0
  0
LINE
  5
144
100
AcDbEntity
100
AcDbLine
  8
color#000000ff
 62
256
370
-1
  6
BYLAYER
 10
3.3345042768373299
 20
2.4873019100901894
 30
0.0
 11
3.3510193473190744
 21
2.4665952944879797
 31
0.0
  0
LINE
  5
145
100
AcDbEntity
100
AcDbLine
  8
color#000000ff
 62
256
370
-1
  6
BYLAYER
 10
3.3510193473190744
 20
2.4665952944879797
 30
0.0
 11
3.3693315546950751
 21
2.4473237731136108
 31
0.0
  0
LINE
  5
146
100
AcDbEntity
100
AcDbLine
  8
color#000000ff
 62
256
370
-1
  6
BYLAYER
 10
3.3693315546950751
 20
2.4473237731136108
 30
0.0
 11
3.389241515495701
 21
2.429505597067581
 31
0.0
  0
LINE
  5
147
100
AcDbEntity
100
AcDbLine
  8
color#000000ff
 62
256
370
-1
  6
BYLAYER
 10
3.389241515495701
 20
2.429505597067581
 30
0.0
 11
3.4105498462513193
 21
2.4131590174503859
 31
0.0
  0
LINE
  5
148
100
AcDbEntity
100
AcDbLine
  8
color#000000ff
 62
256
370
-1
  6
BYLAYER
 10
3.4105498462513193
 20
2.4131590174503859
 30
0.0
 11
3.4330571634922991
 21
2.3983022853625227
 31
0.0
  0
LINE
  5
149
100
AcDbEntity
100
AcDbLine
  8
color#000000ff
 62
256
370
-1
  6
BYLAYER
 10
3.4330571634922991
 20
2.3983022853625227
 30
0.0
 11
3.4565640837490101
 21
2.3849536519044858
 31
0.0
  0
LINE
  5
14A
100
AcDbEntity
100
AcDbLine
  8
color#000000ff
 62
256
370
-1
  6
BYLAYER
 10
3.4565640837490101
 20
2.3849536519044858
 30
0.0
 11
3.4932625684487517
 21
2.3677983109306942
 31
0.0
  0
LINE
  5
14B
100
AcDbEntity
100
AcDbLine
  8
color#000000ff
 62
256
370
-1
  6
BYLAYER
 10
3.4932625684487517
 20
2.3677983109306942
 30
0.0
 11
3.5310886279172093
 21
2.3541388543143058
 31
0.0
  0
LINE
  5
14C
100
AcDbEntity
100
AcDbLine
  8
color#000000ff
 62
256
370
-1
  6
BYLAYER
 10
3.5310886279172093
 20
2.3541388543143058
 30
0.0
 11
3.5693693429443778
 21
2.3440368795194964
 31
0.0
  0
LINE
  5
14D
100
AcDbEntity
100
AcDbLine
  8
color#000000ff
 62
256
370
-1
  6
BYLAYER
 10
3.5693693429443778
 20
2.3440368795194964
 30
0.0
 11
3.9172167655661485
 21
2.3425616108509284
 31
0.0
  0
LINE
  5
14E
100
AcDbEntity
100
AcDbLine
  8
color#000000ff
 62
256
370
-1
  6
BYLAYER
 10
3.9172167655661485
 20
2.3425616108509284
 30
0.0
 11
3.9408273113489707
 21
2.3479027620202051
 31
0.0
  0
LINE
  5
14F
100
AcDbEntity
100
AcDbLine
  8
color#000000ff
 62
256
370
-1
  6
BYLAYER
 10
3.9408273113489707
 20
2.3479027620202051
 30
0.0
 11
3.9639986347389149
 21
2.3545658928102964
 31
0.0
  0
LINE
  5
150
100
AcDbEntity
100
AcDbLine
  8
color#000000ff
 62
256
370
-1
  6
BYLAYER
 10
3.9639986347389149
 20
2.3545658928102964
 30
0.0
 11
3.9866943603240705
 21
2.3625030172571622
 31
0.0
  0
LINE
  5
151
100
AcDbEntity
100
AcDbLine
  8
color#000000ff
 62
256
370
-1
  6
BYLAYER
 10
3.9866943603240705
 20
2.3625030172571622
 30
0.0
 11
4.0088781126925266
 21
2.3716661493967619
 31
0.0
  0
LINE
  5
152
100
AcDbEntity
100
AcDbLine
  8
color#000000ff
 62
256
370
-1
  6
BYLAYER
 10
4.0088781126925266
 20
2.3716661493967619
 30
0.0
 11
4.0305135164323742
 21
2.3820073032650542
 31
0.0
  0
LINE
  5
153
100
AcDbEntity
100
AcDbLine
  8
color#000000ff
 62
256
370
-1
  6
BYLAYER
 10
4.0305135164323742
 20
2.3820073032650542
 30
0.0
 11
4.0515641961316993
 21
2.3934784928979997
 31
0.0
  0
LINE
  5
154
100
AcDbEntity
100
AcDbLine
  8
color#000000ff
 62
256
370
-1
  6
BYLAYER
 10
4.0515641961316993
 20
2.3934784928979997
 30
0.0
 11
4.0719937763785943
 21
2.4060317323315581
 31
0.0
  0
LINE
  5
155
100
AcDbEntity
100
AcDbLine
  8
color#000000ff
 62
256
370
-1
  6
BYLAYER
 10
4.0719937763785943
 20
2.4060317323315581
 30
0.0
 11
4.0917658817611482
 21
2.4196190356016878
 31
0.0
  0
LINE
  5
156
100
AcDbEntity
100
AcDbLine
  8
color#000000ff
 62
256
370
-1
  6
BYLAYER
 10
4.0917658817611482
 20
2.4196190356016878
 30
0.0
 11
4.11084413686745
 21
2.4341924167443492
 31
0.0
  0
LINE
  5
157
100
AcDbEntity
100
AcDbLine
  8
color#000000ff
 62
256
370
-1
  6
BYLAYER
 10
4.11084413686745
 20
2.4341924167443492
 30
0.0
 11
4.1291921662855886
 21
2.4497038897955017
 31
0.0
  0
LINE
  5
158
100
AcDbEntity
100
AcDbLine
  8
color#000000ff
 62
256
370
-1
  6
BYLAYER
 10
4.1291921662855886
 20
2.4497038897955017
 30
0.0
 11
4.1467735946036557
 21
2.4661054687911044
 31
0.0
  0
LINE
  5
159
100
AcDbEntity
100
AcDbLine
  8
color#000000ff
 62
256
370
-1
  6
BYLAYER
 10
4.1467735946036557
 20
2.4661054687911044
 30
0.0
 11
4.1635520464097375
 21
2.4833491677671171
 31
0.0
  0
LINE
  5
15A
100
AcDbEntity
100
AcDbLine
  8
color#000000ff
 62
256
370
-1
  6
BYLAYER
 10
4.1635520464097375
 20
2.4833491677671171
 30
0.0
 11
4.1794911462919258
 21
2.5013870007594985
 31
0.0
  0
LINE
  5
15B
100
AcDbEntity
100
AcDbLine
  8
color#000000ff
 62
256
370
-1
  6
BYLAYER
 10
4.1794911462919258
 20
2.5013870007594985
 30
0.0
 11
4.1945545188383084
 21
2.5201709818042097
 31
0.0
  0
LINE
  5
15C
100
AcDbEntity
100
AcDbLine
  8
color#000000ff
 62
256
370
-1
  6
BYLAYER
 10
4.1945545188383084
 20
2.5201709818042097
 30
0.0
 11
4.2087057886369763
 21
2.5396531249372094
 31
0.0
  0
LINE
  5
15D
100
AcDbEntity
100
AcDbLine
  8
color#000000ff
 62
256
370
-1
  6
BYLAYER
 10
4.2087057886369763
 20
2.5396531249372094
 30
0.0
 11
4.2219085802760175
 21
2.5597854441944574
 31
0.0
  0
LINE
  5
15E
100
AcDbEntity
100
AcDbLine
  8
color#000000ff
 62
256
370
-1
  6
BYLAYER
 10
4.2219085802760175
 20
2.5597854441944574
 30
0.0
 11
4.2341265183435226
 21
2.5805199536119119
 31
0.0
  0
LINE
  5
15F
100
AcDbEntity
100
AcDbLine
  8
color#000000ff
 62
256
370
-1
  6
BYLAYER
 10
4.2341265183435226
 20
2.5805199536119119
 30
0.0
 11
4.2453232274275798
 21
2.6018086672255345
 31
0.0
  0
LINE
  5
160
100
AcDbEntity
100
AcDbLine
  8
color#000000ff
 62
256
370
-1
  6
BYLAYER
 10
4.2453232274275798
 20
2.6018086672255345
 30
0.0
 11
4.2554623321162799
 21
2.6236035990712838
 31
0.0
  0
LINE
  5
161
100
AcDbEntity
100
AcDbLine
  8
color#000000ff
 62
256
370
-1
  6
BYLAYER
 10
4.2554623321162799
 20
2.6236035990712838
 30
0.0
 11
4.2645074569977126
 21
2.645856763185118
 31
0.0
  0
LINE
  5
162
100
AcDbEntity
100
AcDbLine
  8
color#000000ff
 62
256
370
-1
  6
BYLAYER
 10
4.2645074569977126
 20
2.645856763185118
 30
0.0
 11
4.2724222266599643
 21
2.6685201736029991
 31
0.0
  0
LINE
  5
163
100
AcDbEntity
100
AcDbLine
  8
color#000000ff
 62
256
370
-1
  6
BYLAYER
 10
4.2724222266599643
 20
2.6685201736029991
 30
0.0
 11
4.2791702656911266
 21
2.6915458443608853
 31
0.0
  0
LINE
  5
164
100
AcDbEntity
100
AcDbLine
  8
color#000000ff
 62
256
370
-1
  6
BYLAYER
 10
4.2791702656911266
 20
2.6915458443608853
 30
0.0
 11
4.284715198679292
 21
2.7148857894947351
 31
0.0
  0
LINE
  5
165
100
AcDbEntity
100
AcDbLine
  8
color#000000ff
 62
256
370
-1
  6
BYLAYER
 10
4.284715198679292
 20
2.7148857894947351
 30
0.0
 11
4.2890206502125441
 21
2.7384920230405094
 31
0.0
  0
LINE
  5
166
100
AcDbEntity
100
AcDbLine
  8
color#000000ff
 62
256
370
-1
  6
BYLAYER
 10
4.2890206502125441
 20
2.7384920230405094
 30
0.0
 11
4.2920502448789746
 21
2.7623165590341681
 31
0.0
  0
LINE
  5
167
100
AcDbEntity
100
AcDbLine
  8
color#000000ff
 62
256
370
-1
  6
BYLAYER
 10
4.2920502448789746
 20
2.7623165590341681
 30
0.0
 11
4.2937676072666751
 21
2.7863114115116692
 31
0.0
  0
LINE
  5
168
100
AcDbEntity
100
AcDbLine
  8
color#000000ff
 62
256
370
-1
  6
BYLAYER
 10
4.2937676072666751
 20
2.7863114115116692
 30
0.0
 11
4.2941363619637318
 21
2.8104285945089735
 31
0.0
  0
LINE
  5
169
100
AcDbEntity
100
AcDbLine
  8
color#000000ff
 62
256
370
-1
  6
BYLAYER
 10
4.2941363619637318
 20
2.8104285945089735
 30
0.0
 11
4.2931201335582392
 21
2.8346201220620402
 31
0.0
  0
LINE
  5
16A
100
AcDbEntity
100
AcDbLine
  8
color#000000ff
 62
256
370
-1
  6
BYLAYER
 10
4.2931201335582392
 20
2.8346201220620402
 30
0.0
 11
4.2906825466382781
 21
2.8588380082068281
 31
0.0
  0
LINE
  5
16B
100
AcDbEntity
100
AcDbLine
  8
color#000000ff
 62
256
370
-1
  6
BYLAYER
 10
4.2906825466382781
 20
2.8588380082068281
 30
0.0
 11
4.289088863184948
 21
2.8721975716281376
 31
0.0
  0
LINE
  5
16C
100
AcDbEntity
100
AcDbLine
  8
color#000000ff
 62
256
370
-1
  6
BYLAYER
 10
4.289088863184948
 20
2.8721975716281376
 30
0.0
 11
4.2841316740362725
 21
2.8983408201595684
 31
0.0
  0
LINE
  5
16D
100
AcDbEntity
100
AcDbLine
  8
color#000000ff
 62
256
370
-1
  6
BYLAYER
 10
4.2841316740362725
 20
2.8983408201595684
 30
0.0
 11
4.2769360837657429
 21
2.9236859343451655
 31
0.0
  0
LINE
  5
16E
100
AcDbEntity
100
AcDbLine
  8
color#000000ff
 62
256
370
-1
  6
BYLAYER
 10
4.2769360837657429
 20
2.9236859343451655
 30
0.0
 11
4.2676477266143502
 21
2.9481965582678282
 31
0.0
  0
LINE
  5
16F
100
AcDbEntity
100
AcDbLine
  8
color#000000ff
 62
256
370
-1
  6
BYLAYER
 10
4.2676477266143502
 20
2.9481965582678282
 30
0.0
 11
4.2564122368230892
 21
2.9718363360104547
 31
0.0
  0
LINE
  5
170
100
AcDbEntity
100
AcDbLine
  8
color#000000ff
 62
256
370
-1
  6
BYLAYER
 10
4.2564122368230892
 20
2.9718363360104547
 30
0.0
 11
4.2433752486329528
 21
2.9945689116559446
 31
0.0
  0
LINE
  5
171
100
AcDbEntity
100
AcDbLine
  8
color#000000ff
 62
256
370
-1
  6
BYLAYER
 10
4.2433752486329528
 20
2.9945689116559446
 30
0.0
 11
4.2286823962849347
 21
3.0163579292871967
 31
0.0
  0
LINE
  5
172
100
AcDbEntity
100
AcDbLine
  8
color#000000ff
 62
256
370
-1
  6
BYLAYER
 10
4.2286823962849347
 20
3.0163579292871967
 30
0.0
 11
4.2124793140200243
 21
3.0371670329871092
 31
0.0
  0
LINE
  5
173
100
AcDbEntity
100
AcDbLine
  8
color#000000ff
 62
256
370
-1
  6
BYLAYER
 10
4.2124793140200243
 20
3.0371670329871092
 30
0.0
 11
4.1856615844306662
 21
3.0664638213470585
 31
0.0
  0
LINE
  5
174
100
AcDbEntity
100
AcDbLine
  8
color#000000ff
 62
256
370
-1
  6
BYLAYER
 10
4.1856615844306662
 20
3.0664638213470585
 30
0.0
 11
4.1562650301338913
 21
3.0933513013278024
 31
0.0
  0
LINE
  5
175
100
AcDbEntity
100
AcDbLine
  8
color#000000ff
 62
256
370
-1
  6
BYLAYER
 10
4.1562650301338913
 20
3.0933513013278024
 30
0.0
 11
4.1139076523768923
 21
3.1252413854180507
 31
0.0
  0
LINE
  5
176
100
AcDbEntity
100
AcDbLine
  8
color#000000ff
 62
256
370
-1
  6
BYLAYER
 10
4.1139076523768923
 20
3.1252413854180507
 30
0.0
 11
4.0690045767361704
 21
3.152339271772516
 31
0.0
  0
LINE
  5
177
100
AcDbEntity
100
AcDbLine
  8
color#000000ff
 62
256
370
-1
  6
BYLAYER
 10
4.0690045767361704
 20
3.152339271772516
 30
0.0
 11
4.0528797906081531
 21
3.1606722937676333
 31
0.0
  0
LINE
  5
178
100
AcDbEntity
100
AcDbLine
  8
color#000000ff
 62
256
370
-1
  6
BYLAYER
 10
4.0528797906081531
 20
3.1606722937676333
 30
0.0
 11
4.0035148859237477
 21
3.1834510368745286
 31
0.0
  0
LINE
  5
179
100
AcDbEntity
100
AcDbLine
  8
color#000000ff
 62
256
370
-1
  6
BYLAYER
 10
4.0035148859237477
 20
3.1834510368745286
 30
0.0
 11
3.9528232302195754
 21
3.2029908096934077
 31
0.0
  0
LINE
  5
17A
100
AcDbEntity
100
AcDbLine
  8
color#000000ff
 62
256
370
-1
  6
BYLAYER
 10
3.9528232302195754
 20
3.2029908096934077
 30
0.0
 11
3.9010093400494683
 21
3.2194092731195547
 31
0.0
  0
LINE
  5
17B
100
AcDbEntity
100
AcDbLine
  8
color#000000ff
 62
256
370
-1
  6
BYLAYER
 10
3.9010093400494683
 20
3.2194092731195547
 30
0.0
 11
3.8305319404995575
 21
3.2366485520316517
 31
0.0
  0
LINE
  5
17C
100
AcDbEntity
100
AcDbLine
  8
color#000000ff
 62
256
370
-1
  6
BYLAYER
 10
3.8305319404995575
 20
3.2366485520316517
 30
0.0
 11
3.7589078224187036
 21
3.248826911292674
 31
0.0
  0
LINE
  5
17D
100
AcDbEntity
100
AcDbLine
  8
color#000000ff
 62
256
370
-1
  6
BYLAYER
 10
3.7589078224187036
 20
3.248826911292674
 30
0.0
 11
3.6685036338834496
 21
3.2573578286759401
 31
0.0
  0
LINE
  5
17E
100
AcDbEntity
100
AcDbLine
  8
color#000000ff
 62
256
370
-1
  6
BYLAYER
 10
3.6685036338834496
 20
3.2573578286759401
 30
0.0
 11
3.5599865043222101
 21
3.2584989885239701
 31
0.0
  0
LINE
  5
17F
100
AcDbEntity
100
AcDbLine
  8
color#000000ff
 62
256
370
-1
  6
BYLAYER
 10
3.1189214574146695
 20
3.1769585721791835
 30
0.0
 11
3.0679913053165029
 21
2.9664573203773981
 31
0.0
  0
LINE
  5
180
100
AcDbEntity
100
AcDbLine
  8
color#000000ff
 62
256
370
-1
  6
BYLAYER
 10
3.0679913053165029
 20
2.9664573203773981
 30
0.0
 11
3.0865392300116734
 21
2.9688348730207852
 31
0.0
  0
LINE
  5
181
100
AcDbEntity
100
AcDbLine
  8
color#000000ff
 62
256
370
-1
  6
BYLAYER
 10
3.0865392300116734
 20
2.9688348730207852
 30
0.0
 11
3.1234495012016965
 21
2.9753692513698367
 31
0.0
  0
LINE
  5
182
100
AcDbEntity
100
AcDbLine
  8
color#000000ff
 62
256
370
-1
  6
BYLAYER
 10
3.1234495012016965
 20
2.9753692513698367
 30
0.0
 11
3.1599680926981142
 21
2.9842356798650118
 31
0.0
  0
LINE
  5
183
100
AcDbEntity
100
AcDbLine
  8
color#000000ff
 62
256
370
-1
  6
BYLAYER
 10
3.1599680926981142
 20
2.9842356798650118
 30
0.0
 11
3.1959219139891077
 21
2.9953857817820149
 31
0.0
  0
LINE
  5
184
100
AcDbEntity
100
AcDbLine
  8
color#000000ff
 62
256
370
-1
  6
BYLAYER
 10
3.1959219139891077
 20
2.9953857817820149
 30
0.0
 11
3.2311378745628603
 21
3.00877118039655
 31
0.0
  0
LINE
  5
185
100
AcDbEntity
100
AcDbLine
  8
color#000000ff
 62
256
370
-1
  6
BYLAYER
 10
3.2311378745628603
 20
3.00877118039655
 30
0.0
 11
3.2654428839075522
 21
3.0243434989843214
 31
0.0
  0
LINE
  5
186
100
AcDbEntity
100
AcDbLine
  8
color#000000ff
 62
256
370
-1
  6
BYLAYER
 10
3.2654428839075522
 20
3.0243434989843214
 30
0.0
 11
3.2986638515113649
 21
3.0420543608210346
 31
0.0
  0
LINE
  5
187
100
AcDbEntity
100
AcDbLine
  8
color#000000ff
 62
256
370
-1
  6
BYLAYER
 10
3.2986638515113649
 20
3.0420543608210346
 30
0.0
 11
3.3306276868624809
 21
3.0618553891823925
 31
0.0
  0
LINE
  5
188
100
AcDbEntity
100
AcDbLine
  8
color#000000ff
 62
256
370
-1
  6
BYLAYER
 10
3.3306276868624809
 20
3.0618553891823925
 30
0.0
 11
3.3460840891583339
 21
3.0725245980834721
 31
0.0
  0
LINE
  5
189
100
AcDbEntity
100
AcDbLine
  8
color#000000ff
 62
256
370
-1
  6
BYLAYER
 10
3.3460840891583339
 20
3.0725245980834721
 30
0.0
 11
3.361161299449082
 21
3.0836982073441006
 31
0.0
  0
LINE
  5
18A
100
AcDbEntity
100
AcDbLine
  8
color#000000ff
 62
256
370
-1
  6
BYLAYER
 10
3.361161299449082
 20
3.0836982073441006
 30
0.0
 11
3.3758376814207454
 21
3.0953701698737448
 31
0.0
  0
LINE
  5
18B
100
AcDbEntity
100
AcDbLine
  8
color#000000ff
 62
256
370
-1
  6
BYLAYER
 10
3.3758376814207454
 20
3.0953701698737448
 30
0.0
 11
3.3900915987593478
 21
3.1075344385818648
 31
0.0
  0
LINE
  5
18C
100
AcDbEntity
100
AcDbLine
  8
color#000000ff
 62
256
370
-1
  6
BYLAYER
 10
3.3900915987593478
 20
3.1075344385818648
 30
0.0
 11
3.4039014151509144
 21
3.120184966377924
 31
0.0
  0
LINE
  5
18D
100
AcDbEntity
100
AcDbLine
  8
color#000000ff
 62
256
370
-1
  6
BYLAYER
 10
3.4039014151509144
 20
3.120184966377924
 30
0.0
 11
3.4172454942814627
 21
3.1333157061713859
 31
0.0
  0
LINE
  5
18E
100
AcDbEntity
100
AcDbLine
  8
color#000000ff
 62
256
370
-1
  6
BYLAYER
 10
3.4172454942814627
 20
3.1333157061713859
 30
0.0
 11
3.4301021998370191
 21
3.1469206108717143
 31
0.0
  0
LINE
  5
18F
100
AcDbEntity
100
AcDbLine
  8
color#000000ff
 62
256
370
-1
  6
BYLAYER
 10
3.4301021998370191
 20
3.1469206108717143
 30
0.0
 11
3.4424498955036076
 21
3.1609936333883715
 31
0.0
  0
LINE
  5
190
100
AcDbEntity
100
AcDbLine
  8
color#000000ff
 62
256
370
-1
  6
BYLAYER
 10
3.4424498955036076
 20
3.1609936333883715
 30
0.0
 11
3.4542669449672463
 21
3.1755287266308208
 31
0.0
  0
LINE
  5
191
100
AcDbEntity
100
AcDbLine
  8
color#000000ff
 62
256
370
-1
  6
BYLAYER
 10
3.4542669449672463
 20
3.1755287266308208
 30
0.0
 11
3.465531711913961
 21
3.1905198435085245
 31
0.0
  0
LINE
  5
192
100
AcDbEntity
100
AcDbLine
  8
color#000000ff
 62
256
370
-1
  6
BYLAYER
 10
3.465531711913961
 20
3.1905198435085245
 30
0.0
 11
3.4762225600297749
 21
3.2059609369309467
 31
0.0
  0
LINE
  5
193
100
AcDbEntity
100
AcDbLine
  8
color#000000ff
 62
256
370
-1
  6
BYLAYER
 10
3.4762225600297749
 20
3.2059609369309467
 30
0.0
 11
3.4863178530007093
 21
3.2218459598075504
 31
0.0
  0
LINE
  5
194
100
AcDbEntity
100
AcDbLine
  8
color#000000ff
 62
256
370
-1
  6
BYLAYER
 10
3.4863178530007093
 20
3.2218459598075504
 30
0.0
 11
3.4957959545127881
 21
3.2381688650477973
 31
0.0
  0
LINE
  5
195
100
AcDbEntity
100
AcDbLine
  8
color#000000ff
 62
256
370
-1
  6
BYLAYER
 10
3.4957959545127881
 20
3.2381688650477973
 30
0.0
 11
3.5046352282520314
 21
3.2549236055611526
 31
0.0
  0
LINE
  5
196
100
AcDbEntity
100
AcDbLine
  8
color#000000ff
 62
256
370
-1
  6
BYLAYER
 10
3.5046352282520314
 20
3.2549236055611526
 30
0.0
 11
3.4231976564697635
 21
3.2484644453320421
 31
0.0
  0
LINE
  5
197
100
AcDbEntity
100
AcDbLine
  8
color#000000ff
 62
256
370
-1
  6
BYLAYER
 10
3.4231976564697635
 20
3.2484644453320421
 30
0.0
 11
3.1189214574146695
 21
3.1769585721791835
 31
0.0
  0
LINE
  5
198
100
AcDbEntity
100
AcDbLine
  8
color#000000ff
 62
256
370
-1
  6
BYLAYER
 10
1.8646090491540963
 20
3.1628391440152095
 30
0.0
 11
1.8520928804275698
 21
3.153822091754229
 31
0.0
  0
LINE
  5
199
100
AcDbEntity
100
AcDbLine
  8
color#000000ff
 62
256
370
-1
  6
BYLAYER
 10
1.8520928804275698
 20
3.153822091754229
 30
0.0
 11
1.8189303328184181
 21
3.1217550063792112
 31
0.0
  0
LINE
  5
19A
100
AcDbEntity
100
AcDbLine
  8
color#000000ff
 62
256
370
-1
  6
BYLAYER
 10
1.8189303328184181
 20
3.1217550063792112
 30
0.0
 11
1.7932774670068001
 21
3.0834988336264879
 31
0.0
  0
LINE
  5
19B
100
AcDbEntity
100
AcDbLine
  8
color#000000ff
 62
256
370
-1
  6
BYLAYER
 10
1.7932774670068001
 20
3.0834988336264879
 30
0.0
 11
1.7763309537751497
 21
3.040769752009445
 31
0.0
  0
LINE
  5
19C
100
AcDbEntity
100
AcDbLine
  8
color#000000ff
 62
256
370
-1
  6
BYLAYER
 10
1.7763309537751497
 20
3.040769752009445
 30
0.0
 11
1.7697228842886976
 21
3.0029835166606271
 31
0.0
  0
LINE
  5
19D
100
AcDbEntity
100
AcDbLine
  8
color#000000ff
 62
256
370
-1
  6
BYLAYER
 10
1.7697228842886976
 20
3.0029835166606271
 30
0.0
 11
1.7698533123516824
 21
2.9720435659613105
 31
0.0
  0
LINE
  5
19E
100
AcDbEntity
100
AcDbLine
  8
color#000000ff
 62
256
370
-1
  6
BYLAYER
 10
1.7698533123516824
 20
2.9720435659613105
 30
0.0
 11
1.7701808296034527
 21
2.9616246757953868
 31
0.0
  0
LINE
  5
19F
100
AcDbEntity
100
AcDbLine
  8
color#000000ff
 62
256
370
-1
  6
BYLAYER
 10
1.7701808296034527
 20
2.9616246757953868
 30
0.0
 11
1.7722114670827032
 21
2.941137131332495
 31
0.0
  0
LINE
  5
1A0
100
AcDbEntity
100
AcDbLine
  8
color#000000ff
 62
256
370
-1
  6
BYLAYER
 10
1.7722114670827032
 20
2.941137131332495
 30
0.0
 11
1.7784905139254583
 21
2.9113291422844236
 31
0.0
  0
LINE
  5
1A1
100
AcDbEntity
100
AcDbLine
  8
color#000000ff
 62
256
370
-1
  6
BYLAYER
 10
1.7784905139254583
 20
2.9113291422844236
 30
0.0
 11
1.7883198026122336
 21
2.8827055271700734
 31
0.0
  0
LINE
  5
1A2
100
AcDbEntity
100
AcDbLine
  8
color#000000ff
 62
256
370
-1
  6
BYLAYER
 10
1.7883198026122336
 20
2.8827055271700734
 30
0.0
 11
1.8013286828753137
 21
2.8553522143424233
 31
0.0
  0
LINE
  5
1A3
100
AcDbEntity
100
AcDbLine
  8
color#000000ff
 62
256
370
-1
  6
BYLAYER
 10
1.8013286828753137
 20
2.8553522143424233
 30
0.0
 11
1.8229792578079944
 21
2.8210056744924819
 31
0.0
  0
LINE
  5
1A4
100
AcDbEntity
100
AcDbLine
  8
color#000000ff
 62
256
370
-1
  6
BYLAYER
 10
1.8229792578079944
 20
2.8210056744924819
 30
0.0
 11
1.8628963676252799
 21
2.774452187939346
 31
0.0
  0
LINE
  5
1A5
100
AcDbEntity
100
AcDbLine
  8
color#000000ff
 62
256
370
-1
  6
BYLAYER
 10
1.8628963676252799
 20
2.774452187939346
 30
0.0
 11
1.9172127397362704
 21
2.7284926065757915
 31
0.0
  0
LINE
  5
1A6
100
AcDbEntity
100
AcDbLine
  8
color#000000ff
 62
256
370
-1
  6
BYLAYER
 10
1.9172127397362704
 20
2.7284926065757915
 30
0.0
 11
2.0995855907348768
 21
3.2126258483569661
 31
0.0
  0
LINE
  5
1A7
100
AcDbEntity
100
AcDbLine
  8
color#000000ff
 62
256
370
-1
  6
BYLAYER
 10
2.0995855907348768
 20
3.2126258483569661
 30
0.0
 11
2.0403600287244696
 21
3.215845854347557
 31
0.0
  0
LINE
  5
1A8
100
AcDbEntity
100
AcDbLine
  8
color#000000ff
 62
256
370
-1
  6
BYLAYER
 10
2.0403600287244696
 20
3.215845854347557
 30
0.0
 11
1.956402603662756
 21
3.205130901261303
 31
0.0
  0
LINE
  5
1A9
100
AcDbEntity
100
AcDbLine
  8
color#000000ff
 62
256
370
-1
  6
BYLAYER
 10
1.956402603662756
 20
3.205130901261303
 30
0.0
 11
1.901051629812279
 21
3.1848020647126134
 31
0.0
  0
LINE
  5
1AA
100
AcDbEntity
100
AcDbLine
  8
color#000000ff
 62
256
370
-1
  6
BYLAYER
 10
1.901051629812279
 20
3.1848020647126134
 30
0.0
 11
1.8646090491540963
 21
3.1628391440152095
 31
0.0
  0
LINE
  5
1AB
100
AcDbEntity
100
AcDbLine
  8
color#000000ff
 62
256
370
-1
  6
BYLAYER
 10
2.9022596430374334
 20
3.1051514657014505
 30
0.0
 11
2.9454137433799992
 21
2.9801420807674974
 31
0.0
  0
LINE
  5
1AC
100
AcDbEntity
100
AcDbLine
  8
color#000000ff
 62
256
370
-1
  6
BYLAYER
 10
2.9454137433799992
 20
2.9801420807674974
 30
0.0
 11
2.9677313883827616
 21
2.9538021042483598
 31
0.0
  0
LINE
  5
1AD
100
AcDbEntity
100
AcDbLine
  8
color#000000ff
 62
256
370
-1
  6
BYLAYER
 10
2.9677313883827616
 20
2.9538021042483598
 30
0.0
 11
3.0219431103759473
 21
3.1461225129225694
 31
0.0
  0
LINE
  5
1AE
100
AcDbEntity
100
AcDbLine
  8
color#000000ff
 62
256
370
-1
  6
BYLAYER
 10
3.0219431103759473
 20
3.1461225129225694
 30
0.0
 11
2.9022596430374334
 21
3.1051514657014505
 31
0.0
  0
LINE
  5
1AF
100
AcDbEntity
100
AcDbLine
  8
color#000000ff
 62
256
370
-1
  6
BYLAYER
 10
2.2323140823476777
 20
2.8630692443900432
 30
0.0
 11
2.3276642036757544
 21
2.9166643839110367
 31
0.0
  0
LINE
  5
1B0
100
AcDbEntity
100
AcDbLine
  8
color#000000ff
 62
256
370
-1
  6
BYLAYER
 10
2.3276642036757544
 20
2.9166643839110367
 30
0.0
 11
2.2992433208688663
 21
3.0427548748471991
 31
0.0
  0
LINE
  5
1B1
100
AcDbEntity
100
AcDbLine
  8
color#000000ff
 62
256
370
-1
  6
BYLAYER
 10
2.2992433208688663
 20
3.0427548748471991
 30
0.0
 11
2.2323140823476777
 21
2.8630692443900432
 31
0.0
  0
LINE
  5
1B2
100
AcDbEntity
100
AcDbLine
  8
color#000000ff
 62
256
370
-1
  6
BYLAYER
 10
2.449036204906069
 20
2.8967493348072271
 30
0.0
 11
2.4351952361008506
 21
2.823107047162337
 31
0.0
  0
LINE
  5
1B3
100
AcDbEntity
100
AcDbLine
  8
color#000000ff
 62
256
370
-1
  6
BYLAYER
 10
2.4351952361008506
 20
2.823107047162337
 30
0.0
 11
2.4262141948371343
 21
2.7796859623782502
 31
0.0
  0
LINE
  5
1B4
100
AcDbEntity
100
AcDbLine
  8
color#000000ff
 62
256
370
-1
  6
BYLAYER
 10
2.4262141948371343
 20
2.7796859623782502
 30
0.0
 11
2.3283789932264116
 21
2.5925023355734691
 31
0.0
  0
LINE
  5
1B5
100
AcDbEntity
100
AcDbLine
  8
color#000000ff
 62
256
370
-1
  6
BYLAYER
 10
2.3283789932264116
 20
2.5925023355734691
 30
0.0
 11
2.4691373501391389
 21
2.5982359781400421
 31
0.0
  0
LINE
  5
1B6
100
AcDbEntity
100
AcDbLine
  8
color#000000ff
 62
256
370
-1
  6
BYLAYER
 10
2.4691373501391389
 20
2.5982359781400421
 30
0.0
 11
2.6148866666916248
 21
2.6368351486373482
 31
0.0
  0
LINE
  5
1B7
100
AcDbEntity
100
AcDbLine
  8
color#000000ff
 62
256
370
-1
  6
BYLAYER
 10
2.6148866666916248
 20
2.6368351486373482
 30
0.0
 11
2.5108335431715565
 21
2.9292996804533717
 31
0.0
  0
LINE
  5
1B8
100
AcDbEntity
100
AcDbLine
  8
color#000000ff
 62
256
370
-1
  6
BYLAYER
 10
2.5108335431715565
 20
2.9292996804533717
 30
0.0
 11
2.449036204906069
 21
2.8967493348072271
 31
0.0
  0
LINE
  5
1B9
100
AcDbEntity
100
AcDbLine
  8
color#000000ff
 62
256
370
-1
  6
BYLAYER
 10
2.2002242327536958
 20
2.7719640966334937
 30
0.0
 11
2.1412547754652076
 21
2.6224614043457879
 31
0.0
  0
LINE
  5
1BA
100
AcDbEntity
100
AcDbLine
  8
color#000000ff
 62
256
370
-1
  6
BYLAYER
 10
2.1412547754652076
 20
2.6224614043457879
 30
0.0
 11
2.2243306616135095
 21
2.6021430654354378
 31
0.0
  0
LINE
  5
1BB
100
AcDbEntity
100
AcDbLine
  8
color#000000ff
 62
256
370
-1
  6
BYLAYER
 10
2.2243306616135095
 20
2.6021430654354378
 30
0.0
 11
2.2795137498337943
 21
2.6836714724598241
 31
0.0
  0
LINE
  5
1BC
100
AcDbEntity
100
AcDbLine
  8
color#000000ff
 62
256
370
-1
  6
BYLAYER
 10
2.2795137498337943
 20
2.6836714724598241
 30
0.0
 11
2.3166835635164613
 21
2.7744270858740161
 31
0.0
  0
LINE
  5
1BD
100
AcDbEntity
100
AcDbLine
  8
color#000000ff
 62
256
370
-1
  6
BYLAYER
 10
2.3166835635164613
 20
2.7744270858740161
 30
0.0
 11
2.3274957233111451
 21
2.8362395331335932
 31
0.0
  0
LINE
  5
1BE
100
AcDbEntity
100
AcDbLine
  8
color#000000ff
 62
256
370
-1
  6
BYLAYER
 10
2.3274957233111451
 20
2.8362395331335932
 30
0.0
 11
2.2002242327536958
 21
2.7719640966334937
 31
0.0
  0
LINE
  5
1BF
100
AcDbEntity
100
AcDbLine
  8
color#000000ff
 62
256
370
-1
  6
BYLAYER
 10
1.1069095013072872
 20
2.3791364782852611
 30
0.0
 11
1.1318291241398775
 21
2.3696745476953489
 31
0.0
  0
LINE
  5
1C0
100
AcDbEntity
100
AcDbLine
  8
color#000000ff
 62
256
370
-1
  6
BYLAYER
 10
1.1318291241398775
 20
2.3696745476953489
 30
0.0
 11
1.1698487635233181
 21
2.3586017474569192
 31
0.0
  0
LINE
  5
1C1
100
AcDbEntity
100
AcDbLine
  8
color#000000ff
 62
256
370
-1
  6
BYLAYER
 10
1.1698487635233181
 20
2.3586017474569192
 30
0.0
 11
1.2215273498727113
 21
2.3488173674865185
 31
0.0
  0
LINE
  5
1C2
100
AcDbEntity
100
AcDbLine
  8
color#000000ff
 62
256
370
-1
  6
BYLAYER
 10
1.2215273498727113
 20
2.3488173674865185
 30
0.0
 11
1.4860537661747797
 21
2.3418076808338353
 31
0.0
  0
LINE
  5
1C3
100
AcDbEntity
100
AcDbLine
  8
color#000000ff
 62
256
370
-1
  6
BYLAYER
 10
1.4860537661747797
 20
2.3418076808338353
 30
0.0
 11
1.7749817711796452
 21
2.3484163834211946
 31
0.0
  0
LINE
  5
1C4
100
AcDbEntity
100
AcDbLine
  8
color#000000ff
 62
256
370
-1
  6
BYLAYER
 10
1.7749817711796452
 20
2.3484163834211946
 30
0.0
 11
1.8749025611484029
 21
2.6172048946060968
 31
0.0
  0
LINE
  5
1C5
100
AcDbEntity
100
AcDbLine
  8
color#000000ff
 62
256
370
-1
  6
BYLAYER
 10
1.8749025611484029
 20
2.6172048946060968
 30
0.0
 11
1.617618554450527
 21
2.5102711608336321
 31
0.0
  0
LINE
  5
1C6
100
AcDbEntity
100
AcDbLine
  8
color#000000ff
 62
256
370
-1
  6
BYLAYER
 10
1.617618554450527
 20
2.5102711608336321
 30
0.0
 11
1.4603198516534472
 21
2.4533573834160003
 31
0.0
  0
LINE
  5
1C7
100
AcDbEntity
100
AcDbLine
  8
color#000000ff
 62
256
370
-1
  6
BYLAYER
 10
1.4603198516534472
 20
2.4533573834160003
 30
0.0
 11
1.3804843695657805
 21
2.429119169344327
 31
0.0
  0
LINE
  5
1C8
100
AcDbEntity
100
AcDbLine
  8
color#000000ff
 62
256
370
-1
  6
BYLAYER
 10
1.3804843695657805
 20
2.429119169344327
 30
0.0
 11
1.3267436681286178
 21
2.4149904085925473
 31
0.0
  0
LINE
  5
1C9
100
AcDbEntity
100
AcDbLine
  8
color#000000ff
 62
256
370
-1
  6
BYLAYER
 10
1.3267436681286178
 20
2.4149904085925473
 30
0.0
 11
1.2725497530784762
 21
2.4027237257108212
 31
0.0
  0
LINE
  5
1CA
100
AcDbEntity
100
AcDbLine
  8
color#000000ff
 62
256
370
-1
  6
BYLAYER
 10
1.2725497530784762
 20
2.4027237257108212
 30
0.0
 11
1.2178687019210659
 21
2.3925231540990786
 31
0.0
  0
LINE
  5
1CB
100
AcDbEntity
100
AcDbLine
  8
color#000000ff
 62
256
370
-1
  6
BYLAYER
 10
1.2178687019210659
 20
2.3925231540990786
 30
0.0
 11
1.1626665921620998
 21
2.3845927271572487
 31
0.0
  0
LINE
  5
1CC
100
AcDbEntity
100
AcDbLine
  8
color#000000ff
 62
256
370
-1
  6
BYLAYER
 10
1.1626665921620998
 20
2.3845927271572487
 30
0.0
 11
1.1348595395275674
 21
2.3815425783750284
 31
0.0
  0
LINE
  5
1CD
100
AcDbEntity
100
AcDbLine
  8
color#000000ff
 62
256
370
-1
  6
BYLAYER
 10
1.1348595395275674
 20
2.3815425783750284
 30
0.0
 11
1.1069095013072872
 21
2.3791364782852611
 31
0.0
  0
LINE
  5
1CE
100
AcDbEntity
100
AcDbLine
  8
color#000000ff
 62
256
370
-1
  6
BYLAYER
 10
2.30633403805964
 20
2.5587871825132611
 30
0.0
 11
2.1676013251416344
 21
2.456952207471669
 31
0.0
  0
LINE
  5
1CF
100
AcDbEntity
100
AcDbLine
  8
color#000000ff
 62
256
370
-1
  6
BYLAYER
 10
2.1676013251416344
 20
2.456952207471669
 30
0.0
 11
2.0657972833011158
 21
2.3913179167727536
 31
0.0
  0
LINE
  5
1D0
100
AcDbEntity
100
AcDbLine
  8
color#000000ff
 62
256
370
-1
  6
BYLAYER
 10
2.0657972833011158
 20
2.3913179167727536
 30
0.0
 11
2.0511843983105642
 21
2.3728362086650958
 31
0.0
  0
LINE
  5
1D1
100
AcDbEntity
100
AcDbLine
  8
color#000000ff
 62
256
370
-1
  6
BYLAYER
 10
2.0511843983105642
 20
2.3728362086650958
 30
0.0
 11
2.0431780917421043
 21
2.3563103117352115
 31
0.0
  0
LINE
  5
1D2
100
AcDbEntity
100
AcDbLine
  8
color#000000ff
 62
256
370
-1
  6
BYLAYER
 10
2.0431780917421043
 20
2.3563103117352115
 30
0.0
 11
2.0395161207693175
 21
2.3437871598190845
 31
0.0
  0
LINE
  5
1D3
100
AcDbEntity
100
AcDbLine
  8
color#000000ff
 62
256
370
-1
  6
BYLAYER
 10
2.0395161207693175
 20
2.3437871598190845
 30
0.0
 11
2.7184887148347885
 21
2.3429865576884144
 31
0.0
  0
LINE
  5
1D4
100
AcDbEntity
100
AcDbLine
  8
color#000000ff
 62
256
370
-1
  6
BYLAYER
 10
2.7184887148347885
 20
2.3429865576884144
 30
0.0
 11
2.6323279764967382
 21
2.5966636252390987
 31
0.0
  0
LINE
  5
1D5
100
AcDbEntity
100
AcDbLine
  8
color#000000ff
 62
256
370
-1
  6
BYLAYER
 10
2.6323279764967382
 20
2.5966636252390987
 30
0.0
 11
2.30633403805964
 21
2.5587871825132611
 31
0.0
  0
LINE
  5
1D6
100
AcDbEntity
100
AcDbLine
  8
color#000000ff
 62
256
370
-1
  6
BYLAYER
 10
2.12739273762404
 20
2.5862894357680282
 30
0.0
 11
2.0960909636355685
 21
2.4852789339944765
 31
0.0
  0
LINE
  5
1D7
100
AcDbEntity
100
AcDbLine
  8
color#000000ff
 62
256
370
-1
  6
BYLAYER
 10
2.0960909636355685
 20
2.4852789339944765
 30
0.0
 11
2.1978589214264028
 21
2.5762098845807939
 31
0.0
  0
LINE
  5
1D8
100
AcDbEntity
100
AcDbLine
  8
color#000000ff
 62
256
370
-1
  6
BYLAYER
 10
2.1978589214264028
 20
2.5762098845807939
 30
0.0
 11
2.12739273762404
 21
2.5862894357680282
 31
0.0
  0
LINE
  5
1D9
100
AcDbEntity
100
AcDbLine
  8
color#000000ff
 62
256
370
-1
  6
BYLAYER
 10
0.5446997951001582
 20
1.7929907414619612
 30
0.0
 11
4.42124204915938
 21
1.7933827929278974
 31
0.0
  0
LINE
  5
1DA
100
AcDbEntity
100
AcDbLine
  8
color#000000ff
 62
256
370
-1
  6
BYLAYER
 10
4.42124204915938
 20
1.7933827929278974
 30
0.0
 11
4.4215287031648867
 21
1.7042384761738691
 31
0.0
  0
LINE
  5
1DB
100
AcDbEntity
100
AcDbLine
  8
color#000000ff
 62
256
370
-1
  6
BYLAYER
 10
4.4215287031648867
 20
1.7042384761738691
 30
0.0
 11
3.4186254999071162
 21
1.7035865033719826
 31
0.0
  0
LINE
  5
1DC
100
AcDbEntity
100
AcDbLine
  8
color#000000ff
 62
256
370
-1
  6
BYLAYER
 10
3.4186254999071162
 20
1.7035865033719826
 30
0.0
 11
3.7036942648610425
 21
0.9400899677167034
 31
0.0
  0
LINE
  5
1DD
100
AcDbEntity
100
AcDbLine
  8
color#000000ff
 62
256
370
-1
  6
BYLAYER
 10
3.7036942648610425
 20
0.9400899677167034
 30
0.0
 11
3.7845538370977594
 21
0.7830816347135443
 31
0.0
  0
LINE
  5
1DE
100
AcDbEntity
100
AcDbLine
  8
color#000000ff
 62
256
370
-1
  6
BYLAYER
 10
3.7845538370977594
 20
0.7830816347135443
 30
0.0
 11
3.8158018570598138
 21
0.7458002762155253
 31
0.0
  0
LINE
  5
1DF
100
AcDbEntity
100
AcDbLine
  8
color#000000ff
 62
256
370
-1
  6
BYLAYER
 10
3.8158018570598138
 20
0.7458002762155253
 30
0.0
 11
3.8374661906501268
 21
0.7260928744485544
 31
0.0
  0
LINE
  5
1E0
100
AcDbEntity
100
AcDbLine
  8
color#000000ff
 62
256
370
-1
  6
BYLAYER
 10
3.8374661906501268
 20
0.7260928744485544
 30
0.0
 11
3.8616603994472185
 21
0.7088067054450187
 31
0.0
  0
LINE
  5
1E1
100
AcDbEntity
100
AcDbLine
  8
color#000000ff
 62
256
370
-1
  6
BYLAYER
 10
3.8616603994472185
 20
0.7088067054450187
 30
0.0
 11
3.9039289729809385
 21
0.687918489154341
 31
0.0
  0
LINE
  5
1E2
100
AcDbEntity
100
AcDbLine
  8
color#000000ff
 62
256
370
-1
  6
BYLAYER
 10
3.9039289729809385
 20
0.687918489154341
 30
0.0
 11
4.0190793971340657
 21
0.6672088979363602
 31
0.0
  0
LINE
  5
1E3
100
AcDbEntity
100
AcDbLine
  8
color#000000ff
 62
256
370
-1
  6
BYLAYER
 10
4.0190793971340657
 20
0.6672088979363602
 30
0.0
 11
4.0817244308104179
 21
0.6653952495518429
 31
0.0
  0
LINE
  5
1E4
100
AcDbEntity
100
AcDbLine
  8
color#000000ff
 62
256
370
-1
  6
BYLAYER
 10
4.0817244308104179
 20
0.6653952495518429
 30
0.0
 11
4.0830604719790955
 21
0.5397846043950609
 31
0.0
  0
LINE
  5
1E5
100
AcDbEntity
100
AcDbLine
  8
color#000000ff
 62
256
370
-1
  6
BYLAYER
 10
4.0830604719790955
 20
0.5397846043950609
 30
0.0
 11
4.1308432091443672
 21
0.5574502163446837
 31
0.0
  0
LINE
  5
1E6
100
AcDbEntity
100
AcDbLine
  8
color#000000ff
 62
256
370
-1
  6
BYLAYER
 10
4.1308432091443672
 20
0.5574502163446837
 30
0.0
 11
4.1780057745825996
 21
0.5804649012409623
 31
0.0
  0
LINE
  5
1E7
100
AcDbEntity
100
AcDbLine
  8
color#000000ff
 62
256
370
-1
  6
BYLAYER
 10
4.1780057745825996
 20
0.5804649012409623
 30
0.0
 11
4.2116812252016294
 21
0.6012697363049229
 31
0.0
  0
LINE
  5
1E8
100
AcDbEntity
100
AcDbLine
  8
color#000000ff
 62
256
370
-1
  6
BYLAYER
 10
4.2116812252016294
 20
0.6012697363049229
 30
0.0
 11
4.2328212840589057
 21
0.6168402092801952
 31
0.0
  0
LINE
  5
1E9
100
AcDbEntity
100
AcDbLine
  8
color#000000ff
 62
256
370
-1
  6
BYLAYER
 10
4.2328212840589057
 20
0.6168402092801952
 30
0.0
 11
4.2526005470624515
 21
0.6337792679398776
 31
0.0
  0
LINE
  5
1EA
100
AcDbEntity
100
AcDbLine
  8
color#000000ff
 62
256
370
-1
  6
BYLAYER
 10
4.2526005470624515
 20
0.6337792679398776
 30
0.0
 11
4.2707510691184973
 21
0.6520938717168028
 31
0.0
  0
LINE
  5
1EB
100
AcDbEntity
100
AcDbLine
  8
color#000000ff
 62
256
370
-1
  6
BYLAYER
 10
4.2707510691184973
 20
0.6520938717168028
 30
0.0
 11
4.287004905133271
 21
0.6717909800438022
 31
0.0
  0
LINE
  5
1EC
100
AcDbEntity
100
AcDbLine
  8
color#000000ff
 62
256
370
-1
  6
BYLAYER
 10
4.287004905133271
 20
0.6717909800438022
 30
0.0
 11
4.2943368330333795
 21
0.6821601482363404
 31
0.0
  0
LINE
  5
1ED
100
AcDbEntity
100
AcDbLine
  8
color#000000ff
 62
256
370
-1
  6
BYLAYER
 10
4.2943368330333795
 20
0.6821601482363404
 30
0.0
 11
4.3010941100130049
 21
0.6928775523537093
 31
0.0
  0
LINE
  5
1EE
100
AcDbEntity
100
AcDbLine
  8
color#000000ff
 62
256
370
-1
  6
BYLAYER
 10
4.3010941100130049
 20
0.6928775523537093
 30
0.0
 11
4.3072432429354279
 21
0.7039440623250128
 31
0.0
  0
LINE
  5
1EF
100
AcDbEntity
100
AcDbLine
  8
color#000000ff
 62
256
370
-1
  6
BYLAYER
 10
4.3072432429354279
 20
0.7039440623250128
 30
0.0
 11
4.3127507386639259
 21
0.7153605480793558
 31
0.0
  0
LINE
  5
1F0
100
AcDbEntity
100
AcDbLine
  8
color#000000ff
 62
256
370
-1
  6
BYLAYER
 10
4.3127507386639259
 20
0.7153605480793558
 30
0.0
 11
4.3175831040617769
 21
0.7271278795458416
 31
0.0
  0
LINE
  5
1F1
100
AcDbEntity
100
AcDbLine
  8
color#000000ff
 62
256
370
-1
  6
BYLAYER
 10
4.3175831040617769
 20
0.7271278795458416
 30
0.0
 11
4.321706845992261
 21
0.7392469266535745
 31
0.0
  0
LINE
  5
1F2
100
AcDbEntity
100
AcDbLine
  8
color#000000ff
 62
256
370
-1
  6
BYLAYER
 10
4.321706845992261
 20
0.7392469266535745
 30
0.0
 11
4.325088471318657
 21
0.7517185593316577
 31
0.0
  0
LINE
  5
1F3
100
AcDbEntity
100
AcDbLine
  8
color#000000ff
 62
256
370
-1
  6
BYLAYER
 10
4.325088471318657
 20
0.7517185593316577
 30
0.0
 11
4.3276944869042415
 21
0.764543647509197
 31
0.0
  0
LINE
  5
1F4
100
AcDbEntity
100
AcDbLine
  8
color#000000ff
 62
256
370
-1
  6
BYLAYER
 10
4.3276944869042415
 20
0.764543647509197
 30
0.0
 11
4.329491399612297
 21
0.7777230611152951
 31
0.0
  0
LINE
  5
1F5
100
AcDbEntity
100
AcDbLine
  8
color#000000ff
 62
256
370
-1
  6
BYLAYER
 10
4.329491399612297
 20
0.7777230611152951
 30
0.0
 11
4.3304457163060981
 21
0.7912576700790565
 31
0.0
  0
LINE
  5
1F6
100
AcDbEntity
100
AcDbLine
  8
color#000000ff
 62
256
370
-1
  6
BYLAYER
 10
4.3304457163060981
 20
0.7912576700790565
 30
0.0
 11
4.3312973202738965
 21
0.7965786235035569
 31
0.0
  0
LINE
  5
1F7
100
AcDbEntity
100
AcDbLine
  8
color#000000ff
 62
256
370
-1
  6
BYLAYER
 10
4.3312973202738965
 20
0.7965786235035569
 30
0.0
 11
4.3314320056881179
 21
0.8016900079701451
 31
0.0
  0
LINE
  5
1F8
100
AcDbEntity
100
AcDbLine
  8
color#000000ff
 62
256
370
-1
  6
BYLAYER
 10
4.3314320056881179
 20
0.8016900079701451
 30
0.0
 11
4.3309086603984568
 21
0.8066067200094804
 31
0.0
  0
LINE
  5
1F9
100
AcDbEntity
100
AcDbLine
  8
color#000000ff
 62
256
370
-1
  6
BYLAYER
 10
4.3309086603984568
 20
0.8066067200094804
 30
0.0
 11
4.3281234291062312
 21
0.8159157129290474
 31
0.0
  0
LINE
  5
1FA
100
AcDbEntity
100
AcDbLine
  8
color#000000ff
 62
256
370
-1
  6
BYLAYER
 10
4.3281234291062312
 20
0.8159157129290474
 30
0.0
 11
4.3204825481309914
 21
0.8287915723705694
 31
0.0
  0
LINE
  5
1FB
100
AcDbEntity
100
AcDbLine
  8
color#000000ff
 62
256
370
-1
  6
BYLAYER
 10
4.3204825481309914
 20
0.8287915723705694
 30
0.0
 11
4.2810954453821282
 21
0.8709542315531139
 31
0.0
  0
LINE
  5
1FC
100
AcDbEntity
100
AcDbLine
  8
color#000000ff
 62
256
370
-1
  6
BYLAYER
 10
4.2810954453821282
 20
0.8709542315531139
 30
0.0
 11
4.2760973434662448
 21
0.8788005966125788
 31
0.0
  0
LINE
  5
1FD
100
AcDbEntity
100
AcDbLine
  8
color#000000ff
 62
256
370
-1
  6
BYLAYER
 10
4.2760973434662448
 20
0.8788005966125788
 30
0.0
 11
4.272942595311231
 21
0.887000408293375
 31
0.0
  0
LINE
  5
1FE
100
AcDbEntity
100
AcDbLine
  8
color#000000ff
 62
256
370
-1
  6
BYLAYER
 10
4.272942595311231
 20
0.887000408293375
 30
0.0
 11
4.2722036985182728
 21
0.8912700979434283
 31
0.0
  0
LINE
  5
1FF
100
AcDbEntity
100
AcDbLine
  8
color#000000ff
 62
256
370
-1
  6
BYLAYER
 10
4.2722036985182728
 20
0.8912700979434283
 30
0.0
 11
4.2721023037146031
 21
0.8956728388408016
 31
0.0
  0
LINE
  5
200
100
AcDbEntity
100
AcDbLine
  8
color#000000ff
 62
256
370
-1
  6
BYLAYER
 10
4.2721023037146031
 20
0.8956728388408016
 30
0.0
 11
4.2726972987499092
 21
0.9002235275161571
 31
0.0
  0
LINE
  5
201
100
AcDbEntity
100
AcDbLine
  8
color#000000ff
 62
256
370
-1
  6
BYLAYER
 10
4.2726972987499092
 20
0.9002235275161571
 30
0.0
 11
4.2740475714738801
 21
0.9049370605001568
 31
0.0
  0
LINE
  5
202
100
AcDbEntity
100
AcDbLine
  8
color#000000ff
 62
256
370
-1
  6
BYLAYER
 10
4.2740475714738801
 20
0.9049370605001568
 30
0.0
 11
4.2762120097362075
 21
0.9098283343234634
 31
0.0
  0
LINE
  5
203
100
AcDbEntity
100
AcDbLine
  8
color#000000ff
 62
256
370
-1
  6
BYLAYER
 10
4.2762120097362075
 20
0.9098283343234634
 30
0.0
 11
4.2792495013865786
 21
0.9149122455167391
 31
0.0
  0
LINE
  5
204
100
AcDbEntity
100
AcDbLine
  8
color#000000ff
 62
256
370
-1
  6
BYLAYER
 10
4.2792495013865786
 20
0.9149122455167391
 30
0.0
 11
4.284546412474934
 21
0.9180431955589694
 31
0.0
  0
LINE
  5
205
100
AcDbEntity
100
AcDbLine
  8
color#000000ff
 62
256
370
-1
  6
BYLAYER
 10
4.284546412474934
 20
0.9180431955589694
 30
0.0
 11
4.2898301173323095
 21
0.9204922041851337
 31
0.0
  0
LINE
  5
206
100
AcDbEntity
100
AcDbLine
  8
color#000000ff
 62
256
370
-1
  6
BYLAYER
 10
4.2898301173323095
 20
0.9204922041851337
 30
0.0
 11
4.2950876576747463
 21
0.9222879930668297
 31
0.0
  0
LINE
  5
207
100
AcDbEntity
100
AcDbLine
  8
color#000000ff
 62
256
370
-1
  6
BYLAYER
 10
4.2950876576747463
 20
0.9222879930668297
 30
0.0
 11
4.3054724116789327
 21
0.9240347982832218
 31
0.0
  0
LINE
  5
208
100
AcDbEntity
100
AcDbLine
  8
color#000000ff
 62
256
370
-1
  6
BYLAYER
 10
4.3054724116789327
 20
0.9240347982832218
 30
0.0
 11
4.3155970082157671
 21
0.9235133845809516
 31
0.0
  0
LINE
  5
209
100
AcDbEntity
100
AcDbLine
  8
color#000000ff
 62
256
370
-1
  6
BYLAYER
 10
4.3155970082157671
 20
0.9235133845809516
 30
0.0
 11
4.3253577810135289
 21
0.920953525332821
 31
0.0
  0
LINE
  5
20A
100
AcDbEntity
100
AcDbLine
  8
color#000000ff
 62
256
370
-1
  6
BYLAYER
 10
4.3253577810135289
 20
0.920953525332821
 30
0.0
 11
4.3390900007300042
 21
0.9137942803151494
 31
0.0
  0
LINE
  5
20B
100
AcDbEntity
100
AcDbLine
  8
color#000000ff
 62
256
370
-1
  6
BYLAYER
 10
4.3390900007300042
 20
0.9137942803151494
 30
0.0
 11
4.3514204942551089
 21
0.9033410080413181
 31
0.0
  0
LINE
  5
20C
100
AcDbEntity
100
AcDbLine
  8
color#000000ff
 62
256
370
-1
  6
BYLAYER
 10
4.3514204942551089
 20
0.9033410080413181
 30
0.0
 11
4.3679060955475428
 21
0.8807050829330588
 31
0.0
  0
LINE
  5
20D
100
AcDbEntity
100
AcDbLine
  8
color#000000ff
 62
256
370
-1
  6
BYLAYER
 10
4.3679060955475428
 20
0.8807050829330588
 30
0.0
 11
4.3779063561819482
 21
0.854663416433345
 31
0.0
  0
LINE
  5
20E
100
AcDbEntity
100
AcDbLine
  8
color#000000ff
 62
256
370
-1
  6
BYLAYER
 10
4.3779063561819482
 20
0.854663416433345
 30
0.0
 11
4.3801486235625884
 21
0.833790569846169
 31
0.0
  0
LINE
  5
20F
100
AcDbEntity
100
AcDbLine
  8
color#000000ff
 62
256
370
-1
  6
BYLAYER
 10
4.3801486235625884
 20
0.833790569846169
 30
0.0
 11
4.380786757164624
 21
0.8196429484388363
 31
0.0
  0
LINE
  5
210
100
AcDbEntity
100
AcDbLine
  8
color#000000ff
 62
256
370
-1
  6
BYLAYER
 10
4.380786757164624
 20
0.8196429484388363
 30
0.0
 11
4.3806225303687718
 21
0.8056882531939438
 31
0.0
  0
LINE
  5
211
100
AcDbEntity
100
AcDbLine
  8
color#000000ff
 62
256
370
-1
  6
BYLAYER
 10
4.3806225303687718
 20
0.8056882531939438
 30
0.0
 11
4.379682863088016
 21
0.7919323205545928
 31
0.0
  0
LINE
  5
212
100
AcDbEntity
100
AcDbLine
  8
color#000000ff
 62
256
370
-1
  6
BYLAYER
 10
4.379682863088016
 20
0.7919323205545928
 30
0.0
 11
4.3779946752353318
 21
0.7783809869638921
 31
0.0
  0
LINE
  5
213
100
AcDbEntity
100
AcDbLine
  8
color#000000ff
 62
256
370
-1
  6
BYLAYER
 10
4.3779946752353318
 20
0.7783809869638921
 30
0.0
 11
4.3755848867237015
 21
0.7650400888649432
 31
0.0
  0
LINE
  5
214
100
AcDbEntity
100
AcDbLine
  8
color#000000ff
 62
256
370
-1
  6
BYLAYER
 10
4.3755848867237015
 20
0.7650400888649432
 30
0.0
 11
4.3724804174661056
 21
0.7519154627008529
 31
0.0
  0
LINE
  5
215
100
AcDbEntity
100
AcDbLine
  8
color#000000ff
 62
256
370
-1
  6
BYLAYER
 10
4.3724804174661056
 20
0.7519154627008529
 30
0.0
 11
4.3687081873755185
 21
0.7390129449147271
 31
0.0
  0
LINE
  5
216
100
AcDbEntity
100
AcDbLine
  8
color#000000ff
 62
256
370
-1
  6
BYLAYER
 10
4.3687081873755185
 20
0.7390129449147271
 30
0.0
 11
4.364295116364926
 21
0.7263383719496667
 31
0.0
  0
LINE
  5
217
100
AcDbEntity
100
AcDbLine
  8
color#000000ff
 62
256
370
-1
  6
BYLAYER
 10
4.364295116364926
 20
0.7263383719496667
 30
0.0
 11
4.3592681243473033
 21
0.7138975802487804
 31
0.0
  0
LINE
  5
218
100
AcDbEntity
100
AcDbLine
  8
color#000000ff
 62
256
370
-1
  6
BYLAYER
 10
4.3592681243473033
 20
0.7138975802487804
 30
0.0
 11
4.3474800569428895
 21
0.6897406864119482
 31
0.0
  0
LINE
  5
219
100
AcDbEntity
100
AcDbLine
  8
color#000000ff
 62
256
370
-1
  6
BYLAYER
 10
4.3474800569428895
 20
0.6897406864119482
 30
0.0
 11
4.3335593444661145
 21
0.6665889549490668
 31
0.0
  0
LINE
  5
21A
100
AcDbEntity
100
AcDbLine
  8
color#000000ff
 62
256
370
-1
  6
BYLAYER
 10
4.3335593444661145
 20
0.6665889549490668
 30
0.0
 11
4.3177213462208153
 21
0.6444890774049772
 31
0.0
  0
LINE
  5
21B
100
AcDbEntity
100
AcDbLine
  8
color#000000ff
 62
256
370
-1
  6
BYLAYER
 10
4.3177213462208153
 20
0.6444890774049772
 30
0.0
 11
4.3001814215108247
 21
0.6234877453245183
 31
0.0
  0
LINE
  5
21C
100
AcDbEntity
100
AcDbLine
  8
color#000000ff
 62
256
370
-1
  6
BYLAYER
 10
4.3001814215108247
 20
0.6234877453245183
 30
0.0
 11
4.2811549296399827
 21
0.6036316502525293
 31
0.0
  0
LINE
  5
21D
100
AcDbEntity
100
AcDbLine
  8
color#000000ff
 62
256
370
-1
  6
BYLAYER
 10
4.2811549296399827
 20
0.6036316502525293
 30
0.0
 11
4.2502989768842614
 21
0.5760969647897649
 31
0.0
  0
LINE
  5
21E
100
AcDbEntity
100
AcDbLine
  8
color#000000ff
 62
256
370
-1
  6
BYLAYER
 10
4.2502989768842614
 20
0.5760969647897649
 30
0.0
 11
4.2173096441006965
 21
0.5514017025357813
 31
0.0
  0
LINE
  5
21F
100
AcDbEntity
100
AcDbLine
  8
color#000000ff
 62
256
370
-1
  6
BYLAYER
 10
4.2173096441006965
 20
0.5514017025357813
 30
0.0
 11
4.1829137689397369
 21
0.529703447454413
 31
0.0
  0
LINE
  5
220
100
AcDbEntity
100
AcDbLine
  8
color#000000ff
 62
256
370
-1
  6
BYLAYER
 10
4.1829137689397369
 20
0.529703447454413
 30
0.0
 11
4.1712615385072338
 21
0.5231639340890276
 31
0.0
  0
LINE
  5
221
100
AcDbEntity
100
AcDbLine
  8
color#000000ff
 62
256
370
-1
  6
BYLAYER
 10
4.1712615385072338
 20
0.5231639340890276
 30
0.0
 11
4.1311197854777557
 21
0.5024154012519652
 31
0.0
  0
LINE
  5
222
100
AcDbEntity
100
AcDbLine
  8
color#000000ff
 62
256
370
-1
  6
BYLAYER
 10
4.1311197854777557
 20
0.5024154012519652
 30
0.0
 11
4.0901969964916356
 21
0.4836504938295465
 31
0.0
  0
LINE
  5
223
100
AcDbEntity
100
AcDbLine
  8
color#000000ff
 62
256
370
-1
  6
BYLAYER
 10
4.0901969964916356
 20
0.4836504938295465
 30
0.0
 11
4.0485662025948299
 21
0.4667383071973951
 31
0.0
  0
LINE
  5
224
100
AcDbEntity
100
AcDbLine
  8
color#000000ff
 62
256
370
-1
  6
BYLAYER
 10
4.0485662025948299
 20
0.4667383071973951
 30
0.0
 11
3.9849522579551158
 21
0.4445575248650905
 31
0.0
  0
LINE
  5
225
100
AcDbEntity
100
AcDbLine
  8
color#000000ff
 62
256
370
-1
  6
BYLAYER
 10
3.9849522579551158
 20
0.4445575248650905
 30
0.0
 11
3.9201561018998672
 21
0.4258090257987601
 31
0.0
  0
LINE
  5
226
100
AcDbEntity
100
AcDbLine
  8
color#000000ff
 62
256
370
-1
  6
BYLAYER
 10
3.9201561018998672
 20
0.4258090257987601
 30
0.0
 11
3.8102048232500945
 21
0.4009888644446807
 31
0.0
  0
LINE
  5
227
100
AcDbEntity
100
AcDbLine
  8
color#000000ff
 62
256
370
-1
  6
BYLAYER
 10
3.8102048232500945
 20
0.4009888644446807
 30
0.0
 11
3.5425451987527841
 21
0.363073003280729
 31
0.0
  0
LINE
  5
228
100
AcDbEntity
100
AcDbLine
  8
color#000000ff
 62
256
370
-1
  6
BYLAYER
 10
3.5425451987527841
 20
0.363073003280729
 30
0.0
 11
3.2525381500663637
 21
0.3657985271811223
 31
0.0
  0
LINE
  5
229
100
AcDbEntity
100
AcDbLine
  8
color#000000ff
 62
256
370
-1
  6
BYLAYER
 10
3.2525381500663637
 20
0.3657985271811223
 30
0.0
 11
3.2423034174072303
 21
0.3677116093442479
 31
0.0
  0
LINE
  5
22A
100
AcDbEntity
100
AcDbLine
  8
color#000000ff
 62
256
370
-1
  6
BYLAYER
 10
3.2423034174072303
 20
0.3677116093442479
 30
0.0
 11
3.1274539769546705
 21
0.3885686855673593
 31
0.0
  0
LINE
  5
22B
100
AcDbEntity
100
AcDbLine
  8
color#000000ff
 62
256
370
-1
  6
BYLAYER
 10
3.1274539769546705
 20
0.3885686855673593
 30
0.0
 11
3.0333100887881801
 21
0.4136475808573642
 31
0.0
  0
LINE
  5
22C
100
AcDbEntity
100
AcDbLine
  8
color#000000ff
 62
256
370
-1
  6
BYLAYER
 10
3.0333100887881801
 20
0.4136475808573642
 30
0.0
 11
2.9596711565005771
 21
0.4390319427056634
 31
0.0
  0
LINE
  5
22D
100
AcDbEntity
100
AcDbLine
  8
color#000000ff
 62
256
370
-1
  6
BYLAYER
 10
2.9596711565005771
 20
0.4390319427056634
 30
0.0
 11
2.8880248139865747
 21
0.4693639732196968
 31
0.0
  0
LINE
  5
22E
100
AcDbEntity
100
AcDbLine
  8
color#000000ff
 62
256
370
-1
  6
BYLAYER
 10
2.8880248139865747
 20
0.4693639732196968
 30
0.0
 11
2.8358768118594089
 21
0.495480774729383
 31
0.0
  0
LINE
  5
22F
100
AcDbEntity
100
AcDbLine
  8
color#000000ff
 62
256
370
-1
  6
BYLAYER
 10
2.8358768118594089
 20
0.495480774729383
 30
0.0
 11
2.785306379566201
 21
0.5245784288745372
 31
0.0
  0
LINE
  5
230
100
AcDbEntity
100
AcDbLine
  8
color#000000ff
 62
256
370
-1
  6
BYLAYER
 10
2.785306379566201
 20
0.5245784288745372
 30
0.0
 11
2.736509262001082
 21
0.5567417023741541
 31
0.0
  0
LINE
  5
231
100
AcDbEntity
100
AcDbLine
  8
color#000000ff
 62
256
370
-1
  6
BYLAYER
 10
2.736509262001082
 20
0.5567417023741541
 30
0.0
 11
2.7206714585364549
 21
0.5681586933239815
 31
0.0
  0
LINE
  5
232
100
AcDbEntity
100
AcDbLine
  8
color#000000ff
 62
256
370
-1
  6
BYLAYER
 10
2.7206714585364549
 20
0.5681586933239815
 30
0.0
 11
2.6240927686212738
 21
0.6426132521611029
 31
0.0
  0
LINE
  5
233
100
AcDbEntity
100
AcDbLine
  8
color#000000ff
 62
256
370
-1
  6
BYLAYER
 10
2.6240927686212738
 20
0.6426132521611029
 30
0.0
 11
2.3870621413094879
 21
0.6623163132475879
 31
0.0
  0
LINE
  5
234
100
AcDbEntity
100
AcDbLine
  8
color#000000ff
 62
256
370
-1
  6
BYLAYER
 10
2.3870621413094879
 20
0.6623163132475879
 30
0.0
 11
2.3657563492490845
 21
0.666771447702261
 31
0.0
  0
LINE
  5
235
100
AcDbEntity
100
AcDbLine
  8
color#000000ff
 62
256
370
-1
  6
BYLAYER
 10
2.3657563492490845
 20
0.666771447702261
 30
0.0
 11
2.3446004467197223
 21
0.6718453479171423
 31
0.0
  0
LINE
  5
236
100
AcDbEntity
100
AcDbLine
  8
color#000000ff
 62
256
370
-1
  6
BYLAYER
 10
2.3446004467197223
 20
0.6718453479171423
 30
0.0
 11
2.3236093185724278
 21
0.6775294606168923
 31
0.0
  0
LINE
  5
237
100
AcDbEntity
100
AcDbLine
  8
color#000000ff
 62
256
370
-1
  6
BYLAYER
 10
2.3236093185724278
 20
0.6775294606168923
 30
0.0
 11
2.3027978496582202
 21
0.6838152325261753
 31
0.0
  0
LINE
  5
238
100
AcDbEntity
100
AcDbLine
  8
color#000000ff
 62
256
370
-1
  6
BYLAYER
 10
2.3027978496582202
 20
0.6838152325261753
 30
0.0
 11
2.2617734289331635
 21
0.6981575408719836
 31
0.0
  0
LINE
  5
239
100
AcDbEntity
100
AcDbLine
  8
color#000000ff
 62
256
370
-1
  6
BYLAYER
 10
2.2617734289331635
 20
0.6981575408719836
 30
0.0
 11
2.2216462633527336
 21
0.7148038467518695
 31
0.0
  0
LINE
  5
23A
100
AcDbEntity
100
AcDbLine
  8
color#000000ff
 62
256
370
-1
  6
BYLAYER
 10
2.2216462633527336
 20
0.7148038467518695
 30
0.0
 11
2.1825354317251122
 21
0.7336857239631311
 31
0.0
  0
LINE
  5
23B
100
AcDbEntity
100
AcDbLine
  8
color#000000ff
 62
256
370
-1
  6
BYLAYER
 10
2.1825354317251122
 20
0.7336857239631311
 30
0.0
 11
2.144560012858483
 21
0.7547347463030667
 31
0.0
  0
LINE
  5
23C
100
AcDbEntity
100
AcDbLine
  8
color#000000ff
 62
256
370
-1
  6
BYLAYER
 10
2.144560012858483
 20
0.7547347463030667
 30
0.0
 11
2.1078390855610252
 21
0.777882487568976
 31
0.0
  0
LINE
  5
23D
100
AcDbEntity
100
AcDbLine
  8
color#000000ff
 62
256
370
-1
  6
BYLAYER
 10
2.1078390855610252
 20
0.777882487568976
 30
0.0
 11
2.0724917286409226
 21
0.8030605215581588
 31
0.0
  0
LINE
  5
23E
100
AcDbEntity
100
AcDbLine
  8
color#000000ff
 62
256
370
-1
  6
BYLAYER
 10
2.0724917286409226
 20
0.8030605215581588
 30
0.0
 11
2.0386370209063576
 21
0.8302004220679145
 31
0.0
  0
LINE
  5
23F
100
AcDbEntity
100
AcDbLine
  8
color#000000ff
 62
256
370
-1
  6
BYLAYER
 10
2.0386370209063576
 20
0.8302004220679145
 30
0.0
 11
2.0223066226112079
 21
0.8444846890796628
 31
0.0
  0
LINE
  5
240
100
AcDbEntity
100
AcDbLine
  8
color#000000ff
 62
256
370
-1
  6
BYLAYER
 10
2.0223066226112079
 20
0.8444846890796628
 30
0.0
 11
2.0063940411655108
 21
0.8592337628955411
 31
0.0
  0
LINE
  5
241
100
AcDbEntity
100
AcDbLine
  8
color#000000ff
 62
256
370
-1
  6
BYLAYER
 10
2.0063940411655108
 20
0.8592337628955411
 30
0.0
 11
1.9909141614202892
 21
0.8744390902402119
 31
0.0
  0
LINE
  5
242
100
AcDbEntity
100
AcDbLine
  8
color#000000ff
 62
256
370
-1
  6
BYLAYER
 10
1.9909141614202892
 20
0.8744390902402119
 30
0.0
 11
1.9758818682265658
 21
0.890092117838338
 31
0.0
  0
LINE
  5
243
100
AcDbEntity
100
AcDbLine
  8
color#000000ff
 62
256
370
-1
  6
BYLAYER
 10
1.9758818682265658
 20
0.890092117838338
 30
0.0
 11
1.9613120464353624
 21
0.9061842924145817
 31
0.0
  0
LINE
  5
244
100
AcDbEntity
100
AcDbLine
  8
color#000000ff
 62
256
370
-1
  6
BYLAYER
 10
1.9613120464353624
 20
0.9061842924145817
 30
0.0
 11
1.9472195808977026
 21
0.9227070606936055
 31
0.0
  0
LINE
  5
245
100
AcDbEntity
100
AcDbLine
  8
color#000000ff
 62
256
370
-1
  6
BYLAYER
 10
1.9472195808977026
 20
0.9227070606936055
 30
0.0
 11
1.9336193564646094
 21
0.9396518694000713
 31
0.0
  0
LINE
  5
246
100
AcDbEntity
100
AcDbLine
  8
color#000000ff
 62
256
370
-1
  6
BYLAYER
 10
1.9336193564646094
 20
0.9396518694000713
 30
0.0
 11
1.920526257987105
 21
0.9570101652586418
 31
0.0
  0
LINE
  5
247
100
AcDbEntity
100
AcDbLine
  8
color#000000ff
 62
256
370
-1
  6
BYLAYER
 10
1.920526257987105
 20
0.9570101652586418
 30
0.0
 11
1.9079551703162121
 21
0.9747733949939794
 31
0.0
  0
LINE
  5
248
100
AcDbEntity
100
AcDbLine
  8
color#000000ff
 62
256
370
-1
  6
BYLAYER
 10
1.9079551703162121
 20
0.9747733949939794
 30
0.0
 11
1.895920978302954
 21
0.9929330053307466
 31
0.0
  0
LINE
  5
249
100
AcDbEntity
100
AcDbLine
  8
color#000000ff
 62
256
370
-1
  6
BYLAYER
 10
1.895920978302954
 20
0.9929330053307466
 30
0.0
 11
1.8844385667983528
 21
1.0114804429936057
 31
0.0
  0
LINE
  5
24A
100
AcDbEntity
100
AcDbLine
  8
color#000000ff
 62
256
370
-1
  6
BYLAYER
 10
1.8844385667983528
 20
1.0114804429936057
 30
0.0
 11
1.598470159992307
 21
1.0983512438637189
 31
0.0
  0
LINE
  5
24B
100
AcDbEntity
100
AcDbLine
  8
color#000000ff
 62
256
370
-1
  6
BYLAYER
 10
1.598470159992307
 20
1.0983512438637189
 30
0.0
 11
1.5474135068580881
 21
0.9709249065973932
 31
0.0
  0
LINE
  5
24C
100
AcDbEntity
100
AcDbLine
  8
color#000000ff
 62
256
370
-1
  6
BYLAYER
 10
1.5474135068580881
 20
0.9709249065973932
 30
0.0
 11
1.6578836201924785
 21
0.8379752748560708
 31
0.0
  0
LINE
  5
24D
100
AcDbEntity
100
AcDbLine
  8
color#000000ff
 62
256
370
-1
  6
BYLAYER
 10
1.6578836201924785
 20
0.8379752748560708
 30
0.0
 11
1.678341089008907
 21
0.6702446661697753
 31
0.0
  0
LINE
  5
24E
100
AcDbEntity
100
AcDbLine
  8
color#000000ff
 62
256
370
-1
  6
BYLAYER
 10
1.678341089008907
 20
0.6702446661697753
 30
0.0
 11
1.8352219311559634
 21
0.6668266946852136
 31
0.0
  0
LINE
  5
24F
100
AcDbEntity
100
AcDbLine
  8
color#000000ff
 62
256
370
-1
  6
BYLAYER
 10
1.8352219311559634
 20
0.6668266946852136
 30
0.0
 11
1.8354362508043418
 21
0.4724778702268119
 31
0.0
  0
LINE
  5
250
100
AcDbEntity
100
AcDbLine
  8
color#000000ff
 62
256
370
-1
  6
BYLAYER
 10
1.8354362508043418
 20
0.4724778702268119
 30
0.0
 11
1.5444982436889134
 21
0.4682276618078518
 31
0.0
  0
LINE
  5
251
100
AcDbEntity
100
AcDbLine
  8
color#000000ff
 62
256
370
-1
  6
BYLAYER
 10
1.5444982436889134
 20
0.4682276618078518
 30
0.0
 11
1.4667929738126564
 21
0.4259660911939736
 31
0.0
  0
LINE
  5
252
100
AcDbEntity
100
AcDbLine
  8
color#000000ff
 62
256
370
-1
  6
BYLAYER
 10
1.4667929738126564
 20
0.4259660911939736
 30
0.0
 11
1.3848171113163963
 21
0.3924345499332023
 31
0.0
  0
LINE
  5
253
100
AcDbEntity
100
AcDbLine
  8
color#000000ff
 62
256
370
-1
  6
BYLAYER
 10
1.3848171113163963
 20
0.3924345499332023
 30
0.0
 11
1.3139863571323385
 21
0.3719050526521039
 31
0.0
  0
LINE
  5
254
100
AcDbEntity
100
AcDbLine
  8
color#000000ff
 62
256
370
-1
  6
BYLAYER
 10
1.3139863571323385
 20
0.3719050526521039
 30
0.0
 11
1.2561040197018054
 21
0.36076398063937
 31
0.0
  0
LINE
  5
255
100
AcDbEntity
100
AcDbLine
  8
color#000000ff
 62
256
370
-1
  6
BYLAYER
 10
1.2561040197018054
 20
0.36076398063937
 30
0.0
 11
1.1974705938902193
 21
0.3546498105919543
 31
0.0
  0
LINE
  5
256
100
AcDbEntity
100
AcDbLine
  8
color#000000ff
 62
256
370
-1
  6
BYLAYER
 10
1.1974705938902193
 20
0.3546498105919543
 30
0.0
 11
1.1383919337731516
 21
0.3538683795550526
 31
0.0
  0
LINE
  5
257
100
AcDbEntity
100
AcDbLine
  8
color#000000ff
 62
256
370
-1
  6
BYLAYER
 10
1.1383919337731516
 20
0.3538683795550526
 30
0.0
 11
1.0544521428836346
 21
0.3652093915698597
 31
0.0
  0
LINE
  5
258
100
AcDbEntity
100
AcDbLine
  8
color#000000ff
 62
256
370
-1
  6
BYLAYER
 10
1.0544521428836346
 20
0.3652093915698597
 30
0.0
 11
0.9878798804302409
 21
0.3797459020006507
 31
0.0
  0
LINE
  5
259
100
AcDbEntity
100
AcDbLine
  8
color#000000ff
 62
256
370
-1
  6
BYLAYER
 10
0.9878798804302409
 20
0.3797459020006507
 30
0.0
 11
0.9388435012624942
 21
0.3941146845840061
 31
0.0
  0
LINE
  5
25A
100
AcDbEntity
100
AcDbLine
  8
color#000000ff
 62
256
370
-1
  6
BYLAYER
 10
0.9388435012624942
 20
0.3941146845840061
 30
0.0
 11
0.8909686336864832
 21
0.4116541247827381
 31
0.0
  0
LINE
  5
25B
100
AcDbEntity
100
AcDbLine
  8
color#000000ff
 62
256
370
-1
  6
BYLAYER
 10
0.8909686336864832
 20
0.4116541247827381
 30
0.0
 11
0.8446118930732818
 21
0.4325437346356248
 31
0.0
  0
LINE
  5
25C
100
AcDbEntity
100
AcDbLine
  8
color#000000ff
 62
256
370
-1
  6
BYLAYER
 10
0.8446118930732818
 20
0.4325437346356248
 30
0.0
 11
0.8147269095554613
 21
0.4484199944880203
 31
0.0
  0
LINE
  5
25D
100
AcDbEntity
100
AcDbLine
  8
color#000000ff
 62
256
370
-1
  6
BYLAYER
 10
0.8147269095554613
 20
0.4484199944880203
 30
0.0
 11
0.7857808086663524
 21
0.4659181905117286
 31
0.0
  0
LINE
  5
25E
100
AcDbEntity
100
AcDbLine
  8
color#000000ff
 62
256
370
-1
  6
BYLAYER
 10
0.7857808086663524
 20
0.4659181905117286
 30
0.0
 11
0.7578792542196059
 21
0.4850915114589801
 31
0.0
  0
LINE
  5
25F
100
AcDbEntity
100
AcDbLine
  8
color#000000ff
 62
256
370
-1
  6
BYLAYER
 10
0.7578792542196059
 20
0.4850915114589801
 30
0.0
 11
0.731127910028874
 21
0.5059931460820053
 31
0.0
  0
LINE
  5
260
100
AcDbEntity
100
AcDbLine
  8
color#000000ff
 62
256
370
-1
  6
BYLAYER
 10
0.731127910028874
 20
0.5059931460820053
 30
0.0
 11
0.705632439907808
 21
0.5286762831330371
 31
0.0
  0
LINE
  5
261
100
AcDbEntity
100
AcDbLine
  8
color#000000ff
 62
256
370
-1
  6
BYLAYER
 10
0.705632439907808
 20
0.5286762831330371
 30
0.0
 11
0.6933886775651658
 21
0.5407025365541264
 31
0.0
  0
LINE
  5
262
100
AcDbEntity
100
AcDbLine
  8
color#000000ff
 62
256
370
-1
  6
BYLAYER
 10
0.6933886775651658
 20
0.5407025365541264
 30
0.0
 11
0.6697841370816339
 21
0.5659919026568782
 31
0.0
  0
LINE
  5
263
100
AcDbEntity
100
AcDbLine
  8
color#000000ff
 62
256
370
-1
  6
BYLAYER
 10
0.6697841370816339
 20
0.5659919026568782
 30
0.0
 11
0.6480457877950202
 21
0.5928693057049664
 31
0.0
  0
LINE
  5
264
100
AcDbEntity
100
AcDbLine
  8
color#000000ff
 62
256
370
-1
  6
BYLAYER
 10
0.6480457877950202
 20
0.5928693057049664
 30
0.0
 11
0.6282248244257219
 21
0.6211852804297583
 31
0.0
  0
LINE
  5
265
100
AcDbEntity
100
AcDbLine
  8
color#000000ff
 62
256
370
-1
  6
BYLAYER
 10
0.6282248244257219
 20
0.6211852804297583
 30
0.0
 11
0.6103724416941352
 21
0.6507903615626288
 31
0.0
  0
LINE
  5
266
100
AcDbEntity
100
AcDbLine
  8
color#000000ff
 62
256
370
-1
  6
BYLAYER
 10
0.6103724416941352
 20
0.6507903615626288
 30
0.0
 11
0.5945398343206567
 21
0.6815350838349453
 31
0.0
  0
LINE
  5
267
100
AcDbEntity
100
AcDbLine
  8
color#000000ff
 62
256
370
-1
  6
BYLAYER
 10
0.5945398343206567
 20
0.6815350838349453
 30
0.0
 11
0.580778197025684
 21
0.7132699819780792
 31
0.0
  0
LINE
  5
268
100
AcDbEntity
100
AcDbLine
  8
color#000000ff
 62
256
370
-1
  6
BYLAYER
 10
0.580778197025684
 20
0.7132699819780792
 30
0.0
 11
0.5691387245296128
 21
0.7458455907234023
 31
0.0
  0
LINE
  5
269
100
AcDbEntity
100
AcDbLine
  8
color#000000ff
 62
256
370
-1
  6
BYLAYER
 10
0.5691387245296128
 20
0.7458455907234023
 30
0.0
 11
0.5596726115528402
 21
0.7791124448022834
 31
0.0
  0
LINE
  5
26A
100
AcDbEntity
100
AcDbLine
  8
color#000000ff
 62
256
370
-1
  6
BYLAYER
 10
0.5596726115528402
 20
0.7791124448022834
 30
0.0
 11
0.5524310528157629
 21
0.8129210789460947
 31
0.0
  0
LINE
  5
26B
100
AcDbEntity
100
AcDbLine
  8
color#000000ff
 62
256
370
-1
  6
BYLAYER
 10
0.5524310528157629
 20
0.8129210789460947
 30
0.0
 11
0.5474652430387778
 21
0.8471220278862037
 31
0.0
  0
LINE
  5
26C
100
AcDbEntity
100
AcDbLine
  8
color#000000ff
 62
256
370
-1
  6
BYLAYER
 10
0.5474652430387778
 20
0.8471220278862037
 30
0.0
 11
0.5448263769422811
 21
0.8815658263539837
 31
0.0
  0
LINE
  5
26D
100
AcDbEntity
100
AcDbLine
  8
color#000000ff
 62
256
370
-1
  6
BYLAYER
 10
0.5448263769422811
 20
0.8815658263539837
 30
0.0
 11
0.5445656492466701
 21
0.9161030090808044
 31
0.0
  0
LINE
  5
26E
100
AcDbEntity
100
AcDbLine
  8
color#000000ff
 62
256
370
-1
  6
BYLAYER
 10
0.5445656492466701
 20
0.9161030090808044
 30
0.0
 11
0.5467342546723411
 21
0.9505841107980363
 31
0.0
  0
LINE
  5
26F
100
AcDbEntity
100
AcDbLine
  8
color#000000ff
 62
256
370
-1
  6
BYLAYER
 10
0.5467342546723411
 20
0.9505841107980363
 30
0.0
 11
0.5487455556557812
 21
0.9677569233816096
 31
0.0
  0
LINE
  5
270
100
AcDbEntity
100
AcDbLine
  8
color#000000ff
 62
256
370
-1
  6
BYLAYER
 10
0.5487455556557812
 20
0.9677569233816096
 30
0.0
 11
0.5513833879396908
 21
0.9848596662370489
 31
0.0
  0
LINE
  5
271
100
AcDbEntity
100
AcDbLine
  8
color#000000ff
 62
256
370
-1
  6
BYLAYER
 10
0.5513833879396908
 20
0.9848596662370489
 30
0.0
 11
0.5546541508641192
 21
1.0018736562057775
 31
0.0
  0
LINE
  5
272
100
AcDbEntity
100
AcDbLine
  8
color#000000ff
 62
256
370
-1
  6
BYLAYER
 10
0.5546541508641192
 20
1.0018736562057775
 30
0.0
 11
0.5613164081238531
 21
1.0271572099768456
 31
0.0
  0
LINE
  5
273
100
AcDbEntity
100
AcDbLine
  8
color#000000ff
 62
256
370
-1
  6
BYLAYER
 10
0.5613164081238531
 20
1.0271572099768456
 30
0.0
 11
0.5743504052560122
 21
1.0638241920566214
 31
0.0
  0
LINE
  5
274
100
AcDbEntity
100
AcDbLine
  8
color#000000ff
 62
256
370
-1
  6
BYLAYER
 10
0.5743504052560122
 20
1.0638241920566214
 30
0.0
 11
0.5907785272499798
 21
1.0989073353591958
 31
0.0
  0
LINE
  5
275
100
AcDbEntity
100
AcDbLine
  8
color#000000ff
 62
256
370
-1
  6
BYLAYER
 10
0.5907785272499798
 20
1.0989073353591958
 30
0.0
 11
0.6103143393978366
 21
1.1323235918389321
 31
0.0
  0
LINE
  5
276
100
AcDbEntity
100
AcDbLine
  8
color#000000ff
 62
256
370
-1
  6
BYLAYER
 10
0.6103143393978366
 20
1.1323235918389321
 30
0.0
 11
0.6407012012774659
 21
1.1741421255888678
 31
0.0
  0
LINE
  5
277
100
AcDbEntity
100
AcDbLine
  8
color#000000ff
 62
256
370
-1
  6
BYLAYER
 10
0.6407012012774659
 20
1.1741421255888678
 30
0.0
 11
0.6754246720496792
 21
1.2126528093903757
 31
0.0
  0
LINE
  5
278
100
AcDbEntity
100
AcDbLine
  8
color#000000ff
 62
256
370
-1
  6
BYLAYER
 10
0.6754246720496792
 20
1.2126528093903757
 30
0.0
 11
0.7238930192137677
 21
1.2558396044319295
 31
0.0
  0
LINE
  5
279
100
AcDbEntity
100
AcDbLine
  8
color#000000ff
 62
256
370
-1
  6
BYLAYER
 10
0.7238930192137677
 20
1.2558396044319295
 30
0.0
 11
0.7767503618731939
 21
1.2931658168820925
 31
0.0
  0
LINE
  5
27A
100
AcDbEntity
100
AcDbLine
  8
color#000000ff
 62
256
370
-1
  6
BYLAYER
 10
0.7767503618731939
 20
1.2931658168820925
 30
0.0
 11
0.8117704513620317
 21
1.3140423181150105
 31
0.0
  0
LINE
  5
27B
100
AcDbEntity
100
AcDbLine
  8
color#000000ff
 62
256
370
-1
  6
BYLAYER
 10
0.8117704513620317
 20
1.3140423181150105
 30
0.0
 11
0.8476742706495751
 21
1.3330845258643478
 31
0.0
  0
LINE
  5
27C
100
AcDbEntity
100
AcDbLine
  8
color#000000ff
 62
256
370
-1
  6
BYLAYER
 10
0.8476742706495751
 20
1.3330845258643478
 30
0.0
 11
0.8843850880766283
 21
1.3503482528348423
 31
0.0
  0
LINE
  5
27D
100
AcDbEntity
100
AcDbLine
  8
color#000000ff
 62
256
370
-1
  6
BYLAYER
 10
0.8843850880766283
 20
1.3503482528348423
 30
0.0
 11
0.9218261719839949
 21
1.365889311731235
 31
0.0
  0
LINE
  5
27E
100
AcDbEntity
100
AcDbLine
  8
color#000000ff
 62
256
370
-1
  6
BYLAYER
 10
0.9218261719839949
 20
1.365889311731235
 30
0.0
 11
0.9791891969911417
 21
1.3860929877285011
 31
0.0
  0
LINE
  5
27F
100
AcDbEntity
100
AcDbLine
  8
color#000000ff
 62
256
370
-1
  6
BYLAYER
 10
0.9791891969911417
 20
1.3860929877285011
 30
0.0
 11
1.0377637059960165
 21
1.4027346070231981
 31
0.0
  0
LINE
  5
280
100
AcDbEntity
100
AcDbLine
  8
color#000000ff
 62
256
370
-1
  6
BYLAYER
 10
1.0377637059960165
 20
1.4027346070231981
 30
0.0
 11
1.0972907296488332
 21
1.4160025374938221
 31
0.0
  0
LINE
  5
281
100
AcDbEntity
100
AcDbLine
  8
color#000000ff
 62
256
370
-1
  6
BYLAYER
 10
1.0972907296488332
 20
1.4160025374938221
 30
0.0
 11
1.1776941826262999
 21
1.4287707251726316
 31
0.0
  0
LINE
  5
282
100
AcDbEntity
100
AcDbLine
  8
color#000000ff
 62
256
370
-1
  6
BYLAYER
 10
1.1776941826262999
 20
1.4287707251726316
 30
0.0
 11
1.2789971949970707
 21
1.437447874746216
 31
0.0
  0
LINE
  5
283
100
AcDbEntity
100
AcDbLine
  8
color#000000ff
 62
256
370
-1
  6
BYLAYER
 10
1.2789971949970707
 20
1.437447874746216
 30
0.0
 11
1.3397445837437907
 21
1.4391047287055099
 31
0.0
  0
LINE
  5
284
100
AcDbEntity
100
AcDbLine
  8
color#000000ff
 62
256
370
-1
  6
BYLAYER
 10
1.3397445837437907
 20
1.4391047287055099
 30
0.0
 11
1.3428641924380986
 21
1.5779041551377324
 31
0.0
  0
LINE
  5
285
100
AcDbEntity
100
AcDbLine
  8
color#000000ff
 62
256
370
-1
  6
BYLAYER
 10
1.3428641924380986
 20
1.5779041551377324
 30
0.0
 11
1.4134692544025567
 21
1.7051085462772768
 31
0.0
  0
LINE
  5
286
100
AcDbEntity
100
AcDbLine
  8
color#000000ff
 62
256
370
-1
  6
BYLAYER
 10
1.4134692544025567
 20
1.7051085462772768
 30
0.0
 11
0.5436602293424776
 21
1.7047742342190317
 31
0.0
  0
LINE
  5
287
100
AcDbEntity
100
AcDbLine
  8
color#000000ff
 62
256
370
-1
  6
BYLAYER
 10
0.5436602293424776
 20
1.7047742342190317
 30
0.0
 11
0.5446997951001582
 21
1.7929907414619612
 31
0.0
  0
LINE
  5
288
100
AcDbEntity
100
AcDbLine
  8
color#000000ff
 62
256
370
-1
  6
BYLAYER
 10
1.4526820412205517
 20
1.6861200981723441
 30
0.0
 11
1.4463738850504506
 21
1.6797453292186779
 31
0.0
  0
LINE
  5
289
100
AcDbEntity
100
AcDbLine
  8
color#000000ff
 62
256
370
-1
  6
BYLAYER
 10
1.4463738850504506
 20
1.6797453292186779
 30
0.0
 11
1.4239183384201233
 21
1.6522702788609396
 31
0.0
  0
LINE
  5
28A
100
AcDbEntity
100
AcDbLine
  8
color#000000ff
 62
256
370
-1
  6
BYLAYER
 10
1.4239183384201233
 20
1.6522702788609396
 30
0.0
 11
1.405911797929398
 21
1.6220656107145375
 31
0.0
  0
LINE
  5
28B
100
AcDbEntity
100
AcDbLine
  8
color#000000ff
 62
256
370
-1
  6
BYLAYER
 10
1.405911797929398
 20
1.6220656107145375
 30
0.0
 11
1.389671577258123
 21
1.5813486316480003
 31
0.0
  0
LINE
  5
28C
100
AcDbEntity
100
AcDbLine
  8
color#000000ff
 62
256
370
-1
  6
BYLAYER
 10
1.389671577258123
 20
1.5813486316480003
 30
0.0
 11
1.3804095595837804
 21
1.5383913504753834
 31
0.0
  0
LINE
  5
28D
100
AcDbEntity
100
AcDbLine
  8
color#000000ff
 62
256
370
-1
  6
BYLAYER
 10
1.3804095595837804
 20
1.5383913504753834
 30
0.0
 11
1.3781405398529298
 21
1.4943186148015246
 31
0.0
  0
LINE
  5
28E
100
AcDbEntity
100
AcDbLine
  8
color#000000ff
 62
256
370
-1
  6
BYLAYER
 10
1.3781405398529298
 20
1.4943186148015246
 30
0.0
 11
1.3828793130121284
 21
1.4502552722312623
 31
0.0
  0
LINE
  5
28F
100
AcDbEntity
100
AcDbLine
  8
color#000000ff
 62
256
370
-1
  6
BYLAYER
 10
1.3828793130121284
 20
1.4502552722312623
 30
0.0
 11
1.3855180753677441
 21
1.4434521446077571
 31
0.0
  0
LINE
  5
290
100
AcDbEntity
100
AcDbLine
  8
color#000000ff
 62
256
370
-1
  6
BYLAYER
 10
1.3855180753677441
 20
1.4434521446077571
 30
0.0
 11
1.3983797061822087
 21
1.4341496861154883
 31
0.0
  0
LINE
  5
291
100
AcDbEntity
100
AcDbLine
  8
color#000000ff
 62
256
370
-1
  6
BYLAYER
 10
1.3983797061822087
 20
1.4341496861154883
 30
0.0
 11
1.4268868476323859
 21
1.4381074549239063
 31
0.0
  0
LINE
  5
292
100
AcDbEntity
100
AcDbLine
  8
color#000000ff
 62
256
370
-1
  6
BYLAYER
 10
1.4268868476323859
 20
1.4381074549239063
 30
0.0
 11
1.4366813980298387
 21
1.4509935688369999
 31
0.0
  0
LINE
  5
293
100
AcDbEntity
100
AcDbLine
  8
color#000000ff
 62
256
370
-1
  6
BYLAYER
 10
1.4366813980298387
 20
1.4509935688369999
 30
0.0
 11
1.5288456782232276
 21
1.7062146689904218
 31
0.0
  0
LINE
  5
294
100
AcDbEntity
100
AcDbLine
  8
color#000000ff
 62
256
370
-1
  6
BYLAYER
 10
1.5288456782232276
 20
1.7062146689904218
 30
0.0
 11
1.4526820412205517
 21
1.6861200981723441
 31
0.0
  0
LINE
  5
295
100
AcDbEntity
100
AcDbLine
  8
color#000000ff
 62
256
370
-1
  6
BYLAYER
 10
1.8044464104950393
 20
1.6805185458995109
 30
0.0
 11
1.6974927333146679
 21
1.3894425193644218
 31
0.0
  0
LINE
  5
296
100
AcDbEntity
100
AcDbLine
  8
color#000000ff
 62
256
370
-1
  6
BYLAYER
 10
1.6974927333146679
 20
1.3894425193644218
 30
0.0
 11
1.8083847521905239
 21
1.353510922267612
 31
0.0
  0
LINE
  5
297
100
AcDbEntity
100
AcDbLine
  8
color#000000ff
 62
256
370
-1
  6
BYLAYER
 10
1.8083847521905239
 20
1.353510922267612
 30
0.0
 11
1.8663838510283928
 21
1.4851421917522352
 31
0.0
  0
LINE
  5
298
100
AcDbEntity
100
AcDbLine
  8
color#000000ff
 62
256
370
-1
  6
BYLAYER
 10
1.8663838510283928
 20
1.4851421917522352
 30
0.0
 11
1.8977478641623438
 21
1.5187857880812154
 31
0.0
  0
LINE
  5
299
100
AcDbEntity
100
AcDbLine
  8
color#000000ff
 62
256
370
-1
  6
BYLAYER
 10
1.8977478641623438
 20
1.5187857880812154
 30
0.0
 11
1.9239090123635572
 21
1.5385904494625235
 31
0.0
  0
LINE
  5
29A
100
AcDbEntity
100
AcDbLine
  8
color#000000ff
 62
256
370
-1
  6
BYLAYER
 10
1.9239090123635572
 20
1.5385904494625235
 30
0.0
 11
1.961361325393981
 21
1.5607144057244005
 31
0.0
  0
LINE
  5
29B
100
AcDbEntity
100
AcDbLine
  8
color#000000ff
 62
256
370
-1
  6
BYLAYER
 10
1.961361325393981
 20
1.5607144057244005
 30
0.0
 11
2.0012142719058357
 21
1.578121624868664
 31
0.0
  0
LINE
  5
29C
100
AcDbEntity
100
AcDbLine
  8
color#000000ff
 62
256
370
-1
  6
BYLAYER
 10
2.0012142719058357
 20
1.578121624868664
 30
0.0
 11
2.0535132184031255
 21
1.5935423529810604
 31
0.0
  0
LINE
  5
29D
100
AcDbEntity
100
AcDbLine
  8
color#000000ff
 62
256
370
-1
  6
BYLAYER
 10
2.0535132184031255
 20
1.5935423529810604
 30
0.0
 11
2.1184018939600051
 21
1.6032496400225864
 31
0.0
  0
LINE
  5
29E
100
AcDbEntity
100
AcDbLine
  8
color#000000ff
 62
256
370
-1
  6
BYLAYER
 10
2.1184018939600051
 20
1.6032496400225864
 30
0.0
 11
2.1945413269679674
 21
1.6032697264527189
 31
0.0
  0
LINE
  5
29F
100
AcDbEntity
100
AcDbLine
  8
color#000000ff
 62
256
370
-1
  6
BYLAYER
 10
2.1945413269679674
 20
1.6032697264527189
 30
0.0
 11
2.2077162965182322
 21
1.6017719376731634
 31
0.0
  0
LINE
  5
2A0
100
AcDbEntity
100
AcDbLine
  8
color#000000ff
 62
256
370
-1
  6
BYLAYER
 10
2.2077162965182322
 20
1.6017719376731634
 30
0.0
 11
2.2208200806055953
 21
1.5995742355492453
 31
0.0
  0
LINE
  5
2A1
100
AcDbEntity
100
AcDbLine
  8
color#000000ff
 62
256
370
-1
  6
BYLAYER
 10
2.2208200806055953
 20
1.5995742355492453
 30
0.0
 11
2.2338223153510941
 21
1.5966961415054295
 31
0.0
  0
LINE
  5
2A2
100
AcDbEntity
100
AcDbLine
  8
color#000000ff
 62
256
370
-1
  6
BYLAYER
 10
2.2338223153510941
 20
1.5966961415054295
 30
0.0
 11
2.2466926368757636
 21
1.5931571769661821
 31
0.0
  0
LINE
  5
2A3
100
AcDbEntity
100
AcDbLine
  8
color#000000ff
 62
256
370
-1
  6
BYLAYER
 10
2.2466926368757636
 20
1.5931571769661821
 30
0.0
 11
2.2594006813006411
 21
1.5889768633559669
 31
0.0
  0
LINE
  5
2A4
100
AcDbEntity
100
AcDbLine
  8
color#000000ff
 62
256
370
-1
  6
BYLAYER
 10
2.2594006813006411
 20
1.5889768633559669
 30
0.0
 11
2.2719160847467612
 21
1.5841747220992497
 31
0.0
  0
LINE
  5
2A5
100
AcDbEntity
100
AcDbLine
  8
color#000000ff
 62
256
370
-1
  6
BYLAYER
 10
2.2719160847467612
 20
1.5841747220992497
 30
0.0
 11
2.2842084833351608
 21
1.5787702746204952
 31
0.0
  0
LINE
  5
2A6
100
AcDbEntity
100
AcDbLine
  8
color#000000ff
 62
256
370
-1
  6
BYLAYER
 10
2.2842084833351608
 20
1.5787702746204952
 30
0.0
 11
2.2962475131868754
 21
1.5727830423441695
 31
0.0
  0
LINE
  5
2A7
100
AcDbEntity
100
AcDbLine
  8
color#000000ff
 62
256
370
-1
  6
BYLAYER
 10
2.2962475131868754
 20
1.5727830423441695
 30
0.0
 11
2.3080028104229418
 21
1.5662325466947358
 31
0.0
  0
LINE
  5
2A8
100
AcDbEntity
100
AcDbLine
  8
color#000000ff
 62
256
370
-1
  6
BYLAYER
 10
2.3080028104229418
 20
1.5662325466947358
 30
0.0
 11
2.319444011164395
 21
1.5591383090966611
 31
0.0
  0
LINE
  5
2A9
100
AcDbEntity
100
AcDbLine
  8
color#000000ff
 62
256
370
-1
  6
BYLAYER
 10
2.319444011164395
 20
1.5591383090966611
 30
0.0
 11
2.3305407515322716
 21
1.5515198509744088
 31
0.0
  0
LINE
  5
2AA
100
AcDbEntity
100
AcDbLine
  8
color#000000ff
 62
256
370
-1
  6
BYLAYER
 10
2.3305407515322716
 20
1.5515198509744088
 30
0.0
 11
2.3412626676476083
 21
1.5433966937524453
 31
0.0
  0
LINE
  5
2AB
100
AcDbEntity
100
AcDbLine
  8
color#000000ff
 62
256
370
-1
  6
BYLAYER
 10
2.3412626676476083
 20
1.5433966937524453
 30
0.0
 11
2.3515793956314406
 21
1.5347883588552347
 31
0.0
  0
LINE
  5
2AC
100
AcDbEntity
100
AcDbLine
  8
color#000000ff
 62
256
370
-1
  6
BYLAYER
 10
2.3515793956314406
 20
1.5347883588552347
 30
0.0
 11
2.3614605716048036
 21
1.5257143677072436
 31
0.0
  0
LINE
  5
2AD
100
AcDbEntity
100
AcDbLine
  8
color#000000ff
 62
256
370
-1
  6
BYLAYER
 10
2.3614605716048036
 20
1.5257143677072436
 30
0.0
 11
2.3708758316887342
 21
1.5161942417329348
 31
0.0
  0
LINE
  5
2AE
100
AcDbEntity
100
AcDbLine
  8
color#000000ff
 62
256
370
-1
  6
BYLAYER
 10
2.3708758316887342
 20
1.5161942417329348
 30
0.0
 11
2.3797948120042678
 21
1.506247502356775
 31
0.0
  0
LINE
  5
2AF
100
AcDbEntity
100
AcDbLine
  8
color#000000ff
 62
256
370
-1
  6
BYLAYER
 10
2.3797948120042678
 20
1.506247502356775
 30
0.0
 11
2.3881871486724422
 21
1.4958936710032285
 31
0.0
  0
LINE
  5
2B0
100
AcDbEntity
100
AcDbLine
  8
color#000000ff
 62
256
370
-1
  6
BYLAYER
 10
2.3881871486724422
 20
1.4958936710032285
 30
0.0
 11
2.3960224778142907
 21
1.485152269096762
 31
0.0
  0
LINE
  5
2B1
100
AcDbEntity
100
AcDbLine
  8
color#000000ff
 62
256
370
-1
  6
BYLAYER
 10
2.3960224778142907
 20
1.485152269096762
 30
0.0
 11
2.403270435550851
 21
1.4740428180618383
 31
0.0
  0
LINE
  5
2B2
100
AcDbEntity
100
AcDbLine
  8
color#000000ff
 62
256
370
-1
  6
BYLAYER
 10
2.403270435550851
 20
1.4740428180618383
 30
0.0
 11
2.4099006580031599
 21
1.4625848393229226
 31
0.0
  0
LINE
  5
2B3
100
AcDbEntity
100
AcDbLine
  8
color#000000ff
 62
256
370
-1
  6
BYLAYER
 10
2.4099006580031599
 20
1.4625848393229226
 30
0.0
 11
2.4158827812922512
 21
1.4507978543044833
 31
0.0
  0
LINE
  5
2B4
100
AcDbEntity
100
AcDbLine
  8
color#000000ff
 62
256
370
-1
  6
BYLAYER
 10
2.4158827812922512
 20
1.4507978543044833
 30
0.0
 11
2.4211864415391617
 21
1.4387013844309824
 31
0.0
  0
LINE
  5
2B5
100
AcDbEntity
100
AcDbLine
  8
color#000000ff
 62
256
370
-1
  6
BYLAYER
 10
2.4211864415391617
 20
1.4387013844309824
 30
0.0
 11
2.4257812748649301
 21
1.426314951126884
 31
0.0
  0
LINE
  5
2B6
100
AcDbEntity
100
AcDbLine
  8
color#000000ff
 62
256
370
-1
  6
BYLAYER
 10
2.4257812748649301
 20
1.426314951126884
 30
0.0
 11
2.4296369173905883
 21
1.4136580758166564
 31
0.0
  0
LINE
  5
2B7
100
AcDbEntity
100
AcDbLine
  8
color#000000ff
 62
256
370
-1
  6
BYLAYER
 10
2.4296369173905883
 20
1.4136580758166564
 30
0.0
 11
2.4327230052371749
 21
1.4007502799247631
 31
0.0
  0
LINE
  5
2B8
100
AcDbEntity
100
AcDbLine
  8
color#000000ff
 62
256
370
-1
  6
BYLAYER
 10
2.4327230052371749
 20
1.4007502799247631
 30
0.0
 11
2.4350091745257254
 21
1.3876110848756678
 31
0.0
  0
LINE
  5
2B9
100
AcDbEntity
100
AcDbLine
  8
color#000000ff
 62
256
370
-1
  6
BYLAYER
 10
2.4350091745257254
 20
1.3876110848756678
 30
0.0
 11
2.4364650613772754
 21
1.3742600120938384
 31
0.0
  0
LINE
  5
2BA
100
AcDbEntity
100
AcDbLine
  8
color#000000ff
 62
256
370
-1
  6
BYLAYER
 10
2.4364650613772754
 20
1.3742600120938384
 30
0.0
 11
2.4370603019128616
 21
1.3607165830037375
 31
0.0
  0
LINE
  5
2BB
100
AcDbEntity
100
AcDbLine
  8
color#000000ff
 62
256
370
-1
  6
BYLAYER
 10
2.4370603019128616
 20
1.3607165830037375
 30
0.0
 11
2.4367645322535183
 21
1.3470003190298321
 31
0.0
  0
LINE
  5
2BC
100
AcDbEntity
100
AcDbLine
  8
color#000000ff
 62
256
370
-1
  6
BYLAYER
 10
2.4367645322535183
 20
1.3470003190298321
 30
0.0
 11
2.4356897803481892
 21
1.3299981691499516
 31
0.0
  0
LINE
  5
2BD
100
AcDbEntity
100
AcDbLine
  8
color#000000ff
 62
256
370
-1
  6
BYLAYER
 10
2.4356897803481892
 20
1.3299981691499516
 30
0.0
 11
2.4296309704021262
 21
1.297173752417266
 31
0.0
  0
LINE
  5
2BE
100
AcDbEntity
100
AcDbLine
  8
color#000000ff
 62
256
370
-1
  6
BYLAYER
 10
2.4296309704021262
 20
1.297173752417266
 30
0.0
 11
2.4122134088046314
 21
1.250758716005367
 31
0.0
  0
LINE
  5
2BF
100
AcDbEntity
100
AcDbLine
  8
color#000000ff
 62
256
370
-1
  6
BYLAYER
 10
2.4122134088046314
 20
1.250758716005367
 30
0.0
 11
2.3297555324447168
 21
1.1357582560299204
 31
0.0
  0
LINE
  5
2C0
100
AcDbEntity
100
AcDbLine
  8
color#000000ff
 62
256
370
-1
  6
BYLAYER
 10
2.3297555324447168
 20
1.1357582560299204
 30
0.0
 11
2.4926423114515881
 21
1.0550541058330667
 31
0.0
  0
LINE
  5
2C1
100
AcDbEntity
100
AcDbLine
  8
color#000000ff
 62
256
370
-1
  6
BYLAYER
 10
2.4926423114515881
 20
1.0550541058330667
 30
0.0
 11
2.5026953491896822
 21
1.0891889639332719
 31
0.0
  0
LINE
  5
2C2
100
AcDbEntity
100
AcDbLine
  8
color#000000ff
 62
256
370
-1
  6
BYLAYER
 10
2.5026953491896822
 20
1.0891889639332719
 30
0.0
 11
2.5207951544691714
 21
1.1330084175010187
 31
0.0
  0
LINE
  5
2C3
100
AcDbEntity
100
AcDbLine
  8
color#000000ff
 62
256
370
-1
  6
BYLAYER
 10
2.5207951544691714
 20
1.1330084175010187
 30
0.0
 11
2.5439936662056195
 21
1.1742732540247307
 31
0.0
  0
LINE
  5
2C4
100
AcDbEntity
100
AcDbLine
  8
color#000000ff
 62
256
370
-1
  6
BYLAYER
 10
2.5439936662056195
 20
1.1742732540247307
 30
0.0
 11
2.5645627860111913
 21
1.2031392144716158
 31
0.0
  0
LINE
  5
2C5
100
AcDbEntity
100
AcDbLine
  8
color#000000ff
 62
256
370
-1
  6
BYLAYER
 10
2.5645627860111913
 20
1.2031392144716158
 30
0.0
 11
2.5877122716565664
 21
1.2299035127227269
 31
0.0
  0
LINE
  5
2C6
100
AcDbEntity
100
AcDbLine
  8
color#000000ff
 62
256
370
-1
  6
BYLAYER
 10
2.5877122716565664
 20
1.2299035127227269
 30
0.0
 11
2.6133188417664996
 21
1.2542812815887081
 31
0.0
  0
LINE
  5
2C7
100
AcDbEntity
100
AcDbLine
  8
color#000000ff
 62
256
370
-1
  6
BYLAYER
 10
2.6133188417664996
 20
1.2542812815887081
 30
0.0
 11
2.6412592149657481
 21
1.2759876538801989
 31
0.0
  0
LINE
  5
2C8
100
AcDbEntity
100
AcDbLine
  8
color#000000ff
 62
256
370
-1
  6
BYLAYER
 10
2.6412592149657481
 20
1.2759876538801989
 30
0.0
 11
2.6714101098790679
 21
1.294737762407842
 31
0.0
  0
LINE
  5
2C9
100
AcDbEntity
100
AcDbLine
  8
color#000000ff
 62
256
370
-1
  6
BYLAYER
 10
2.6714101098790679
 20
1.294737762407842
 30
0.0
 11
2.7036482451312147
 21
1.3102467399822781
 31
0.0
  0
LINE
  5
2CA
100
AcDbEntity
100
AcDbLine
  8
color#000000ff
 62
256
370
-1
  6
BYLAYER
 10
2.7036482451312147
 20
1.3102467399822781
 30
0.0
 11
2.717057801937627
 21
1.3160528969962033
 31
0.0
  0
LINE
  5
2CB
100
AcDbEntity
100
AcDbLine
  8
color#000000ff
 62
256
370
-1
  6
BYLAYER
 10
2.717057801937627
 20
1.3160528969962033
 30
0.0
 11
2.7443421502237393
 21
1.3259938102020985
 31
0.0
  0
LINE
  5
2CC
100
AcDbEntity
100
AcDbLine
  8
color#000000ff
 62
256
370
-1
  6
BYLAYER
 10
2.7443421502237393
 20
1.3259938102020985
 30
0.0
 11
2.7721491679758565
 21
1.3337481085327589
 31
0.0
  0
LINE
  5
2CD
100
AcDbEntity
100
AcDbLine
  8
color#000000ff
 62
256
370
-1
  6
BYLAYER
 10
2.7721491679758565
 20
1.3337481085327589
 30
0.0
 11
2.8003616830759275
 21
1.3393660954530329
 31
0.0
  0
LINE
  5
2CE
100
AcDbEntity
100
AcDbLine
  8
color#000000ff
 62
256
370
-1
  6
BYLAYER
 10
2.8003616830759275
 20
1.3393660954530329
 30
0.0
 11
2.8288625234058995
 21
1.3428980744277685
 31
0.0
  0
LINE
  5
2CF
100
AcDbEntity
100
AcDbLine
  8
color#000000ff
 62
256
370
-1
  6
BYLAYER
 10
2.8288625234058995
 20
1.3428980744277685
 30
0.0
 11
2.8575345168477222
 21
1.3443943489218131
 31
0.0
  0
LINE
  5
2D0
100
AcDbEntity
100
AcDbLine
  8
color#000000ff
 62
256
370
-1
  6
BYLAYER
 10
2.8575345168477222
 20
1.3443943489218131
 30
0.0
 11
2.8862604912833421
 21
1.3439052224000148
 31
0.0
  0
LINE
  5
2D1
100
AcDbEntity
100
AcDbLine
  8
color#000000ff
 62
256
370
-1
  6
BYLAYER
 10
2.8862604912833421
 20
1.3439052224000148
 30
0.0
 11
2.9149232745947087
 21
1.3414809983272222
 31
0.0
  0
LINE
  5
2D2
100
AcDbEntity
100
AcDbLine
  8
color#000000ff
 62
256
370
-1
  6
BYLAYER
 10
2.9149232745947087
 20
1.3414809983272222
 30
0.0
 11
2.9434056946637699
 21
1.3371719801682822
 31
0.0
  0
LINE
  5
2D3
100
AcDbEntity
100
AcDbLine
  8
color#000000ff
 62
256
370
-1
  6
BYLAYER
 10
2.9434056946637699
 20
1.3371719801682822
 30
0.0
 11
2.9715905793724717
 21
1.3310284713880445
 31
0.0
  0
LINE
  5
2D4
100
AcDbEntity
100
AcDbLine
  8
color#000000ff
 62
256
370
-1
  6
BYLAYER
 10
2.9715905793724717
 20
1.3310284713880445
 30
0.0
 11
2.9993607566027656
 21
1.3231007754513557
 31
0.0
  0
LINE
  5
2D5
100
AcDbEntity
100
AcDbLine
  8
color#000000ff
 62
256
370
-1
  6
BYLAYER
 10
2.9993607566027656
 20
1.3231007754513557
 30
0.0
 11
3.026599054236597
 21
1.3134391958230631
 31
0.0
  0
LINE
  5
2D6
100
AcDbEntity
100
AcDbLine
  8
color#000000ff
 62
256
370
-1
  6
BYLAYER
 10
3.026599054236597
 20
1.3134391958230631
 30
0.0
 11
3.0531883001559139
 21
1.3020940359680173
 31
0.0
  0
LINE
  5
2D7
100
AcDbEntity
100
AcDbLine
  8
color#000000ff
 62
256
370
-1
  6
BYLAYER
 10
3.0531883001559139
 20
1.3020940359680173
 30
0.0
 11
3.0790113222426672
 21
1.2891155993510637
 31
0.0
  0
LINE
  5
2D8
100
AcDbEntity
100
AcDbLine
  8
color#000000ff
 62
256
370
-1
  6
BYLAYER
 10
3.0790113222426672
 20
1.2891155993510637
 30
0.0
 11
3.1039509483788033
 21
1.2745541894370511
 31
0.0
  0
LINE
  5
2D9
100
AcDbEntity
100
AcDbLine
  8
color#000000ff
 62
256
370
-1
  6
BYLAYER
 10
3.1039509483788033
 20
1.2745541894370511
 30
0.0
 11
2.9694245340413166
 21
1.6789815596497633
 31
0.0
  0
LINE
  5
2DA
100
AcDbEntity
100
AcDbLine
  8
color#000000ff
 62
256
370
-1
  6
BYLAYER
 10
2.9694245340413166
 20
1.6789815596497633
 30
0.0
 11
1.8044464104950393
 21
1.6805185458995109
 31
0.0
  0
LINE
  5
2DB
100
AcDbEntity
100
AcDbLine
  8
color#000000ff
 62
256
370
-1
  6
BYLAYER
 10
2.0110953827504838
 20
1.5160775861600091
 30
0.0
 11
1.9979232194331507
 21
1.5072312205208713
 31
0.0
  0
LINE
  5
2DC
100
AcDbEntity
100
AcDbLine
  8
color#000000ff
 62
256
370
-1
  6
BYLAYER
 10
1.9979232194331507
 20
1.5072312205208713
 30
0.0
 11
1.9743731765057266
 21
1.4867316049967725
 31
0.0
  0
LINE
  5
2DD
100
AcDbEntity
100
AcDbLine
  8
color#000000ff
 62
256
370
-1
  6
BYLAYER
 10
1.9743731765057266
 20
1.4867316049967725
 30
0.0
 11
1.9499771034114757
 21
1.4566330781958337
 31
0.0
  0
LINE
  5
2DE
100
AcDbEntity
100
AcDbLine
  8
color#000000ff
 62
256
370
-1
  6
BYLAYER
 10
1.9499771034114757
 20
1.4566330781958337
 30
0.0
 11
1.9246963040678688
 21
1.4082856447669729
 31
0.0
  0
LINE
  5
2DF
100
AcDbEntity
100
AcDbLine
  8
color#000000ff
 62
256
370
-1
  6
BYLAYER
 10
1.9246963040678688
 20
1.4082856447669729
 30
0.0
 11
1.9040661465344655
 21
1.324932322795638
 31
0.0
  0
LINE
  5
2E0
100
AcDbEntity
100
AcDbLine
  8
color#000000ff
 62
256
370
-1
  6
BYLAYER
 10
1.9040661465344655
 20
1.324932322795638
 30
0.0
 11
2.2912405081619922
 21
1.1524730837641002
 31
0.0
  0
LINE
  5
2E1
100
AcDbEntity
100
AcDbLine
  8
color#000000ff
 62
256
370
-1
  6
BYLAYER
 10
2.2912405081619922
 20
1.1524730837641002
 30
0.0
 11
2.3070978401884163
 21
1.1693907920406574
 31
0.0
  0
LINE
  5
2E2
100
AcDbEntity
100
AcDbLine
  8
color#000000ff
 62
256
370
-1
  6
BYLAYER
 10
2.3070978401884163
 20
1.1693907920406574
 30
0.0
 11
2.3218528862245389
 21
1.1876997272965302
 31
0.0
  0
LINE
  5
2E3
100
AcDbEntity
100
AcDbLine
  8
color#000000ff
 62
256
370
-1
  6
BYLAYER
 10
2.3218528862245389
 20
1.1876997272965302
 30
0.0
 11
2.3415935301479234
 21
1.2173970710773068
 31
0.0
  0
LINE
  5
2E4
100
AcDbEntity
100
AcDbLine
  8
color#000000ff
 62
256
370
-1
  6
BYLAYER
 10
2.3415935301479234
 20
1.2173970710773068
 30
0.0
 11
2.3529425834103233
 21
1.2384348544029717
 31
0.0
  0
LINE
  5
2E5
100
AcDbEntity
100
AcDbLine
  8
color#000000ff
 62
256
370
-1
  6
BYLAYER
 10
2.3529425834103233
 20
1.2384348544029717
 30
0.0
 11
2.362669128444046
 21
1.2602644892051549
 31
0.0
  0
LINE
  5
2E6
100
AcDbEntity
100
AcDbLine
  8
color#000000ff
 62
256
370
-1
  6
BYLAYER
 10
2.362669128444046
 20
1.2602644892051549
 30
0.0
 11
2.3706245303238416
 21
1.2827147253401998
 31
0.0
  0
LINE
  5
2E7
100
AcDbEntity
100
AcDbLine
  8
color#000000ff
 62
256
370
-1
  6
BYLAYER
 10
2.3706245303238416
 20
1.2827147253401998
 30
0.0
 11
2.3766601541244587
 21
1.3056143126644504
 31
0.0
  0
LINE
  5
2E8
100
AcDbEntity
100
AcDbLine
  8
color#000000ff
 62
256
370
-1
  6
BYLAYER
 10
2.3766601541244587
 20
1.3056143126644504
 30
0.0
 11
2.3806273649206484
 21
1.3287920010342502
 31
0.0
  0
LINE
  5
2E9
100
AcDbEntity
100
AcDbLine
  8
color#000000ff
 62
256
370
-1
  6
BYLAYER
 10
2.3806273649206484
 20
1.3287920010342502
 30
0.0
 11
2.3823775277871584
 21
1.3520765403059443
 31
0.0
  0
LINE
  5
2EA
100
AcDbEntity
100
AcDbLine
  8
color#000000ff
 62
256
370
-1
  6
BYLAYER
 10
2.3823775277871584
 20
1.3520765403059443
 30
0.0
 11
2.38176200779874
 21
1.3752966803358744
 31
0.0
  0
LINE
  5
2EB
100
AcDbEntity
100
AcDbLine
  8
color#000000ff
 62
256
370
-1
  6
BYLAYER
 10
2.38176200779874
 20
1.3752966803358744
 30
0.0
 11
2.3805206683197917
 21
1.3868290849652867
 31
0.0
  0
LINE
  5
2EC
100
AcDbEntity
100
AcDbLine
  8
color#000000ff
 62
256
370
-1
  6
BYLAYER
 10
2.3805206683197917
 20
1.3868290849652867
 30
0.0
 11
2.3786321700301425
 21
1.3982811709803855
 31
0.0
  0
LINE
  5
2ED
100
AcDbEntity
100
AcDbLine
  8
color#000000ff
 62
256
370
-1
  6
BYLAYER
 10
2.3786321700301425
 20
1.3982811709803855
 30
0.0
 11
2.3760779335641362
 21
1.4096315321132162
 31
0.0
  0
LINE
  5
2EE
100
AcDbEntity
100
AcDbLine
  8
color#000000ff
 62
256
370
-1
  6
BYLAYER
 10
2.3760779335641362
 20
1.4096315321132162
 30
0.0
 11
2.3728393795561162
 21
1.4208587620958215
 31
0.0
  0
LINE
  5
2EF
100
AcDbEntity
100
AcDbLine
  8
color#000000ff
 62
256
370
-1
  6
BYLAYER
 10
2.3728393795561162
 20
1.4208587620958215
 30
0.0
 11
2.3688979286404273
 21
1.4319414546602423
 31
0.0
  0
LINE
  5
2F0
100
AcDbEntity
100
AcDbLine
  8
color#000000ff
 62
256
370
-1
  6
BYLAYER
 10
2.3688979286404273
 20
1.4319414546602423
 30
0.0
 11
2.36423500145141
 21
1.4428582035385249
 31
0.0
  0
LINE
  5
2F1
100
AcDbEntity
100
AcDbLine
  8
color#000000ff
 62
256
370
-1
  6
BYLAYER
 10
2.36423500145141
 20
1.4428582035385249
 30
0.0
 11
2.3588320186234117
 21
1.4535876024627084
 31
0.0
  0
LINE
  5
2F2
100
AcDbEntity
100
AcDbLine
  8
color#000000ff
 62
256
370
-1
  6
BYLAYER
 10
2.3588320186234117
 20
1.4535876024627084
 30
0.0
 11
2.3526704007907742
 21
1.4641082451648393
 31
0.0
  0
LINE
  5
2F3
100
AcDbEntity
100
AcDbLine
  8
color#000000ff
 62
256
370
-1
  6
BYLAYER
 10
2.3526704007907742
 20
1.4641082451648393
 30
0.0
 11
2.3447150843382274
 21
1.4749750545604248
 31
0.0
  0
LINE
  5
2F4
100
AcDbEntity
100
AcDbLine
  8
color#000000ff
 62
256
370
-1
  6
BYLAYER
 10
2.3447150843382274
 20
1.4749750545604248
 30
0.0
 11
2.3361634372671034
 21
1.4851466203224659
 31
0.0
  0
LINE
  5
2F5
100
AcDbEntity
100
AcDbLine
  8
color#000000ff
 62
256
370
-1
  6
BYLAYER
 10
2.3361634372671034
 20
1.4851466203224659
 30
0.0
 11
2.3270513762140275
 21
1.4946281698137811
 31
0.0
  0
LINE
  5
2F6
100
AcDbEntity
100
AcDbLine
  8
color#000000ff
 62
256
370
-1
  6
BYLAYER
 10
2.3270513762140275
 20
1.4946281698137811
 30
0.0
 11
2.3174148178156226
 21
1.503424930397192
 31
0.0
  0
LINE
  5
2F7
100
AcDbEntity
100
AcDbLine
  8
color#000000ff
 62
256
370
-1
  6
BYLAYER
 10
2.3174148178156226
 20
1.503424930397192
 30
0.0
 11
2.3072896787085151
 21
1.5115421294355165
 31
0.0
  0
LINE
  5
2F8
100
AcDbEntity
100
AcDbLine
  8
color#000000ff
 62
256
370
-1
  6
BYLAYER
 10
2.3072896787085151
 20
1.5115421294355165
 30
0.0
 11
2.2967118755293283
 21
1.5189849942915741
 31
0.0
  0
LINE
  5
2F9
100
AcDbEntity
100
AcDbLine
  8
color#000000ff
 62
256
370
-1
  6
BYLAYER
 10
2.2967118755293283
 20
1.5189849942915741
 30
0.0
 11
2.2857173249146872
 21
1.5257587523281846
 31
0.0
  0
LINE
  5
2FA
100
AcDbEntity
100
AcDbLine
  8
color#000000ff
 62
256
370
-1
  6
BYLAYER
 10
2.2857173249146872
 20
1.5257587523281846
 30
0.0
 11
2.274341943501216
 21
1.5318686309081673
 31
0.0
  0
LINE
  5
2FB
100
AcDbEntity
100
AcDbLine
  8
color#000000ff
 62
256
370
-1
  6
BYLAYER
 10
2.274341943501216
 20
1.5318686309081673
 30
0.0
 11
2.2626216479255388
 21
1.5373198573943418
 31
0.0
  0
LINE
  5
2FC
100
AcDbEntity
100
AcDbLine
  8
color#000000ff
 62
256
370
-1
  6
BYLAYER
 10
2.2626216479255388
 20
1.5373198573943418
 30
0.0
 11
2.2505923548242803
 21
1.5421176591495276
 31
0.0
  0
LINE
  5
2FD
100
AcDbEntity
100
AcDbLine
  8
color#000000ff
 62
256
370
-1
  6
BYLAYER
 10
2.2505923548242803
 20
1.5421176591495276
 30
0.0
 11
2.2382899808340655
 21
1.5462672635365433
 31
0.0
  0
LINE
  5
2FE
100
AcDbEntity
100
AcDbLine
  8
color#000000ff
 62
256
370
-1
  6
BYLAYER
 10
2.2382899808340655
 20
1.5462672635365433
 30
0.0
 11
2.2257504425915182
 21
1.5497738979182099
 31
0.0
  0
LINE
  5
2FF
100
AcDbEntity
100
AcDbLine
  8
color#000000ff
 62
256
370
-1
  6
BYLAYER
 10
2.2257504425915182
 20
1.5497738979182099
 30
0.0
 11
2.2130096567332638
 21
1.5526427896573447
 31
0.0
  0
LINE
  5
300
100
AcDbEntity
100
AcDbLine
  8
color#000000ff
 62
256
370
-1
  6
BYLAYER
 10
2.2130096567332638
 20
1.5526427896573447
 30
0.0
 11
2.2001035398959252
 21
1.5548791661167689
 31
0.0
  0
LINE
  5
301
100
AcDbEntity
100
AcDbLine
  8
color#000000ff
 62
256
370
-1
  6
BYLAYER
 10
2.2001035398959252
 20
1.5548791661167689
 30
0.0
 11
2.1870680087161278
 21
1.5564882546593017
 31
0.0
  0
LINE
  5
302
100
AcDbEntity
100
AcDbLine
  8
color#000000ff
 62
256
370
-1
  6
BYLAYER
 10
2.1870680087161278
 20
1.5564882546593017
 30
0.0
 11
2.160752369875655
 21
1.5578454774449686
 31
0.0
  0
LINE
  5
303
100
AcDbEntity
100
AcDbLine
  8
color#000000ff
 62
256
370
-1
  6
BYLAYER
 10
2.160752369875655
 20
1.5578454774449686
 30
0.0
 11
2.1343500733048395
 21
1.5567562769169034
 31
0.0
  0
LINE
  5
304
100
AcDbEntity
100
AcDbLine
  8
color#000000ff
 62
256
370
-1
  6
BYLAYER
 10
2.1343500733048395
 20
1.5567562769169034
 30
0.0
 11
2.1081484520966778
 21
1.5532624719776589
 31
0.0
  0
LINE
  5
305
100
AcDbEntity
100
AcDbLine
  8
color#000000ff
 62
256
370
-1
  6
BYLAYER
 10
2.1081484520966778
 20
1.5532624719776589
 30
0.0
 11
2.0824348393441658
 21
1.5474058815297913
 31
0.0
  0
LINE
  5
306
100
AcDbEntity
100
AcDbLine
  8
color#000000ff
 62
256
370
-1
  6
BYLAYER
 10
2.0824348393441658
 20
1.5474058815297913
 30
0.0
 11
2.0574965681402988
 21
1.5392283244758582
 31
0.0
  0
LINE
  5
307
100
AcDbEntity
100
AcDbLine
  8
color#000000ff
 62
256
370
-1
  6
BYLAYER
 10
2.0574965681402988
 20
1.5392283244758582
 30
0.0
 11
2.0454079772106688
 21
1.5342822518786636
 31
0.0
  0
LINE
  5
308
100
AcDbEntity
100
AcDbLine
  8
color#000000ff
 62
256
370
-1
  6
BYLAYER
 10
2.0454079772106688
 20
1.5342822518786636
 30
0.0
 11
2.0336209715780731
 21
1.528771619718412
 31
0.0
  0
LINE
  5
309
100
AcDbEntity
100
AcDbLine
  8
color#000000ff
 62
256
370
-1
  6
BYLAYER
 10
2.0336209715780731
 20
1.528771619718412
 30
0.0
 11
2.0221714678791369
 21
1.5227016553579193
 31
0.0
  0
LINE
  5
30A
100
AcDbEntity
100
AcDbLine
  8
color#000000ff
 62
256
370
-1
  6
BYLAYER
 10
2.0221714678791369
 20
1.5227016553579193
 30
0.0
 11
2.0110953827504838
 21
1.5160775861600091
 31
0.0
  0
LINE
  5
30B
100
AcDbEntity
100
AcDbLine
  8
color#000000ff
 62
256
370
-1
  6
BYLAYER
 10
1.0505832920179841
 20
1.3099668670220801
 30
0.0
 11
1.02329157863703
 21
1.3024588185639538
 31
0.0
  0
LINE
  5
30C
100
AcDbEntity
100
AcDbLine
  8
color#000000ff
 62
256
370
-1
  6
BYLAYER
 10
1.02329157863703
 20
1.3024588185639538
 30
0.0
 11
0.915722684111449
 21
1.264095416699585
 31
0.0
  0
LINE
  5
30D
100
AcDbEntity
100
AcDbLine
  8
color#000000ff
 62
256
370
-1
  6
BYLAYER
 10
0.915722684111449
 20
1.264095416699585
 30
0.0
 11
0.8518220924882868
 21
1.2323007446818519
 31
0.0
  0
LINE
  5
30E
100
AcDbEntity
100
AcDbLine
  8
color#000000ff
 62
256
370
-1
  6
BYLAYER
 10
0.8518220924882868
 20
1.2323007446818519
 30
0.0
 11
0.8038211447247956
 21
1.2018771920643465
 31
0.0
  0
LINE
  5
30F
100
AcDbEntity
100
AcDbLine
  8
color#000000ff
 62
256
370
-1
  6
BYLAYER
 10
0.8038211447247956
 20
1.2018771920643465
 30
0.0
 11
0.7701652542528504
 21
1.1758789876079407
 31
0.0
  0
LINE
  5
310
100
AcDbEntity
100
AcDbLine
  8
color#000000ff
 62
256
370
-1
  6
BYLAYER
 10
0.7701652542528504
 20
1.1758789876079407
 30
0.0
 11
0.7388942791685552
 21
1.1469610479849131
 31
0.0
  0
LINE
  5
311
100
AcDbEntity
100
AcDbLine
  8
color#000000ff
 62
256
370
-1
  6
BYLAYER
 10
0.7388942791685552
 20
1.1469610479849131
 30
0.0
 11
0.7195386129378465
 21
1.1259743206860915
 31
0.0
  0
LINE
  5
312
100
AcDbEntity
100
AcDbLine
  8
color#000000ff
 62
256
370
-1
  6
BYLAYER
 10
0.7195386129378465
 20
1.1259743206860915
 30
0.0
 11
0.7014929553501726
 21
1.103560894626864
 31
0.0
  0
LINE
  5
313
100
AcDbEntity
100
AcDbLine
  8
color#000000ff
 62
256
370
-1
  6
BYLAYER
 10
0.7014929553501726
 20
1.103560894626864
 30
0.0
 11
0.6755482891219035
 21
1.0637328728934627
 31
0.0
  0
LINE
  5
314
100
AcDbEntity
100
AcDbLine
  8
color#000000ff
 62
256
370
-1
  6
BYLAYER
 10
0.6755482891219035
 20
1.0637328728934627
 30
0.0
 11
0.6414082902385886
 21
0.9754152867805324
 31
0.0
  0
LINE
  5
315
100
AcDbEntity
100
AcDbLine
  8
color#000000ff
 62
256
370
-1
  6
BYLAYER
 10
0.6414082902385886
 20
0.9754152867805324
 30
0.0
 11
0.6332953704693569
 21
0.8888638619708982
 31
0.0
  0
LINE
  5
316
100
AcDbEntity
100
AcDbLine
  8
color#000000ff
 62
256
370
-1
  6
BYLAYER
 10
0.6332953704693569
 20
0.8888638619708982
 30
0.0
 11
0.6339662747089028
 21
0.8720722526327766
 31
0.0
  0
LINE
  5
317
100
AcDbEntity
100
AcDbLine
  8
color#000000ff
 62
256
370
-1
  6
BYLAYER
 10
0.6339662747089028
 20
0.8720722526327766
 30
0.0
 11
0.6370856503051908
 21
0.8385772045425909
 31
0.0
  0
LINE
  5
318
100
AcDbEntity
100
AcDbLine
  8
color#000000ff
 62
256
370
-1
  6
BYLAYER
 10
0.6370856503051908
 20
0.8385772045425909
 30
0.0
 11
0.6425283302343173
 21
0.8053345920767723
 31
0.0
  0
LINE
  5
319
100
AcDbEntity
100
AcDbLine
  8
color#000000ff
 62
256
370
-1
  6
BYLAYER
 10
0.6425283302343173
 20
0.8053345920767723
 30
0.0
 11
0.6502381723081745
 21
0.7725062650468684
 31
0.0
  0
LINE
  5
31A
100
AcDbEntity
100
AcDbLine
  8
color#000000ff
 62
256
370
-1
  6
BYLAYER
 10
0.6502381723081745
 20
0.7725062650468684
 30
0.0
 11
0.6601590343386538
 21
0.7402540732644265
 31
0.0
  0
LINE
  5
31B
100
AcDbEntity
100
AcDbLine
  8
color#000000ff
 62
256
370
-1
  6
BYLAYER
 10
0.6601590343386538
 20
0.7402540732644265
 30
0.0
 11
0.6722347741376472
 21
0.7087398665409957
 31
0.0
  0
LINE
  5
31C
100
AcDbEntity
100
AcDbLine
  8
color#000000ff
 62
256
370
-1
  6
BYLAYER
 10
0.6722347741376472
 20
0.7087398665409957
 30
0.0
 11
0.6864092495170465
 21
0.6781254946881232
 31
0.0
  0
LINE
  5
31D
100
AcDbEntity
100
AcDbLine
  8
color#000000ff
 62
256
370
-1
  6
BYLAYER
 10
0.6864092495170465
 20
0.6781254946881232
 30
0.0
 11
0.7026263182887437
 21
0.6485728075173565
 31
0.0
  0
LINE
  5
31E
100
AcDbEntity
100
AcDbLine
  8
color#000000ff
 62
256
370
-1
  6
BYLAYER
 10
0.7026263182887437
 20
0.6485728075173565
 30
0.0
 11
0.7208298382646305
 21
0.620243654840243
 31
0.0
  0
LINE
  5
31F
100
AcDbEntity
100
AcDbLine
  8
color#000000ff
 62
256
370
-1
  6
BYLAYER
 10
0.7208298382646305
 20
0.620243654840243
 30
0.0
 11
0.7409636672565986
 21
0.5932998864683338
 31
0.0
  0
LINE
  5
320
100
AcDbEntity
100
AcDbLine
  8
color#000000ff
 62
256
370
-1
  6
BYLAYER
 10
0.7409636672565986
 20
0.5932998864683338
 30
0.0
 11
0.7629716630765401
 21
0.5679033522131735
 31
0.0
  0
LINE
  5
321
100
AcDbEntity
100
AcDbLine
  8
color#000000ff
 62
256
370
-1
  6
BYLAYER
 10
0.7629716630765401
 20
0.5679033522131735
 30
0.0
 11
0.7746609291132169
 21
0.5558358759454833
 31
0.0
  0
LINE
  5
322
100
AcDbEntity
100
AcDbLine
  8
color#000000ff
 62
256
370
-1
  6
BYLAYER
 10
0.7746609291132169
 20
0.5558358759454833
 30
0.0
 11
0.7867976835363471
 21
0.5442159018863101
 31
0.0
  0
LINE
  5
323
100
AcDbEntity
100
AcDbLine
  8
color#000000ff
 62
256
370
-1
  6
BYLAYER
 10
0.7867976835363471
 20
0.5442159018863101
 30
0.0
 11
0.799374908572416
 21
0.5330636612620994
 31
0.0
  0
LINE
  5
324
100
AcDbEntity
100
AcDbLine
  8
color#000000ff
 62
256
370
-1
  6
BYLAYER
 10
0.799374908572416
 20
0.5330636612620994
 30
0.0
 11
0.8123855864479105
 21
0.5223993852992931
 31
0.0
  0
LINE
  5
325
100
AcDbEntity
100
AcDbLine
  8
color#000000ff
 62
256
370
-1
  6
BYLAYER
 10
0.8123855864479105
 20
0.5223993852992931
 30
0.0
 11
0.8258226993893177
 21
0.5122433052243349
 31
0.0
  0
LINE
  5
326
100
AcDbEntity
100
AcDbLine
  8
color#000000ff
 62
256
370
-1
  6
BYLAYER
 10
0.8258226993893177
 20
0.5122433052243349
 30
0.0
 11
0.8396792296231231
 21
0.5026156522636703
 31
0.0
  0
LINE
  5
327
100
AcDbEntity
100
AcDbLine
  8
color#000000ff
 62
256
370
-1
  6
BYLAYER
 10
0.8396792296231231
 20
0.5026156522636703
 30
0.0
 11
0.8539481593758141
 21
0.4935366576437375
 31
0.0
  0
LINE
  5
328
100
AcDbEntity
100
AcDbLine
  8
color#000000ff
 62
256
370
-1
  6
BYLAYER
 10
0.8539481593758141
 20
0.4935366576437375
 30
0.0
 11
0.8686224708738765
 21
0.4850265525909876
 31
0.0
  0
LINE
  5
329
100
AcDbEntity
100
AcDbLine
  8
color#000000ff
 62
256
370
-1
  6
BYLAYER
 10
0.8686224708738765
 20
0.4850265525909876
 30
0.0
 11
0.8693680946990913
 21
0.6658381397696943
 31
0.0
  0
LINE
  5
32A
100
AcDbEntity
100
AcDbLine
  8
color#000000ff
 62
256
370
-1
  6
BYLAYER
 10
0.8693680946990913
 20
0.6658381397696943
 30
0.0
 11
0.8775472350855695
 21
0.6662680276873406
 31
0.0
  0
LINE
  5
32B
100
AcDbEntity
100
AcDbLine
  8
color#000000ff
 62
256
370
-1
  6
BYLAYER
 10
0.8775472350855695
 20
0.6662680276873406
 30
0.0
 11
1.0424272073670844
 21
0.6873460461617162
 31
0.0
  0
LINE
  5
32C
100
AcDbEntity
100
AcDbLine
  8
color#000000ff
 62
256
370
-1
  6
BYLAYER
 10
1.0424272073670844
 20
0.6873460461617162
 30
0.0
 11
1.0802408859129775
 21
0.7040087552539558
 31
0.0
  0
LINE
  5
32D
100
AcDbEntity
100
AcDbLine
  8
color#000000ff
 62
256
370
-1
  6
BYLAYER
 10
1.0802408859129775
 20
0.7040087552539558
 30
0.0
 11
1.101490934106937
 21
0.7177816240857788
 31
0.0
  0
LINE
  5
32E
100
AcDbEntity
100
AcDbLine
  8
color#000000ff
 62
256
370
-1
  6
BYLAYER
 10
1.101490934106937
 20
0.7177816240857788
 30
0.0
 11
1.1080913160844112
 21
0.7226027842416197
 31
0.0
  0
LINE
  5
32F
100
AcDbEntity
100
AcDbLine
  8
color#000000ff
 62
256
370
-1
  6
BYLAYER
 10
1.1080913160844112
 20
0.7226027842416197
 30
0.0
 11
1.1433977972656422
 21
0.7554247988812008
 31
0.0
  0
LINE
  5
330
100
AcDbEntity
100
AcDbLine
  8
color#000000ff
 62
256
370
-1
  6
BYLAYER
 10
1.1433977972656422
 20
0.7554247988812008
 30
0.0
 11
1.2304543286742646
 21
0.9085620524410255
 31
0.0
  0
LINE
  5
331
100
AcDbEntity
100
AcDbLine
  8
color#000000ff
 62
256
370
-1
  6
BYLAYER
 10
1.2304543286742646
 20
0.9085620524410255
 30
0.0
 11
1.3733999802718493
 21
1.2790199215312086
 31
0.0
  0
LINE
  5
332
100
AcDbEntity
100
AcDbLine
  8
color#000000ff
 62
256
370
-1
  6
BYLAYER
 10
1.3733999802718493
 20
1.2790199215312086
 30
0.0
 11
1.3848261591185174
 21
1.3216517084160639
 31
0.0
  0
LINE
  5
333
100
AcDbEntity
100
AcDbLine
  8
color#000000ff
 62
256
370
-1
  6
BYLAYER
 10
1.3848261591185174
 20
1.3216517084160639
 30
0.0
 11
1.3793902031289829
 21
1.3355105681135819
 31
0.0
  0
LINE
  5
334
100
AcDbEntity
100
AcDbLine
  8
color#000000ff
 62
256
370
-1
  6
BYLAYER
 10
1.3793902031289829
 20
1.3355105681135819
 30
0.0
 11
1.3703240731424517
 21
1.3412574814602627
 31
0.0
  0
LINE
  5
335
100
AcDbEntity
100
AcDbLine
  8
color#000000ff
 62
256
370
-1
  6
BYLAYER
 10
1.3703240731424517
 20
1.3412574814602627
 30
0.0
 11
1.3481396229133422
 21
1.3426348013206248
 31
0.0
  0
LINE
  5
336
100
AcDbEntity
100
AcDbLine
  8
color#000000ff
 62
256
370
-1
  6
BYLAYER
 10
1.3481396229133422
 20
1.3426348013206248
 30
0.0
 11
1.0505832920179841
 21
1.3099668670220801
 31
0.0
  0
LINE
  5
337
100
AcDbEntity
100
AcDbLine
  8
color#000000ff
 62
256
370
-1
  6
BYLAYER
 10
1.6678657528393073
 20
1.3024028716504279
 30
0.0
 11
1.6085021600898031
 21
1.1384730118515196
 31
0.0
  0
LINE
  5
338
100
AcDbEntity
100
AcDbLine
  8
color#000000ff
 62
256
370
-1
  6
BYLAYER
 10
1.6085021600898031
 20
1.1384730118515196
 30
0.0
 11
1.6737602551479498
 21
1.1031385356035952
 31
0.0
  0
LINE
  5
339
100
AcDbEntity
100
AcDbLine
  8
color#000000ff
 62
256
370
-1
  6
BYLAYER
 10
1.6737602551479498
 20
1.1031385356035952
 30
0.0
 11
1.8602937669833861
 21
1.0498793736479783
 31
0.0
  0
LINE
  5
33A
100
AcDbEntity
100
AcDbLine
  8
color#000000ff
 62
256
370
-1
  6
BYLAYER
 10
1.8602937669833861
 20
1.0498793736479783
 30
0.0
 11
1.8102644245898847
 21
1.2602861223579775
 31
0.0
  0
LINE
  5
33B
100
AcDbEntity
100
AcDbLine
  8
color#000000ff
 62
256
370
-1
  6
BYLAYER
 10
1.8102644245898847
 20
1.2602861223579775
 30
0.0
 11
1.6678657528393073
 21
1.3024028716504279
 31
0.0
  0
LINE
  5
33C
100
AcDbEntity
100
AcDbLine
  8
color#000000ff
 62
256
370
-1
  6
BYLAYER
 10
2.7582402107253601
 20
1.2695313352528228
 30
0.0
 11
2.7381948959958953
 21
1.2577906990547116
 31
0.0
  0
LINE
  5
33D
100
AcDbEntity
100
AcDbLine
  8
color#000000ff
 62
256
370
-1
  6
BYLAYER
 10
2.7381948959958953
 20
1.2577906990547116
 30
0.0
 11
2.7195811102472023
 21
1.2444117493306537
 31
0.0
  0
LINE
  5
33E
100
AcDbEntity
100
AcDbLine
  8
color#000000ff
 62
256
370
-1
  6
BYLAYER
 10
2.7195811102472023
 20
1.2444117493306537
 30
0.0
 11
2.7023795688243273
 21
1.229529017142784
 31
0.0
  0
LINE
  5
33F
100
AcDbEntity
100
AcDbLine
  8
color#000000ff
 62
256
370
-1
  6
BYLAYER
 10
2.7023795688243273
 20
1.229529017142784
 30
0.0
 11
2.6865709870723156
 21
1.2132770335532368
 31
0.0
  0
LINE
  5
340
100
AcDbEntity
100
AcDbLine
  8
color#000000ff
 62
256
370
-1
  6
BYLAYER
 10
2.6865709870723156
 20
1.2132770335532368
 30
0.0
 11
2.6721360803362137
 21
1.1957903296241466
 31
0.0
  0
LINE
  5
341
100
AcDbEntity
100
AcDbLine
  8
color#000000ff
 62
256
370
-1
  6
BYLAYER
 10
2.6721360803362137
 20
1.1957903296241466
 30
0.0
 11
2.6530171757041798
 21
1.1675394597922868
 31
0.0
  0
LINE
  5
342
100
AcDbEntity
100
AcDbLine
  8
color#000000ff
 62
256
370
-1
  6
BYLAYER
 10
2.6530171757041798
 20
1.1675394597922868
 30
0.0
 11
2.6368805636738273
 21
1.1372672064209606
 31
0.0
  0
LINE
  5
343
100
AcDbEntity
100
AcDbLine
  8
color#000000ff
 62
256
370
-1
  6
BYLAYER
 10
2.6368805636738273
 20
1.1372672064209606
 30
0.0
 11
2.6198917089709646
 21
1.0945445920602497
 31
0.0
  0
LINE
  5
344
100
AcDbEntity
100
AcDbLine
  8
color#000000ff
 62
256
370
-1
  6
BYLAYER
 10
2.6198917089709646
 20
1.0945445920602497
 30
0.0
 11
2.6079347226128462
 21
1.0501118418325923
 31
0.0
  0
LINE
  5
345
100
AcDbEntity
100
AcDbLine
  8
color#000000ff
 62
256
370
-1
  6
BYLAYER
 10
2.6079347226128462
 20
1.0501118418325923
 30
0.0
 11
2.5998295227927462
 21
0.993805622804889
 31
0.0
  0
LINE
  5
346
100
AcDbEntity
100
AcDbLine
  8
color#000000ff
 62
256
370
-1
  6
BYLAYER
 10
2.5998295227927462
 20
0.993805622804889
 30
0.0
 11
2.9875053689020099
 21
0.7961840089457484
 31
0.0
  0
LINE
  5
347
100
AcDbEntity
100
AcDbLine
  8
color#000000ff
 62
256
370
-1
  6
BYLAYER
 10
2.9875053689020099
 20
0.7961840089457484
 30
0.0
 11
3.0095967058009783
 21
0.8108323250993388
 31
0.0
  0
LINE
  5
348
100
AcDbEntity
100
AcDbLine
  8
color#000000ff
 62
256
370
-1
  6
BYLAYER
 10
3.0095967058009783
 20
0.8108323250993388
 30
0.0
 11
3.0309724606200108
 21
0.8271113839640433
 31
0.0
  0
LINE
  5
349
100
AcDbEntity
100
AcDbLine
  8
color#000000ff
 62
256
370
-1
  6
BYLAYER
 10
3.0309724606200108
 20
0.8271113839640433
 30
0.0
 11
3.0514200874599777
 21
0.8449092310577887
 31
0.0
  0
LINE
  5
34A
100
AcDbEntity
100
AcDbLine
  8
color#000000ff
 62
256
370
-1
  6
BYLAYER
 10
3.0514200874599777
 20
0.8449092310577887
 30
0.0
 11
3.0707270404217457
 21
0.8641139118985011
 31
0.0
  0
LINE
  5
34B
100
AcDbEntity
100
AcDbLine
  8
color#000000ff
 62
256
370
-1
  6
BYLAYER
 10
3.0707270404217457
 20
0.8641139118985011
 30
0.0
 11
3.0886807736061859
 21
0.884613472004109
 31
0.0
  0
LINE
  5
34C
100
AcDbEntity
100
AcDbLine
  8
color#000000ff
 62
256
370
-1
  6
BYLAYER
 10
3.0886807736061859
 20
0.884613472004109
 30
0.0
 11
3.1050687411141666
 21
0.9062959568925378
 31
0.0
  0
LINE
  5
34D
100
AcDbEntity
100
AcDbLine
  8
color#000000ff
 62
256
370
-1
  6
BYLAYER
 10
3.1050687411141666
 20
0.9062959568925378
 30
0.0
 11
3.1196783970465574
 21
0.9290494120817148
 31
0.0
  0
LINE
  5
34E
100
AcDbEntity
100
AcDbLine
  8
color#000000ff
 62
256
370
-1
  6
BYLAYER
 10
3.1196783970465574
 20
0.9290494120817148
 30
0.0
 11
3.132297195504226
 21
0.9527618830895672
 31
0.0
  0
LINE
  5
34F
100
AcDbEntity
100
AcDbLine
  8
color#000000ff
 62
256
370
-1
  6
BYLAYER
 10
3.132297195504226
 20
0.9527618830895672
 30
0.0
 11
3.1427125905880433
 21
0.9773214154340211
 31
0.0
  0
LINE
  5
350
100
AcDbEntity
100
AcDbLine
  8
color#000000ff
 62
256
370
-1
  6
BYLAYER
 10
3.1427125905880433
 20
0.9773214154340211
 30
0.0
 11
3.1470275912712791
 21
0.989883843831826
 31
0.0
  0
LINE
  5
351
100
AcDbEntity
100
AcDbLine
  8
color#000000ff
 62
256
370
-1
  6
BYLAYER
 10
3.1470275912712791
 20
0.989883843831826
 30
0.0
 11
3.150712036398879
 21
1.0026160546330034
 31
0.0
  0
LINE
  5
352
100
AcDbEntity
100
AcDbLine
  8
color#000000ff
 62
256
370
-1
  6
BYLAYER
 10
3.150712036398879
 20
1.0026160546330034
 30
0.0
 11
3.1537393577334485
 21
1.0155040535272954
 31
0.0
  0
LINE
  5
353
100
AcDbEntity
100
AcDbLine
  8
color#000000ff
 62
256
370
-1
  6
BYLAYER
 10
3.1537393577334485
 20
1.0155040535272954
 30
0.0
 11
3.1560829870375979
 21
1.0285338462044427
 31
0.0
  0
LINE
  5
354
100
AcDbEntity
100
AcDbLine
  8
color#000000ff
 62
256
370
-1
  6
BYLAYER
 10
3.1560829870375979
 20
1.0285338462044427
 30
0.0
 11
3.157716356073939
 21
1.0416914383541842
 31
0.0
  0
LINE
  5
355
100
AcDbEntity
100
AcDbLine
  8
color#000000ff
 62
256
370
-1
  6
BYLAYER
 10
3.157716356073939
 20
1.0416914383541842
 30
0.0
 11
3.1586128966050753
 21
1.0549628356662626
 31
0.0
  0
LINE
  5
356
100
AcDbEntity
100
AcDbLine
  8
color#000000ff
 62
256
370
-1
  6
BYLAYER
 10
3.1586128966050753
 20
1.0549628356662626
 30
0.0
 11
3.1587460403936167
 21
1.068334043830419
 31
0.0
  0
LINE
  5
357
100
AcDbEntity
100
AcDbLine
  8
color#000000ff
 62
256
370
-1
  6
BYLAYER
 10
3.1587460403936167
 20
1.068334043830419
 30
0.0
 11
3.1580892192021754
 21
1.0817910685363923
 31
0.0
  0
LINE
  5
358
100
AcDbEntity
100
AcDbLine
  8
color#000000ff
 62
256
370
-1
  6
BYLAYER
 10
3.1580892192021754
 20
1.0817910685363923
 30
0.0
 11
3.1566158647933564
 21
1.0953199154739259
 31
0.0
  0
LINE
  5
359
100
AcDbEntity
100
AcDbLine
  8
color#000000ff
 62
256
370
-1
  6
BYLAYER
 10
3.1566158647933564
 20
1.0953199154739259
 30
0.0
 11
3.1542994089297705
 21
1.1089065903327575
 31
0.0
  0
LINE
  5
35A
100
AcDbEntity
100
AcDbLine
  8
color#000000ff
 62
256
370
-1
  6
BYLAYER
 10
3.1542994089297705
 20
1.1089065903327575
 30
0.0
 11
3.1511132833740234
 21
1.1225370988026322
 31
0.0
  0
LINE
  5
35B
100
AcDbEntity
100
AcDbLine
  8
color#000000ff
 62
256
370
-1
  6
BYLAYER
 10
3.1511132833740234
 20
1.1225370988026322
 30
0.0
 11
3.1460197195939679
 21
1.1387628763212014
 31
0.0
  0
LINE
  5
35C
100
AcDbEntity
100
AcDbLine
  8
color#000000ff
 62
256
370
-1
  6
BYLAYER
 10
3.1460197195939679
 20
1.1387628763212014
 30
0.0
 11
3.1397877300072667
 21
1.1542669303572062
 31
0.0
  0
LINE
  5
35D
100
AcDbEntity
100
AcDbLine
  8
color#000000ff
 62
256
370
-1
  6
BYLAYER
 10
3.1397877300072667
 20
1.1542669303572062
 30
0.0
 11
3.1324767128499564
 21
1.1690409047043882
 31
0.0
  0
LINE
  5
35E
100
AcDbEntity
100
AcDbLine
  8
color#000000ff
 62
256
370
-1
  6
BYLAYER
 10
3.1324767128499564
 20
1.1690409047043882
 30
0.0
 11
3.1241460663580694
 21
1.1830764431564904
 31
0.0
  0
LINE
  5
35F
100
AcDbEntity
100
AcDbLine
  8
color#000000ff
 62
256
370
-1
  6
BYLAYER
 10
3.1241460663580694
 20
1.1830764431564904
 30
0.0
 11
3.1148551887676428
 21
1.1963651895072529
 31
0.0
  0
LINE
  5
360
100
AcDbEntity
100
AcDbLine
  8
color#000000ff
 62
256
370
-1
  6
BYLAYER
 10
3.1148551887676428
 20
1.1963651895072529
 30
0.0
 11
3.1046634783147096
 21
1.2088987875504189
 31
0.0
  0
LINE
  5
361
100
AcDbEntity
100
AcDbLine
  8
color#000000ff
 62
256
370
-1
  6
BYLAYER
 10
3.1046634783147096
 20
1.2088987875504189
 30
0.0
 11
3.0936303332353052
 21
1.2206688810797302
 31
0.0
  0
LINE
  5
362
100
AcDbEntity
100
AcDbLine
  8
color#000000ff
 62
256
370
-1
  6
BYLAYER
 10
3.0936303332353052
 20
1.2206688810797302
 30
0.0
 11
3.0818151517654635
 21
1.2316671138889277
 31
0.0
  0
LINE
  5
363
100
AcDbEntity
100
AcDbLine
  8
color#000000ff
 62
256
370
-1
  6
BYLAYER
 10
3.0818151517654635
 20
1.2316671138889277
 30
0.0
 11
3.0692773321412203
 21
1.2418851297717548
 31
0.0
  0
LINE
  5
364
100
AcDbEntity
100
AcDbLine
  8
color#000000ff
 62
256
370
-1
  6
BYLAYER
 10
3.0692773321412203
 20
1.2418851297717548
 30
0.0
 11
3.0560762725986099
 21
1.2513145725219519
 31
0.0
  0
LINE
  5
365
100
AcDbEntity
100
AcDbLine
  8
color#000000ff
 62
256
370
-1
  6
BYLAYER
 10
3.0560762725986099
 20
1.2513145725219519
 30
0.0
 11
3.042271371373666
 21
1.2599470859332618
 31
0.0
  0
LINE
  5
366
100
AcDbEntity
100
AcDbLine
  8
color#000000ff
 62
256
370
-1
  6
BYLAYER
 10
3.042271371373666
 20
1.2599470859332618
 30
0.0
 11
3.0279220267024249
 21
1.267774313799426
 31
0.0
  0
LINE
  5
367
100
AcDbEntity
100
AcDbLine
  8
color#000000ff
 62
256
370
-1
  6
BYLAYER
 10
3.0279220267024249
 20
1.267774313799426
 30
0.0
 11
3.0130876368209201
 21
1.274787899914186
 31
0.0
  0
LINE
  5
368
100
AcDbEntity
100
AcDbLine
  8
color#000000ff
 62
256
370
-1
  6
BYLAYER
 10
3.0130876368209201
 20
1.274787899914186
 30
0.0
 11
2.9978275999651873
 21
1.280979488071285
 31
0.0
  0
LINE
  5
369
100
AcDbEntity
100
AcDbLine
  8
color#000000ff
 62
256
370
-1
  6
BYLAYER
 10
2.9978275999651873
 20
1.280979488071285
 30
0.0
 11
2.9822013143712605
 21
1.2863407220644638
 31
0.0
  0
LINE
  5
36A
100
AcDbEntity
100
AcDbLine
  8
color#000000ff
 62
256
370
-1
  6
BYLAYER
 10
2.9822013143712605
 20
1.2863407220644638
 30
0.0
 11
2.9662681782751736
 21
1.290863245687464
 31
0.0
  0
LINE
  5
36B
100
AcDbEntity
100
AcDbLine
  8
color#000000ff
 62
256
370
-1
  6
BYLAYER
 10
2.9662681782751736
 20
1.290863245687464
 30
0.0
 11
2.9500875899129646
 21
1.2945387027340278
 31
0.0
  0
LINE
  5
36C
100
AcDbEntity
100
AcDbLine
  8
color#000000ff
 62
256
370
-1
  6
BYLAYER
 10
2.9500875899129646
 20
1.2945387027340278
 30
0.0
 11
2.9337189475206631
 21
1.2973587369978987
 31
0.0
  0
LINE
  5
36D
100
AcDbEntity
100
AcDbLine
  8
color#000000ff
 62
256
370
-1
  6
BYLAYER
 10
2.9337189475206631
 20
1.2973587369978987
 30
0.0
 11
2.9172216493343082
 21
1.2993149922728162
 31
0.0
  0
LINE
  5
36E
100
AcDbEntity
100
AcDbLine
  8
color#000000ff
 62
256
370
-1
  6
BYLAYER
 10
2.9172216493343082
 20
1.2993149922728162
 30
0.0
 11
2.9006550935899327
 21
1.3003991123525231
 31
0.0
  0
LINE
  5
36F
100
AcDbEntity
100
AcDbLine
  8
color#000000ff
 62
256
370
-1
  6
BYLAYER
 10
2.9006550935899327
 20
1.3003991123525231
 30
0.0
 11
2.8840786785235708
 21
1.3006027410307621
 31
0.0
  0
LINE
  5
370
100
AcDbEntity
100
AcDbLine
  8
color#000000ff
 62
256
370
-1
  6
BYLAYER
 10
2.8840786785235708
 20
1.3006027410307621
 30
0.0
 11
2.8675518023712581
 21
1.2999175221012744
 31
0.0
  0
LINE
  5
371
100
AcDbEntity
100
AcDbLine
  8
color#000000ff
 62
256
370
-1
  6
BYLAYER
 10
2.8675518023712581
 20
1.2999175221012744
 30
0.0
 11
2.85113386336903
 21
1.2983350993578
 31
0.0
  0
LINE
  5
372
100
AcDbEntity
100
AcDbLine
  8
color#000000ff
 62
256
370
-1
  6
BYLAYER
 10
2.85113386336903
 20
1.2983350993578
 30
0.0
 11
2.8348842597529198
 21
1.2958471165940846
 31
0.0
  0
LINE
  5
373
100
AcDbEntity
100
AcDbLine
  8
color#000000ff
 62
256
370
-1
  6
BYLAYER
 10
2.8348842597529198
 20
1.2958471165940846
 30
0.0
 11
2.8188623897589622
 21
1.2924452176038668
 31
0.0
  0
LINE
  5
374
100
AcDbEntity
100
AcDbLine
  8
color#000000ff
 62
256
370
-1
  6
BYLAYER
 10
2.8188623897589622
 20
1.2924452176038668
 30
0.0
 11
2.8031276516231944
 21
1.2881210461808894
 31
0.0
  0
LINE
  5
375
100
AcDbEntity
100
AcDbLine
  8
color#000000ff
 62
256
370
-1
  6
BYLAYER
 10
2.8031276516231944
 20
1.2881210461808894
 30
0.0
 11
2.7877394435816467
 21
1.2828662461188958
 31
0.0
  0
LINE
  5
376
100
AcDbEntity
100
AcDbLine
  8
color#000000ff
 62
256
370
-1
  6
BYLAYER
 10
2.7877394435816467
 20
1.2828662461188958
 30
0.0
 11
2.7727571638703576
 21
1.2766724612116251
 31
0.0
  0
LINE
  5
377
100
AcDbEntity
100
AcDbLine
  8
color#000000ff
 62
256
370
-1
  6
BYLAYER
 10
2.7727571638703576
 20
1.2766724612116251
 30
0.0
 11
2.7582402107253601
 21
1.2695313352528228
 31
0.0
  0
LINE
  5
378
100
AcDbEntity
100
AcDbLine
  8
color#000000ff
 62
256
370
-1
  6
BYLAYER
 10
1.9045188741365884
 20
1.23344120095829
 30
0.0
 11
1.9582899415023316
 21
1.0414503055582907
 31
0.0
  0
LINE
  5
379
100
AcDbEntity
100
AcDbLine
  8
color#000000ff
 62
256
370
-1
  6
BYLAYER
 10
1.9582899415023316
 20
1.0414503055582907
 30
0.0
 11
2.0769590564578069
 21
1.0531013671772682
 31
0.0
  0
LINE
  5
37A
100
AcDbEntity
100
AcDbLine
  8
color#000000ff
 62
256
370
-1
  6
BYLAYER
 10
2.0769590564578069
 20
1.0531013671772682
 30
0.0
 11
2.1642730874625631
 21
1.0797778736971066
 31
0.0
  0
LINE
  5
37B
100
AcDbEntity
100
AcDbLine
  8
color#000000ff
 62
256
370
-1
  6
BYLAYER
 10
2.1642730874625631
 20
1.0797778736971066
 30
0.0
 11
2.2126811390775187
 21
1.1062163733266155
 31
0.0
  0
LINE
  5
37C
100
AcDbEntity
100
AcDbLine
  8
color#000000ff
 62
256
370
-1
  6
BYLAYER
 10
2.2126811390775187
 20
1.1062163733266155
 30
0.0
 11
1.9045188741365884
 21
1.23344120095829
 31
0.0
  0
LINE
  5
37D
100
AcDbEntity
100
AcDbLine
  8
color#000000ff
 62
256
370
-1
  6
BYLAYER
 10
2.2031454065749174
 20
1.061133249897853
 30
0.0
 11
1.9724441650104971
 21
1.0064019898977539
 31
0.0
  0
LINE
  5
37E
100
AcDbEntity
100
AcDbLine
  8
color#000000ff
 62
256
370
-1
  6
BYLAYER
 10
1.9724441650104971
 20
1.0064019898977539
 30
0.0
 11
2.1069232028572964
 21
0.8428754753130023
 31
0.0
  0
LINE
  5
37F
100
AcDbEntity
100
AcDbLine
  8
color#000000ff
 62
256
370
-1
  6
BYLAYER
 10
2.1069232028572964
 20
0.8428754753130023
 30
0.0
 11
2.1208942370002064
 21
0.8308077844137122
 31
0.0
  0
LINE
  5
380
100
AcDbEntity
100
AcDbLine
  8
color#000000ff
 62
256
370
-1
  6
BYLAYER
 10
2.1208942370002064
 20
0.8308077844137122
 30
0.0
 11
2.1498266351237163
 21
0.8079788969199832
 31
0.0
  0
LINE
  5
381
100
AcDbEntity
100
AcDbLine
  8
color#000000ff
 62
256
370
-1
  6
BYLAYER
 10
2.1498266351237163
 20
0.8079788969199832
 30
0.0
 11
2.1799920070418426
 21
0.7869037738658887
 31
0.0
  0
LINE
  5
382
100
AcDbEntity
100
AcDbLine
  8
color#000000ff
 62
256
370
-1
  6
BYLAYER
 10
2.1799920070418426
 20
0.7869037738658887
 30
0.0
 11
2.2112853935678203
 21
0.767596541691231
 31
0.0
  0
LINE
  5
383
100
AcDbEntity
100
AcDbLine
  8
color#000000ff
 62
256
370
-1
  6
BYLAYER
 10
2.2112853935678203
 20
0.767596541691231
 30
0.0
 11
2.2436018355148835
 21
0.7500713268358115
 31
0.0
  0
LINE
  5
384
100
AcDbEntity
100
AcDbLine
  8
color#000000ff
 62
256
370
-1
  6
BYLAYER
 10
2.2436018355148835
 20
0.7500713268358115
 30
0.0
 11
2.2768363736962667
 21
0.7343422557394309
 31
0.0
  0
LINE
  5
385
100
AcDbEntity
100
AcDbLine
  8
color#000000ff
 62
256
370
-1
  6
BYLAYER
 10
2.2768363736962667
 20
0.7343422557394309
 30
0.0
 11
2.3108840489252058
 21
0.7204234548418909
 31
0.0
  0
LINE
  5
386
100
AcDbEntity
100
AcDbLine
  8
color#000000ff
 62
256
370
-1
  6
BYLAYER
 10
2.3108840489252058
 20
0.7204234548418909
 30
0.0
 11
2.3456399020149341
 21
0.7083290505829932
 31
0.0
  0
LINE
  5
387
100
AcDbEntity
100
AcDbLine
  8
color#000000ff
 62
256
370
-1
  6
BYLAYER
 10
2.3456399020149341
 20
0.7083290505829932
 30
0.0
 11
2.3809989737786874
 21
0.6980731694025385
 31
0.0
  0
LINE
  5
388
100
AcDbEntity
100
AcDbLine
  8
color#000000ff
 62
256
370
-1
  6
BYLAYER
 10
2.3809989737786874
 20
0.6980731694025385
 30
0.0
 11
2.4168563050296989
 21
0.6896699377403306
 31
0.0
  0
LINE
  5
389
100
AcDbEntity
100
AcDbLine
  8
color#000000ff
 62
256
370
-1
  6
BYLAYER
 10
2.4168563050296989
 20
0.6896699377403306
 30
0.0
 11
2.4531069365812055
 21
0.6831334820361666
 31
0.0
  0
LINE
  5
38A
100
AcDbEntity
100
AcDbLine
  8
color#000000ff
 62
256
370
-1
  6
BYLAYER
 10
2.4531069365812055
 20
0.6831334820361666
 30
0.0
 11
2.4896459092464402
 21
0.6784779287298516
 31
0.0
  0
LINE
  5
38B
100
AcDbEntity
100
AcDbLine
  8
color#000000ff
 62
256
370
-1
  6
BYLAYER
 10
2.4896459092464402
 20
0.6784779287298516
 30
0.0
 11
2.5263682638386378
 21
0.6757174042611868
 31
0.0
  0
LINE
  5
38C
100
AcDbEntity
100
AcDbLine
  8
color#000000ff
 62
256
370
-1
  6
BYLAYER
 10
2.5263682638386378
 20
0.6757174042611868
 30
0.0
 11
2.5631690411710339
 21
0.6748660350699708
 31
0.0
  0
LINE
  5
38D
100
AcDbEntity
100
AcDbLine
  8
color#000000ff
 62
256
370
-1
  6
BYLAYER
 10
2.5631690411710339
 20
0.6748660350699708
 30
0.0
 11
2.5999432820568629
 21
0.6759379475960069
 31
0.0
  0
LINE
  5
38E
100
AcDbEntity
100
AcDbLine
  8
color#000000ff
 62
256
370
-1
  6
BYLAYER
 10
2.5999432820568629
 20
0.6759379475960069
 30
0.0
 11
2.5394392941434214
 21
0.7734758305892294
 31
0.0
  0
LINE
  5
38F
100
AcDbEntity
100
AcDbLine
  8
color#000000ff
 62
256
370
-1
  6
BYLAYER
 10
2.5394392941434214
 20
0.7734758305892294
 30
0.0
 11
2.5042023015269224
 21
0.8577174716673808
 31
0.0
  0
LINE
  5
390
100
AcDbEntity
100
AcDbLine
  8
color#000000ff
 62
256
370
-1
  6
BYLAYER
 10
2.5042023015269224
 20
0.8577174716673808
 30
0.0
 11
2.487572839096015
 21
0.9242025949050321
 31
0.0
  0
LINE
  5
391
100
AcDbEntity
100
AcDbLine
  8
color#000000ff
 62
256
370
-1
  6
BYLAYER
 10
2.487572839096015
 20
0.9242025949050321
 30
0.0
 11
2.4812283675833733
 21
0.9816045723519914
 31
0.0
  0
LINE
  5
392
100
AcDbEntity
100
AcDbLine
  8
color#000000ff
 62
256
370
-1
  6
BYLAYER
 10
2.4812283675833733
 20
0.9816045723519914
 30
0.0
 11
2.2826741326257345
 21
1.0756367294506908
 31
0.0
  0
LINE
  5
393
100
AcDbEntity
100
AcDbLine
  8
color#000000ff
 62
256
370
-1
  6
BYLAYER
 10
2.2826741326257345
 20
1.0756367294506908
 30
0.0
 11
2.277090167965123
 21
1.0783709526280072
 31
0.0
  0
LINE
  5
394
100
AcDbEntity
100
AcDbLine
  8
color#000000ff
 62
256
370
-1
  6
BYLAYER
 10
2.277090167965123
 20
1.0783709526280072
 30
0.0
 11
2.2031454065749174
 21
1.061133249897853
 31
0.0
  0
LINE
  5
395
100
AcDbEntity
100
AcDbLine
  8
color#000000ff
 62
256
370
-1
  6
BYLAYER
 10
3.1946096520551421
 20
1.0138948091103863
 30
0.0
 11
3.1905076687914762
 21
0.9935068969546531
 31
0.0
  0
LINE
  5
396
100
AcDbEntity
100
AcDbLine
  8
color#000000ff
 62
256
370
-1
  6
BYLAYER
 10
3.1905076687914762
 20
0.9935068969546531
 30
0.0
 11
3.1815567531147595
 21
0.9641990674415869
 31
0.0
  0
LINE
  5
397
100
AcDbEntity
100
AcDbLine
  8
color#000000ff
 62
256
370
-1
  6
BYLAYER
 10
3.1815567531147595
 20
0.9641990674415869
 30
0.0
 11
3.1649803860544923
 21
0.9273623348800552
 31
0.0
  0
LINE
  5
398
100
AcDbEntity
100
AcDbLine
  8
color#000000ff
 62
256
370
-1
  6
BYLAYER
 10
3.1649803860544923
 20
0.9273623348800552
 30
0.0
 11
3.1380448922616213
 21
0.884621664755594
 31
0.0
  0
LINE
  5
399
100
AcDbEntity
100
AcDbLine
  8
color#000000ff
 62
256
370
-1
  6
BYLAYER
 10
3.1380448922616213
 20
0.884621664755594
 30
0.0
 11
3.0324051292031884
 21
0.7744965633050628
 31
0.0
  0
LINE
  5
39A
100
AcDbEntity
100
AcDbLine
  8
color#000000ff
 62
256
370
-1
  6
BYLAYER
 10
3.0324051292031884
 20
0.7744965633050628
 30
0.0
 11
3.1928523044894002
 21
0.7034979223019278
 31
0.0
  0
LINE
  5
39B
100
AcDbEntity
100
AcDbLine
  8
color#000000ff
 62
256
370
-1
  6
BYLAYER
 10
3.1928523044894002
 20
0.7034979223019278
 30
0.0
 11
3.2072457071332292
 21
0.714987690880027
 31
0.0
  0
LINE
  5
39C
100
AcDbEntity
100
AcDbLine
  8
color#000000ff
 62
256
370
-1
  6
BYLAYER
 10
3.2072457071332292
 20
0.714987690880027
 30
0.0
 11
3.2444989880878619
 21
0.7723771034121392
 31
0.0
  0
LINE
  5
39D
100
AcDbEntity
100
AcDbLine
  8
color#000000ff
 62
256
370
-1
  6
BYLAYER
 10
3.2444989880878619
 20
0.7723771034121392
 30
0.0
 11
3.2483360886965027
 21
0.8180238830374818
 31
0.0
  0
LINE
  5
39E
100
AcDbEntity
100
AcDbLine
  8
color#000000ff
 62
256
370
-1
  6
BYLAYER
 10
3.2483360886965027
 20
0.8180238830374818
 30
0.0
 11
3.1946096520551421
 21
1.0138948091103863
 31
0.0
  0
LINE
  5
39F
100
AcDbEntity
100
AcDbLine
  8
color#000000ff
 62
256
370
-1
  6
BYLAYER
 10
1.5325177696802421
 20
0.7409728489060695
 30
0.0
 11
1.543261883170979
 21
0.7261805271478269
 31
0.0
  0
LINE
  5
3A0
100
AcDbEntity
100
AcDbLine
  8
color#000000ff
 62
256
370
-1
  6
BYLAYER
 10
1.543261883170979
 20
0.7261805271478269
 30
0.0
 11
1.6414777733176149
 21
0.6759208172903024
 31
0.0
  0
LINE
  5
3A1
100
AcDbEntity
100
AcDbLine
  8
color#000000ff
 62
256
370
-1
  6
BYLAYER
 10
1.6414777733176149
 20
0.6759208172903024
 30
0.0
 11
1.6443145050050829
 21
0.6964578585465079
 31
0.0
  0
LINE
  5
3A2
100
AcDbEntity
100
AcDbLine
  8
color#000000ff
 62
256
370
-1
  6
BYLAYER
 10
1.6443145050050829
 20
0.6964578585465079
 30
0.0
 11
1.6457280644334311
 21
0.7274172977950614
 31
0.0
  0
LINE
  5
3A3
100
AcDbEntity
100
AcDbLine
  8
color#000000ff
 62
256
370
-1
  6
BYLAYER
 10
1.6457280644334311
 20
0.7274172977950614
 30
0.0
 11
1.6437652215885885
 21
0.7582328291768796
 31
0.0
  0
LINE
  5
3A4
100
AcDbEntity
100
AcDbLine
  8
color#000000ff
 62
256
370
-1
  6
BYLAYER
 10
1.6437652215885885
 20
0.7582328291768796
 30
0.0
 11
1.6384636003520689
 21
0.7885348219001528
 31
0.0
  0
LINE
  5
3A5
100
AcDbEntity
100
AcDbLine
  8
color#000000ff
 62
256
370
-1
  6
BYLAYER
 10
1.6384636003520689
 20
0.7885348219001528
 30
0.0
 11
1.6298608246053863
 21
0.8179536451730718
 31
0.0
  0
LINE
  5
3A6
100
AcDbEntity
100
AcDbLine
  8
color#000000ff
 62
256
370
-1
  6
BYLAYER
 10
1.6298608246053863
 20
0.8179536451730718
 30
0.0
 11
1.6179945182300539
 21
0.8461196682038267
 31
0.0
  0
LINE
  5
3A7
100
AcDbEntity
100
AcDbLine
  8
color#000000ff
 62
256
370
-1
  6
BYLAYER
 10
1.6179945182300539
 20
0.8461196682038267
 30
0.0
 11
1.6029023051075857
 21
0.8726632602006098
 31
0.0
  0
LINE
  5
3A8
100
AcDbEntity
100
AcDbLine
  8
color#000000ff
 62
256
370
-1
  6
BYLAYER
 10
1.6029023051075857
 20
0.8726632602006098
 30
0.0
 11
1.584621809119495
 21
0.8972147903716115
 31
0.0
  0
LINE
  5
3A9
100
AcDbEntity
100
AcDbLine
  8
color#000000ff
 62
256
370
-1
  6
BYLAYER
 10
1.584621809119495
 20
0.8972147903716115
 30
0.0
 11
1.5706821232299961
 21
0.9122932424136063
 31
0.0
  0
LINE
  5
3AA
100
AcDbEntity
100
AcDbLine
  8
color#000000ff
 62
256
370
-1
  6
BYLAYER
 10
1.5706821232299961
 20
0.9122932424136063
 30
0.0
 11
1.5553532922754167
 21
0.9262125330576154
 31
0.0
  0
LINE
  5
3AB
100
AcDbEntity
100
AcDbLine
  8
color#000000ff
 62
256
370
-1
  6
BYLAYER
 10
1.5553532922754167
 20
0.9262125330576154
 30
0.0
 11
1.5386464640725004
 21
0.9388631420690317
 31
0.0
  0
LINE
  5
3AC
100
AcDbEntity
100
AcDbLine
  8
color#000000ff
 62
256
370
-1
  6
BYLAYER
 10
1.5386464640725004
 20
0.9388631420690317
 30
0.0
 11
1.5100475839983563
 21
0.8357748495751929
 31
0.0
  0
LINE
  5
3AD
100
AcDbEntity
100
AcDbLine
  8
color#000000ff
 62
256
370
-1
  6
BYLAYER
 10
1.5100475839983563
 20
0.8357748495751929
 30
0.0
 11
1.510464076705623
 21
0.8005602821946308
 31
0.0
  0
LINE
  5
3AE
100
AcDbEntity
100
AcDbLine
  8
color#000000ff
 62
256
370
-1
  6
BYLAYER
 10
1.510464076705623
 20
0.8005602821946308
 30
0.0
 11
1.5164522235674796
 21
0.7732339933311114
 31
0.0
  0
LINE
  5
3AF
100
AcDbEntity
100
AcDbLine
  8
color#000000ff
 62
256
370
-1
  6
BYLAYER
 10
1.5164522235674796
 20
0.7732339933311114
 30
0.0
 11
1.5248467247860524
 21
0.7535684104319592
 31
0.0
  0
LINE
  5
3B0
100
AcDbEntity
100
AcDbLine
  8
color#000000ff
 62
256
370
-1
  6
BYLAYER
 10
1.5248467247860524
 20
0.7535684104319592
 30
0.0
 11
1.5325177696802421
 21
0.7409728489060695
 31
0.0
  0
LINE
  5
3B1
100
AcDbEntity
100
AcDbLine
  8
color#000000ff
 62
256
370
-1
  6
BYLAYER
 10
2.5989852503888651
 20
0.9203781931037018
 30
0.0
 11
2.6036410478388627
 21
0.8941414913338539
 31
0.0
  0
LINE
  5
3B2
100
AcDbEntity
100
AcDbLine
  8
color#000000ff
 62
256
370
-1
  6
BYLAYER
 10
2.6036410478388627
 20
0.8941414913338539
 30
0.0
 11
2.639258672620497
 21
0.7814632432891122
 31
0.0
  0
LINE
  5
3B3
100
AcDbEntity
100
AcDbLine
  8
color#000000ff
 62
256
370
-1
  6
BYLAYER
 10
2.639258672620497
 20
0.7814632432891122
 30
0.0
 11
2.6664957491086105
 21
0.7349106683797011
 31
0.0
  0
LINE
  5
3B4
100
AcDbEntity
100
AcDbLine
  8
color#000000ff
 62
256
370
-1
  6
BYLAYER
 10
2.6664957491086105
 20
0.7349106683797011
 30
0.0
 11
2.6892989859154279
 21
0.7075852009503293
 31
0.0
  0
LINE
  5
3B5
100
AcDbEntity
100
AcDbLine
  8
color#000000ff
 62
256
370
-1
  6
BYLAYER
 10
2.6892989859154279
 20
0.7075852009503293
 30
0.0
 11
2.7090942495989805
 21
0.6895716725267332
 31
0.0
  0
LINE
  5
3B6
100
AcDbEntity
100
AcDbLine
  8
color#000000ff
 62
256
370
-1
  6
BYLAYER
 10
2.7090942495989805
 20
0.6895716725267332
 30
0.0
 11
2.9144300572317814
 21
0.7541138934856705
 31
0.0
  0
LINE
  5
3B7
100
AcDbEntity
100
AcDbLine
  8
color#000000ff
 62
256
370
-1
  6
BYLAYER
 10
2.9144300572317814
 20
0.7541138934856705
 30
0.0
 11
2.9093503410832611
 21
0.7711109858558092
 31
0.0
  0
LINE
  5
3B8
100
AcDbEntity
100
AcDbLine
  8
color#000000ff
 62
256
370
-1
  6
BYLAYER
 10
2.9093503410832611
 20
0.7711109858558092
 30
0.0
 11
2.5989852503888651
 21
0.9203781931037018
 31
0.0
  0
LINE
  5
3B9
100
AcDbEntity
100
AcDbLine
  8
color#000000ff
 62
256
370
-1
  6
BYLAYER
 10
2.7288732956816779
 20
0.6540931397916379
 30
0.0
 11
2.9273385174316511
 21
0.5147306899025598
 31
0.0
  0
LINE
  5
3BA
100
AcDbEntity
100
AcDbLine
  8
color#000000ff
 62
256
370
-1
  6
BYLAYER
 10
2.9273385174316511
 20
0.5147306899025598
 30
0.0
 11
2.9277895853523175
 21
0.6673825619999561
 31
0.0
  0
LINE
  5
3BB
100
AcDbEntity
100
AcDbLine
  8
color#000000ff
 62
256
370
-1
  6
BYLAYER
 10
2.9277895853523175
 20
0.6673825619999561
 30
0.0
 11
3.1123302448639487
 21
0.6734127285381134
 31
0.0
  0
LINE
  5
3BC
100
AcDbEntity
100
AcDbLine
  8
color#000000ff
 62
256
370
-1
  6
BYLAYER
 10
3.1123302448639487
 20
0.6734127285381134
 30
0.0
 11
2.9719816660730234
 21
0.7413148439802405
 31
0.0
  0
LINE
  5
3BD
100
AcDbEntity
100
AcDbLine
  8
color#000000ff
 62
256
370
-1
  6
BYLAYER
 10
2.9719816660730234
 20
0.7413148439802405
 30
0.0
 11
2.7288732956816779
 21
0.6540931397916379
 31
0.0
  0
LINE
  5
3BE
100
AcDbEntity
100
AcDbLine
  8
color#000000ff
 62
256
370
-1
  6
BYLAYER
 10
0.897219542961351
 20
0.4691612970980132
 30
0.0
 11
0.931368408730642
 21
0.4508320872827332
 31
0.0
  0
LINE
  5
3BF
100
AcDbEntity
100
AcDbLine
  8
color#000000ff
 62
256
370
-1
  6
BYLAYER
 10
0.931368408730642
 20
0.4508320872827332
 30
0.0
 11
1.012990503430107
 21
0.4213460636873765
 31
0.0
  0
LINE
  5
3C0
100
AcDbEntity
100
AcDbLine
  8
color#000000ff
 62
256
370
-1
  6
BYLAYER
 10
1.012990503430107
 20
0.4213460636873765
 30
0.0
 11
1.1663372534048873
 21
0.4036108761673213
 31
0.0
  0
LINE
  5
3C1
100
AcDbEntity
100
AcDbLine
  8
color#000000ff
 62
256
370
-1
  6
BYLAYER
 10
1.1663372534048873
 20
0.4036108761673213
 30
0.0
 11
1.3147512546120879
 21
0.4162294384579381
 31
0.0
  0
LINE
  5
3C2
100
AcDbEntity
100
AcDbLine
  8
color#000000ff
 62
256
370
-1
  6
BYLAYER
 10
1.3147512546120879
 20
0.4162294384579381
 30
0.0
 11
1.4068175014650171
 21
0.4418882425308708
 31
0.0
  0
LINE
  5
3C3
100
AcDbEntity
100
AcDbLine
  8
color#000000ff
 62
256
370
-1
  6
BYLAYER
 10
1.4068175014650171
 20
0.4418882425308708
 30
0.0
 11
1.4646108780863221
 21
0.4690652766849952
 31
0.0
  0
LINE
  5
3C4
100
AcDbEntity
100
AcDbLine
  8
color#000000ff
 62
256
370
-1
  6
BYLAYER
 10
1.4646108780863221
 20
0.4690652766849952
 30
0.0
 11
0.897219542961351
 21
0.4691612970980132
 31
0.0
  0
LINE
  5
3C5
100
AcDbEntity
100
AcDbLine
  8
color#000000ff
 62
256
370
-1
  6
BYLAYER
 10
3.0489158166661099
 20
0.4689208546023956
 30
0.0
 11
3.0748946702495865
 21
0.4592406346983585
 31
0.0
  0
LINE
  5
3C6
100
AcDbEntity
100
AcDbLine
  8
color#000000ff
 62
256
370
-1
  6
BYLAYER
 10
3.0748946702495865
 20
0.4592406346983585
 30
0.0
 11
3.1010834138771814
 21
0.4504199123939148
 31
0.0
  0
LINE
  5
3C7
100
AcDbEntity
100
AcDbLine
  8
color#000000ff
 62
256
370
-1
  6
BYLAYER
 10
3.1010834138771814
 20
0.4504199123939148
 30
0.0
 11
3.127467702182924
 21
0.4424385146760462
 31
0.0
  0
LINE
  5
3C8
100
AcDbEntity
100
AcDbLine
  8
color#000000ff
 62
256
370
-1
  6
BYLAYER
 10
3.127467702182924
 20
0.4424385146760462
 30
0.0
 11
3.1540331898008458
 21
0.4352762685317334
 31
0.0
  0
LINE
  5
3C9
100
AcDbEntity
100
AcDbLine
  8
color#000000ff
 62
256
370
-1
  6
BYLAYER
 10
3.1540331898008458
 20
0.4352762685317334
 30
0.0
 11
3.180765531364977
 21
0.428913000947957
 31
0.0
  0
LINE
  5
3CA
100
AcDbEntity
100
AcDbLine
  8
color#000000ff
 62
256
370
-1
  6
BYLAYER
 10
3.180765531364977
 20
0.428913000947957
 30
0.0
 11
3.2076503815093473
 21
0.4233285389116995
 31
0.0
  0
LINE
  5
3CB
100
AcDbEntity
100
AcDbLine
  8
color#000000ff
 62
256
370
-1
  6
BYLAYER
 10
3.2076503815093473
 20
0.4233285389116995
 30
0.0
 11
3.2346733948679876
 21
0.4185027094099409
 31
0.0
  0
LINE
  5
3CC
100
AcDbEntity
100
AcDbLine
  8
color#000000ff
 62
256
370
-1
  6
BYLAYER
 10
3.2346733948679876
 20
0.4185027094099409
 30
0.0
 11
3.2618202260749283
 21
0.4144153394296634
 31
0.0
  0
LINE
  5
3CD
100
AcDbEntity
100
AcDbLine
  8
color#000000ff
 62
256
370
-1
  6
BYLAYER
 10
3.2618202260749283
 20
0.4144153394296634
 30
0.0
 11
3.2890765297641997
 21
0.4110462559578462
 31
0.0
  0
LINE
  5
3CE
100
AcDbEntity
100
AcDbLine
  8
color#000000ff
 62
256
370
-1
  6
BYLAYER
 10
3.2890765297641997
 20
0.4110462559578462
 30
0.0
 11
3.3164279605698321
 21
0.4083752859814725
 31
0.0
  0
LINE
  5
3CF
100
AcDbEntity
100
AcDbLine
  8
color#000000ff
 62
256
370
-1
  6
BYLAYER
 10
3.3164279605698321
 20
0.4083752859814725
 30
0.0
 11
3.343860173125857
 21
0.4063822564875221
 31
0.0
  0
LINE
  5
3D0
100
AcDbEntity
100
AcDbLine
  8
color#000000ff
 62
256
370
-1
  6
BYLAYER
 10
3.343860173125857
 20
0.4063822564875221
 30
0.0
 11
3.3713588220663033
 21
0.4050469944629759
 31
0.0
  0
LINE
  5
3D1
100
AcDbEntity
100
AcDbLine
  8
color#000000ff
 62
256
370
-1
  6
BYLAYER
 10
3.3713588220663033
 20
0.4050469944629759
 30
0.0
 11
3.3989095620252026
 21
0.4043493268948152
 31
0.0
  0
LINE
  5
3D2
100
AcDbEntity
100
AcDbLine
  8
color#000000ff
 62
256
370
-1
  6
BYLAYER
 10
3.3989095620252026
 20
0.4043493268948152
 30
0.0
 11
3.4541099335344794
 21
0.4047860830755765
 31
0.0
  0
LINE
  5
3D3
100
AcDbEntity
100
AcDbLine
  8
color#000000ff
 62
256
370
-1
  6
BYLAYER
 10
3.4541099335344794
 20
0.4047860830755765
 30
0.0
 11
3.5093465247259306
 21
0.4075311409256534
 31
0.0
  0
LINE
  5
3D4
100
AcDbEntity
100
AcDbLine
  8
color#000000ff
 62
256
370
-1
  6
BYLAYER
 10
3.5093465247259306
 20
0.4075311409256534
 30
0.0
 11
3.5645045726717988
 21
0.4124231163408965
 31
0.0
  0
LINE
  5
3D5
100
AcDbEntity
100
AcDbLine
  8
color#000000ff
 62
256
370
-1
  6
BYLAYER
 10
3.5645045726717988
 20
0.4124231163408965
 30
0.0
 11
3.6194693144443288
 21
0.4193006252171535
 31
0.0
  0
LINE
  5
3D6
100
AcDbEntity
100
AcDbLine
  8
color#000000ff
 62
256
370
-1
  6
BYLAYER
 10
3.6194693144443288
 20
0.4193006252171535
 30
0.0
 11
3.6741259871157634
 21
0.428002283450272
 31
0.0
  0
LINE
  5
3D7
100
AcDbEntity
100
AcDbLine
  8
color#000000ff
 62
256
370
-1
  6
BYLAYER
 10
3.6741259871157634
 20
0.428002283450272
 30
0.0
 11
3.7552823226538914
 21
0.4441220231162377
 31
0.0
  0
LINE
  5
3D8
100
AcDbEntity
100
AcDbLine
  8
color#000000ff
 62
256
370
-1
  6
BYLAYER
 10
3.7552823226538914
 20
0.4441220231162377
 30
0.0
 11
3.8350999612459225
 21
0.463438313249293
 31
0.0
  0
LINE
  5
3D9
100
AcDbEntity
100
AcDbLine
  8
color#000000ff
 62
256
370
-1
  6
BYLAYER
 10
3.8350999612459225
 20
0.463438313249293
 30
0.0
 11
3.5555898242832642
 21
0.4722348575647793
 31
0.0
  0
LINE
  5
3DA
100
AcDbEntity
100
AcDbLine
  8
color#000000ff
 62
256
370
-1
  6
BYLAYER
 10
3.5555898242832642
 20
0.4722348575647793
 30
0.0
 11
3.0489158166661099
 21
0.4689208546023956
 31
0.0
  0
ENDSEC
  0
SECTION
  2
OBJECTS
  0
DICTIONARY
  5
C
100
AcDbDictionary
280
0
281
1
  3
ACAD_GROUP
350
D
  3
ACAD_LAYOUT
350
1A
  3
ACAD_MLINESTYLE
350
17
  3
ACAD_PLOTSETTINGS
350
19
  3
ACAD_PLOTSTYLENAME
350
E
  3
AcDbVariableDictionary
350
3DB
  0
DICTIONARY
  5
D
100
AcDbDictionary
280
0
281
1
  0
ACDBDICTIONARYWDFLT
  5
E
100
AcDbDictionary
281
1
  3
Normal
350
F
100
AcDbDictionaryWithDefault
340
F
  0
ACDBPLACEHOLDER
  5
F
  0
DICTIONARY
  5
17
100
AcDbDictionary
280
0
281
1
  3
Standard
350
18
  0
MLINESTYLE
  5
18
100
AcDbMlineStyle
  2
STANDARD
 70
0
  3

 62
256
 51
90.0
 52
90.0
 71
2
 49
0.5
 62
256
  6
BYLAYER
 49
-0.5
 62
256
  6
BYLAYER
  0
DICTIONARY
  5
19
100
AcDbDictionary
280
0
281
1
  0
DICTIONARY
  5
1A
100
AcDbDictionary
281
1
  3
Layout1
350
1E
  3
Layout2
350
26
  3
Model
350
22
  0
LAYOUT
  5
1E
100
AcDbPlotSettings
  1

  2
C:\Program Files\AutoCAD 2002\plotters\DWF ePlot (optimized for plotting).pc3
  4

  6

 40
0.0
 41
0.0
 42
0.0
 43
0.0
 44
0.0
 45
0.0
 46
0.0
 47
0.0
 48
0.0
 49
0.0
140
0.0
141
0.0
142
1.0
143
1.0
 70
688
 72
0
 73
0
 74
5
  7

 75
16
147
1.0
148
0.0
149
0.0
100
AcDbLayout
  1
Layout1
 70
1
 71
1
 10
0.0
 20
0.0
 11
420.0
 21
297.0
 12
0.0
 22
0.0
 32
0.0
 14
100000000000000000000.0
 24
100000000000000000000.0
 34
100000000000000000000.0
 15
-100000000000000000000.0
 25
-100000000000000000000.0
 35
-100000000000000000000.0
146
0.0
 13
0.0
 23
0.0
 33
0.0
 16
1.0
 26
0.0
 36
0.0
 17
0.0
 27
1.0
 37
0.0
 76
0
330
1B
  0
LAYOUT
  5
22
100
AcDbPlotSettings
  1

  2
C:\Program Files\AutoCAD 2002\plotters\DWF ePlot (optimized for plotting).pc3
  4

  6

 40
0.0
 41
0.0
 42
0.0
 43
0.0
 44
0.0
 45
0.0
 46
0.0
 47
0.0
 48
0.0
 49
0.0
140
0.0
141
0.0
142
1.0
143
1.0
 70
1712
 72
0
 73
0
 74
0
  7

 75
0
147
1.0
148
0.0
149
0.0
100
AcDbLayout
  1
Model
 70
1
 71
0
 10
0.0
 20
0.0
 11
12.0
 21
9.0
 12
0.0
 22
0.0
 32
0.0
 14
0.0
 24
0.0
 34
0.0
 15
0.0
 25
0.0
 35
0.0
146
0.0
 13
0.0
 23
0.0
 33
0.0
 16
1.0
 26
0.0
 36
0.0
 17
0.0
 27
1.0
 37
0.0
 76
0
330
1F
  0
LAYOUT
  5
26
100
AcDbPlotSettings
  1

  2
C:\Program Files\AutoCAD 2002\plotters\DWF ePlot (optimized for plotting).pc3
  4

  6

 40
0.0
 41
0.0
 42
0.0
 43
0.0
 44
0.0
 45
0.0
 46
0.0
 47
0.0
 48
0.0
 49
0.0
140
0.0
141
0.0
142
1.0
143
1.0
 70
688
 72
0
 73
0
 74
5
  7

 75
16
147
1.0
148
0.0
149
0.0
100
AcDbLayout
  1
Layout2
 70
1
 71
2
 10
0.0
 20
0.0
 11
12.0
 21
9.0
 12
0.0
 22
0.0
 32
0.0
 14
0.0
 24
0.0
 34
0.0
 15
0.0
 25
0.0
 35
0.0
146
0.0
 13
0.0
 23
0.0
 33
0.0
 16
1.0
 26
0.0
 36
0.0
 17
0.0
 27
1.0
 37
0.0
 76
0
330
23
  0
DICTIONARY
  5
3DB
100
AcDbDictionary
281
1
  3
DIMASSOC
350
3DD
  3
HIDETEXT
350
3DC
  0
DICTIONARYVAR
  5
3DC
100
DictionaryVariables
280
0
  1
2
  0
DICTIONARYVAR
  5
3DD
100
DictionaryVariables
280
0
  1
1
  0
ENDSEC
  0
EOF
