  0
SECTION
  2
HEADER
  9
$ACADVER
  1
AC1009
  9
$DWGCODEPAGE
  3
ansi_1252
  9
$INSBASE
 10
0.0
 20
0.0
 30
0.0
  9
$EXTMIN
 10
-3.608977559655188
 20
-2.866353267469691
 30
0.0
  9
$EXTMAX
 10
3.864704269866351
 20
2.685725584021431
 30
0.0
  9
$LIMMIN
 10
0.0
 20
0.0
  9
$LIMMAX
 10
12.0
 20
9.0
  9
$ORTHOMODE
 70
     0
  9
$REGENMODE
 70
     1
  9
$FILLMODE
 70
     1
  9
$QTEXTMODE
 70
     0
  9
$MIRRTEXT
 70
     1
  9
$DRAGMODE
 70
     2
  9
$LTSCALE
 40
1.0
  9
$OSMODE
 70
    37
  9
$ATTMODE
 70
     1
  9
$TEXTSIZE
 40
0.2
  9
$TRACEWID
 40
0.05
  9
$TEXTSTYLE
  7
STANDARD
  9
$CLAYER
  8
0
  9
$CELTYPE
  6
BYLAYER
  9
$CECOLOR
 62
   256
  9
$DIMSCALE
 40
1.0
  9
$DIMASZ
 40
0.18
  9
$DIMEXO
 40
0.0625
  9
$DIMDLI
 40
0.38
  9
$DIMRND
 40
0.0
  9
$DIMDLE
 40
0.0
  9
$DIMEXE
 40
0.18
  9
$DIMTP
 40
0.0
  9
$DIMTM
 40
0.0
  9
$DIMTXT
 40
0.18
  9
$DIMCEN
 40
0.09
  9
$DIMTSZ
 40
0.0
  9
$DIMTOL
 70
     0
  9
$DIMLIM
 70
     0
  9
$DIMTIH
 70
     1
  9
$DIMTOH
 70
     1
  9
$DIMSE1
 70
     0
  9
$DIMSE2
 70
     0
  9
$DIMTAD
 70
     0
  9
$DIMZIN
 70
     0
  9
$DIMBLK
  1

  9
$DIMASO
 70
     1
  9
$DIMSHO
 70
     1
  9
$DIMPOST
  1

  9
$DIMAPOST
  1

  9
$DIMALT
 70
     0
  9
$DIMALTD
 70
     2
  9
$DIMALTF
 40
25.4
  9
$DIMLFAC
 40
1.0
  9
$DIMTOFL
 70
     0
  9
$DIMTVP
 40
0.0
  9
$DIMTIX
 70
     0
  9
$DIMSOXD
 70
     0
  9
$DIMSAH
 70
     0
  9
$DIMBLK1
  1

  9
$DIMBLK2
  1

  9
$DIMSTYLE
  2
STANDARD
  9
$DIMCLRD
 70
     0
  9
$DIMCLRE
 70
     0
  9
$DIMCLRT
 70
     0
  9
$DIMTFAC
 40
1.0
  9
$DIMGAP
 40
0.09
  9
$LUNITS
 70
     2
  9
$LUPREC
 70
     4
  9
$SKETCHINC
 40
0.1
  9
$FILLETRAD
 40
0.5
  9
$AUNITS
 70
     0
  9
$AUPREC
 70
     0
  9
$MENU
  1
.
  9
$ELEVATION
 40
0.0
  9
$PELEVATION
 40
0.0
  9
$THICKNESS
 40
0.0
  9
$LIMCHECK
 70
     0
  9
$CHAMFERA
 40
0.0
  9
$CHAMFERB
 40
0.0
  9
$SKPOLY
 70
     0
  9
$TDCREATE
 40
2454910.5
  9
$TDUPDATE
 40
2458573.283819526
  9
$TDINDWG
 40
0.0000000116
  9
$TDUSRTIMER
 40
0.0000000116
  9
$USRTIMER
 70
     1
  9
$ANGBASE
 50
0.0
  9
$ANGDIR
 70
     0
  9
$PDMODE
 70
     0
  9
$PDSIZE
 40
0.0
  9
$PLINEWID
 40
0.0
  9
$COORDS
 70
     1
  9
$SPLFRAME
 70
     0
  9
$SPLINETYPE
 70
     6
  9
$SPLINESEGS
 70
     8
  9
$ATTDIA
 70
     0
  9
$ATTREQ
 70
     1
  9
$HANDLING
 70
     1
  9
$HANDSEED
  5
21E
  9
$SURFTAB1
 70
     6
  9
$SURFTAB2
 70
     6
  9
$SURFTYPE
 70
     6
  9
$SURFU
 70
     6
  9
$SURFV
 70
     6
  9
$UCSNAME
  2

  9
$UCSORG
 10
0.0
 20
0.0
 30
0.0
  9
$UCSXDIR
 10
1.0
 20
0.0
 30
0.0
  9
$UCSYDIR
 10
0.0
 20
1.0
 30
0.0
  9
$PUCSNAME
  2

  9
$PUCSORG
 10
0.0
 20
0.0
 30
0.0
  9
$PUCSXDIR
 10
1.0
 20
0.0
 30
0.0
  9
$PUCSYDIR
 10
0.0
 20
1.0
 30
0.0
  9
$USERI1
 70
     0
  9
$USERI2
 70
     0
  9
$USERI3
 70
     0
  9
$USERI4
 70
     0
  9
$USERI5
 70
     0
  9
$USERR1
 40
0.0
  9
$USERR2
 40
0.0
  9
$USERR3
 40
0.0
  9
$USERR4
 40
0.0
  9
$USERR5
 40
0.0
  9
$WORLDVIEW
 70
     1
  9
$SHADEDGE
 70
     3
  9
$SHADEDIF
 70
    70
  9
$TILEMODE
 70
     1
  9
$MAXACTVP
 70
    64
  9
$PLIMCHECK
 70
     0
  9
$PEXTMIN
 10
1.000000000000000E+20
 20
1.000000000000000E+20
 30
1.000000000000000E+20
  9
$PEXTMAX
 10
-1.000000000000000E+20
 20
-1.000000000000000E+20
 30
-1.000000000000000E+20
  9
$PLIMMIN
 10
0.0
 20
0.0
  9
$PLIMMAX
 10
12.0
 20
9.0
  9
$UNITMODE
 70
     0
  9
$VISRETAIN
 70
     1
  9
$PLINEGEN
 70
     0
  9
$PSLTSCALE
 70
     1
  0
ENDSEC
  0
SECTION
  2
TABLES
  0
TABLE
  2
VPORT
 70
     1
  0
VPORT
  2
*ACTIVE
 70
     0
 10
0.0
 20
0.0
 11
1.0
 21
1.0
 12
10.42990654205607
 22
4.5
 13
0.0
 23
0.0
 14
0.5
 24
0.5
 15
0.5
 25
0.5
 16
0.0
 26
0.0
 36
1.0
 17
0.0
 27
0.0
 37
0.0
 40
9.0
 41
1.972972972850329
 42
50.0
 43
0.0
 44
0.0
 50
0.0
 51
0.0
 71
     0
 72
   100
 73
     1
 74
     3
 75
     0
 76
     0
 77
     0
 78
     0
  0
ENDTAB
  0
TABLE
  2
LTYPE
 70
     2
  0
LTYPE
  2
CONTINUOUS
 70
     0
  3
Solid line
 72
    65
 73
     0
 40
0.0
  0
LTYPE
  2
CONTINUOUS2
 70
     0
  3
Solid Line
 72
    65
 73
     0
 40
0.0
  0
ENDTAB
  0
TABLE
  2
LAYER
 70
     2
  0
LAYER
  2
0
 70
     0
 62
     7
  6
CONTINUOUS
  0
LAYER
  2
LAYER_1
 70
     0
 62
     7
  6
CONTINUOUS
  0
ENDTAB
  0
TABLE
  2
STYLE
 70
     1
  0
STYLE
  2
STANDARD
 70
     0
 40
0.0
 41
1.0
 50
0.0
 71
     0
 42
0.2
  3
txt
  4

  0
ENDTAB
  0
TABLE
  2
VIEW
 70
     0
  0
ENDTAB
  0
TABLE
  2
UCS
 70
     0
  0
ENDTAB
  0
TABLE
  2
APPID
 70
     1
  0
APPID
  2
ACAD
 70
     0
  0
ENDTAB
  0
TABLE
  2
DIMSTYLE
 70
     1
  0
DIMSTYLE
  2
STANDARD
 70
     0
  3

  4

  5

  6

  7

 40
1.0
 41
0.18
 42
0.0625
 43
0.38
 44
0.18
 45
0.0
 46
0.0
 47
0.0
 48
0.0
140
0.18
141
0.09
142
0.0
143
25.4
144
1.0
145
0.0
146
1.0
147
0.09
 71
     0
 72
     0
 73
     1
 74
     1
 75
     0
 76
     0
 77
     0
 78
     0
170
     0
171
     2
172
     0
173
     0
174
     0
175
     0
176
     0
177
     0
178
     0
  0
ENDTAB
  0
ENDSEC
  0
SECTION
  2
BLOCKS
  0
BLOCK
  8
0
  2
$MODEL_SPACE
 70
     0
 10
0.0
 20
0.0
 30
0.0
  3
$MODEL_SPACE
  1

  0
ENDBLK
  5
21
  8
0
  0
BLOCK
 67
     1
  8
0
  2
$PAPER_SPACE
 70
     0
 10
0.0
 20
0.0
 30
0.0
  3
$PAPER_SPACE
  1

  0
ENDBLK
  5
1D
 67
     1
  8
0
  0
ENDSEC
  0
SECTION
  2
ENTITIES
  0
POLYLINE
  5
70
  8
LAYER_1
 66
     1
 10
0.0
 20
0.0
 30
0.0
 70
     1
  0
VERTEX
  5
8C
  8
LAYER_1
 10
1.152777777777778
 20
-1.652777777777778
 30
0.0
 42
-0.4732848177150271
  0
VERTEX
  5
8D
  8
LAYER_1
 10
1.155906182244469
 20
-1.621183960022247
 30
0.0
 42
-0.3575107650276725
  0
VERTEX
  5
8E
  8
LAYER_1
 10
1.194444444444445
 20
-1.625
 30
0.0
 42
-0.4732848177150299
  0
VERTEX
  5
8F
  8
LAYER_1
 10
1.191316039977753
 20
-1.656593817755531
 30
0.0
 42
-0.3575107650276725
  0
SEQEND
  5
209
  8
LAYER_1
  0
POLYLINE
  5
71
  8
LAYER_1
 66
     1
 10
0.0
 20
0.0
 30
0.0
 70
     1
  0
VERTEX
  5
90
  8
LAYER_1
 10
1.222222222222222
 20
-1.6268
 30
0.0
 42
-0.2154966032906765
  0
VERTEX
  5
91
  8
LAYER_1
 10
1.204767545451951
 20
-1.618910787434676
 30
0.0
 42
-0.6454180082325798
  0
VERTEX
  5
92
  8
LAYER_1
 10
1.208333333333333
 20
-1.611021574869351
 30
0.0
 42
-0.0813258885913914
  0
VERTEX
  5
93
  8
LAYER_1
 10
1.248304732567337
 20
-1.61756628001764
 30
0.0
 42
-0.5566066222074187
  0
VERTEX
  5
94
  8
LAYER_1
 10
1.250063311683711
 20
-1.625063311683711
 30
0.0
 42
-0.2696390380857905
  0
VERTEX
  5
95
  8
LAYER_1
 10
1.236315491345163
 20
-1.628700624349462
 30
0.0
 42
0.0671263783229393
  0
SEQEND
  5
20A
  8
LAYER_1
  0
POLYLINE
  5
72
  8
LAYER_1
 66
     1
 10
0.0
 20
0.0
 30
0.0
 70
     1
  0
VERTEX
  5
96
  8
LAYER_1
 10
3.342670260252155
 20
-1.999765802308706
 30
0.0
 42
-0.4391459053726258
  0
VERTEX
  5
97
  8
LAYER_1
 10
3.317526782694708
 20
-1.991775724237436
 30
0.0
 42
0.0269729830440754
  0
VERTEX
  5
98
  8
LAYER_1
 10
3.270833333333333
 20
-1.904120498186889
 30
0.0
 42
0.0197661592590103
  0
VERTEX
  5
99
  8
LAYER_1
 10
3.127765171184623
 20
-1.687136730926146
 30
0.0
 42
0.0302157810471529
  0
VERTEX
  5
9A
  8
LAYER_1
 10
3.020423442432317
 20
-1.555170483047968
 30
0.0
 42
-0.0646690095057147
  0
VERTEX
  5
9B
  8
LAYER_1
 10
2.99959733303995
 20
-1.525632499009728
 30
0.0
 42
-0.7602619587145936
  0
VERTEX
  5
9C
  8
LAYER_1
 10
3.026800451153111
 20
-1.5
 30
0.0
 42
-0.1329157508710673
  0
VERTEX
  5
9D
  8
LAYER_1
 10
3.046861311736215
 20
-1.521017200798191
 30
0.0
 42
0.0398585565458196
  0
VERTEX
  5
9E
  8
LAYER_1
 10
3.11009352737097
 20
-1.618055555555556
 30
0.0
 42
-0.0244732166816436
  0
VERTEX
  5
9F
  8
LAYER_1
 10
3.330250752637719
 20
-1.934227908614749
 30
0.0
 42
-0.1227921706525609
  0
VERTEX
  5
A0
  8
LAYER_1
 10
3.347222222222222
 20
-1.986319760001809
 30
0.0
 42
-0.0995818184678041
  0
VERTEX
  5
A1
  8
LAYER_1
 10
3.346015560978586
 20
-1.995701489290942
 30
0.0
 42
-0.1831258950927938
  0
SEQEND
  5
20B
  8
LAYER_1
  0
POLYLINE
  5
73
  8
LAYER_1
 66
     1
 10
0.0
 20
0.0
 30
0.0
 70
     1
  0
VERTEX
  5
A2
  8
LAYER_1
 10
3.293465425461477
 20
-1.607478541609598
 30
0.0
 42
0.020995830975031
  0
VERTEX
  5
A3
  8
LAYER_1
 10
3.156626327119558
 20
-1.495186388849628
 30
0.0
 42
-0.0550681966581682
  0
VERTEX
  5
A4
  8
LAYER_1
 10
3.027738287633621
 20
-1.373850739990897
 30
0.0
 42
-0.5332839448871126
  0
VERTEX
  5
A5
  8
LAYER_1
 10
3.031586377867512
 20
-1.360175148139398
 30
0.0
 42
-0.1733975659085
  0
VERTEX
  5
A6
  8
LAYER_1
 10
3.066614819413777
 20
-1.361111111111111
 30
0.0
 42
-0.1119044671347022
  0
VERTEX
  5
A7
  8
LAYER_1
 10
3.115120348151295
 20
-1.393797763784689
 30
0.0
 42
0.0178956260674583
  0
VERTEX
  5
A8
  8
LAYER_1
 10
3.280855460315144
 20
-1.557776251631327
 30
0.0
 42
0.0135110710083982
  0
VERTEX
  5
A9
  8
LAYER_1
 10
3.382414967393025
 20
-1.646360137322208
 30
0.0
 42
-0.6579655427750222
  0
VERTEX
  5
AA
  8
LAYER_1
 10
3.371653073145176
 20
-1.683318455219729
 30
0.0
 42
-0.2835571195053608
  0
VERTEX
  5
AB
  8
LAYER_1
 10
3.351254169321139
 20
-1.67398589580662
 30
0.0
 42
0.0632124196861946
  0
SEQEND
  5
20C
  8
LAYER_1
  0
POLYLINE
  5
74
  8
LAYER_1
 66
     1
 10
0.0
 20
0.0
 30
0.0
 70
     1
  0
VERTEX
  5
AC
  8
LAYER_1
 10
3.550383818713735
 20
-1.570003366427112
 30
0.0
 42
-0.2805902332899149
  0
VERTEX
  5
AD
  8
LAYER_1
 10
3.546622617927913
 20
-1.572687766228304
 30
0.0
 42
-0.2226955209503391
  0
VERTEX
  5
AE
  8
LAYER_1
 10
3.541331850872944
 20
-1.570663107565376
 30
0.0
 42
0.0050112217313541
  0
VERTEX
  5
AF
  8
LAYER_1
 10
3.343377095754887
 20
-1.369393073053724
 30
0.0
 42
0.079366854575905
  0
VERTEX
  5
B0
  8
LAYER_1
 10
3.120274109818932
 20
-1.208333333333333
 30
0.0
 42
0.0698163549889545
  0
VERTEX
  5
B1
  8
LAYER_1
 10
3.068514441788949
 20
-1.190750545412752
 30
0.0
 42
-0.338139249375111
  0
VERTEX
  5
B2
  8
LAYER_1
 10
3.048611111111111
 20
-1.168536682876798
 30
0.0
 42
-0.6145095694088294
  0
VERTEX
  5
B3
  8
LAYER_1
 10
3.088472544801035
 20
-1.14425016018497
 30
0.0
 42
0.0151647527591183
  0
VERTEX
  5
B4
  8
LAYER_1
 10
3.232095772216506
 20
-1.227344203288295
 30
0.0
 42
-0.062472252861312
  0
VERTEX
  5
B5
  8
LAYER_1
 10
3.381159204356163
 20
-1.333527520130202
 30
0.0
 42
-0.0527112839802119
  0
VERTEX
  5
B6
  8
LAYER_1
 10
3.524305555555555
 20
-1.496168748054136
 30
0.0
 42
-0.0693320157656015
  0
VERTEX
  5
B7
  8
LAYER_1
 10
3.551095171971241
 20
-1.547883615787413
 30
0.0
 42
-0.1880038907059356
  0
SEQEND
  5
20D
  8
LAYER_1
  0
POLYLINE
  5
75
  8
LAYER_1
 66
     1
 10
0.0
 20
0.0
 30
0.0
 70
     1
  0
VERTEX
  5
B8
  8
LAYER_1
 10
3.607563283993408
 20
-1.24869541765579
 30
0.0
 42
-0.433808650706764
  0
VERTEX
  5
B9
  8
LAYER_1
 10
3.590723967643875
 20
-1.253598870383778
 30
0.0
 42
0.032560066063861
  0
VERTEX
  5
BA
  8
LAYER_1
 10
3.531677689120684
 20
-1.223593242743873
 30
0.0
 42
-0.0135131019798452
  0
VERTEX
  5
BB
  8
LAYER_1
 10
3.213737693943183
 20
-1.076973961717278
 30
0.0
 42
-0.0561544018747866
  0
VERTEX
  5
BC
  8
LAYER_1
 10
3.142653777372959
 20
-1.031280293542824
 30
0.0
 42
-0.8366988751307586
  0
VERTEX
  5
BD
  8
LAYER_1
 10
3.152899431777176
 20
-1.012796550584296
 30
0.0
 42
0.0030793783326022
  0
VERTEX
  5
BE
  8
LAYER_1
 10
3.218435392854718
 20
-1.03470598058741
 30
0.0
 42
-0.0408235275989116
  0
VERTEX
  5
BF
  8
LAYER_1
 10
3.403261104657715
 20
-1.112429710911894
 30
0.0
 42
-0.0335975911866565
  0
VERTEX
  5
C0
  8
LAYER_1
 10
3.61124720000891
 20
-1.239046058367131
 30
0.0
 42
-0.5238432549157666
  0
VERTEX
  5
C1
  8
LAYER_1
 10
3.611201470614043
 20
-1.244556499123318
 30
0.0
 42
0.1268115201095769
  0
SEQEND
  5
20E
  8
LAYER_1
  0
POLYLINE
  5
76
  8
LAYER_1
 66
     1
 10
0.0
 20
0.0
 30
0.0
 70
     1
  0
VERTEX
  5
C2
  8
LAYER_1
 10
0.5902885514838355
 20
-2.084308449451355
 30
0.0
 42
-0.0388074572807867
  0
VERTEX
  5
C3
  8
LAYER_1
 10
0.4216861145908609
 20
-2.07182209599478
 30
0.0
 42
-0.0163189125280539
  0
VERTEX
  5
C4
  8
LAYER_1
 10
0.0269260806881719
 20
-1.998300571320013
 30
0.0
 42
-0.1248990056829459
  0
VERTEX
  5
C5
  8
LAYER_1
 10
-0.009296434120543
 20
-1.98011534339903
 30
0.0
 42
-0.7666917892042352
  0
VERTEX
  5
C6
  8
LAYER_1
 10
-0.0047952230957946
 20
-1.970825413952326
 30
0.0
 42
0.0080559343931499
  0
VERTEX
  5
C7
  8
LAYER_1
 10
0.4671461771202995
 20
-2.053043319884237
 30
0.0
 42
0.0254229425397475
  0
VERTEX
  5
C8
  8
LAYER_1
 10
0.6181889562613558
 20
-2.069043006802699
 30
0.0
  0
VERTEX
  5
C9
  8
LAYER_1
 10
1.159430296582698
 20
-2.052622691572866
 30
0.0
 42
0.0434719078962353
  0
VERTEX
  5
CA
  8
LAYER_1
 10
1.264177593806864
 20
-2.030644804431744
 30
0.0
 42
0.0125048676989232
  0
VERTEX
  5
CB
  8
LAYER_1
 10
1.616900720710488
 20
-1.914258678316495
 30
0.0
 42
0.0543472066132922
  0
VERTEX
  5
CC
  8
LAYER_1
 10
1.747067233285241
 20
-1.851009564405391
 30
0.0
 42
0.0230786380726247
  0
VERTEX
  5
CD
  8
LAYER_1
 10
2.026299392607305
 20
-1.657073253118295
 30
0.0
  0
VERTEX
  5
CE
  8
LAYER_1
 10
2.104452892650237
 20
-1.599823263020605
 30
0.0
 42
-0.4105844847738729
  0
VERTEX
  5
CF
  8
LAYER_1
 10
2.105814052364383
 20
-1.608327060352296
 30
0.0
 42
-0.0653732985008326
  0
VERTEX
  5
D0
  8
LAYER_1
 10
2.074093588163493
 20
-1.642305901646937
 30
0.0
 42
-0.0328347558038104
  0
VERTEX
  5
D1
  8
LAYER_1
 10
1.763826644023443
 20
-1.865476416302183
 30
0.0
 42
-0.0561821616675926
  0
VERTEX
  5
D2
  8
LAYER_1
 10
1.561859298017201
 20
-1.961958969883483
 30
0.0
 42
-0.0208014476195804
  0
VERTEX
  5
D3
  8
LAYER_1
 10
1.212613383041225
 20
-2.066869829809296
 30
0.0
 42
-0.0617199419145072
  0
VERTEX
  5
D4
  8
LAYER_1
 10
1.090288548905602
 20
-2.08248125075002
 30
0.0
 42
0.0000007057951717
  0
VERTEX
  5
D5
  8
LAYER_1
 10
0.8402885501947189
 20
-2.083394850100688
 30
0.0
 42
-0.0000007057028715
  0
SEQEND
  5
20F
  8
LAYER_1
  0
POLYLINE
  5
77
  8
LAYER_1
 66
     1
 10
0.0
 20
0.0
 30
0.0
 70
     1
  0
VERTEX
  5
D6
  8
LAYER_1
 10
-0.0347222222222223
 20
-1.803746315763271
 30
0.0
 42
-0.0722493484371841
  0
VERTEX
  5
D7
  8
LAYER_1
 10
-0.5963546660522729
 20
-1.663575735443208
 30
0.0
 42
-0.0620810376836091
  0
VERTEX
  5
D8
  8
LAYER_1
 10
-1.182566909234909
 20
-1.333490096804738
 30
0.0
 42
-0.0131287731463654
  0
VERTEX
  5
D9
  8
LAYER_1
 10
-1.225024282926633
 20
-1.300327961891157
 30
0.0
 42
-0.845619867076553
  0
VERTEX
  5
DA
  8
LAYER_1
 10
-1.213084948433776
 20
-1.279593052448646
 30
0.0
 42
-0.0863332847354081
  0
VERTEX
  5
DB
  8
LAYER_1
 10
-1.14829553702385
 20
-1.317360971566
 30
0.0
 42
0.0589048012641154
  0
VERTEX
  5
DC
  8
LAYER_1
 10
-1.031994117017609
 20
-1.393947877697132
 30
0.0
 42
0.0332391487789285
  0
VERTEX
  5
DD
  8
LAYER_1
 10
-0.4851313348210371
 20
-1.624007649985789
 30
0.0
 42
0.0593731711674315
  0
VERTEX
  5
DE
  8
LAYER_1
 10
-0.1597222222222223
 20
-1.694439683937701
 30
0.0
 42
0.0738947489281571
  0
VERTEX
  5
DF
  8
LAYER_1
 10
-0.0000122993183624
 20
-1.685971139247531
 30
0.0
 42
-0.2092333230498497
  0
VERTEX
  5
E0
  8
LAYER_1
 10
0.0393518518518516
 20
-1.694444444444444
 30
0.0
 42
-0.3232028252462824
  0
VERTEX
  5
E1
  8
LAYER_1
 10
0.0443767982927639
 20
-1.709554541852504
 30
0.0
 42
0.3239763289124915
  0
VERTEX
  5
E2
  8
LAYER_1
 10
0.0494228995848696
 20
-1.724657587643498
 30
0.0
  0
VERTEX
  5
E3
  8
LAYER_1
 10
0.4787379434645267
 20
-1.722263022894623
 30
0.0
 42
0.0537624988251536
  0
VERTEX
  5
E4
  8
LAYER_1
 10
0.5619136908711966
 20
-1.705410860251377
 30
0.0
 42
-0.0743651243474689
  0
VERTEX
  5
E5
  8
LAYER_1
 10
0.6457107593796785
 20
-1.691985077153271
 30
0.0
 42
-0.0892984477342332
  0
VERTEX
  5
E6
  8
LAYER_1
 10
0.6955838141577309
 20
-1.700428792877721
 30
0.0
 42
0.0985289495114465
  0
VERTEX
  5
E7
  8
LAYER_1
 10
0.7456030256385606
 20
-1.707958494795194
 30
0.0
 42
0.0788577033056013
  0
VERTEX
  5
E8
  8
LAYER_1
 10
0.8497102954651417
 20
-1.686377658019616
 30
0.0
 42
-0.1070645164682848
  0
VERTEX
  5
E9
  8
LAYER_1
 10
0.9548611111111107
 20
-1.67064990815938
 30
0.0
 42
0.1103498646204017
  0
VERTEX
  5
EA
  8
LAYER_1
 10
0.9830109647520078
 20
-1.66625236509502
 30
0.0
 42
-0.387567376740916
  0
VERTEX
  5
EB
  8
LAYER_1
 10
1.009628300059371
 20
-1.676414555121892
 30
0.0
 42
-0.3752091199944849
  0
VERTEX
  5
EC
  8
LAYER_1
 10
1.005826328897492
 20
-1.69122355755465
 30
0.0
 42
0.0776943466853119
  0
VERTEX
  5
ED
  8
LAYER_1
 10
0.9947089947089962
 20
-1.701719576719576
 30
0.0
 42
-0.0315950718015436
  0
VERTEX
  5
EE
  8
LAYER_1
 10
0.9791224633851825
 20
-1.719411051269952
 30
0.0
 42
-0.1989123673796059
  0
VERTEX
  5
EF
  8
LAYER_1
 10
0.9755291005291022
 20
-1.720899470899469
 30
0.0
 42
-0.4052006835832443
  0
VERTEX
  5
F0
  8
LAYER_1
 10
0.967139319028365
 20
-1.712764762262192
 30
0.0
 42
0.387341926284639
  0
VERTEX
  5
F1
  8
LAYER_1
 10
0.9590046103910836
 20
-1.704374980761458
 30
0.0
 42
0.3037527723925736
  0
VERTEX
  5
F2
  8
LAYER_1
 10
0.9492277362732588
 20
-1.710077876008833
 30
0.0
 42
-0.1624360016024559
  0
VERTEX
  5
F3
  8
LAYER_1
 10
0.9413078607510972
 20
-1.718164027963365
 30
0.0
 42
-0.0714807228586182
  0
VERTEX
  5
F4
  8
LAYER_1
 10
0.8119932029906125
 20
-1.762603256631404
 30
0.0
 42
-0.043635589551185
  0
VERTEX
  5
F5
  8
LAYER_1
 10
0.2847222222222223
 20
-1.816078758439423
 30
0.0
 42
-0.0131119224641982
  0
VERTEX
  5
F6
  8
LAYER_1
 10
0.1118083056393717
 20
-1.813940672175303
 30
0.0
 42
-0.0154376693273874
  0
SEQEND
  5
210
  8
LAYER_1
  0
POLYLINE
  5
78
  8
LAYER_1
 66
     1
 10
0.0
 20
0.0
 30
0.0
 70
     1
  0
VERTEX
  5
F7
  8
LAYER_1
 10
3.637812271989943
 20
-1.009874266513625
 30
0.0
 42
-0.3146762514950641
  0
VERTEX
  5
F8
  8
LAYER_1
 10
3.603459017639929
 20
-1.008449029404369
 30
0.0
 42
0.0603098233412332
  0
VERTEX
  5
F9
  8
LAYER_1
 10
3.487667139450025
 20
-0.9404921343183807
 30
0.0
 42
-0.0392602589252441
  0
VERTEX
  5
FA
  8
LAYER_1
 10
3.458663573011038
 20
-0.925069286765006
 30
0.0
 42
0.1672515508570725
  0
VERTEX
  5
FB
  8
LAYER_1
 10
3.42672316778894
 20
-0.9173958516096441
 30
0.0
 42
0.2458503674495668
  0
VERTEX
  5
FC
  8
LAYER_1
 10
3.415316192171632
 20
-0.9248335266746756
 30
0.0
 42
-0.2716993005811963
  0
VERTEX
  5
FD
  8
LAYER_1
 10
3.403562378776049
 20
-0.9317100064258765
 30
0.0
 42
-0.1355857205360961
  0
VERTEX
  5
FE
  8
LAYER_1
 10
3.376104108458184
 20
-0.9240879650971195
 30
0.0
 42
0.0404136962338222
  0
VERTEX
  5
FF
  8
LAYER_1
 10
3.274305555555555
 20
-0.8737136586544825
 30
0.0
 42
0.0129310358943612
  0
VERTEX
  5
100
  8
LAYER_1
 10
3.22927521632375
 20
-0.8571297167532561
 30
0.0
 42
-0.8789090292421539
  0
VERTEX
  5
101
  8
LAYER_1
 10
3.237327913236109
 20
-0.817053058418753
 30
0.0
 42
-0.1417417194093036
  0
VERTEX
  5
102
  8
LAYER_1
 10
3.269929552488678
 20
-0.8289972911438309
 30
0.0
 42
0.0742274343792948
  0
VERTEX
  5
103
  8
LAYER_1
 10
3.32693568466237
 20
-0.8590099060423291
 30
0.0
 42
0.0269145154829559
  0
VERTEX
  5
104
  8
LAYER_1
 10
3.527798963976318
 20
-0.9173365433444979
 30
0.0
 42
-0.0817699948392611
  0
VERTEX
  5
105
  8
LAYER_1
 10
3.631944444444445
 20
-0.9603859151364134
 30
0.0
 42
-0.2282524130528555
  0
VERTEX
  5
106
  8
LAYER_1
 10
3.648746704914082
 20
-0.9867833132172015
 30
0.0
 42
-0.2877022682176043
  0
SEQEND
  5
211
  8
LAYER_1
  0
POLYLINE
  5
79
  8
LAYER_1
 66
     1
 10
0.0
 20
0.0
 30
0.0
 70
     1
  0
VERTEX
  5
107
  8
LAYER_1
 10
3.245681286157402
 20
-0.5691375653357953
 30
0.0
 42
-0.8446303288190898
  0
VERTEX
  5
108
  8
LAYER_1
 10
3.237148836838836
 20
-0.5477462188629225
 30
0.0
 42
-0.0913713729701473
  0
VERTEX
  5
109
  8
LAYER_1
 10
3.354166666666667
 20
-0.5029831132531561
 30
0.0
  0
VERTEX
  5
10A
  8
LAYER_1
 10
3.625
 20
-0.4883373925251466
 30
0.0
 42
-0.6161323418302593
  0
VERTEX
  5
10B
  8
LAYER_1
 10
3.618880163568551
 20
-0.5086978270974524
 30
0.0
 42
-0.0299540062590689
  0
VERTEX
  5
10C
  8
LAYER_1
 10
3.573752713044387
 20
-0.5138888888888888
 30
0.0
 42
0.028057692113481
  0
VERTEX
  5
10D
  8
LAYER_1
 10
3.479558806990227
 20
-0.5243626113637012
 30
0.0
 42
0.0111596483390403
  0
SEQEND
  5
212
  8
LAYER_1
  0
POLYLINE
  5
7A
  8
LAYER_1
 66
     1
 10
0.0
 20
0.0
 30
0.0
 70
     1
  0
VERTEX
  5
10E
  8
LAYER_1
 10
3.451388888888888
 20
-0.7469324209559471
 30
0.0
 42
-0.1730377821641436
  0
VERTEX
  5
10F
  8
LAYER_1
 10
3.438332814603041
 20
-0.734429551238061
 30
0.0
 42
0.1845949506047762
  0
VERTEX
  5
110
  8
LAYER_1
 10
3.425
 20
-0.7222222222222223
 30
0.0
  0
VERTEX
  5
111
  8
LAYER_1
 10
3.277777777777778
 20
-0.7222222222222223
 30
0.0
 42
-0.6134355588819344
  0
VERTEX
  5
112
  8
LAYER_1
 10
3.286392603375959
 20
-0.6957915206343513
 30
0.0
 42
-0.062164059274814
  0
VERTEX
  5
113
  8
LAYER_1
 10
3.336898225409346
 20
-0.6942220123588945
 30
0.0
 42
0.0044764472851046
  0
VERTEX
  5
114
  8
LAYER_1
 10
3.431965154959761
 20
-0.7022407918092507
 30
0.0
 42
-0.0134199550800486
  0
VERTEX
  5
115
  8
LAYER_1
 10
3.526873467495918
 20
-0.711958514256226
 30
0.0
 42
-0.0123735862819772
  0
VERTEX
  5
116
  8
LAYER_1
 10
3.656832712454678
 20
-0.7320812989572353
 30
0.0
 42
-0.5665193345851985
  0
VERTEX
  5
117
  8
LAYER_1
 10
3.669871588330848
 20
-0.7665592094369909
 30
0.0
  0
SEQEND
  5
213
  8
LAYER_1
  0
POLYLINE
  5
7B
  8
LAYER_1
 66
     1
 10
0.0
 20
0.0
 30
0.0
 70
     1
  0
VERTEX
  5
118
  8
LAYER_1
 10
-0.7757003732014562
 20
-0.0069254958959394
 30
0.0
 42
-0.1211090718791578
  0
VERTEX
  5
119
  8
LAYER_1
 10
-0.8030210471015452
 20
-0.0130970926999091
 30
0.0
 42
-0.663480517879332
  0
VERTEX
  5
11A
  8
LAYER_1
 10
-0.8057149912544251
 20
-0.0063588034532599
 30
0.0
 42
-0.0557289201383743
  0
VERTEX
  5
11B
  8
LAYER_1
 10
-0.5358777599966874
 20
0.2066302977964282
 30
0.0
 42
-0.0668669877154229
  0
VERTEX
  5
11C
  8
LAYER_1
 10
-0.2743055555555554
 20
0.324484282634423
 30
0.0
 42
-0.052460089395932
  0
VERTEX
  5
11D
  8
LAYER_1
 10
-0.2496444386169213
 20
0.329098346407623
 30
0.0
 42
-0.6128771962084167
  0
VERTEX
  5
11E
  8
LAYER_1
 10
-0.2361111111111112
 20
0.3070874133947754
 30
0.0
  0
VERTEX
  5
11F
  8
LAYER_1
 10
-0.6180555555555554
 20
0.1111528824000656
 30
0.0
 42
0.0474937796010453
  0
VERTEX
  5
120
  8
LAYER_1
 10
-0.6952097772340052
 20
0.0498865195561747
 30
0.0
 42
-0.0758511595584926
  0
SEQEND
  5
214
  8
LAYER_1
  0
POLYLINE
  5
7C
  8
LAYER_1
 66
     1
 10
0.0
 20
0.0
 30
0.0
 70
     1
  0
VERTEX
  5
121
  8
LAYER_1
 10
-0.9046463728671907
 20
0.0523153972548459
 30
0.0
 42
-0.2178780828959401
  0
VERTEX
  5
122
  8
LAYER_1
 10
-0.9045927938009063
 20
0.052812816758112
 30
0.0
 42
-0.005255662709148
  0
VERTEX
  5
123
  8
LAYER_1
 10
-0.80308688068302
 20
0.2195448896602187
 30
0.0
 42
-0.0701893491526876
  0
VERTEX
  5
124
  8
LAYER_1
 10
-0.6781526953615886
 20
0.3686199806848252
 30
0.0
 42
-0.0338543266637292
  0
VERTEX
  5
125
  8
LAYER_1
 10
-0.4163885240207921
 20
0.5740687621555446
 30
0.0
 42
-0.0790366942769464
  0
VERTEX
  5
126
  8
LAYER_1
 10
-0.2867747835273686
 20
0.6350905812480809
 30
0.0
 42
-0.8367253680038057
  0
VERTEX
  5
127
  8
LAYER_1
 10
-0.27475286288455
 20
0.6108009105553294
 30
0.0
 42
-0.0053004918415949
  0
VERTEX
  5
128
  8
LAYER_1
 10
-0.3262619041370503
 20
0.5735350069189881
 30
0.0
 42
-0.0490728648826853
  0
VERTEX
  5
129
  8
LAYER_1
 10
-0.4069249727173673
 20
0.5276023063658007
 30
0.0
 42
0.054040922319126
  0
VERTEX
  5
12A
  8
LAYER_1
 10
-0.4871289063556268
 20
0.4808725231237245
 30
0.0
  0
VERTEX
  5
12B
  8
LAYER_1
 10
-0.8472222222222223
 20
0.1121843570137817
 30
0.0
 42
0.0101748203326316
  0
VERTEX
  5
12C
  8
LAYER_1
 10
-0.8764325671736672
 20
0.0360739172673858
 30
0.0
 42
-0.3740067074013965
  0
VERTEX
  5
12D
  8
LAYER_1
 10
-0.8951228997143139
 20
0.0256464769207203
 30
0.0
 42
-0.3996266214435102
  0
VERTEX
  5
12E
  8
LAYER_1
 10
-0.9034395267145388
 20
0.0377114854906359
 30
0.0
 42
0.1202239335553722
  0
SEQEND
  5
215
  8
LAYER_1
  0
POLYLINE
  5
7D
  8
LAYER_1
 66
     1
 10
0.0
 20
0.0
 30
0.0
 70
     1
  0
VERTEX
  5
12F
  8
LAYER_1
 10
-1.870694789941331
 20
1.236111111111111
 30
0.0
 42
-0.104785064491935
  0
VERTEX
  5
130
  8
LAYER_1
 10
-1.897215837490092
 20
1.255303132876287
 30
0.0
 42
-0.0922054603067916
  0
VERTEX
  5
131
  8
LAYER_1
 10
-1.916666666666667
 20
1.286909463099557
 30
0.0
  0
VERTEX
  5
132
  8
LAYER_1
 10
-1.916666666666667
 20
1.425317737593552
 30
0.0
 42
-0.2909317088602132
  0
VERTEX
  5
133
  8
LAYER_1
 10
-1.821157450600365
 20
1.494889244905244
 30
0.0
 42
-0.3184400435903134
  0
VERTEX
  5
134
  8
LAYER_1
 10
-1.727888421839165
 20
1.43728673339768
 30
0.0
 42
-0.2260341571023505
  0
VERTEX
  5
135
  8
LAYER_1
 10
-1.728880630014674
 20
1.414560846539807
 30
0.0
 42
-0.0885409839217101
  0
VERTEX
  5
136
  8
LAYER_1
 10
-1.763233181760772
 20
1.370738598261235
 30
0.0
 42
-0.1083722930371708
  0
VERTEX
  5
137
  8
LAYER_1
 10
-1.79442860056898
 20
1.353148734128178
 30
0.0
 42
0.3922239965165061
  0
VERTEX
  5
138
  8
LAYER_1
 10
-1.804244141299323
 20
1.33623015091155
 30
0.0
 42
0.4306487996281407
  0
VERTEX
  5
139
  8
LAYER_1
 10
-1.783793058885549
 20
1.324092020597672
 30
0.0
 42
-0.5305878394936182
  0
VERTEX
  5
13A
  8
LAYER_1
 10
-1.75
 20
1.295744716876527
 30
0.0
 42
-0.2577580009101683
  0
VERTEX
  5
13B
  8
LAYER_1
 10
-1.790291134862734
 20
1.237771239401779
 30
0.0
 42
-0.2227064795966674
  0
SEQEND
  5
216
  8
LAYER_1
  0
POLYLINE
  5
7E
  8
LAYER_1
 66
     1
 10
0.0
 20
0.0
 30
0.0
 70
     1
  0
VERTEX
  5
13C
  8
LAYER_1
 10
-1.843829890147985
 20
1.111111111111111
 30
0.0
 42
-0.0795305416099012
  0
VERTEX
  5
13D
  8
LAYER_1
 10
-1.931318044281943
 20
1.143704380207462
 30
0.0
 42
-0.7821184621541848
  0
VERTEX
  5
13E
  8
LAYER_1
 10
-1.916715398257712
 20
1.196053687619711
 30
0.0
 42
-0.2623910126617637
  0
VERTEX
  5
13F
  8
LAYER_1
 10
-1.884325741133736
 20
1.176553212398033
 30
0.0
 42
0.1897551201565178
  0
VERTEX
  5
140
  8
LAYER_1
 10
-1.854930382127627
 20
1.152777777777778
 30
0.0
 42
0.2079658322167774
  0
VERTEX
  5
141
  8
LAYER_1
 10
-1.698746705399157
 20
1.169244552225493
 30
0.0
 42
0.1979102004742108
  0
VERTEX
  5
142
  8
LAYER_1
 10
-1.597326057234377
 20
1.298611111111111
 30
0.0
  0
VERTEX
  5
143
  8
LAYER_1
 10
-1.597222222222222
 20
1.442313186612681
 30
0.0
 42
0.115540251557564
  0
VERTEX
  5
144
  8
LAYER_1
 10
-1.624779048166139
 20
1.484424167154841
 30
0.0
 42
0.0540709461301145
  0
VERTEX
  5
145
  8
LAYER_1
 10
-1.709297998936936
 20
1.549109959082089
 30
0.0
 42
0.2128311012855514
  0
VERTEX
  5
146
  8
LAYER_1
 10
-1.842381917387792
 20
1.565941614386485
 30
0.0
 42
-0.7800352238108568
  0
VERTEX
  5
147
  8
LAYER_1
 10
-1.861111111111111
 20
1.597222222222222
 30
0.0
  0
VERTEX
  5
148
  8
LAYER_1
 10
-1.712501069438247
 20
1.597222222222222
 30
0.0
  0
VERTEX
  5
149
  8
LAYER_1
 10
-1.594810343767363
 20
1.511967499195038
 30
0.0
 42
-0.0759610751053094
  0
VERTEX
  5
14A
  8
LAYER_1
 10
-1.551171190442021
 20
1.437238681611306
 30
0.0
 42
-0.0694759501532165
  0
VERTEX
  5
14B
  8
LAYER_1
 10
-1.538294707474763
 20
1.384204529373916
 30
0.0
  0
VERTEX
  5
14C
  8
LAYER_1
 10
-1.572566501554399
 20
1.229166666666666
 30
0.0
  0
VERTEX
  5
14D
  8
LAYER_1
 10
-1.694932203654948
 20
1.111111111111111
 30
0.0
 42
-0.096229468186468
  0
VERTEX
  5
14E
  8
LAYER_1
 10
-1.745288489905738
 20
1.101329010486421
 30
0.0
 42
-0.049512791675524
  0
SEQEND
  5
217
  8
LAYER_1
  0
POLYLINE
  5
7F
  8
LAYER_1
 66
     1
 10
0.0
 20
0.0
 30
0.0
 70
     1
  0
VERTEX
  5
14F
  8
LAYER_1
 10
2.398379361109997
 20
-0.8308087057113734
 30
0.0
 42
-0.4580202022797597
  0
VERTEX
  5
150
  8
LAYER_1
 10
2.365132400654868
 20
-0.8149911859740564
 30
0.0
 42
0.0977954169867863
  0
VERTEX
  5
151
  8
LAYER_1
 10
2.335282958100651
 20
-0.7551496009835565
 30
0.0
 42
0.0575046187766743
  0
VERTEX
  5
152
  8
LAYER_1
 10
2.237494890823323
 20
-0.6548152642804415
 30
0.0
 42
0.0153567556265452
  0
VERTEX
  5
153
  8
LAYER_1
 10
1.821961460327874
 20
-0.3371801589411016
 30
0.0
 42
0.0221615991794419
  0
VERTEX
  5
154
  8
LAYER_1
 10
1.636955128358782
 20
-0.216595920208717
 30
0.0
 42
0.0131826085855671
  0
VERTEX
  5
155
  8
LAYER_1
 10
1.3125
 20
-0.0364065591950076
 30
0.0
 42
-0.0119176770655141
  0
VERTEX
  5
156
  8
LAYER_1
 10
1.237381616392673
 20
0.005062912701135
 30
0.0
 42
0.0445290424010769
  0
VERTEX
  5
157
  8
LAYER_1
 10
1.159722222222222
 20
0.0415527352849874
 30
0.0
 42
0.0761338996539817
  0
VERTEX
  5
158
  8
LAYER_1
 10
0.9324719538619766
 20
0.087211978939122
 30
0.0
 42
-0.2078067865603875
  0
VERTEX
  5
159
  8
LAYER_1
 10
0.8800998263888888
 20
0.1129049598282145
 30
0.0
 42
-0.7066888258304578
  0
VERTEX
  5
15A
  8
LAYER_1
 10
0.89588238971792
 20
0.1401231370854302
 30
0.0
 42
-0.0119411219425234
  0
VERTEX
  5
15B
  8
LAYER_1
 10
1.000445438660636
 20
0.1179498429293617
 30
0.0
 42
-0.0536437028628196
  0
VERTEX
  5
15C
  8
LAYER_1
 10
1.58913936577513
 20
-0.0903107789645878
 30
0.0
 42
-0.0692510751240379
  0
VERTEX
  5
15D
  8
LAYER_1
 10
1.993055555555555
 20
-0.3581265095962221
 30
0.0
 42
-0.0300849372069411
  0
VERTEX
  5
15E
  8
LAYER_1
 10
2.169578735864971
 20
-0.5341307611809594
 30
0.0
 42
0.0091386930087967
  0
VERTEX
  5
15F
  8
LAYER_1
 10
2.338579173245617
 20
-0.7173704455498329
 30
0.0
 42
-0.0079960636281206
  0
VERTEX
  5
160
  8
LAYER_1
 10
2.40692913551628
 20
-0.7911403200846648
 30
0.0
 42
-0.5102150719310655
  0
SEQEND
  5
218
  8
LAYER_1
  0
POLYLINE
  5
80
  8
LAYER_1
 66
     1
 10
0.0
 20
0.0
 30
0.0
 70
     1
  0
VERTEX
  5
161
  8
LAYER_1
 10
-2.076388888888888
 20
-0.0743316945517813
 30
0.0
 42
-0.5184334174341073
  0
VERTEX
  5
162
  8
LAYER_1
 10
-2.064704452606118
 20
-0.0637916449678018
 30
0.0
 42
0.1583873595126939
  0
VERTEX
  5
163
  8
LAYER_1
 10
-2.049034440135742
 20
-0.0623531020740569
 30
0.0
 42
0.0561818080967465
  0
VERTEX
  5
164
  8
LAYER_1
 10
-1.628320818281139
 20
0.1773910897612517
 30
0.0
 42
0.0966320805686338
  0
VERTEX
  5
165
  8
LAYER_1
 10
-1.252884126729027
 20
0.582072231631698
 30
0.0
 42
0.0619837108260759
  0
VERTEX
  5
166
  8
LAYER_1
 10
-1.058368567457911
 20
1.004581808413006
 30
0.0
 42
0.0461743412174999
  0
VERTEX
  5
167
  8
LAYER_1
 10
-1.013888888888889
 20
1.2079139350546
 30
0.0
  0
VERTEX
  5
168
  8
LAYER_1
 10
-1.013888888888889
 20
1.486111111111111
 30
0.0
 42
-0.1989123673796624
  0
VERTEX
  5
169
  8
LAYER_1
 10
-0.9952894554802132
 20
1.493815248681439
 30
0.0
 42
-0.1920413600836133
  0
VERTEX
  5
16A
  8
LAYER_1
 10
-0.9759706747047683
 20
1.486111111111111
 30
0.0
  0
VERTEX
  5
16B
  8
LAYER_1
 10
-0.956439862634912
 20
1.117565744173841
 30
0.0
 42
-0.0865838065660317
  0
VERTEX
  5
16C
  8
LAYER_1
 10
-1.044310699893742
 20
0.703885709321311
 30
0.0
 42
-0.0817526655236892
  0
VERTEX
  5
16D
  8
LAYER_1
 10
-1.276392634985449
 20
0.3212243741517469
 30
0.0
 42
-0.091185523066341
  0
VERTEX
  5
16E
  8
LAYER_1
 10
-1.512043817049221
 20
0.1304265917078561
 30
0.0
 42
-0.049837889892824
  0
VERTEX
  5
16F
  8
LAYER_1
 10
-2.020243153184599
 20
-0.0839235480143212
 30
0.0
 42
-0.1535349493368303
  0
VERTEX
  5
170
  8
LAYER_1
 10
-2.068672442339234
 20
-0.0836745795315248
 30
0.0
 42
-0.293311986477095
  0
SEQEND
  5
219
  8
LAYER_1
  0
POLYLINE
  5
81
  8
LAYER_1
 66
     1
 10
0.0
 20
0.0
 30
0.0
 70
     1
  0
VERTEX
  5
171
  8
LAYER_1
 10
-0.5610093644888479
 20
-0.3014952510597846
 30
0.0
 42
-0.0097057014833616
  0
VERTEX
  5
172
  8
LAYER_1
 10
-0.6562245980410581
 20
-0.2998220631620774
 30
0.0
 42
-0.0076619489546125
  0
VERTEX
  5
173
  8
LAYER_1
 10
-0.7766869646928347
 20
-0.293515493727829
 30
0.0
 42
-0.0734253677353237
  0
VERTEX
  5
174
  8
LAYER_1
 10
-0.87023267146205
 20
-0.2731641999563466
 30
0.0
 42
-0.497211019257579
  0
VERTEX
  5
175
  8
LAYER_1
 10
-0.8752000068749264
 20
-0.256344423819665
 30
0.0
  0
VERTEX
  5
176
  8
LAYER_1
 10
-0.3125
 20
-0.2665031252948324
 30
0.0
 42
0.0234087695722567
  0
VERTEX
  5
177
  8
LAYER_1
 10
-0.1583975209134276
 20
-0.251723925099217
 30
0.0
 42
0.0333629135852865
  0
VERTEX
  5
178
  8
LAYER_1
 10
-0.052083333333333
 20
-0.2291613517005371
 30
0.0
 42
0.165624467414688
  0
VERTEX
  5
179
  8
LAYER_1
 10
-0.0410226249202369
 20
-0.221527671364102
 30
0.0
 42
-0.4006211989170319
  0
VERTEX
  5
17A
  8
LAYER_1
 10
-0.0277777777777777
 20
-0.2192503109948798
 30
0.0
 42
-0.6512435977840206
  0
VERTEX
  5
17B
  8
LAYER_1
 10
-0.0345426064186504
 20
-0.257398220371523
 30
0.0
 42
-0.0331129801748934
  0
VERTEX
  5
17C
  8
LAYER_1
 10
-0.114583333333333
 20
-0.271516236272082
 30
0.0
 42
-0.0103341456479086
  0
VERTEX
  5
17D
  8
LAYER_1
 10
-0.3874621784412037
 20
-0.2955148258839542
 30
0.0
 42
-0.0163046426697825
  0
SEQEND
  5
21A
  8
LAYER_1
  0
POLYLINE
  5
82
  8
LAYER_1
 66
     1
 10
0.0
 20
0.0
 30
0.0
 70
     1
  0
VERTEX
  5
17E
  8
LAYER_1
 10
-0.2736785415465406
 20
-0.5952985769729888
 30
0.0
 42
-0.263212002404403
  0
VERTEX
  5
17F
  8
LAYER_1
 10
-0.2946206351454395
 20
-0.5804640942038484
 30
0.0
 42
0.1670367143017723
  0
VERTEX
  5
180
  8
LAYER_1
 10
-0.3125
 20
-0.5620531877696049
 30
0.0
 42
0.114471407172796
  0
VERTEX
  5
181
  8
LAYER_1
 10
-0.4092413160746924
 20
-0.5382686100221762
 30
0.0
 42
-0.051861564600002
  0
VERTEX
  5
182
  8
LAYER_1
 10
-0.8044057978170058
 20
-0.4919200928364793
 30
0.0
 42
0.0883789215280987
  0
VERTEX
  5
183
  8
LAYER_1
 10
-0.8152315252601048
 20
-0.4914425177462025
 30
0.0
 42
-0.3913645949108511
  0
VERTEX
  5
184
  8
LAYER_1
 10
-0.8240893734117898
 20
-0.4852004845229003
 30
0.0
 42
-0.2636057345706899
  0
VERTEX
  5
185
  8
LAYER_1
 10
-0.8209039463971624
 20
-0.4750694317412685
 30
0.0
 42
-0.101191024322249
  0
VERTEX
  5
186
  8
LAYER_1
 10
-0.7986111111111112
 20
-0.4614328198072748
 30
0.0
  0
VERTEX
  5
187
  8
LAYER_1
 10
-0.3406446237113174
 20
-0.4871543238610876
 30
0.0
 42
0.0149430050260085
  0
VERTEX
  5
188
  8
LAYER_1
 10
-0.0682334087585054
 20
-0.4780126686268655
 30
0.0
 42
0.0099343819227597
  0
VERTEX
  5
189
  8
LAYER_1
 10
0.3402777777777777
 20
-0.4439057472527188
 30
0.0
 42
-0.0253130061240923
  0
VERTEX
  5
18A
  8
LAYER_1
 10
0.4385530903849075
 20
-0.4387365705953113
 30
0.0
 42
0.2566058037330148
  0
VERTEX
  5
18B
  8
LAYER_1
 10
0.4605392683682119
 20
-0.4266022023950522
 30
0.0
 42
0.3283365678684287
  0
VERTEX
  5
18C
  8
LAYER_1
 10
0.4588517240365979
 20
-0.4026632080774306
 30
0.0
 42
-0.0881897826071894
  0
VERTEX
  5
18D
  8
LAYER_1
 10
0.4467415593667541
 20
-0.3819444444444446
 30
0.0
 42
0.0201552009368366
  0
VERTEX
  5
18E
  8
LAYER_1
 10
0.3595852331190479
 20
-0.1719034116277223
 30
0.0
 42
-0.0474821138256823
  0
VERTEX
  5
18F
  8
LAYER_1
 10
0.2840187599868633
 20
0.0425800814669093
 30
0.0
 42
-0.0197850102264357
  0
VERTEX
  5
190
  8
LAYER_1
 10
0.2503978624225429
 20
0.2048660445851836
 30
0.0
 42
-0.0240551418309242
  0
VERTEX
  5
191
  8
LAYER_1
 10
0.2345348505165008
 20
0.3402777777777777
 30
0.0
  0
VERTEX
  5
192
  8
LAYER_1
 10
0.2199940112063654
 20
1.155971700846348
 30
0.0
 42
0.3267883475892334
  0
VERTEX
  5
193
  8
LAYER_1
 10
0.1931255437584949
 20
1.157734290581204
 30
0.0
 42
-0.0920362390020895
  0
VERTEX
  5
194
  8
LAYER_1
 10
0.1681465193756901
 20
1.14768095250602
 30
0.0
 42
0.0566209131491436
  0
VERTEX
  5
195
  8
LAYER_1
 10
-0.1562164168820359
 20
1.042990994622882
 30
0.0
 42
0.0647764660734487
  0
VERTEX
  5
196
  8
LAYER_1
 10
-0.4097222222222223
 20
0.8859233313462647
 30
0.0
  0
VERTEX
  5
197
  8
LAYER_1
 10
-0.7638888888888888
 20
0.5233406376337508
 30
0.0
 42
-0.0393931120012
  0
VERTEX
  5
198
  8
LAYER_1
 10
-0.8517957711799216
 20
0.3483702916071166
 30
0.0
 42
-0.060089220705354
  0
VERTEX
  5
199
  8
LAYER_1
 10
-0.9019176983599403
 20
0.2843661473355006
 30
0.0
 42
-0.5554523243605022
  0
VERTEX
  5
19A
  8
LAYER_1
 10
-0.9159002083190273
 20
0.2876051309945497
 30
0.0
 42
-0.1562228061785662
  0
VERTEX
  5
19B
  8
LAYER_1
 10
-0.9166666666666665
 20
0.327548699180622
 30
0.0
  0
VERTEX
  5
19C
  8
LAYER_1
 10
-0.6923861566145812
 20
0.6687497736583534
 30
0.0
 42
-0.0874995125075163
  0
VERTEX
  5
19D
  8
LAYER_1
 10
-0.2376760339891993
 20
1.072114861851149
 30
0.0
 42
-0.0872420597358483
  0
VERTEX
  5
19E
  8
LAYER_1
 10
0.329108480971815
 20
1.296548882383383
 30
0.0
 42
0.1019646826926183
  0
VERTEX
  5
19F
  8
LAYER_1
 10
0.3503736426469362
 20
1.305695914494178
 30
0.0
 42
-0.3417046893042341
  0
VERTEX
  5
1A0
  8
LAYER_1
 10
0.3734947397214077
 20
1.304560059055392
 30
0.0
  0
VERTEX
  5
1A1
  8
LAYER_1
 10
0.3580179030964263
 20
0.6319444444444442
 30
0.0
  0
VERTEX
  5
1A2
  8
LAYER_1
 10
0.4317512332487157
 20
0.0486111111111112
 30
0.0
 42
0.0264778743870185
  0
VERTEX
  5
1A3
  8
LAYER_1
 10
0.5000038611159698
 20
-0.2076076380738255
 30
0.0
 42
0.0251007205306097
  0
VERTEX
  5
1A4
  8
LAYER_1
 10
0.599436905691757
 20
-0.469016919176056
 30
0.0
 42
0.0502998238127038
  0
VERTEX
  5
1A5
  8
LAYER_1
 10
0.6552872739095315
 20
-0.5678920047694657
 30
0.0
 42
-0.36505452564784
  0
VERTEX
  5
1A6
  8
LAYER_1
 10
0.6527777777777777
 20
-0.5972222222222223
 30
0.0
  0
VERTEX
  5
1A7
  8
LAYER_1
 10
0.1788164091826188
 20
-0.5972222222222223
 30
0.0
 42
-0.0257252041754066
  0
VERTEX
  5
1A8
  8
LAYER_1
 10
-0.1613723977916119
 20
-0.5670402406927497
 30
0.0
 42
0.1584209455565982
  0
VERTEX
  5
1A9
  8
LAYER_1
 10
-0.2460435874616076
 20
-0.5819498834830878
 30
0.0
 42
0.054542387078014
  0
VERTEX
  5
1AA
  8
LAYER_1
 10
-0.2588692316065457
 20
-0.5906775590129011
 30
0.0
 42
-0.2048061236153788
  0
SEQEND
  5
21B
  8
LAYER_1
  0
POLYLINE
  5
83
  8
LAYER_1
 66
     1
 10
0.0
 20
0.0
 30
0.0
 70
     1
  0
VERTEX
  5
1AB
  8
LAYER_1
 10
2.138201365359341
 20
0.0138888888888888
 30
0.0
 42
-0.2407714147707267
  0
VERTEX
  5
1AC
  8
LAYER_1
 10
2.122048758971371
 20
0.0438457490276873
 30
0.0
 42
0.1054737155442098
  0
VERTEX
  5
1AD
  8
LAYER_1
 10
2.114219112905666
 20
0.0769669930409491
 30
0.0
 42
0.0172896521631999
  0
VERTEX
  5
1AE
  8
LAYER_1
 10
2.005397509347815
 20
0.2875964444194972
 30
0.0
 42
0.0082771372326509
  0
VERTEX
  5
1AF
  8
LAYER_1
 10
1.755954770825863
 20
0.7152777777777777
 30
0.0
 42
0.0336675525333571
  0
VERTEX
  5
1B0
  8
LAYER_1
 10
1.331785875399274
 20
1.319758014042882
 30
0.0
 42
0.095108956664189
  0
VERTEX
  5
1B1
  8
LAYER_1
 10
0.8615438479336532
 20
1.717421646692137
 30
0.0
 42
0.0427697563552599
  0
VERTEX
  5
1B2
  8
LAYER_1
 10
0.1771858205833272
 20
2.028662914155926
 30
0.0
 42
0.0383676300030524
  0
VERTEX
  5
1B3
  8
LAYER_1
 10
-0.6314165396601903
 20
2.247797590483211
 30
0.0
 42
0.0141165328184059
  0
VERTEX
  5
1B4
  8
LAYER_1
 10
-0.8062557317471883
 20
2.275962598891543
 30
0.0
 42
0.0117725149236091
  0
VERTEX
  5
1B5
  8
LAYER_1
 10
-1.017361111111111
 20
2.298839003708251
 30
0.0
 42
0.0310881183106113
  0
VERTEX
  5
1B6
  8
LAYER_1
 10
-1.13885979036832
 20
2.30154200410205
 30
0.0
 42
-0.6827090656440673
  0
VERTEX
  5
1B7
  8
LAYER_1
 10
-1.152777777777778
 20
2.333333333333333
 30
0.0
 42
-0.2311471566637863
  0
VERTEX
  5
1B8
  8
LAYER_1
 10
-1.134243919887693
 20
2.339704073749501
 30
0.0
 42
0.0202335885216761
  0
VERTEX
  5
1B9
  8
LAYER_1
 10
-1.057451246083996
 20
2.333333333333333
 30
0.0
 42
-0.0522893506848176
  0
VERTEX
  5
1BA
  8
LAYER_1
 10
-0.4114340383780282
 20
2.237815718800801
 30
0.0
 42
-0.0476320822873924
  0
VERTEX
  5
1BB
  8
LAYER_1
 10
0.7152777777777779
 20
1.831037339373815
 30
0.0
 42
-0.0273622633243446
  0
VERTEX
  5
1BC
  8
LAYER_1
 10
0.8586940149958284
 20
1.753363057363349
 30
0.0
 42
-0.0144563552916779
  0
VERTEX
  5
1BD
  8
LAYER_1
 10
1.116777737137237
 20
1.58427731314938
 30
0.0
 42
-0.0649330308407317
  0
VERTEX
  5
1BE
  8
LAYER_1
 10
1.298751338269505
 20
1.418589774447441
 30
0.0
 42
-0.0419060987856855
  0
VERTEX
  5
1BF
  8
LAYER_1
 10
1.829206525534937
 20
0.6736111111111107
 30
0.0
 42
-0.0182806283156048
  0
VERTEX
  5
1C0
  8
LAYER_1
 10
1.990914159463656
 20
0.3765073316721359
 30
0.0
 42
0.0100123651860742
  0
VERTEX
  5
1C1
  8
LAYER_1
 10
2.147687863281143
 20
0.0767707466193688
 30
0.0
 42
-0.0872063000284012
  0
VERTEX
  5
1C2
  8
LAYER_1
 10
2.163648559557522
 20
0.0298615374483312
 30
0.0
 42
-0.6582173296516147
  0
SEQEND
  5
21C
  8
LAYER_1
  0
POLYLINE
  5
84
  8
LAYER_1
 66
     1
 10
0.0
 20
0.0
 30
0.0
 70
     1
  0
VERTEX
  5
1C3
  8
LAYER_1
 10
-1.085716188760078
 20
2.623735766444424
 30
0.0
 42
0.0286644321299791
  0
VERTEX
  5
1C4
  8
LAYER_1
 10
-1.169000736847117
 20
2.571155519406586
 30
0.0
 42
0.0072383971233994
  0
VERTEX
  5
1C5
  8
LAYER_1
 10
-1.482785770801195
 20
2.339992410592089
 30
0.0
 42
0.0302950502525703
  0
VERTEX
  5
1C6
  8
LAYER_1
 10
-1.530383083671435
 20
2.299082981476913
 30
0.0
 42
-0.057008765784512
  0
VERTEX
  5
1C7
  8
LAYER_1
 10
-1.729166666666667
 20
2.145868673296114
 30
0.0
 42
0.0556377121821206
  0
VERTEX
  5
1C8
  8
LAYER_1
 10
-2.185925010917234
 20
1.795803950093527
 30
0.0
 42
0.0993854391432937
  0
VERTEX
  5
1C9
  8
LAYER_1
 10
-2.371088589599925
 20
1.529512834625589
 30
0.0
 42
-0.0000391991755168
  0
VERTEX
  5
1CA
  8
LAYER_1
 10
-2.680412134640467
 20
0.8169468603900771
 30
0.0
 42
-0.1964334334774471
  0
VERTEX
  5
1CB
  8
LAYER_1
 10
-3.158048423514595
 20
0.3507871455654046
 30
0.0
 42
0.0123725358536054
  0
VERTEX
  5
1CC
  8
LAYER_1
 10
-3.473715123224741
 20
0.2135679436718592
 30
0.0
 42
0.3918302593855966
  0
VERTEX
  5
1CD
  8
LAYER_1
 10
-3.594183848308198
 20
-0.0802473730628033
 30
0.0
 42
0.13200914331348
  0
VERTEX
  5
1CE
  8
LAYER_1
 10
-3.56886315861733
 20
-0.1156942205731104
 30
0.0
 42
-0.217331997112569
  0
VERTEX
  5
1CF
  8
LAYER_1
 10
-3.492533849218994
 20
-0.2718022300489156
 30
0.0
 42
0.3858498137010505
  0
VERTEX
  5
1D0
  8
LAYER_1
 10
-3.417540339353768
 20
-0.350191992725978
 30
0.0
 42
-0.0307429809940251
  0
VERTEX
  5
1D1
  8
LAYER_1
 10
-3.006761599500357
 20
-0.4049434249148516
 30
0.0
 42
-0.1726316427168543
  0
VERTEX
  5
1D2
  8
LAYER_1
 10
-2.099503280287336
 20
-0.9436953244162725
 30
0.0
 42
0.0756773251812689
  0
VERTEX
  5
1D3
  8
LAYER_1
 10
-1.310899237675835
 20
-1.644748054939748
 30
0.0
 42
0.0486908470281069
  0
VERTEX
  5
1D4
  8
LAYER_1
 10
-1.198787734656105
 20
-1.702875522711488
 30
0.0
 42
-0.018308658402701
  0
VERTEX
  5
1D5
  8
LAYER_1
 10
-0.9844557827409446
 20
-1.797981590674883
 30
0.0
 42
0.0822654317811194
  0
VERTEX
  5
1D6
  8
LAYER_1
 10
-0.5208554516517814
 20
-1.936367129380256
 30
0.0
 42
-0.1357810550017581
  0
VERTEX
  5
1D7
  8
LAYER_1
 10
-0.4091296819193735
 20
-1.983056073908101
 30
0.0
 42
-0.1658101519517949
  0
VERTEX
  5
1D8
  8
LAYER_1
 10
-0.3797509333327489
 20
-2.028249472313476
 30
0.0
 42
0.1863213701004485
  0
VERTEX
  5
1D9
  8
LAYER_1
 10
-0.3485977635692459
 20
-2.072238495280909
 30
0.0
 42
-0.0001277988281376
  0
VERTEX
  5
1DA
  8
LAYER_1
 10
0.3256035276987426
 20
-2.52016972807131
 30
0.0
 42
0.1190493049715996
  0
VERTEX
  5
1DB
  8
LAYER_1
 10
0.5167853504370861
 20
-2.589890629720044
 30
0.0
 42
0.2261589346328534
  0
VERTEX
  5
1DC
  8
LAYER_1
 10
0.5650434848769388
 20
-2.57324651626239
 30
0.0
 42
-0.3980299882590473
  0
VERTEX
  5
1DD
  8
LAYER_1
 10
0.6160816981735824
 20
-2.572259178482051
 30
0.0
 42
0.1068088197142987
  0
VERTEX
  5
1DE
  8
LAYER_1
 10
0.9199514518993688
 20
-2.748453526309658
 30
0.0
 42
0.0608329397884952
  0
VERTEX
  5
1DF
  8
LAYER_1
 10
1.520833333333334
 20
-2.864721434273749
 30
0.0
 42
0.2174614508730913
  0
VERTEX
  5
1E0
  8
LAYER_1
 10
2.049993482750854
 20
-2.66636643340279
 30
0.0
 42
0.0686016645699977
  0
VERTEX
  5
1E1
  8
LAYER_1
 10
2.480720789326716
 20
-2.096128601783555
 30
0.0
 42
0.1146486309137821
  0
VERTEX
  5
1E2
  8
LAYER_1
 10
2.570210054911229
 20
-1.786813917950326
 30
0.0
 42
0.1080718347417845
  0
VERTEX
  5
1E3
  8
LAYER_1
 10
2.515198585091687
 20
-1.450177629265246
 30
0.0
 42
-0.1569961881084279
  0
VERTEX
  5
1E4
  8
LAYER_1
 10
2.51094304990886
 20
-1.385637820957641
 30
0.0
 42
-0.3616154046684805
  0
VERTEX
  5
1E5
  8
LAYER_1
 10
2.535960899600903
 20
-1.367350238900603
 30
0.0
 42
-0.0526076417852718
  0
VERTEX
  5
1E6
  8
LAYER_1
 10
2.721396758986462
 20
-1.398775203613095
 30
0.0
 42
-0.2476665598427467
  0
VERTEX
  5
1E7
  8
LAYER_1
 10
2.75208796855773
 20
-1.427861207859166
 30
0.0
 42
0.0473644349792324
  0
VERTEX
  5
1E8
  8
LAYER_1
 10
2.836820479469762
 20
-1.616919796515767
 30
0.0
 42
0.010966663449476
  0
VERTEX
  5
1E9
  8
LAYER_1
 10
3.294304665569399
 20
-2.383712201742187
 30
0.0
 42
0.6382999265313558
  0
VERTEX
  5
1EA
  8
LAYER_1
 10
3.5152886585158
 20
-2.355881688442234
 30
0.0
 42
0.0056837135321674
  0
VERTEX
  5
1EB
  8
LAYER_1
 10
3.675976553090303
 20
-1.832600360037001
 30
0.0
 42
0.0231770373111452
  0
VERTEX
  5
1EC
  8
LAYER_1
 10
3.823792113645944
 20
-1.229158744359714
 30
0.0
 42
0.0941914109365878
  0
VERTEX
  5
1ED
  8
LAYER_1
 10
3.828729834220718
 20
-0.4129673768710509
 30
0.0
 42
0.4206918745541348
  0
VERTEX
  5
1EE
  8
LAYER_1
 10
3.678657860586371
 20
-0.3119229370043732
 30
0.0
 42
-0.0141499084090037
  0
VERTEX
  5
1EF
  8
LAYER_1
 10
3.007474732600086
 20
-0.4309737017122348
 30
0.0
 42
-0.0908253720406182
  0
VERTEX
  5
1F0
  8
LAYER_1
 10
2.523951961543201
 20
-0.4145745597675021
 30
0.0
 42
-0.2856646555114984
  0
VERTEX
  5
1F1
  8
LAYER_1
 10
2.245902296650571
 20
-0.1441134426242492
 30
0.0
 42
-0.6929474054798054
  0
VERTEX
  5
1F2
  8
LAYER_1
 10
2.284978870155296
 20
-0.1172897357814708
 30
0.0
 42
0.0965078531649499
  0
VERTEX
  5
1F3
  8
LAYER_1
 10
2.440741999407224
 20
-0.1864698440391379
 30
0.0
 42
0.061151293847465
  0
VERTEX
  5
1F4
  8
LAYER_1
 10
2.538206123954192
 20
-0.1965834055592852
 30
0.0
 42
0.4274778518135192
  0
VERTEX
  5
1F5
  8
LAYER_1
 10
2.549393310378025
 20
-0.1844320112035316
 30
0.0
 42
0.0094150596924293
  0
VERTEX
  5
1F6
  8
LAYER_1
 10
2.511303111834819
 20
0.2753410248986889
 30
0.0
 42
0.0597500018925936
  0
VERTEX
  5
1F7
  8
LAYER_1
 10
2.495323220400303
 20
0.3465189184617472
 30
0.0
 42
0.0719862742387679
  0
VERTEX
  5
1F8
  8
LAYER_1
 10
1.818737887144859
 20
1.63375032517568
 30
0.0
 42
0.1468273196234611
  0
VERTEX
  5
1F9
  8
LAYER_1
 10
1.242598544396144
 20
2.073165813650037
 30
0.0
 42
0.0010039599328158
  0
VERTEX
  5
1FA
  8
LAYER_1
 10
0.8987721059816032
 20
2.201796185580459
 30
0.0
 42
0.02337771180813
  0
VERTEX
  5
1FB
  8
LAYER_1
 10
0.7550081876216277
 20
2.247727133490097
 30
0.0
 42
-0.075473680552038
  0
VERTEX
  5
1FC
  8
LAYER_1
 10
0.7051073239335865
 20
2.26960297526918
 30
0.0
 42
0.11908698495947
  0
VERTEX
  5
1FD
  8
LAYER_1
 10
0.4988518630880128
 20
2.339504308224757
 30
0.0
 42
-0.3935091424617982
  0
VERTEX
  5
1FE
  8
LAYER_1
 10
0.4625232585902737
 20
2.379992692652539
 30
0.0
 42
0.3863147458298203
  0
VERTEX
  5
1FF
  8
LAYER_1
 10
0.4267031707872526
 20
2.42093164828295
 30
0.0
 42
-0.0437914700773841
  0
VERTEX
  5
200
  8
LAYER_1
 10
0.2311619617902925
 20
2.461019380107208
 30
0.0
 42
-0.0839308395825168
  0
VERTEX
  5
201
  8
LAYER_1
 10
0.1372338211995228
 20
2.50722927149496
 30
0.0
 42
0.196871173062246
  0
VERTEX
  5
202
  8
LAYER_1
 10
-0.0223031838325585
 20
2.545578427224586
 30
0.0
 42
-0.2006050225436324
  0
VERTEX
  5
203
  8
LAYER_1
 10
-0.1815605761034638
 20
2.585072689173018
 30
0.0
 42
0.1110566984070933
  0
VERTEX
  5
204
  8
LAYER_1
 10
-0.3054611603864821
 20
2.64008166257211
 30
0.0
 42
0.0723842848719241
  0
VERTEX
  5
205
  8
LAYER_1
 10
-0.6305632529189782
 20
2.657038151762269
 30
0.0
 42
0.1140840251162101
  0
VERTEX
  5
206
  8
LAYER_1
 10
-0.6631471451365321
 20
2.646254942149456
 30
0.0
 42
-0.3205226319635225
  0
VERTEX
  5
207
  8
LAYER_1
 10
-0.797955479035009
 20
2.656191529699068
 30
0.0
 42
0.2043353195780413
  0
VERTEX
  5
208
  8
LAYER_1
 10
-0.8940228343582999
 20
2.684943873085096
 30
0.0
 42
0.0986971753315933
  0
SEQEND
  5
21D
  8
LAYER_1
  0
ENDSEC
  0
EOF
