0
SECTION
2
HEADER
9
$INSUNITS
70
1
9
$ACADVER
1
AC1014
9
$HANDSEED
5
FFFF
0
ENDSEC
0
SECTION
2
TABLES
0
TABLE
2
VPORT
5
8
100
AcDbSymbolTable
0
ENDTAB
0
TABLE
2
LTYPE
5
5
100
AcDbSymbolTable
0
LTYPE
5
14
100
AcDbSymbolTableRecord
100
AcDbLinetypeTableRecord
2
BYBLOCK
70
0
0
LTYPE
5
15
100
AcDbSymbolTableRecord
100
AcDbLinetypeTableRecord
2
BYLAYER
70
0
0
ENDTAB
0
TABLE
2
LAYER
5
2
100
AcDbSymbolTable
70
2
0
LAYER
5
50
100
AcDbSymbolTableRecord
100
AcDbLayerTableRecord
2
0
70
0
6
CONTINUOUS
0
ENDTAB
0
TABLE
2
STYLE
5
3
100
AcDbSymbolTable
70
1
0
STYLE
5
11
100
AcDbSymbolTableRecord
100
AcDbTextStyleTableRecord
2
STANDARD
70
0
0
ENDTAB
0
TABLE
2
VIEW
5
6
100
AcDbSymbolTable
70
0
0
ENDTAB
0
TABLE
2
UCS
5
7
100
AcDbSymbolTable
70
0
0
ENDTAB
0
TABLE
2
APPID
5
9
100
AcDbSymbolTable
70
2
0
APPID
5
12
100
AcDbSymbolTableRecord
100
AcDbRegAppTableRecord
2
ACAD
70
0
0
ENDTAB
0
TABLE
2
DIMSTYLE
5
A
100
AcDbSymbolTable
70
1
0
ENDTAB
0
TABLE
2
BLOCK_RECORD
5
1
100
AcDbSymbolTable
70
1
0
BLOCK_RECORD
5
1F
100
AcDbSymbolTableRecord
100
AcDbBlockTableRecord
2
*MODEL_SPACE
0
BLOCK_RECORD
5
1B
100
AcDbSymbolTableRecord
100
AcDbBlockTableRecord
2
*PAPER_SPACE
0
ENDTAB
0
ENDSEC
0
SECTION
2
BLOCKS
0
BLOCK
5
20
100
AcDbEntity
100
AcDbBlockBegin
2
*MODEL_SPACE
0
ENDBLK
5
21
100
AcDbEntity
100
AcDbBlockEnd
0
BLOCK
5
1C
100
AcDbEntity
100
AcDbBlockBegin
2
*PAPER_SPACE
0
ENDBLK
5
1D
100
AcDbEntity
100
AcDbBlockEnd
0
ENDSEC
0
SECTION
2
ENTITIES
0
SPLINE
5
100
100
AcDbEntity
8
0
100
AcDbSpline
70
1064
71
3
72
8
73
4
74
0
42
0.000000001
43
0.0000000001
44
0.0000000001
40
0
40
0
40
0
40
0
40
1
40
1
40
1
40
1
10
11.609452228071273
20
-0.0070107210028005395
30
0
10
11.543881853547997
20
0.051278745580664843
30
0
10
11.591456137778792
20
0.13346042232671737
30
0
10
11.740387237176039
20
0.219173088842882
30
0
0
SPLINE
5
101
100
AcDbEntity
8
0
100
AcDbSpline
70
1064
71
3
72
8
73
4
74
0
42
0.000000001
43
0.0000000001
44
0.0000000001
40
0
40
0
40
0
40
0
40
1
40
1
40
1
40
1
10
11.740387237176039
20
0.219173088842882
30
0
10
11.892941645548044
20
0.3069730486145863
30
0
10
11.933927855489138
20
0.47109197602201092
30
0
10
11.863482147729991
20
0.71208026937095725
30
0
0
LINE
5
102
100
AcDbEntity
8
0
100
AcDbLine
10
11.863482147729991
20
0.71208026937095725
30
0
11
11.817585435332207
21
0.86908798032901835
31
0
0
LINE
5
103
100
AcDbEntity
8
0
100
AcDbLine
10
11.817585435332207
20
0.86908798032901835
30
0
11
11.728382223649875
21
0.70086656331319552
31
0
0
SPLINE
5
104
100
AcDbEntity
8
0
100
AcDbSpline
70
1064
71
3
72
8
73
4
74
0
42
0.000000001
43
0.0000000001
44
0.0000000001
40
0
40
0
40
0
40
0
40
1
40
1
40
1
40
1
10
11.728382223649874
20
0.70086656331319486
30
0
10
11.679319402147966
20
0.60834337718565812
30
0
10
11.609032835113021
20
0.51888167173031396
30
0
10
11.572190438614786
20
0.50206199187418898
30
0
0
SPLINE
5
105
100
AcDbEntity
8
0
100
AcDbSpline
70
1064
71
3
72
8
73
4
74
0
42
0.000000001
43
0.0000000001
44
0.0000000001
40
0
40
0
40
0
40
0
40
1
40
1
40
1
40
1
10
11.572190438614786
20
0.50206199187418898
30
0
10
11.535348921347076
20
0.48524407047910412
30
0
10
11.505203623723075
20
0.44099063992403359
30
0
10
11.505203623723075
20
0.40372357508442563
30
0
0
SPLINE
5
106
100
AcDbEntity
8
0
100
AcDbSpline
70
1064
71
3
72
8
73
4
74
0
42
0.000000001
43
0.0000000001
44
0.0000000001
40
0
40
0
40
0
40
0
40
1
40
1
40
1
40
1
10
11.505203623723075
20
0.40372357508442563
30
0
10
11.505203623723075
20
0.3664565102448149
30
0
10
11.461363431512613
20
0.3033541357924317
30
0
10
11.407781365135616
20
0.26350037476167126
30
0
0
SPLINE
5
107
100
AcDbEntity
8
0
100
AcDbSpline
70
1064
71
3
72
8
73
4
74
0
42
0.000000001
43
0.0000000001
44
0.0000000001
40
0
40
0
40
0
40
0
40
1
40
1
40
1
40
1
10
11.407781365135616
20
0.26350037476167126
30
0
10
11.354199298758616
20
0.22364485526987066
30
0
10
11.302653530266969
20
0.16348966152201891
30
0
10
11.293236092162477
20
0.12982040797207292
30
0
0
SPLINE
5
108
100
AcDbEntity
8
0
100
AcDbSpline
70
1064
71
3
72
8
73
4
74
0
42
0.000000001
43
0.0000000001
44
0.0000000001
40
0
40
0
40
0
40
0
40
1
40
1
40
1
40
1
10
11.293236092162477
20
0.12982040797207292
30
0
10
11.282664224384639
20
0.09204690635268882
30
0
10
11.275101962678287
20
0.10087789770004518
30
0
10
11.273470110832339
20
0.15288789990648471
30
0
0
SPLINE
5
109
100
AcDbEntity
8
0
100
AcDbSpline
70
1064
71
3
72
8
73
4
74
0
42
0.000000001
43
0.0000000001
44
0.0000000001
40
0
40
0
40
0
40
0
40
1
40
1
40
1
40
1
10
11.273470110832339
20
0.15288789990648471
30
0
10
11.272023776626206
20
0.19924093294438142
30
0
10
11.2565079956319
20
0.23716917913536337
30
0
10
11.239007791352952
20
0.23716917913536337
30
0
0
SPLINE
5
110
100
AcDbEntity
8
0
100
AcDbSpline
70
1064
71
3
72
8
73
4
74
0
42
0.000000001
43
0.0000000001
44
0.0000000001
40
0
40
0
40
0
40
0
40
1
40
1
40
1
40
1
10
11.239007791352952
20
0.23716917913536337
30
0
10
11.221507587073999
20
0.23716917913536337
30
0
10
11.19183179854792
20
0.19924093294438142
30
0
10
11.173061985397446
20
0.15288789990648471
30
0
0
SPLINE
5
111
100
AcDbEntity
8
0
100
AcDbSpline
70
1064
71
3
72
8
73
4
74
0
42
0.000000001
43
0.0000000001
44
0.0000000001
40
0
40
0
40
0
40
0
40
1
40
1
40
1
40
1
10
11.173061985397446
20
0.15288789990648471
30
0
10
11.152000897510689
20
0.1008796561610853
30
0
10
11.138542515934228
20
0.092748532308002452
30
0
10
11.137913866112111
20
0.13164920745459993
30
0
0
SPLINE
5
112
100
AcDbEntity
8
0
100
AcDbSpline
70
1064
71
3
72
8
73
4
74
0
42
0.000000001
43
0.0000000001
44
0.0000000001
40
0
40
0
40
0
40
0
40
1
40
1
40
1
40
1
10
11.137913866112111
20
0.13164920745459993
30
0
10
11.137395120105049
20
0.16632254225889484
30
0
10
11.121829222971076
20
0.18129759648312607
30
0
10
11.103413739720342
20
0.1649280826534682
30
0
0
SPLINE
5
113
100
AcDbEntity
8
0
100
AcDbSpline
70
1064
71
3
72
8
73
4
74
0
42
0.000000001
43
0.0000000001
44
0.0000000001
40
0
40
0
40
0
40
0
40
1
40
1
40
1
40
1
10
11.103413739720342
20
0.1649280826534682
30
0
10
11.084998256469609
20
0.14856384420693347
30
0
10
11.069930883040733
20
0.16550485787488001
30
0
10
11.069930883040733
20
0.20278071501969414
30
0
0
SPLINE
5
114
100
AcDbEntity
8
0
100
AcDbSpline
70
1064
71
3
72
8
73
4
74
0
42
0.000000001
43
0.0000000001
44
0.0000000001
40
0
40
0
40
0
40
0
40
1
40
1
40
1
40
1
10
11.069930883040733
20
0.20278071501969414
30
0
10
11.069930883040733
20
0.29208415898135742
30
0
10
11.177913579409264
20
0.42981034462604745
30
0
10
11.247930222674434
20
0.42981034462604745
30
0
0
SPLINE
5
115
100
AcDbEntity
8
0
100
AcDbSpline
70
1064
71
3
72
8
73
4
74
0
42
0.000000001
43
0.0000000001
44
0.0000000001
40
0
40
0
40
0
40
0
40
1
40
1
40
1
40
1
10
11.247930222674434
20
0.42981034462604745
30
0
10
11.278477328646275
20
0.42981034462604745
30
0
10
11.340714540266541
20
0.51467719138154133
30
0
10
11.386237579693137
20
0.61840529126163701
30
0
0
SPLINE
5
116
100
AcDbEntity
8
0
100
AcDbSpline
70
1064
71
3
72
8
73
4
74
0
42
0.000000001
43
0.0000000001
44
0.0000000001
40
0
40
0
40
0
40
0
40
1
40
1
40
1
40
1
10
11.386237579693137
20
0.61840529126163701
30
0
10
11.431759739889207
20
0.72212987421965258
30
0
10
11.48441861421974
20
0.82069864940577264
30
0
10
11.503255248889767
20
0.83744447389817889
30
0
0
SPLINE
5
117
100
AcDbEntity
8
0
100
AcDbSpline
70
1064
71
3
72
8
73
4
74
0
42
0.000000001
43
0.0000000001
44
0.0000000001
40
0
40
0
40
0
40
0
40
1
40
1
40
1
40
1
10
11.503255248889767
20
0.83744447389817889
30
0
10
11.524181814506894
20
0.85604547478872794
30
0
10
11.50391203408854
20
0.940921113849428
30
0
10
11.451125671332546
20
1.0556360783130125
30
0
0
SPLINE
5
118
100
AcDbEntity
8
0
100
AcDbSpline
70
1064
71
3
72
8
73
4
74
0
42
0.000000001
43
0.0000000001
44
0.0000000001
40
0
40
0
40
0
40
0
40
1
40
1
40
1
40
1
10
11.451125671332546
20
1.0556360783130125
30
0
10
11.325779930646252
20
1.3280814812224635
30
0
10
11.333417806177364
20
1.5241920903468247
30
0
10
11.481904894161785
20
1.8458656100960278
30
0
0
SPLINE
5
119
100
AcDbEntity
8
0
100
AcDbSpline
70
1064
71
3
72
8
73
4
74
0
42
0.000000001
43
0.0000000001
44
0.0000000001
40
0
40
0
40
0
40
0
40
1
40
1
40
1
40
1
10
11.481904894161785
20
1.8458656100960278
30
0
10
11.612983217841382
20
2.1298306912843596
30
0
10
11.640032744802895
20
2.3515550439303428
30
0
10
11.555853456314386
20
2.4520423001120752
30
0
0
SPLINE
5
120
100
AcDbEntity
8
0
100
AcDbSpline
70
1064
71
3
72
8
73
4
74
0
42
0.000000001
43
0.0000000001
44
0.0000000001
40
0
40
0
40
0
40
0
40
1
40
1
40
1
40
1
10
11.555853456314386
20
2.4520423001120752
30
0
10
11.496004234787652
20
2.5234868137424482
30
0
10
11.399171939879412
20
2.4815211410015778
30
0
10
11.422325596404827
20
2.3941713472563433
30
0
0
SPLINE
5
121
100
AcDbEntity
8
0
100
AcDbSpline
70
1064
71
3
72
8
73
4
74
0
42
0.000000001
43
0.0000000001
44
0.0000000001
40
0
40
0
40
0
40
0
40
1
40
1
40
1
40
1
10
11.422325596404827
20
2.3941713472563433
30
0
10
11.433965729265008
20
2.3502590581432048
30
0
10
11.398569666972906
20
2.3306258406216536
30
0
10
11.301110480703587
20
2.3269365893578633
30
0
0
SPLINE
5
122
100
AcDbEntity
8
0
100
AcDbSpline
70
1064
71
3
72
8
73
4
74
0
42
0.000000001
43
0.0000000001
44
0.0000000001
40
0
40
0
40
0
40
0
40
1
40
1
40
1
40
1
10
11.301110480703587
20
2.3269365893578633
30
0
10
11.225401699049055
20
2.3240720563222541
30
0
10
11.151630741461583
20
2.2942028370816736
30
0
10
11.137178829397017
20
2.2605669942915037
30
0
0
SPLINE
5
123
100
AcDbEntity
8
0
100
AcDbSpline
70
1064
71
3
72
8
73
4
74
0
42
0.000000001
43
0.0000000001
44
0.0000000001
40
0
40
0
40
0
40
0
40
1
40
1
40
1
40
1
10
11.137178829397017
20
2.2605669942915037
30
0
10
11.122726038101932
20
2.2269293930402942
30
0
10
11.093728136307114
20
2.2146746780463236
30
0
10
11.072739145323036
20
2.2333319496901787
30
0
0
SPLINE
5
124
100
AcDbEntity
8
0
100
AcDbSpline
70
1064
71
3
72
8
73
4
74
0
42
0.000000001
43
0.0000000001
44
0.0000000001
40
0
40
0
40
0
40
0
40
1
40
1
40
1
40
1
10
11.072739145323036
20
2.2333319496901787
30
0
10
11.051751033569476
20
2.2519892213340369
30
0
10
11.0086326896163
20
2.2245537121740511
30
0
10
10.976918844743826
20
2.1723450038699883
30
0
0
SPLINE
5
125
100
AcDbEntity
8
0
100
AcDbSpline
70
1064
71
3
72
8
73
4
74
0
42
0.000000001
43
0.0000000001
44
0.0000000001
40
0
40
0
40
0
40
0
40
1
40
1
40
1
40
1
10
10.976918844743826
20
2.1723450038699883
30
0
10
10.902105998989628
20
2.0491964602542887
30
0
10
10.728062317467412
20
1.9848227184693406
30
0
10
10.756322105240315
20
2.0907541700336743
30
0
0
SPLINE
5
126
100
AcDbEntity
8
0
100
AcDbSpline
70
1064
71
3
72
8
73
4
74
0
42
0.000000001
43
0.0000000001
44
0.0000000001
40
0
40
0
40
0
40
0
40
1
40
1
40
1
40
1
10
10.756322105240315
20
2.0907541700336743
30
0
10
10.767012669138413
20
2.1308136710062184
30
0
10
10.794897904709607
20
2.1635896263473908
30
0
10
10.818295108089186
20
2.1635896263473908
30
0
0
SPLINE
5
127
100
AcDbEntity
8
0
100
AcDbSpline
70
1064
71
3
72
8
73
4
74
0
42
0.000000001
43
0.0000000001
44
0.0000000001
40
0
40
0
40
0
40
0
40
1
40
1
40
1
40
1
10
10.818295108089186
20
2.1635896263473908
30
0
10
10.87242053892782
20
2.1635896263473908
30
0
10
10.942562032926892
20
2.2825811680624239
30
0
10
10.913271347368765
20
2.3247121361411383
30
0
0
SPLINE
5
128
100
AcDbEntity
8
0
100
AcDbSpline
70
1064
71
3
72
8
73
4
74
0
42
0.000000001
43
0.0000000001
44
0.0000000001
40
0
40
0
40
0
40
0
40
1
40
1
40
1
40
1
10
10.913271347368765
20
2.3247121361411383
30
0
10
10.901091366969032
20
2.3422316834915367
30
0
10
10.854123312182084
20
2.3216981339170486
30
0
10
10.808902728054525
20
2.2790818305910476
30
0
0
SPLINE
5
129
100
AcDbEntity
8
0
100
AcDbSpline
70
1064
71
3
72
8
73
4
74
0
42
0.000000001
43
0.0000000001
44
0.0000000001
40
0
40
0
40
0
40
0
40
1
40
1
40
1
40
1
10
10.808902728054525
20
2.2790818305910476
30
0
10
10.742015266211624
20
2.216042760736137
30
0
10
10.721576673533345
20
2.2134754076164369
30
0
10
10.699304445604675
20
2.2653165975629519
30
0
0
SPLINE
5
130
100
AcDbEntity
8
0
100
AcDbSpline
70
1064
71
3
72
8
73
4
74
0
42
0.000000001
43
0.0000000001
44
0.0000000001
40
0
40
0
40
0
40
0
40
1
40
1
40
1
40
1
10
10.699304445604675
20
2.2653165975629519
30
0
10
10.670410732626531
20
2.3325636646887156
30
0
10
10.931496037596563
20
2.7120272480857714
30
0
10
11.044820059376802
20
2.7674926262375643
30
0
0
SPLINE
5
131
100
AcDbEntity
8
0
100
AcDbSpline
70
1064
71
3
72
8
73
4
74
0
42
0.000000001
43
0.0000000001
44
0.0000000001
40
0
40
0
40
0
40
0
40
1
40
1
40
1
40
1
10
11.044820059376802
20
2.7674926262375643
30
0
10
11.077046495642699
20
2.7832677802354007
30
0
10
11.103413739720342
20
2.8268776140495042
30
0
10
11.103413739720342
20
2.8644066895842077
30
0
0
SPLINE
5
132
100
AcDbEntity
8
0
100
AcDbSpline
70
1064
71
3
72
8
73
4
74
0
42
0.000000001
43
0.0000000001
44
0.0000000001
40
0
40
0
40
0
40
0
40
1
40
1
40
1
40
1
10
11.103413739720342
20
2.8644066895842077
30
0
10
11.103413739720342
20
2.9019357651189086
30
0
10
11.147209970404782
20
3.0031439903274073
30
0
10
11.200737524489513
20
3.089315615175245
30
0
0
LINE
5
133
100
AcDbEntity
8
0
100
AcDbLine
10
11.200737524489513
20
3.089315615175245
30
0
11
11.298062188489203
21
3.2459909769965773
31
0
0
LINE
5
134
100
AcDbEntity
8
0
100
AcDbLine
10
11.298062188489203
20
3.2459909769965773
30
0
11
11.279859479024417
21
3.102115453091892
31
0
0
LINE
5
135
100
AcDbEntity
8
0
100
AcDbLine
10
11.279859479024417
20
3.102115453091892
30
0
11
11.26165501109859
21
2.9582416876482478
31
0
0
LINE
5
136
100
AcDbEntity
8
0
100
AcDbLine
10
11.26165501109859
20
2.9582416876482478
30
0
11
11.341577065407099
21
3.0604733371825463
31
0
0
SPLINE
5
137
100
AcDbEntity
8
0
100
AcDbSpline
70
1064
71
3
72
8
73
4
74
0
42
0.000000001
43
0.0000000001
44
0.0000000001
40
0
40
0
40
0
40
0
40
1
40
1
40
1
40
1
10
11.341577065407098
20
3.0604733371825463
30
0
10
11.385534195276779
20
3.1167001289650451
30
0
10
11.44026453671348
20
3.1528523295047286
30
0
10
11.463202781761385
20
3.1408121467577454
30
0
0
SPLINE
5
138
100
AcDbEntity
8
0
100
AcDbSpline
70
1064
71
3
72
8
73
4
74
0
42
0.000000001
43
0.0000000001
44
0.0000000001
40
0
40
0
40
0
40
0
40
1
40
1
40
1
40
1
10
11.463202781761385
20
3.1408121467577454
30
0
10
11.486139268348252
20
3.1287719640107619
30
0
10
11.581285199118279
20
3.1554108903192253
30
0
10
11.674636620396074
20
3.2000107376993512
30
0
0
SPLINE
5
139
100
AcDbEntity
8
0
100
AcDbSpline
70
1064
71
3
72
8
73
4
74
0
42
0.000000001
43
0.0000000001
44
0.0000000001
40
0
40
0
40
0
40
0
40
1
40
1
40
1
40
1
10
11.674636620396074
20
3.2000107376993512
30
0
10
11.767989800134911
20
3.2446105850794766
30
0
10
11.851934334074461
20
3.2702155362958951
30
0
10
11.861182959919025
20
3.2569110200605129
30
0
0
SPLINE
5
140
100
AcDbEntity
8
0
100
AcDbSpline
70
1064
71
3
72
8
73
4
74
0
42
0.000000001
43
0.0000000001
44
0.0000000001
40
0
40
0
40
0
40
0
40
1
40
1
40
1
40
1
10
11.861182959919025
20
3.2569110200605129
30
0
10
11.870435981916195
20
3.2436012284420044
30
0
10
11.825458944642801
20
3.2077831355000894
30
0
10
11.761245222812573
20
3.1773002133562405
30
0
0
SPLINE
5
141
100
AcDbEntity
8
0
100
AcDbSpline
70
1064
71
3
72
8
73
4
74
0
42
0.000000001
43
0.0000000001
44
0.0000000001
40
0
40
0
40
0
40
0
40
1
40
1
40
1
40
1
10
11.761245222812573
20
3.1773002133562405
30
0
10
11.697030621751825
20
3.1468172912123888
30
0
10
11.62637389866777
20
3.0904761994622318
30
0
10
11.604230478010347
20
3.0520995457058202
30
0
0
SPLINE
5
142
100
AcDbEntity
8
0
100
AcDbSpline
70
1064
71
3
72
8
73
4
74
0
42
0.000000001
43
0.0000000001
44
0.0000000001
40
0
40
0
40
0
40
0
40
1
40
1
40
1
40
1
10
11.604230478010347
20
3.0520995457058202
30
0
10
11.570773119015829
20
2.9941142928824305
30
0
10
11.579179442021811
20
2.9823220531422132
30
0
10
11.653977340857162
20
2.9823220531422132
30
0
0
SPLINE
5
143
100
AcDbEntity
8
0
100
AcDbSpline
70
1064
71
3
72
8
73
4
74
0
42
0.000000001
43
0.0000000001
44
0.0000000001
40
0
40
0
40
0
40
0
40
1
40
1
40
1
40
1
10
11.653977340857162
20
2.9823220531422132
30
0
10
11.892544233352803
20
2.9823220531422132
30
0
10
12.097774221435227
20
2.6318326323159242
30
0
10
12.091382215551585
20
2.2353260445105501
30
0
0
SPLINE
5
144
100
AcDbEntity
8
0
100
AcDbSpline
70
1064
71
3
72
8
73
4
74
0
42
0.000000001
43
0.0000000001
44
0.0000000001
40
0
40
0
40
0
40
0
40
1
40
1
40
1
40
1
10
12.091382215551585
20
2.2353260445105501
30
0
10
12.089665078345154
20
2.1290921376471839
30
0
10
12.075915671466426
20
2.0134258457604792
30
0
10
12.060816645738814
20
1.9782882772413879
30
0
0
SPLINE
5
145
100
AcDbEntity
8
0
100
AcDbSpline
70
1064
71
3
72
8
73
4
74
0
42
0.000000001
43
0.0000000001
44
0.0000000001
40
0
40
0
40
0
40
0
40
1
40
1
40
1
40
1
10
12.060816645738814
20
1.9782882772413879
30
0
10
12.010041962413595
20
1.8601179368324527
30
0
10
12.099842171619313
20
1.7953977782224495
30
0
10
12.201148870646101
20
1.8771486320134847
30
0
0
SPLINE
5
146
100
AcDbEntity
8
0
100
AcDbSpline
70
1064
71
3
72
8
73
4
74
0
42
0.000000001
43
0.0000000001
44
0.0000000001
40
0
40
0
40
0
40
0
40
1
40
1
40
1
40
1
10
12.201148870646101
20
1.8771486320134847
30
0
10
12.325906406114218
20
1.9778258019876342
30
0
10
12.436307865644494
20
2.2850008104546893
30
0
10
12.462370016731542
20
2.6039645417398782
30
0
0
SPLINE
5
147
100
AcDbEntity
8
0
100
AcDbSpline
70
1064
71
3
72
8
73
4
74
0
42
0.000000001
43
0.0000000001
44
0.0000000001
40
0
40
0
40
0
40
0
40
1
40
1
40
1
40
1
10
12.462370016731542
20
2.6039645417398782
30
0
10
12.505754767532416
20
3.1349230607318002
30
0
10
12.284888543874386
20
3.7540596086192175
30
0
10
12.048790530680158
20
3.7633055967722244
30
0
0
LINE
5
148
100
AcDbEntity
8
0
100
AcDbLine
10
12.048790530680158
20
3.7633055967722235
30
0
11
11.939470524690027
21
3.7675927247899175
31
0
0
LINE
5
149
100
AcDbEntity
8
0
100
AcDbLine
10
11.939470524690027
20
3.7675927247899175
30
0
11
11.994628172159665
21
3.8926826093947593
31
0
0
SPLINE
5
150
100
AcDbEntity
8
0
100
AcDbSpline
70
1064
71
3
72
8
73
4
74
0
42
0.000000001
43
0.0000000001
44
0.0000000001
40
0
40
0
40
0
40
0
40
1
40
1
40
1
40
1
10
11.994628172159665
20
3.8926826093947584
30
0
10
12.072179820985051
20
4.0685586073215836
30
0
10
12.180749843341243
20
4.2344957834452917
30
0
10
12.2182727642623
20
4.2344957834452917
30
0
0
SPLINE
5
151
100
AcDbEntity
8
0
100
AcDbSpline
70
1064
71
3
72
8
73
4
74
0
42
0.000000001
43
0.0000000001
44
0.0000000001
40
0
40
0
40
0
40
0
40
1
40
1
40
1
40
1
10
12.2182727642623
20
4.2344957834452917
30
0
10
12.23573252393731
20
4.2344957834452917
30
0
10
12.230953906058687
20
4.2014630927921468
30
0
10
12.207661331111042
20
4.1610905857543239
30
0
0
SPLINE
5
152
100
AcDbEntity
8
0
100
AcDbSpline
70
1064
71
3
72
8
73
4
74
0
42
0.000000001
43
0.0000000001
44
0.0000000001
40
0
40
0
40
0
40
0
40
1
40
1
40
1
40
1
10
12.207661331111042
20
4.1610905857543239
30
0
10
12.139341602750333
20
4.0426828531048686
30
0
10
12.184184117754103
20
4.0369362024232354
30
0
10
12.384853537126974
20
4.138383578333297
30
0
0
SPLINE
5
153
100
AcDbEntity
8
0
100
AcDbSpline
70
1064
71
3
72
8
73
4
74
0
42
0.000000001
43
0.0000000001
44
0.0000000001
40
0
40
0
40
0
40
0
40
1
40
1
40
1
40
1
10
14.653174202211055
20
4.0413991765450179
30
0
10
14.793213643355038
20
3.9386382302374114
30
0
10
15.087827085376485
20
3.579801394850012
30
0
10
15.087827085376485
20
3.5119986540353265
30
0
0
SPLINE
5
154
100
AcDbEntity
8
0
100
AcDbSpline
70
1064
71
3
72
8
73
4
74
0
42
0.000000001
43
0.0000000001
44
0.0000000001
40
0
40
0
40
0
40
0
40
1
40
1
40
1
40
1
10
15.087827085376485
20
3.5119986540353265
30
0
10
15.087827085376485
20
3.4922071750200945
30
0
10
15.025244336161682
20
3.5205500500771802
30
0
10
14.948757435496553
20
3.5749832115979712
30
0
0
SPLINE
5
155
100
AcDbEntity
8
0
100
AcDbSpline
70
1064
71
3
72
8
73
4
74
0
42
0.000000001
43
0.0000000001
44
0.0000000001
40
0
40
0
40
0
40
0
40
1
40
1
40
1
40
1
10
14.948757435496553
20
3.5749832115979712
30
0
10
14.77581806750802
20
3.6980561413889093
30
0
10
14.498096402245373
20
3.7318959656598225
30
0
10
14.384695008179333
20
3.6437126613812065
30
0
0
SPLINE
5
156
100
AcDbEntity
8
0
100
AcDbSpline
70
1064
71
3
72
8
73
4
74
0
42
0.000000001
43
0.0000000001
44
0.0000000001
40
0
40
0
40
0
40
0
40
1
40
1
40
1
40
1
10
14.384695008179333
20
3.6437126613812065
30
0
10
14.269855192981847
20
3.5544109758805837
30
0
10
14.284749357998196
20
3.3617346411690829
30
0
10
14.434064681132877
20
3.0050730220892659
30
0
0
SPLINE
5
157
100
AcDbEntity
8
0
100
AcDbSpline
70
1064
71
3
72
8
73
4
74
0
42
0.000000001
43
0.0000000001
44
0.0000000001
40
0
40
0
40
0
40
0
40
1
40
1
40
1
40
1
10
14.434064681132877
20
3.0050730220892659
30
0
10
14.498649438242733
20
2.8508049934329134
30
0
10
14.54638813858085
20
2.7172428435330565
30
0
10
14.540150877268809
20
2.7082694168413859
30
0
0
SPLINE
5
158
100
AcDbEntity
8
0
100
AcDbSpline
70
1064
71
3
72
8
73
4
74
0
42
0.000000001
43
0.0000000001
44
0.0000000001
40
0
40
0
40
0
40
0
40
1
40
1
40
1
40
1
10
14.540150877268809
20
2.7082694168413859
30
0
10
14.533915374417809
20
2.6993012655328412
30
0
10
14.457640368308105
20
2.7491694621914777
30
0
10
14.370657213689897
20
2.8190999408656423
30
0
0
SPLINE
5
159
100
AcDbEntity
8
0
100
AcDbSpline
70
1064
71
3
72
8
73
4
74
0
42
0.000000001
43
0.0000000001
44
0.0000000001
40
0
40
0
40
0
40
0
40
1
40
1
40
1
40
1
10
14.370657213689897
20
2.8190999408656423
30
0
10
14.261704726057314
20
2.9066888853124371
30
0
10
14.16640053379361
20
2.9449125529582911
30
0
10
14.064308681912065
20
2.9419636137927165
30
0
0
SPLINE
5
160
100
AcDbEntity
8
0
100
AcDbSpline
70
1064
71
3
72
8
73
4
74
0
42
0.000000001
43
0.0000000001
44
0.0000000001
40
0
40
0
40
0
40
0
40
1
40
1
40
1
40
1
10
14.064308681912065
20
2.9419636137927165
30
0
10
13.790906676196368
20
2.9340751575632797
30
0
10
13.703306301752805
20
2.7887629709881852
30
0
10
13.70619369478195
20
2.347937889569228
30
0
0
LINE
5
161
100
AcDbEntity
8
0
100
AcDbLine
10
13.70619369478195
20
2.347937889569228
30
0
11
13.707996996579382
21
2.0729743704492201
31
0
0
LINE
5
162
100
AcDbEntity
8
0
100
AcDbLine
10
13.707996996579382
20
2.0729743704492201
30
0
11
13.638692530035776
21
2.165849248784935
31
0
0
SPLINE
5
163
100
AcDbEntity
8
0
100
AcDbSpline
70
1064
71
3
72
8
73
4
74
0
42
0.000000001
43
0.0000000001
44
0.0000000001
40
0
40
0
40
0
40
0
40
1
40
1
40
1
40
1
10
13.638692530035776
20
2.1658492487849355
30
0
10
13.557537794537602
20
2.2746012718588586
30
0
10
13.382663240173564
20
2.3314892449927314
30
0
10
13.262674651048348
20
2.2881730741724571
30
0
0
SPLINE
5
164
100
AcDbEntity
8
0
100
AcDbSpline
70
1064
71
3
72
8
73
4
74
0
42
0.000000001
43
0.0000000001
44
0.0000000001
40
0
40
0
40
0
40
0
40
1
40
1
40
1
40
1
10
13.262674651048348
20
2.2881730741724571
30
0
10
13.1834260873185
20
2.2595629130371551
30
0
10
12.777539868321011
20
1.709581362504873
30
0
10
12.777539868321011
20
1.6308093417171055
30
0
0
SPLINE
5
165
100
AcDbEntity
8
0
100
AcDbSpline
70
1064
71
3
72
8
73
4
74
0
42
0.000000001
43
0.0000000001
44
0.0000000001
40
0
40
0
40
0
40
0
40
1
40
1
40
1
40
1
10
12.777539868321011
20
1.6308093417171055
30
0
10
12.777539868321011
20
1.6109440073381573
30
0
10
12.808315574228171
20
1.6062665009693848
30
0
10
12.845930814353876
20
1.6204185954264783
30
0
0
SPLINE
5
166
100
AcDbEntity
8
0
100
AcDbSpline
70
1064
71
3
72
8
73
4
74
0
42
0.000000001
43
0.0000000001
44
0.0000000001
40
0
40
0
40
0
40
0
40
1
40
1
40
1
40
1
10
12.845930814353876
20
1.6204185954264783
30
0
10
12.892626747294745
20
1.6379768289197789
30
0
10
12.911213680496965
20
1.6251031356394139
30
0
10
12.904525373927935
20
1.5797893530766853
30
0
0
SPLINE
5
167
100
AcDbEntity
8
0
100
AcDbSpline
70
1064
71
3
72
8
73
4
74
0
42
0.000000001
43
0.0000000001
44
0.0000000001
40
0
40
0
40
0
40
0
40
1
40
1
40
1
40
1
10
12.904525373927935
20
1.5797893530766853
30
0
10
12.89883235630805
20
1.5411981670732837
30
0
10
12.917654923289749
20
1.5188305426331481
30
0
10
12.949512961967578
20
1.5263303789725502
30
0
0
SPLINE
5
168
100
AcDbEntity
8
0
100
AcDbSpline
70
1064
71
3
72
8
73
4
74
0
42
0.000000001
43
0.0000000001
44
0.0000000001
40
0
40
0
40
0
40
0
40
1
40
1
40
1
40
1
10
12.949512961967578
20
1.5263303789725502
30
0
10
12.979644191903251
20
1.533422252350465
30
0
10
13.012974941702824
20
1.506697161450999
30
0
10
13.023580220240438
20
1.4669418742385274
30
0
0
SPLINE
5
169
100
AcDbEntity
8
0
100
AcDbSpline
70
1064
71
3
72
8
73
4
74
0
42
0.000000001
43
0.0000000001
44
0.0000000001
40
0
40
0
40
0
40
0
40
1
40
1
40
1
40
1
10
13.023580220240438
20
1.4669418742385274
30
0
10
13.034190774161178
20
1.4271865870260556
30
0
10
13.064091645700492
20
1.4063769590681481
30
0
10
13.090035100667281
20
1.4206961073241284
30
0
0
SPLINE
5
170
100
AcDbEntity
8
0
100
AcDbSpline
70
1064
71
3
72
8
73
4
74
0
42
0.000000001
43
0.0000000001
44
0.0000000001
40
0
40
0
40
0
40
0
40
1
40
1
40
1
40
1
10
13.090035100667281
20
1.4206961073241284
30
0
10
13.115978555634074
20
1.435011738658023
30
0
10
13.146823720752346
20
1.4106851886183327
30
0
10
13.158579912041226
20
1.3666163964725562
30
0
0
SPLINE
5
171
100
AcDbEntity
8
0
100
AcDbSpline
70
1064
71
3
72
8
73
4
74
0
42
0.000000001
43
0.0000000001
44
0.0000000001
40
0
40
0
40
0
40
0
40
1
40
1
40
1
40
1
10
13.158579912041226
20
1.3666163964725562
30
0
10
13.173658715466869
20
1.3100959416962283
30
0
10
13.203389895515738
20
1.294959109056236
30
0
10
13.25952700578515
20
1.315225372552508
30
0
0
SPLINE
5
172
100
AcDbEntity
8
0
100
AcDbSpline
70
1064
71
3
72
8
73
4
74
0
42
0.000000001
43
0.0000000001
44
0.0000000001
40
0
40
0
40
0
40
0
40
1
40
1
40
1
40
1
10
13.25952700578515
20
1.315225372552508
30
0
10
13.321273606775009
20
1.3375173831678875
30
0
10
13.343181393652953
20
1.3215013200074481
30
0
10
13.357313265808074
20
1.2437755835390119
30
0
0
SPLINE
5
173
100
AcDbEntity
8
0
100
AcDbSpline
70
1064
71
3
72
8
73
4
74
0
42
0.000000001
43
0.0000000001
44
0.0000000001
40
0
40
0
40
0
40
0
40
1
40
1
40
1
40
1
10
13.357313265808074
20
1.2437755835390119
30
0
10
13.371085532680336
20
1.168021081897417
30
0
10
13.392423578181031
20
1.1513121850868673
30
0
10
13.444840664118439
20
1.1752413229313166
30
0
0
SPLINE
5
174
100
AcDbEntity
8
0
100
AcDbSpline
70
1064
71
3
72
8
73
4
74
0
42
0.000000001
43
0.0000000001
44
0.0000000001
40
0
40
0
40
0
40
0
40
1
40
1
40
1
40
1
10
13.444840664118439
20
1.1752413229313166
30
0
10
13.488077704191875
20
1.1949818065763627
30
0
10
13.514154802197773
20
1.1856127261504941
30
0
10
13.514154802197773
20
1.1503274469039682
30
0
0
SPLINE
5
175
100
AcDbEntity
8
0
100
AcDbSpline
70
1064
71
3
72
8
73
4
74
0
42
0.000000001
43
0.0000000001
44
0.0000000001
40
0
40
0
40
0
40
0
40
1
40
1
40
1
40
1
10
13.514154802197773
20
1.1503274469039682
30
0
10
13.514154802197773
20
1.1178820822384843
30
0
10
13.537375280242742
20
1.1065857285117968
30
0
10
13.56862225370886
20
1.1238327144008589
30
0
0
SPLINE
5
176
100
AcDbEntity
8
0
100
AcDbSpline
70
1064
71
3
72
8
73
4
74
0
42
0.000000001
43
0.0000000001
44
0.0000000001
40
0
40
0
40
0
40
0
40
1
40
1
40
1
40
1
10
13.56862225370886
20
1.1238327144008589
30
0
10
13.598579396001483
20
1.1403657651073182
30
0
10
13.643589844034658
20
1.1294281374329751
30
0
10
13.668643517714756
20
1.0995184735884551
30
0
0
SPLINE
5
177
100
AcDbEntity
8
0
100
AcDbSpline
70
1064
71
3
72
8
73
4
74
0
42
0.000000001
43
0.0000000001
44
0.0000000001
40
0
40
0
40
0
40
0
40
1
40
1
40
1
40
1
10
13.668643517714756
20
1.0995184735884551
30
0
10
13.693697191394854
20
1.0696088097439349
30
0
10
13.735516032638811
20
1.0569056871845375
30
0
10
13.761572908342737
20
1.0712881400379872
30
0
0
SPLINE
5
178
100
AcDbEntity
8
0
100
AcDbSpline
70
1064
71
3
72
8
73
4
74
0
42
0.000000001
43
0.0000000001
44
0.0000000001
40
0
40
0
40
0
40
0
40
1
40
1
40
1
40
1
10
13.761572908342737
20
1.0712881400379872
30
0
10
13.787630663277188
20
1.0856793851966406
30
0
10
13.818263933840033
20
1.0840492918117342
30
0
10
13.829646452157721
20
1.0676692272158328
30
0
0
SPLINE
5
179
100
AcDbEntity
8
0
100
AcDbSpline
70
1064
71
3
72
8
73
4
74
0
42
0.000000001
43
0.0000000001
44
0.0000000001
40
0
40
0
40
0
40
0
40
1
40
1
40
1
40
1
10
13.829646452157721
20
1.0676692272158328
30
0
10
13.892497366681258
20
0.97726674510360922
30
0
10
14.483757031687425
20
0.97714365283074744
30
0
10
14.602335335057846
20
1.0674968980338253
30
0
0
SPLINE
5
180
100
AcDbEntity
8
0
100
AcDbSpline
70
1064
71
3
72
8
73
4
74
0
42
0.000000001
43
0.0000000001
44
0.0000000001
40
0
40
0
40
0
40
0
40
1
40
1
40
1
40
1
10
14.602335335057846
20
1.0674968980338253
30
0
10
14.790471323361766
20
1.2108747774639377
30
0
10
14.853464673229617
20
1.3323264061751756
30
0
10
14.853329271729466
20
1.5514201011039863
30
0
0
SPLINE
5
181
100
AcDbEntity
8
0
100
AcDbSpline
70
1064
71
3
72
8
73
4
74
0
42
0.000000001
43
0.0000000001
44
0.0000000001
40
0
40
0
40
0
40
0
40
1
40
1
40
1
40
1
10
14.853329271729466
20
1.5514201011039863
30
0
10
14.85304088411876
20
1.9345254573167268
30
0
10
14.651575761124885
20
2.2054462745037262
30
0
10
14.30843319052744
20
2.2839861784340938
30
0
0
SPLINE
5
182
100
AcDbEntity
8
0
100
AcDbSpline
70
1064
71
3
72
8
73
4
74
0
42
0.000000001
43
0.0000000001
44
0.0000000001
40
0
40
0
40
0
40
0
40
1
40
1
40
1
40
1
10
14.30843319052744
20
2.2839861784340938
30
0
10
14.172974540394982
20
2.3149931219681315
30
0
10
14.168035023331116
20
2.4043950397480862
30
0
10
14.301776536257147
20
2.4043950397480862
30
0
0
SPLINE
5
183
100
AcDbEntity
8
0
100
AcDbSpline
70
1064
71
3
72
8
73
4
74
0
42
0.000000001
43
0.0000000001
44
0.0000000001
40
0
40
0
40
0
40
0
40
1
40
1
40
1
40
1
10
14.301776536257147
20
2.4043950397480862
30
0
10
14.383892270714167
20
2.4043950397480862
30
0
10
14.65458536719637
20
2.2115692358481081
30
0
10
14.762452884366727
20
2.0762380741411164
30
0
0
SPLINE
5
184
100
AcDbEntity
8
0
100
AcDbSpline
70
1064
71
3
72
8
73
4
74
0
42
0.000000001
43
0.0000000001
44
0.0000000001
40
0
40
0
40
0
40
0
40
1
40
1
40
1
40
1
10
14.762452884366727
20
2.0762380741411164
30
0
10
14.879569027381645
20
1.9293028280252786
30
0
10
14.959941247716623
20
1.6825010624751457
30
0
10
14.962250986293835
20
1.4627127754351847
30
0
0
SPLINE
5
185
100
AcDbEntity
8
0
100
AcDbSpline
70
1064
71
3
72
8
73
4
74
0
42
0.000000001
43
0.0000000001
44
0.0000000001
40
0
40
0
40
0
40
0
40
1
40
1
40
1
40
1
10
14.962250986293835
20
1.4627127754351847
30
0
10
14.964164191906324
20
1.2806557869496251
30
0
10
14.947004249838786
20
1.2188195044466836
30
0
10
14.857847637374036
20
1.0865093788079419
30
0
0
SPLINE
5
186
100
AcDbEntity
8
0
100
AcDbSpline
70
1064
71
3
72
8
73
4
74
0
42
0.000000001
43
0.0000000001
44
0.0000000001
40
0
40
0
40
0
40
0
40
1
40
1
40
1
40
1
10
14.857847637374036
20
1.0865093788079419
30
0
10
14.57250743965173
20
0.66305613401194863
30
0
10
13.805892281186843
20
0.6152470952321959
30
0
10
13.169867473462707
20
0.9812426255170652
30
0
0
LINE
5
187
100
AcDbEntity
8
0
100
AcDbLine
10
13.169867473462707
20
0.9812426255170652
30
0
11
12.952162962756203
21
1.1065189069922428
31
0
0
LINE
5
188
100
AcDbEntity
8
0
100
AcDbLine
10
12.952162962756203
20
1.1065189069922428
30
0
11
12.832783680381651
21
0.99692985646285792
31
0
0
SPLINE
5
189
100
AcDbEntity
8
0
100
AcDbSpline
70
1064
71
3
72
8
73
4
74
0
42
0.000000001
43
0.0000000001
44
0.0000000001
40
0
40
0
40
0
40
0
40
1
40
1
40
1
40
1
10
12.832783680381654
20
0.99692985646285637
30
0
10
12.767125382806332
20
0.93665508736422598
30
0
10
12.71276607664926
20
0.87055101991503958
30
0
10
12.711987957638666
20
0.85002802110679787
30
0
0
SPLINE
5
190
100
AcDbEntity
8
0
100
AcDbSpline
70
1064
71
3
72
8
73
4
74
0
42
0.000000001
43
0.0000000001
44
0.0000000001
40
0
40
0
40
0
40
0
40
1
40
1
40
1
40
1
10
12.711987957638666
20
0.85002802110679787
30
0
10
12.709746799042051
20
0.79103517010697588
30
0
10
12.880628767612745
20
0.71349758896991677
30
0
10
12.946551713574717
20
0.74359189122373082
30
0
0
SPLINE
5
191
100
AcDbEntity
8
0
100
AcDbSpline
70
1064
71
3
72
8
73
4
74
0
42
0.000000001
43
0.0000000001
44
0.0000000001
40
0
40
0
40
0
40
0
40
1
40
1
40
1
40
1
10
12.946551713574717
20
0.74359189122373082
30
0
10
13.079445648279037
20
0.80426055559552201
30
0
10
13.03680033034586
20
0.65707209108979758
30
0
10
12.838605944888043
20
0.37102323356800931
30
0
0
SPLINE
5
192
100
AcDbEntity
8
0
100
AcDbSpline
70
1064
71
3
72
8
73
4
74
0
42
0.000000001
43
0.0000000001
44
0.0000000001
40
0
40
0
40
0
40
0
40
1
40
1
40
1
40
1
10
12.838605944888043
20
0.37102323356800931
30
0
10
12.681567460861766
20
0.14437519000753035
30
0
10
12.626175938073692
20
0.089059281044212207
30
0
10
12.617500570528454
20
0.15022558989057616
30
0
0
SPLINE
5
193
100
AcDbEntity
8
0
100
AcDbSpline
70
1064
71
3
72
8
73
4
74
0
42
0.000000001
43
0.0000000001
44
0.0000000001
40
0
40
0
40
0
40
0
40
1
40
1
40
1
40
1
10
12.560383997459262
20
0.20669856621880095
30
0
10
12.469472440875704
20
0.15652088041696588
30
0
10
12.532303133097269
20
0.35773981886511685
30
0
10
12.629694618616515
20
0.42867262033259051
30
0
0
LINE
5
194
100
AcDbEntity
8
0
100
AcDbLine
10
12.629694618616512
20
0.42867262033259051
30
0
11
12.727311187148993
21
0.49976544175478466
31
0
0
LINE
5
195
100
AcDbEntity
8
0
100
AcDbLine
10
12.727311187148993
20
0.49976544175478466
30
0
11
12.559898662211978
21
0.53074776683424896
31
0
0
SPLINE
5
196
100
AcDbEntity
8
0
100
AcDbSpline
70
1064
71
3
72
8
73
4
74
0
42
0.000000001
43
0.0000000001
44
0.0000000001
40
0
40
0
40
0
40
0
40
1
40
1
40
1
40
1
10
12.559898662211976
20
0.53074776683424696
30
0
10
12.414902998624246
20
0.5575801238572079
30
0
10
12.384719014857348
20
0.54805805732078139
30
0
10
12.334485937532724
20
0.45965494541205504
30
0
0
SPLINE
5
197
100
AcDbEntity
8
0
100
AcDbSpline
70
1064
71
3
72
8
73
4
74
0
42
0.000000001
43
0.0000000001
44
0.0000000001
40
0
40
0
40
0
40
0
40
1
40
1
40
1
40
1
10
12.334485937532724
20
0.45965494541205504
30
0
10
12.302584816559394
20
0.40351255975951866
30
0
10
12.283922269532416
20
0.32807458110528004
30
0
10
12.293012633883304
20
0.29201382053972175
30
0
0
SPLINE
5
198
100
AcDbEntity
8
0
100
AcDbSpline
70
1064
71
3
72
8
73
4
74
0
42
0.000000001
43
0.0000000001
44
0.0000000001
40
0
40
0
40
0
40
0
40
1
40
1
40
1
40
1
10
12.293012633883304
20
0.29201382053972175
30
0
10
12.303861459275083
20
0.24899482963535963
30
0
10
12.292090321067356
20
0.23605431483543921
30
0
10
12.25893541737187
20
0.25438275426464912
30
0
0
SPLINE
5
199
100
AcDbEntity
8
0
100
AcDbSpline
70
1064
71
3
72
8
73
4
74
0
42
0.000000001
43
0.0000000001
44
0.0000000001
40
0
40
0
40
0
40
0
40
1
40
1
40
1
40
1
10
12.25893541737187
20
0.25438275426464912
30
0
10
12.231105133708205
20
0.26974115299579482
30
0
10
12.208332183998143
20
0.25698175968308534
30
0
10
12.208332183998143
20
0.2260328453633999
30
0
0
SPLINE
5
200
100
AcDbEntity
8
0
100
AcDbSpline
70
1064
71
3
72
8
73
4
74
0
42
0.000000001
43
0.0000000001
44
0.0000000001
40
0
40
0
40
0
40
0
40
1
40
1
40
1
40
1
10
12.208332183998143
20
0.2260328453633999
30
0
10
12.208332183998143
20
0.18457536786334594
30
0
10
12.197536112437591
20
0.18528930304594882
30
0
10
12.167316959449872
20
0.22874087536637122
30
0
0
SPLINE
5
201
100
AcDbEntity
8
0
100
AcDbSpline
70
1064
71
3
72
8
73
4
74
0
42
0.000000001
43
0.0000000001
44
0.0000000001
40
0
40
0
40
0
40
0
40
1
40
1
40
1
40
1
10
12.167316959449872
20
0.38220001194391517
30
0
10
12.216052707198175
20
0.49444785556712861
30
0
10
12.218550601106761
20
0.52613356506294973
30
0
10
12.178666946238307
20
0.52613356506294973
30
0
0
SPLINE
5
202
100
AcDbEntity
8
0
100
AcDbSpline
70
1064
71
3
72
8
73
4
74
0
42
0.000000001
43
0.0000000001
44
0.0000000001
40
0
40
0
40
0
40
0
40
1
40
1
40
1
40
1
10
11.873510651046194
20
-0.0014434333473374637
30
0
10
11.873510651046194
20
0.058354792809210063
30
0
10
11.729004718858352
20
0.058212357464898626
30
0
10
11.687403926783464
20
-0.0016157625293449585
30
0
0
SPLINE
5
203
100
AcDbEntity
8
0
100
AcDbSpline
70
1064
71
3
72
8
73
4
74
0
42
0.000000001
43
0.0000000001
44
0.0000000001
40
0
40
0
40
0
40
0
40
1
40
1
40
1
40
1
10
11.687403926783464
20
-0.0016157625293449585
30
0
10
11.669192425013474
20
-0.02780979819446178
30
0
10
11.635479209937506
20
-0.030138000612601683
30
0
10
11.609452228071273
20
-0.00699841177551409
30
0
0
LINE
5
204
100
AcDbEntity
8
0
100
AcDbLine
10
11.609452228071273
20
-0.0069984117755140839
30
0
11
11.609452228071273
21
-0.0070107210028005395
31
0
0
SPLINE
5
205
100
AcDbEntity
8
0
100
AcDbSpline
70
1064
71
3
72
8
73
4
74
0
42
0.000000001
43
0.0000000001
44
0.0000000001
40
0
40
0
40
0
40
0
40
1
40
1
40
1
40
1
10
7.4850601081770618
20
-1.3580257879533355
30
0
10
7.3670427538786827
20
-1.1858988289656927
30
0
10
7.3873569354383202
20
-1.027148483116108
30
0
10
7.5664535547615372
20
-0.72198691254087399
30
0
0
SPLINE
5
206
100
AcDbEntity
8
0
100
AcDbSpline
70
1064
71
3
72
8
73
4
74
0
42
0.000000001
43
0.0000000001
44
0.0000000001
40
0
40
0
40
0
40
0
40
1
40
1
40
1
40
1
10
7.5664535547615372
20
-0.72198691254087399
30
0
10
7.7601260576527018
20
-0.39198356284096736
30
0
10
7.7458332863123376
20
-0.33926841775712835
30
0
10
7.381834928154662
20
-0.041086179053190973
30
0
0
SPLINE
5
207
100
AcDbEntity
8
0
100
AcDbSpline
70
1064
71
3
72
8
73
4
74
0
42
0.000000001
43
0.0000000001
44
0.0000000001
40
0
40
0
40
0
40
0
40
1
40
1
40
1
40
1
10
7.381834928154662
20
-0.041086179053190973
30
0
10
7.2071445725846566
20
0.10201738045454223
30
0
10
7.1112466799120213
20
0.034714042575466675
30
0
10
6.9940709690293392
20
-0.31322385128048902
30
0
0
SPLINE
5
208
100
AcDbEntity
8
0
100
AcDbSpline
70
1064
71
3
72
8
73
4
74
0
42
0.000000001
43
0.0000000001
44
0.0000000001
40
0
40
0
40
0
40
0
40
1
40
1
40
1
40
1
10
6.9940709690293392
20
-0.31322385128048902
30
0
10
6.9216342437566434
20
-0.52831704734127083
30
0
10
6.8866476830794401
20
-0.57865651155886433
30
0
10
6.8091270271298985
20
-0.5793264852154445
30
0
0
SPLINE
5
209
100
AcDbEntity
8
0
100
AcDbSpline
70
1064
71
3
72
8
73
4
74
0
42
0.000000001
43
0.0000000001
44
0.0000000001
40
0
40
0
40
0
40
0
40
1
40
1
40
1
40
1
10
6.8091270271298985
20
-0.5793264852154445
30
0
10
6.6720725736028301
20
-0.58059961100904967
30
0
10
6.6136510026336692
20
-0.64905122394782566
30
0
10
6.6452147188947777
20
-0.77163002618627696
30
0
0
SPLINE
5
210
100
AcDbEntity
8
0
100
AcDbSpline
70
1064
71
3
72
8
73
4
74
0
42
0.000000001
43
0.0000000001
44
0.0000000001
40
0
40
0
40
0
40
0
40
1
40
1
40
1
40
1
10
6.6452147188947777
20
-0.77163002618627696
30
0
10
6.6681347199093848
20
-0.86063453177098803
30
0
10
6.6636869125140796
20
-0.86549667654905438
30
0
10
6.6136186909120429
20
-0.80618202717874743
30
0
0
SPLINE
5
211
100
AcDbEntity
8
0
100
AcDbSpline
70
1064
71
3
72
8
73
4
74
0
42
0.000000001
43
0.0000000001
44
0.0000000001
40
0
40
0
40
0
40
0
40
1
40
1
40
1
40
1
10
6.6136186909120429
20
-0.80618202717874743
30
0
10
6.5390199377895719
20
-0.71780529218563416
30
0
10
6.3866578610939158
20
-0.80936835858484457
30
0
10
6.3314122905722332
20
-0.97577504380646951
30
0
0
SPLINE
5
212
100
AcDbEntity
8
0
100
AcDbSpline
70
1064
71
3
72
8
73
4
74
0
42
0.000000001
43
0.0000000001
44
0.0000000001
40
0
40
0
40
0
40
0
40
1
40
1
40
1
40
1
10
6.3314122905722332
20
-0.97577504380646951
30
0
10
6.3103712051798189
20
-1.0391517381812321
30
0
10
6.2920297971004331
20
-1.0590610340862026
30
0
10
6.2906533617206746
20
-1.0200214405173766
30
0
0
SPLINE
5
213
100
AcDbEntity
8
0
100
AcDbSpline
70
1064
71
3
72
8
73
4
74
0
42
0.000000001
43
0.0000000001
44
0.0000000001
40
0
40
0
40
0
40
0
40
1
40
1
40
1
40
1
10
6.2906533617206746
20
-1.0200214405173766
30
0
10
6.2893395715154989
20
-0.98098184694854806
30
0
10
6.3053806927457687
20
-0.90208497542687871
30
0
10
6.3264406815943737
20
-0.84469232397426719
30
0
0
SPLINE
5
214
100
AcDbEntity
8
0
100
AcDbSpline
70
1064
71
3
72
8
73
4
74
0
42
0.000000001
43
0.0000000001
44
0.0000000001
40
0
40
0
40
0
40
0
40
1
40
1
40
1
40
1
10
6.3264406815943737
20
-0.84469232397426719
30
0
10
6.3743048920892837
20
-0.7142532008830349
30
0
10
6.3094972500424964
20
-0.70150259987553165
30
0
10
6.2250053951039703
20
-0.82472851577703044
30
0
0
SPLINE
5
215
100
AcDbEntity
8
0
100
AcDbSpline
70
1064
71
3
72
8
73
4
74
0
42
0.000000001
43
0.0000000001
44
0.0000000001
40
0
40
0
40
0
40
0
40
1
40
1
40
1
40
1
10
6.2250053951039703
20
-0.82472851577703044
30
0
10
6.1849241331760449
20
-0.88318679462042027
30
0
10
6.155315385977147
20
-0.89186479985721878
30
0
10
6.1286511817912208
20
-0.85297643393790779
30
0
0
SPLINE
5
216
100
AcDbEntity
8
0
100
AcDbSpline
70
1064
71
3
72
8
73
4
74
0
42
0.000000001
43
0.0000000001
44
0.0000000001
40
0
40
0
40
0
40
0
40
1
40
1
40
1
40
1
10
6.1286511817912208
20
-0.85297643393790779
30
0
10
6.0583382378406636
20
-0.75042474449416841
30
0
10
6.2090961584517661
20
-0.57849473314310318
30
0
10
6.3693346019572052
20
-0.57849473314310318
30
0
0
SPLINE
5
217
100
AcDbEntity
8
0
100
AcDbSpline
70
1064
71
3
72
8
73
4
74
0
42
0.000000001
43
0.0000000001
44
0.0000000001
40
0
40
0
40
0
40
0
40
1
40
1
40
1
40
1
10
6.3693346019572052
20
-0.57849473314310318
30
0
10
6.5680569653425502
20
-0.57849473314310318
30
0
10
6.9092911660953682
20
-0.31820908833141431
30
0
10
6.8158417106145421
20
-0.23790720643807198
30
0
0
SPLINE
5
218
100
AcDbEntity
8
0
100
AcDbSpline
70
1064
71
3
72
8
73
4
74
0
42
0.000000001
43
0.0000000001
44
0.0000000001
40
0
40
0
40
0
40
0
40
1
40
1
40
1
40
1
10
6.8158417106145421
20
-0.23790720643807198
30
0
10
6.8002529534870408
20
-0.22450421638439805
30
0
10
6.7334013202878467
20
-0.19662909196419159
30
0
10
6.6672842841884838
20
-0.17594607320122596
30
0
0
SPLINE
5
219
100
AcDbEntity
8
0
100
AcDbSpline
70
1064
71
3
72
8
73
4
74
0
42
0.000000001
43
0.0000000001
44
0.0000000001
40
0
40
0
40
0
40
0
40
1
40
1
40
1
40
1
10
6.6672842841884838
20
-0.17594607320122596
30
0
10
6.5546042987644704
20
-0.14069772163656216
30
0
10
6.5467556277160828
20
-0.1479056534431753
30
0
10
6.5420341598212888
20
-0.29098459449633557
30
0
0
SPLINE
5
220
100
AcDbEntity
8
0
100
AcDbSpline
70
1064
71
3
72
8
73
4
74
0
42
0.000000001
43
0.0000000001
44
0.0000000001
40
0
40
0
40
0
40
0
40
1
40
1
40
1
40
1
10
6.5420341598212888
20
-0.29098459449633557
30
0
10
6.5381851084104081
20
-0.40746857076705778
30
0
10
6.5333403284351235
20
-0.41646134053017531
30
0
10
6.5215694100350268
20
-0.32894976836917972
30
0
0
SPLINE
5
221
100
AcDbEntity
8
0
100
AcDbSpline
70
1064
71
3
72
8
73
4
74
0
42
0.000000001
43
0.0000000001
44
0.0000000001
40
0
40
0
40
0
40
0
40
1
40
1
40
1
40
1
10
6.5215694100350268
20
-0.32894976836917972
30
0
10
6.5130795601296034
20
-0.26587552929344965
30
0
10
6.4672118623389947
20
-0.16092881591201499
30
0
10
6.4196287858029963
20
-0.095732114359928858
30
0
0
LINE
5
222
100
AcDbEntity
8
0
100
AcDbLine
10
6.4196287858029963
20
-0.095732114359928872
30
0
11
6.3331162393208569
21
0.02280574440655328
31
0
0
LINE
5
223
100
AcDbEntity
8
0
100
AcDbLine
10
6.3331162393208569
20
0.02280574440655328
30
0
11
6.2736448671102831
21
-0.10103211593717737
31
0
0
SPLINE
5
224
100
AcDbEntity
8
0
100
AcDbSpline
70
1064
71
3
72
8
73
4
74
0
42
0.000000001
43
0.0000000001
44
0.0000000001
40
0
40
0
40
0
40
0
40
1
40
1
40
1
40
1
10
6.2736448671102831
20
-0.10103211593717588
30
0
10
6.2298451195037625
20
-0.19223469782300467
30
0
10
6.2141728354768198
20
-0.20212252425593596
30
0
10
6.2141728354768198
20
-0.13855239916667328
30
0
0
SPLINE
5
225
100
AcDbEntity
8
0
100
AcDbSpline
70
1064
71
3
72
8
73
4
74
0
42
0.000000001
43
0.0000000001
44
0.0000000001
40
0
40
0
40
0
40
0
40
1
40
1
40
1
40
1
10
6.2141728354768198
20
-0.13855239916667328
30
0
10
6.2141728354768198
20
-0.091075709523649059
30
0
10
6.2391401247582836
20
-0.022010393681604679
30
0
10
6.2696557982390217
20
0.01492608048231763
30
0
0
SPLINE
5
226
100
AcDbEntity
8
0
100
AcDbSpline
70
1064
71
3
72
8
73
4
74
0
42
0.000000001
43
0.0000000001
44
0.0000000001
40
0
40
0
40
0
40
0
40
1
40
1
40
1
40
1
10
6.2696557982390217
20
0.01492608048231763
30
0
10
6.3544316446356515
20
0.11754107452352934
30
0
10
6.3358216316322684
20
0.19232490567055444
30
0
10
6.2326670098591332
20
0.16356527534677773
30
0
0
SPLINE
5
227
100
AcDbEntity
8
0
100
AcDbSpline
70
1064
71
3
72
8
73
4
74
0
42
0.000000001
43
0.0000000001
44
0.0000000001
40
0
40
0
40
0
40
0
40
1
40
1
40
1
40
1
10
6.2326670098591332
20
0.16356527534677773
30
0
10
6.181807700596325
20
0.14937801166886525
30
0
10
6.1401952587170427
20
0.15946806112150011
30
0
10
6.1401952587170427
20
0.18594345055315956
30
0
0
SPLINE
5
228
100
AcDbEntity
8
0
100
AcDbSpline
70
1064
71
3
72
8
73
4
74
0
42
0.000000001
43
0.0000000001
44
0.0000000001
40
0
40
0
40
0
40
0
40
1
40
1
40
1
40
1
10
6.1401952587170427
20
0.18594345055315956
30
0
10
6.1401952587170427
20
0.27080502192553307
30
0
10
6.2586759674996966
20
0.30377616644224564
30
0
10
6.3300393721145571
20
0.23877465406569698
30
0
0
SPLINE
5
229
100
AcDbEntity
8
0
100
AcDbSpline
70
1064
71
3
72
8
73
4
74
0
42
0.000000001
43
0.0000000001
44
0.0000000001
40
0
40
0
40
0
40
0
40
1
40
1
40
1
40
1
10
6.3300393721145571
20
0.23877465406569698
30
0
10
6.4241636370198263
20
0.15304264447808541
30
0
10
6.4173614700983981
20
0.22195321574853191
30
0
10
6.3194813522174158
20
0.3457734914818521
30
0
0
SPLINE
5
230
100
AcDbEntity
8
0
100
AcDbSpline
70
1064
71
3
72
8
73
4
74
0
42
0.000000001
43
0.0000000001
44
0.0000000001
40
0
40
0
40
0
40
0
40
1
40
1
40
1
40
1
10
6.3194813522174158
20
0.3457734914818521
30
0
10
6.2548763728055903
20
0.42749445143519399
30
0
10
6.2512444913332601
20
0.44650869067035087
30
0
10
6.3002341168943401
20
0.44650869067035087
30
0
0
SPLINE
5
231
100
AcDbEntity
8
0
100
AcDbSpline
70
1064
71
3
72
8
73
4
74
0
42
0.000000001
43
0.0000000001
44
0.0000000001
40
0
40
0
40
0
40
0
40
1
40
1
40
1
40
1
10
6.3002341168943401
20
0.44650869067035087
30
0
10
6.3334510063415168
20
0.44650869067035087
30
0
10
6.3945907184646362
20
0.34940998891441349
30
0
10
6.4361066647942984
20
0.23071914403737576
30
0
0
SPLINE
5
232
100
AcDbEntity
8
0
100
AcDbSpline
70
1064
71
3
72
8
73
4
74
0
42
0.000000001
43
0.0000000001
44
0.0000000001
40
0
40
0
40
0
40
0
40
1
40
1
40
1
40
1
10
6.4361066647942984
20
0.23071914403737576
30
0
10
6.502258210691588
20
0.041598417550557466
30
0
10
6.5274437689497544
20
0.01492783894336055
30
0
10
6.6398824055959045
20
0.01492783894336055
30
0
0
SPLINE
5
233
100
AcDbEntity
8
0
100
AcDbSpline
70
1064
71
3
72
8
73
4
74
0
42
0.000000001
43
0.0000000001
44
0.0000000001
40
0
40
0
40
0
40
0
40
1
40
1
40
1
40
1
10
6.6398824055959045
20
0.01492783894336055
30
0
10
6.751317400602967
20
0.01492783894336055
30
0
10
6.7672455407113601
20
0.03130438661717893
30
0
10
6.7611001589887056
20
0.13961503596983857
30
0
0
SPLINE
5
234
100
AcDbEntity
8
0
100
AcDbSpline
70
1064
71
3
72
8
73
4
74
0
42
0.000000001
43
0.0000000001
44
0.0000000001
40
0
40
0
40
0
40
0
40
1
40
1
40
1
40
1
10
6.7611001589887056
20
0.13961503596983857
30
0
10
6.7572106629738835
20
0.20819325810355654
30
0
10
6.7906851669635504
20
0.33939027790341708
30
0
10
6.8354927325541315
20
0.43116787654961475
30
0
0
SPLINE
5
235
100
AcDbEntity
8
0
100
AcDbSpline
70
1064
71
3
72
8
73
4
74
0
42
0.000000001
43
0.0000000001
44
0.0000000001
40
0
40
0
40
0
40
0
40
1
40
1
40
1
40
1
10
6.8354927325541315
20
0.43116787654961475
30
0
10
6.9335634236504191
20
0.63204215663375074
30
0
10
6.9329741193940908
20
0.61885897421018721
30
0
10
6.8501134568786233
20
0.75820118555145433
30
0
0
SPLINE
5
236
100
AcDbEntity
8
0
100
AcDbSpline
70
1064
71
3
72
8
73
4
74
0
42
0.000000001
43
0.0000000001
44
0.0000000001
40
0
40
0
40
0
40
0
40
1
40
1
40
1
40
1
10
6.8501134568786233
20
0.75820118555145433
30
0
10
6.7818748375334241
20
0.87295659461898123
30
0
10
6.7646808252832198
20
0.87438270652314409
30
0
10
6.3419907525789752
20
0.80031105209767894
30
0
0
SPLINE
5
237
100
AcDbEntity
8
0
100
AcDbSpline
70
1064
71
3
72
8
73
4
74
0
42
0.000000001
43
0.0000000001
44
0.0000000001
40
0
40
0
40
0
40
0
40
1
40
1
40
1
40
1
10
6.3419907525789752
20
0.80031105209767894
30
0
10
6.2540314322754424
20
0.7848911072301038
30
0
10
6.2282688789882341
20
0.80201148392422117
30
0
10
6.2243004720342023
20
0.87892481139176559
30
0
0
SPLINE
5
238
100
AcDbEntity
8
0
100
AcDbSpline
70
1064
71
3
72
8
73
4
74
0
42
0.000000001
43
0.0000000001
44
0.0000000001
40
0
40
0
40
0
40
0
40
1
40
1
40
1
40
1
10
6.2243004720342023
20
0.87892481139176559
30
0
10
6.2175726000917519
20
1.0091652283853774
30
0
10
6.2936269193408219
20
1.0455847150032771
30
0
10
6.442385469748432
20
0.98335981261029815
30
0
0
SPLINE
5
239
100
AcDbEntity
8
0
100
AcDbSpline
70
1064
71
3
72
8
73
4
74
0
42
0.000000001
43
0.0000000001
44
0.0000000001
40
0
40
0
40
0
40
0
40
1
40
1
40
1
40
1
10
6.442385469748432
20
0.98335981261029815
30
0
10
6.5880555031453447
20
0.92242913754341682
30
0
10
6.6950275240306247
20
0.96214222169090324
30
0
10
6.6950275240306247
20
1.0771490906872767
30
0
0
SPLINE
5
240
100
AcDbEntity
8
0
100
AcDbSpline
70
1064
71
3
72
8
73
4
74
0
42
0.000000001
43
0.0000000001
44
0.0000000001
40
0
40
0
40
0
40
0
40
1
40
1
40
1
40
1
10
6.6950275240306247
20
1.0771490906872767
30
0
10
6.6950275240306247
20
1.1491457610844886
30
0
10
6.6861727934592174
20
1.1505437376119982
30
0
10
6.6326184228436125
20
1.0870035063604317
30
0
0
SPLINE
5
241
100
AcDbEntity
8
0
100
AcDbSpline
70
1064
71
3
72
8
73
4
74
0
42
0.000000001
43
0.0000000001
44
0.0000000001
40
0
40
0
40
0
40
0
40
1
40
1
40
1
40
1
10
6.6326184228436125
20
1.0870035063604317
30
0
10
6.5776983874221262
20
1.021849007873328
30
0
10
6.5732512394497116
20
1.0247873962726561
30
0
10
6.5955535810237054
20
1.1114971101990063
30
0
0
SPLINE
5
242
100
AcDbEntity
8
0
100
AcDbSpline
70
1064
71
3
72
8
73
4
74
0
42
0.000000001
43
0.0000000001
44
0.0000000001
40
0
40
0
40
0
40
0
40
1
40
1
40
1
40
1
10
6.5955535810237054
20
1.1114971101990063
30
0
10
6.6176345763141784
20
1.1973434197542789
30
0
10
6.6034314864868993
20
1.207834398324235
30
0
10
6.4852198222435034
20
1.1929789194507854
30
0
0
SPLINE
5
243
100
AcDbEntity
8
0
100
AcDbSpline
70
1064
71
3
72
8
73
4
74
0
42
0.000000001
43
0.0000000001
44
0.0000000001
40
0
40
0
40
0
40
0
40
1
40
1
40
1
40
1
10
6.4852198222435034
20
1.1929789194507854
30
0
10
6.2835436839247203
20
1.1676359789294624
30
0
10
6.284246189110557
20
1.2941203231397314
30
0
10
6.4860898208434827
20
1.3382524198829804
30
0
0
SPLINE
5
244
100
AcDbEntity
8
0
100
AcDbSpline
70
1064
71
3
72
8
73
4
74
0
42
0.000000001
43
0.0000000001
44
0.0000000001
40
0
40
0
40
0
40
0
40
1
40
1
40
1
40
1
10
6.4860898208434827
20
1.3382524198829804
30
0
10
6.6932429058817506
20
1.3835591686015427
30
0
10
6.7285145570552087
20
1.5132017088412557
30
0
10
6.5961239818238457
20
1.7426755992944472
30
0
0
SPLINE
5
245
100
AcDbEntity
8
0
100
AcDbSpline
70
1064
71
3
72
8
73
4
74
0
42
0.000000001
43
0.0000000001
44
0.0000000001
40
0
40
0
40
0
40
0
40
1
40
1
40
1
40
1
10
6.5961239818238457
20
1.7426755992944472
30
0
10
6.5233379822269031
20
1.868836386673191
30
0
10
6.4735199017079328
20
1.9030982415939184
30
0
10
6.3628621464809445
20
1.9030982415939184
30
0
0
SPLINE
5
246
100
AcDbEntity
8
0
100
AcDbSpline
70
1064
71
3
72
8
73
4
74
0
42
0.000000001
43
0.0000000001
44
0.0000000001
40
0
40
0
40
0
40
0
40
1
40
1
40
1
40
1
10
6.3628621464809445
20
1.9030982415939184
30
0
10
6.2182172958708701
20
1.9030982415939184
30
0
10
6.1740234331835593
20
1.8385381029386361
30
0
10
6.1597552802977669
20
1.6063860763201665
30
0
0
SPLINE
5
247
100
AcDbEntity
8
0
100
AcDbSpline
70
1064
71
3
72
8
73
4
74
0
42
0.000000001
43
0.0000000001
44
0.0000000001
40
0
40
0
40
0
40
0
40
1
40
1
40
1
40
1
10
6.1597552802977669
20
1.6063860763201665
30
0
10
6.1561137272897106
20
1.5470450500342492
30
0
10
6.1335847640490719
20
1.4301495938799593
30
0
10
6.1097037640756184
20
1.3466226944376232
30
0
0
SPLINE
5
248
100
AcDbEntity
8
0
100
AcDbSpline
70
1064
71
3
72
8
73
4
74
0
42
0.000000001
43
0.0000000001
44
0.0000000001
40
0
40
0
40
0
40
0
40
1
40
1
40
1
40
1
10
6.1097037640756184
20
1.3466226944376232
30
0
10
6.0858225442945342
20
1.263095794995287
30
0
10
6.0662827450157799
20
1.1492160995261242
30
0
10
6.0662827450157799
20
1.093555532198794
30
0
0
SPLINE
5
249
100
AcDbEntity
8
0
100
AcDbSpline
70
1064
71
3
72
8
73
4
74
0
42
0.000000001
43
0.0000000001
44
0.0000000001
40
0
40
0
40
0
40
0
40
1
40
1
40
1
40
1
10
6.0662827450157799
20
1.093555532198794
30
0
10
6.0662827450157799
20
0.95746999070525673
30
0
10
6.0022154150672069
20
0.9066188143247611
30
0
10
5.9809013285981942
20
1.0257897190659648
30
0
0
SPLINE
5
250
100
AcDbEntity
8
0
100
AcDbSpline
70
1064
71
3
72
8
73
4
74
0
42
0.000000001
43
0.0000000001
44
0.0000000001
40
0
40
0
40
0
40
0
40
1
40
1
40
1
40
1
10
5.9809013285981942
20
1.0257897190659648
30
0
10
5.9648360285286097
20
1.1156119090346934
30
0
10
5.9636611567456645
20
1.11564883671655
30
0
10
5.9596068050082609
20
1.026429798884849
30
0
0
SPLINE
5
251
100
AcDbEntity
8
0
100
AcDbSpline
70
1064
71
3
72
8
73
4
74
0
42
0.000000001
43
0.0000000001
44
0.0000000001
40
0
40
0
40
0
40
0
40
1
40
1
40
1
40
1
10
5.9596068050082609
20
1.026429798884849
30
0
10
5.9572328826030567
20
0.97406634600918829
30
0
10
5.9258742468608423
20
0.93202154252147618
30
0
10
5.8892074766590676
20
0.93202154252147618
30
0
0
SPLINE
5
252
100
AcDbEntity
8
0
100
AcDbSpline
70
1064
71
3
72
8
73
4
74
0
42
0.000000001
43
0.0000000001
44
0.0000000001
40
0
40
0
40
0
40
0
40
1
40
1
40
1
40
1
10
5.8892074766590676
20
0.93202154252147618
30
0
10
5.8412280869659785
20
0.93202154252147618
30
0
10
5.8205978220342418
20
0.97986575052204816
30
0
10
5.8139829312136699
20
1.1064714285441386
30
0
0
SPLINE
5
253
100
AcDbEntity
8
0
100
AcDbSpline
70
1064
71
3
72
8
73
4
74
0
42
0.000000001
43
0.0000000001
44
0.0000000001
40
0
40
0
40
0
40
0
40
1
40
1
40
1
40
1
10
5.8139829312136699
20
1.1064714285441386
30
0
10
5.8089757133997315
20
1.2024165798572495
30
0
10
5.7887857231511077
20
1.3043791848522905
30
0
10
5.7691265683292032
20
1.3330508921240221
30
0
0
SPLINE
5
254
100
AcDbEntity
8
0
100
AcDbSpline
70
1064
71
3
72
8
73
4
74
0
42
0.000000001
43
0.0000000001
44
0.0000000001
40
0
40
0
40
0
40
0
40
1
40
1
40
1
40
1
10
5.7691265683292032
20
1.3330508921240221
30
0
10
5.749468512545449
20
1.3617208409347161
30
0
10
5.7333840892120467
20
1.461393929654514
30
0
10
5.7333840892120467
20
1.5545484032957315
30
0
0
SPLINE
5
255
100
AcDbEntity
8
0
100
AcDbSpline
70
1064
71
3
72
8
73
4
74
0
42
0.000000001
43
0.0000000001
44
0.0000000001
40
0
40
0
40
0
40
0
40
1
40
1
40
1
40
1
10
5.7333840892120467
20
1.5545484032957315
30
0
10
5.7333840892120467
20
1.6850736909779689
30
0
10
5.7110817476380529
20
1.7387366465628507
30
0
10
5.6361332805760744
20
1.7885432970850548
30
0
0
SPLINE
5
256
100
AcDbEntity
8
0
100
AcDbSpline
70
1064
71
3
72
8
73
4
74
0
42
0.000000001
43
0.0000000001
44
0.0000000001
40
0
40
0
40
0
40
0
40
1
40
1
40
1
40
1
10
5.6361332805760744
20
1.7885432970850548
30
0
10
5.5057231720920141
20
1.8752037741022594
30
0
10
5.5522124858605775
20
1.9305214415266176
30
0
10
5.6946091440298723
20
1.8581220835510415
30
0
0
LINE
5
257
100
AcDbEntity
8
0
100
AcDbLine
10
5.6946091440298723
20
1.858122083551041
30
0
11
5.8075647682220461
21
1.8006907459555319
31
0
0
LINE
5
258
100
AcDbEntity
8
0
100
AcDbLine
10
5.8075647682220461
20
1.8006907459555319
30
0
11
5.7838754405020483
21
2.0946474027782056
31
0
0
SPLINE
5
259
100
AcDbEntity
8
0
100
AcDbSpline
70
1064
71
3
72
8
73
4
74
0
42
0.000000001
43
0.0000000001
44
0.0000000001
40
0
40
0
40
0
40
0
40
1
40
1
40
1
40
1
10
5.7838754405020492
20
2.0946474027782056
30
0
10
5.7586494376399431
20
2.4077009465049621
30
0
10
5.8175233727118734
20
2.5168064202481011
30
0
10
5.8568654215797347
20
2.2299082260435643
30
0
0
LINE
5
260
100
AcDbEntity
8
0
100
AcDbLine
10
5.8568654215797347
20
2.2299082260435643
30
0
11
5.8786265967683944
21
2.0712141509472888
31
0
0
LINE
5
261
100
AcDbEntity
8
0
100
AcDbLine
10
5.8786265967683944
20
2.0712141509472888
30
0
11
6.000197141407523
21
2.159856413557578
31
0
0
SPLINE
5
262
100
AcDbEntity
8
0
100
AcDbSpline
70
1064
71
3
72
8
73
4
74
0
42
0.000000001
43
0.0000000001
44
0.0000000001
40
0
40
0
40
0
40
0
40
1
40
1
40
1
40
1
10
6.0001971414075239
20
2.159856413557578
30
0
10
6.2532432021138629
20
2.3443629382730964
30
0
10
6.5547636592963006
20
2.3076550640444906
30
0
10
7.0424831599461166
20
2.0329676233079019
30
0
0
SPLINE
5
263
100
AcDbEntity
8
0
100
AcDbSpline
70
1064
71
3
72
8
73
4
74
0
42
0.000000001
43
0.0000000001
44
0.0000000001
40
0
40
0
40
0
40
0
40
1
40
1
40
1
40
1
10
7.0424831599461166
20
2.0329676233079019
30
0
10
7.1081777257804051
20
1.99596608608547
30
0
10
7.1113664750704313
20
2.0180365306096961
30
0
10
7.0945676769391666
20
2.3933853151710647
30
0
0
SPLINE
5
264
100
AcDbEntity
8
0
100
AcDbSpline
70
1064
71
3
72
8
73
4
74
0
42
0.000000001
43
0.0000000001
44
0.0000000001
40
0
40
0
40
0
40
0
40
1
40
1
40
1
40
1
10
7.0945676769391666
20
2.3933853151710647
30
0
10
7.0747977390716859
20
2.8350966609546293
30
0
10
6.9997675035713058
20
3.0991893739198497
30
0
10
6.8002307529163994
20
3.4293879127952938
30
0
0
SPLINE
5
265
100
AcDbEntity
8
0
100
AcDbSpline
70
1064
71
3
72
8
73
4
74
0
42
0.000000001
43
0.0000000001
44
0.0000000001
40
0
40
0
40
0
40
0
40
1
40
1
40
1
40
1
10
6.8002307529163994
20
3.4293879127952938
30
0
10
6.710479341004568
20
3.5779110492310529
30
0
10
6.6436721089466557
20
3.6370498524972694
30
0
10
6.556457716701571
20
3.645179217889309
30
0
0
SPLINE
5
266
100
AcDbEntity
8
0
100
AcDbSpline
70
1064
71
3
72
8
73
4
74
0
42
0.000000001
43
0.0000000001
44
0.0000000001
40
0
40
0
40
0
40
0
40
1
40
1
40
1
40
1
10
6.556457716701571
20
3.645179217889309
30
0
10
6.4903804657832582
20
3.6513391069155507
30
0
10
6.4362833901289083
20
3.6745156234344978
30
0
10
6.4362442643707487
20
3.6966827833159752
30
0
0
SPLINE
5
267
100
AcDbEntity
8
0
100
AcDbSpline
70
1064
71
3
72
8
73
4
74
0
42
0.000000001
43
0.0000000001
44
0.0000000001
40
0
40
0
40
0
40
0
40
1
40
1
40
1
40
1
10
6.4362442643707487
20
3.6966827833159752
30
0
10
6.4361290851725705
20
3.7604656821911822
30
0
10
6.699641945609554
20
4.1688788097044318
30
0
10
6.7409132460469028
20
4.1688788097044318
30
0
0
SPLINE
5
268
100
AcDbEntity
8
0
100
AcDbSpline
70
1064
71
3
72
8
73
4
74
0
42
0.000000001
43
0.0000000001
44
0.0000000001
40
0
40
0
40
0
40
0
40
1
40
1
40
1
40
1
10
6.7409132460469028
20
4.1688788097044318
30
0
10
6.7616839680542808
20
4.1688788097044318
30
0
10
6.7574533305975271
20
4.1325490045996176
30
0
10
6.731331391835087
20
4.0866531714323537
30
0
0
SPLINE
5
269
100
AcDbEntity
8
0
100
AcDbSpline
70
1064
71
3
72
8
73
4
74
0
42
0.000000001
43
0.0000000001
44
0.0000000001
40
0
40
0
40
0
40
0
40
1
40
1
40
1
40
1
10
6.731331391835087
20
4.0866531714323537
30
0
10
6.6601893335037481
20
3.9616283498860243
30
0
10
6.7059752628559552
20
3.9426897244756263
30
0
10
6.8569485949445665
20
4.034690647674017
30
0
0
SPLINE
5
270
100
AcDbEntity
8
0
100
AcDbSpline
70
1064
71
3
72
8
73
4
74
0
42
0.000000001
43
0.0000000001
44
0.0000000001
40
0
40
0
40
0
40
0
40
1
40
1
40
1
40
1
10
9.452122986196688
20
4.0297001352399686
30
0
10
9.6460618959355475
20
3.8969398435747573
30
0
10
9.9500914572157075
20
3.5504896077593937
30
0
10
9.9500914572157075
20
3.4622517911885113
30
0
0
SPLINE
5
271
100
AcDbEntity
8
0
100
AcDbSpline
70
1064
71
3
72
8
73
4
74
0
42
0.000000001
43
0.0000000001
44
0.0000000001
40
0
40
0
40
0
40
0
40
1
40
1
40
1
40
1
10
9.9500914572157075
20
3.4622517911885113
30
0
10
9.9500914572157075
20
3.434288743716257
30
0
10
9.8841737866368558
20
3.4605513593619692
30
0
10
9.8036103336636824
20
3.5204023393497459
30
0
0
SPLINE
5
272
100
AcDbEntity
8
0
100
AcDbSpline
70
1064
71
3
72
8
73
4
74
0
42
0.000000001
43
0.0000000001
44
0.0000000001
40
0
40
0
40
0
40
0
40
1
40
1
40
1
40
1
10
9.8036103336636824
20
3.5204023393497459
30
0
10
9.7013281283744597
20
3.5965067747384789
30
0
10
9.5849355920778656
20
3.6293935131252293
30
0
10
9.4178708028116862
20
3.6293935131252293
30
0
0
SPLINE
5
273
100
AcDbEntity
8
0
100
AcDbSpline
70
1064
71
3
72
8
73
4
74
0
42
0.000000001
43
0.0000000001
44
0.0000000001
40
0
40
0
40
0
40
0
40
1
40
1
40
1
40
1
10
9.4178708028116862
20
3.6293935131252293
30
0
10
9.0313474379507124
20
3.6293935131252293
30
0
10
8.9805116481043257
20
3.4542543103745369
30
0
10
9.212935796568873
20
2.923350303674884
30
0
0
SPLINE
5
274
100
AcDbEntity
8
0
100
AcDbSpline
70
1064
71
3
72
8
73
4
74
0
42
0.000000001
43
0.0000000001
44
0.0000000001
40
0
40
0
40
0
40
0
40
1
40
1
40
1
40
1
10
9.212935796568873
20
2.923350303674884
30
0
10
9.3619376740230162
20
2.5830001692103726
30
0
10
9.3514568066040429
20
2.5291279567616272
30
0
10
9.1640817923155709
20
2.6722438254966465
30
0
0
SPLINE
5
275
100
AcDbEntity
8
0
100
AcDbSpline
70
1064
71
3
72
8
73
4
74
0
42
0.000000001
43
0.0000000001
44
0.0000000001
40
0
40
0
40
0
40
0
40
1
40
1
40
1
40
1
10
9.1640817923155709
20
2.6722438254966465
30
0
10
9.006153087387343
20
2.7928724944407493
30
0
10
8.797645767539958
20
2.8227575398306968
30
0
10
8.6134025723653149
20
2.7511758662391355
30
0
0
SPLINE
5
276
100
AcDbEntity
8
0
100
AcDbSpline
70
1064
71
3
72
8
73
4
74
0
42
0.000000001
43
0.0000000001
44
0.0000000001
40
0
40
0
40
0
40
0
40
1
40
1
40
1
40
1
10
8.6134025723653149
20
2.7511758662391355
30
0
10
8.4811680605513295
20
2.6998006684684541
30
0
10
8.3824797100144277
20
2.3461706362231336
30
0
10
8.4170629236903771
20
2.047626154544774
30
0
0
LINE
5
277
100
AcDbEntity
8
0
100
AcDbLine
10
8.4170629236903771
20
2.047626154544774
30
0
11
8.4419530604936721
21
1.8327510076530626
31
0
0
LINE
5
278
100
AcDbEntity
8
0
100
AcDbLine
10
8.4419530604936721
20
1.8327510076530626
30
0
11
8.3131756830860812
21
1.9488322963454197
31
0
0
SPLINE
5
279
100
AcDbEntity
8
0
100
AcDbSpline
70
1064
71
3
72
8
73
4
74
0
42
0.000000001
43
0.0000000001
44
0.0000000001
40
0
40
0
40
0
40
0
40
1
40
1
40
1
40
1
10
8.3131756830860812
20
1.9488322963454179
30
0
10
8.0758722448483216
20
2.1627350142815165
30
0
10
7.8650978291039673
20
2.0864406651003664
30
0
10
7.6031025205452725
20
1.6918050798425019
30
0
0
SPLINE
5
280
100
AcDbEntity
8
0
100
AcDbSpline
70
1064
71
3
72
8
73
4
74
0
42
0.000000001
43
0.0000000001
44
0.0000000001
40
0
40
0
40
0
40
0
40
1
40
1
40
1
40
1
10
7.6031025205452725
20
1.6918050798425019
30
0
10
7.4893217385096618
20
1.5204219498751552
30
0
10
7.4667874998858998
20
1.457289681585076
30
0
10
7.5013843416349157
20
1.4068324004777413
30
0
0
SPLINE
5
281
100
AcDbEntity
8
0
100
AcDbSpline
70
1064
71
3
72
8
73
4
74
0
42
0.000000001
43
0.0000000001
44
0.0000000001
40
0
40
0
40
0
40
0
40
1
40
1
40
1
40
1
10
7.5013843416349157
20
1.4068324004777413
30
0
10
7.5258265104880451
20
1.3711831197957505
30
0
10
7.5458254879061011
20
1.2861791130790656
30
0
10
7.5458254879061011
20
1.2179349985431163
30
0
0
SPLINE
5
282
100
AcDbEntity
8
0
100
AcDbSpline
70
1064
71
3
72
8
73
4
74
0
42
0.000000001
43
0.0000000001
44
0.0000000001
40
0
40
0
40
0
40
0
40
1
40
1
40
1
40
1
10
7.5458254879061011
20
1.2179349985431163
30
0
10
7.5458254879061011
20
1.1496908840071642
30
0
10
7.5596601801453138
20
1.0938562290367864
30
0
10
7.5765647057466623
20
1.0938562290367864
30
0
0
SPLINE
5
283
100
AcDbEntity
8
0
100
AcDbSpline
70
1064
71
3
72
8
73
4
74
0
42
0.000000001
43
0.0000000001
44
0.0000000001
40
0
40
0
40
0
40
0
40
1
40
1
40
1
40
1
10
7.5765647057466623
20
1.0938562290367864
30
0
10
7.5934696709632705
20
1.0938562290367864
30
0
10
7.6277702120268955
20
1.0392331537235784
30
0
10
7.652789156101437
20
0.97247493876718127
30
0
0
SPLINE
5
284
100
AcDbEntity
8
0
100
AcDbSpline
70
1064
71
3
72
8
73
4
74
0
42
0.000000001
43
0.0000000001
44
0.0000000001
40
0
40
0
40
0
40
0
40
1
40
1
40
1
40
1
10
7.652789156101437
20
0.97247493876718127
30
0
10
7.6778059020996778
20
0.90571320688870383
30
0
10
7.7716492528536625
20
0.76993539607732231
30
0
10
7.8613298867085977
20
0.67074588414376779
30
0
0
SPLINE
5
285
100
AcDbEntity
8
0
100
AcDbSpline
70
1064
71
3
72
8
73
4
74
0
42
0.000000001
43
0.0000000001
44
0.0000000001
40
0
40
0
40
0
40
0
40
1
40
1
40
1
40
1
10
7.8613298867085977
20
0.67074588414376779
30
0
10
7.9510109601787944
20
0.57155461374917049
30
0
10
8.0218096789918985
20
0.47444887814907261
30
0
10
8.018661154498183
20
0.45495457904975262
30
0
0
SPLINE
5
286
100
AcDbEntity
8
0
100
AcDbSpline
70
1064
71
3
72
8
73
4
74
0
42
0.000000001
43
0.0000000001
44
0.0000000001
40
0
40
0
40
0
40
0
40
1
40
1
40
1
40
1
10
8.018661154498183
20
0.45495457904975262
30
0
10
8.015514828080768
20
0.43545676302834962
30
0
10
8.0402761576128192
20
0.32802006881301388
30
0
10
8.0736917531576164
20
0.21619953122273475
30
0
0
SPLINE
5
287
100
AcDbEntity
8
0
100
AcDbSpline
70
1064
71
3
72
8
73
4
74
0
42
0.000000001
43
0.0000000001
44
0.0000000001
40
0
40
0
40
0
40
0
40
1
40
1
40
1
40
1
10
8.0736917531576164
20
0.21619953122273475
30
0
10
8.1451538513983976
20
-0.022938861111194767
30
0
10
8.1829669183912035
20
-0.41667763123820545
30
0
10
8.1344707609597222
20
-0.41667763123820545
30
0
0
SPLINE
5
288
100
AcDbEntity
8
0
100
AcDbSpline
70
1064
71
3
72
8
73
4
74
0
42
0.000000001
43
0.0000000001
44
0.0000000001
40
0
40
0
40
0
40
0
40
1
40
1
40
1
40
1
10
8.1344707609597222
20
-0.41667763123820545
30
0
10
8.1158728373759956
20
-0.41667763123820545
30
0
10
8.1006568739891627
20
-0.45699562598375959
30
0
10
8.1006568739891627
20
-0.50627297973265772
30
0
0
SPLINE
5
289
100
AcDbEntity
8
0
100
AcDbSpline
70
1064
71
3
72
8
73
4
74
0
42
0.000000001
43
0.0000000001
44
0.0000000001
40
0
40
0
40
0
40
0
40
1
40
1
40
1
40
1
10
8.1006568739891627
20
-0.50627297973265772
30
0
10
8.1006568739891627
20
-0.59341527507506542
30
0
10
7.8945423800031724
20
-0.90220630923870027
30
0
10
7.83637512646205
20
-0.90220630923870027
30
0
0
SPLINE
5
290
100
AcDbEntity
8
0
100
AcDbSpline
70
1064
71
3
72
8
73
4
74
0
42
0.000000001
43
0.0000000001
44
0.0000000001
40
0
40
0
40
0
40
0
40
1
40
1
40
1
40
1
10
7.83637512646205
20
-0.90220630923870027
30
0
10
7.8204118171328378
20
-0.90220630923870027
30
0
10
7.7893235447756606
20
-0.95133243533808076
30
0
10
7.7672909071638134
20
-1.0113768460403545
30
0
0
SPLINE
5
291
100
AcDbEntity
8
0
100
AcDbSpline
70
1064
71
3
72
8
73
4
74
0
42
0.000000001
43
0.0000000001
44
0.0000000001
40
0
40
0
40
0
40
0
40
1
40
1
40
1
40
1
10
7.7672909071638134
20
-1.0113768460403545
30
0
10
7.6879007873201735
20
-1.2277291002064148
30
0
10
7.8866671122315406
20
-1.3432898844306673
30
0
10
8.0451739112269607
20
-1.1729336957111993
30
0
0
SPLINE
5
292
100
AcDbEntity
8
0
100
AcDbSpline
70
1064
71
3
72
8
73
4
74
0
42
0.000000001
43
0.0000000001
44
0.0000000001
40
0
40
0
40
0
40
0
40
1
40
1
40
1
40
1
10
8.0451739112269607
20
-1.1729336957111993
30
0
10
8.1506903659856444
20
-1.0595287847230792
30
0
10
8.3195558193576939
20
-1.0712647537099873
30
0
10
8.4507576749254163
20
-1.2011235846577304
30
0
0
SPLINE
5
293
100
AcDbEntity
8
0
100
AcDbSpline
70
1064
71
3
72
8
73
4
74
0
42
0.000000001
43
0.0000000001
44
0.0000000001
40
0
40
0
40
0
40
0
40
1
40
1
40
1
40
1
10
8.4507576749254163
20
-1.2011235846577304
30
0
10
8.5949659875820892
20
-1.3438543504247926
30
0
10
8.7614597166252377
20
-1.3734386989767475
30
0
10
8.8330330375268549
20
-1.2690511762063179
30
0
0
SPLINE
5
294
100
AcDbEntity
8
0
100
AcDbSpline
70
1064
71
3
72
8
73
4
74
0
42
0.000000001
43
0.0000000001
44
0.0000000001
40
0
40
0
40
0
40
0
40
1
40
1
40
1
40
1
10
8.8330330375268549
20
-1.2690511762063179
30
0
10
8.8988337704464868
20
-1.1730814064386368
30
0
10
8.8870802168491707
20
-1.1179976143327155
30
0
10
8.8008004466473189
20
-1.1179976143327155
30
0
0
SPLINE
5
295
100
AcDbEntity
8
0
100
AcDbSpline
70
1064
71
3
72
8
73
4
74
0
42
0.000000001
43
0.0000000001
44
0.0000000001
40
0
40
0
40
0
40
0
40
1
40
1
40
1
40
1
10
8.8008004466473189
20
-1.1179976143327155
30
0
10
8.7586598070328794
20
-1.1179976143327155
30
0
10
8.7022198018491714
20
-1.0859672464728822
30
0
10
8.6753782129057466
20
-1.0468186283195184
30
0
0
SPLINE
5
296
100
AcDbEntity
8
0
100
AcDbSpline
70
1064
71
3
72
8
73
4
74
0
42
0.000000001
43
0.0000000001
44
0.0000000001
40
0
40
0
40
0
40
0
40
1
40
1
40
1
40
1
10
8.6753782129057466
20
-1.0468186283195184
30
0
10
8.6087404525306503
20
-0.94963024505049565
30
0
10
8.6719153635009718
20
-0.79431241515273132
30
0
10
8.7780859657668664
20
-0.79431241515273132
30
0
0
SPLINE
5
297
100
AcDbEntity
8
0
100
AcDbSpline
70
1064
71
3
72
8
73
4
74
0
42
0.000000001
43
0.0000000001
44
0.0000000001
40
0
40
0
40
0
40
0
40
1
40
1
40
1
40
1
10
8.7780859657668664
20
-0.79431241515273132
30
0
10
8.8231496072465259
20
-0.79431241515273132
30
0
10
8.9263541253516969
20
-0.74475722455937365
30
0
10
9.0074284112572478
20
-0.68418879246691422
30
0
0
LINE
5
298
100
AcDbEntity
8
0
100
AcDbLine
10
9.0074284112572478
20
-0.68418879246691422
30
0
11
9.1548353645473046
21
-0.5740651697810969
31
0
0
LINE
5
299
100
AcDbEntity
8
0
100
AcDbLine
10
9.1548353645473046
20
-0.5740651697810969
30
0
11
9.0510540712207206
21
-0.71116182637314584
31
0
0
SPLINE
5
300
100
AcDbEntity
8
0
100
AcDbSpline
70
1064
71
3
72
8
73
4
74
0
42
0.000000001
43
0.0000000001
44
0.0000000001
40
0
40
0
40
0
40
0
40
1
40
1
40
1
40
1
10
9.0510540712207206
20
-0.7111618263731464
30
0
10
8.9939739862181316
20
-0.78656463580656577
30
0
10
8.9075698048976353
20
-0.84825848296519579
30
0
10
8.8590468309352808
20
-0.84825848296519579
30
0
0
SPLINE
5
301
100
AcDbEntity
8
0
100
AcDbSpline
70
1064
71
3
72
8
73
4
74
0
42
0.000000001
43
0.0000000001
44
0.0000000001
40
0
40
0
40
0
40
0
40
1
40
1
40
1
40
1
10
8.8590468309352808
20
-0.84825848296519579
30
0
10
8.7320846249371478
20
-0.84825848296519579
30
0
10
8.7085124546840014
20
-0.94720532727510709
30
0
10
8.820658307566843
20
-1.0093915435251866
30
0
0
SPLINE
5
302
100
AcDbEntity
8
0
100
AcDbSpline
70
1064
71
3
72
8
73
4
74
0
42
0.000000001
43
0.0000000001
44
0.0000000001
40
0
40
0
40
0
40
0
40
1
40
1
40
1
40
1
10
8.820658307566843
20
-1.0093915435251866
30
0
10
8.952773683645308
20
-1.0826525474108002
30
0
10
8.977481380115611
20
-1.2118255785525935
30
0
10
8.8851393154752873
20
-1.3465043512134176
30
0
0
LINE
5
303
100
AcDbEntity
8
0
100
AcDbLine
10
7.485119895852451
20
-1.3580398556416649
30
0
11
7.4850601081770618
21
-1.3580257879533355
31
0
0
LINE
5
304
100
AcDbEntity
8
0
100
AcDbLine
10
1.2662608786039595
20
0.23640249012153725
30
0
11
1.1472640615058047
21
0.28527539783102901
31
0
0
LINE
5
305
100
AcDbEntity
8
0
100
AcDbLine
10
1.1472640615058047
20
0.28527539783102901
30
0
11
1.4324754519568665
21
0.71588206214136574
31
0
0
SPLINE
5
306
100
AcDbEntity
8
0
100
AcDbSpline
70
1064
71
3
72
8
73
4
74
0
42
0.000000001
43
0.0000000001
44
0.0000000001
40
0
40
0
40
0
40
0
40
1
40
1
40
1
40
1
10
1.4324754519568665
20
0.71588206214136574
30
0
10
1.5893411671858759
20
0.95271511205068526
30
0
10
1.7798551443361545
20
1.2170698357109986
30
0
10
1.8558400043741083
20
1.3033416928381654
30
0
0
SPLINE
5
307
100
AcDbEntity
8
0
100
AcDbSpline
70
1064
71
3
72
8
73
4
74
0
42
0.000000001
43
0.0000000001
44
0.0000000001
40
0
40
0
40
0
40
0
40
1
40
1
40
1
40
1
10
1.8558400043741083
20
1.3033416928381654
30
0
10
1.9318227762395763
20
1.389611791504292
30
0
10
1.9848503778696189
20
1.4824110560152484
30
0
10
1.9736775560310553
20
1.5095599360255683
30
0
0
SPLINE
5
308
100
AcDbEntity
8
0
100
AcDbSpline
70
1064
71
3
72
8
73
4
74
0
42
0.000000001
43
0.0000000001
44
0.0000000001
40
0
40
0
40
0
40
0
40
1
40
1
40
1
40
1
10
1.9736775560310553
20
1.5095599360255683
30
0
10
1.9624221964273858
20
1.5369268652049612
30
0
10
1.7924950722018964
20
1.5430885126922429
30
0
10
1.5923204398044057
20
1.5233849567290561
30
0
0
SPLINE
5
309
100
AcDbEntity
8
0
100
AcDbSpline
70
1064
71
3
72
8
73
4
74
0
42
0.000000001
43
0.0000000001
44
0.0000000001
40
0
40
0
40
0
40
0
40
1
40
1
40
1
40
1
10
1.5923204398044057
20
1.5233849567290561
30
0
10
1.1608954316871638
20
1.4809251564356962
30
0
10
0.91401409577492965
20
1.5520513886176672
30
0
10
0.63662895599398373
20
1.7987230280507751
30
0
0
SPLINE
5
310
100
AcDbEntity
8
0
100
AcDbSpline
70
1064
71
3
72
8
73
4
74
0
42
0.000000001
43
0.0000000001
44
0.0000000001
40
0
40
0
40
0
40
0
40
1
40
1
40
1
40
1
10
0.63662895599398373
20
1.7987230280507751
30
0
10
0.15538169101279903
20
2.2266814500335306
30
0
10
0.087155161087257266
20
2.9736985601976835
30
0
10
0.47078651695885526
20
3.6145204496413696
30
0
0
SPLINE
5
311
100
AcDbEntity
8
0
100
AcDbSpline
70
1064
71
3
72
8
73
4
74
0
42
0.000000001
43
0.0000000001
44
0.0000000001
40
0
40
0
40
0
40
0
40
1
40
1
40
1
40
1
10
0.47078651695885526
20
3.6145204496413696
30
0
10
0.67320054949192054
20
3.9526355801229065
30
0
10
0.87447531907811848
20
4.1083297206834217
30
0
10
1.1082332602421812
20
4.1076069931956161
30
0
0
LINE
5
312
100
AcDbEntity
8
0
100
AcDbLine
10
1.1082332602421812
20
4.1076069931956161
30
0
11
1.2744478335950886
21
4.1071462764029025
31
0
0
LINE
5
313
100
AcDbEntity
8
0
100
AcDbLine
10
1.2744478335950886
20
4.1071462764029025
30
0
11
1.1267012775165119
21
3.9704804427658718
31
0
0
SPLINE
5
314
100
AcDbEntity
8
0
100
AcDbSpline
70
1064
71
3
72
8
73
4
74
0
42
0.000000001
43
0.0000000001
44
0.0000000001
40
0
40
0
40
0
40
0
40
1
40
1
40
1
40
1
10
1.1267012775165119
20
3.9704804427658704
30
0
10
1.0370938396024036
20
3.8875918646813781
30
0
10
0.92299763361758302
20
3.8337003091611828
30
0
10
0.8367490760992069
20
3.8335279799791753
30
0
0
SPLINE
5
315
100
AcDbEntity
8
0
100
AcDbSpline
70
1064
71
3
72
8
73
4
74
0
42
0.000000001
43
0.0000000001
44
0.0000000001
40
0
40
0
40
0
40
0
40
1
40
1
40
1
40
1
10
0.8367490760992069
20
3.8335279799791753
30
0
10
0.72556729948203325
20
3.8332976215828185
30
0
10
0.66849864447620766
20
3.7939133696499776
30
0
10
0.57516107107910808
20
3.6529568910731709
30
0
0
SPLINE
5
316
100
AcDbEntity
8
0
100
AcDbSpline
70
1064
71
3
72
8
73
4
74
0
42
0.000000001
43
0.0000000001
44
0.0000000001
40
0
40
0
40
0
40
0
40
1
40
1
40
1
40
1
10
0.57516107107910808
20
3.6529568910731709
30
0
10
0.30294426810497233
20
3.2418621104725629
30
0
10
0.26651972591158041
20
2.6378711875303442
30
0
10
0.49116686061515524
20
2.2601572728689763
30
0
0
SPLINE
5
317
100
AcDbEntity
8
0
100
AcDbSpline
70
1064
71
3
72
8
73
4
74
0
42
0.000000001
43
0.0000000001
44
0.0000000001
40
0
40
0
40
0
40
0
40
1
40
1
40
1
40
1
10
0.49116686061515524
20
2.2601572728689763
30
0
10
0.55629849910872753
20
2.1506455946253902
30
0
10
0.63452122062884531
20
2.0541447696233575
30
0
10
0.66499381181408102
20
2.0457111904712422
30
0
0
SPLINE
5
318
100
AcDbEntity
8
0
100
AcDbSpline
70
1064
71
3
72
8
73
4
74
0
42
0.000000001
43
0.0000000001
44
0.0000000001
40
0
40
0
40
0
40
0
40
1
40
1
40
1
40
1
10
0.66499381181408102
20
2.0457111904712422
30
0
10
0.69546640299931595
20
2.0372811282412098
30
0
10
0.73037295369915878
20
2.0099898128865754
30
0
10
0.74256524332617857
20
1.9850794537813101
30
0
0
SPLINE
5
319
100
AcDbEntity
8
0
100
AcDbSpline
70
1064
71
3
72
8
73
4
74
0
42
0.000000001
43
0.0000000001
44
0.0000000001
40
0
40
0
40
0
40
0
40
1
40
1
40
1
40
1
10
0.74256524332617857
20
1.9850794537813101
30
0
10
0.75475137833955508
20
1.9601673362150047
30
0
10
0.79630908811893941
20
1.9308731337347957
30
0
10
0.83490664854361263
20
1.9199812260475155
30
0
0
SPLINE
5
320
100
AcDbEntity
8
0
100
AcDbSpline
70
1064
71
3
72
8
73
4
74
0
42
0.000000001
43
0.0000000001
44
0.0000000001
40
0
40
0
40
0
40
0
40
1
40
1
40
1
40
1
10
0.83490664854361263
20
1.9199812260475155
30
0
10
0.87350267031487605
20
1.9090822845160722
30
0
10
0.90508177311009186
20
1.8950444900266343
30
0
10
0.90508177311009186
20
1.8887720594937774
30
0
0
SPLINE
5
321
100
AcDbEntity
8
0
100
AcDbSpline
70
1064
71
3
72
8
73
4
74
0
42
0.000000001
43
0.0000000001
44
0.0000000001
40
0
40
0
40
0
40
0
40
1
40
1
40
1
40
1
10
0.90508177311009186
20
1.8887720594937774
30
0
10
0.90508177311009186
20
1.8825031458829979
30
0
10
0.97572354927529736
20
1.8703170108696228
30
0
10
1.0620624477296492
20
1.8617093440744599
30
0
0
SPLINE
5
322
100
AcDbEntity
8
0
100
AcDbSpline
70
1064
71
3
72
8
73
4
74
0
42
0.000000001
43
0.0000000001
44
0.0000000001
40
0
40
0
40
0
40
0
40
1
40
1
40
1
40
1
10
1.0620624477296492
20
1.8617093440744599
30
0
10
1.1484006867611107
20
1.8531051942013772
30
0
10
1.2190424629263164
20
1.869026300465608
30
0
10
1.2190424629263164
20
1.8970772709899051
30
0
0
SPLINE
5
323
100
AcDbEntity
8
0
100
AcDbSpline
70
1064
71
3
72
8
73
4
74
0
42
0.000000001
43
0.0000000001
44
0.0000000001
40
0
40
0
40
0
40
0
40
1
40
1
40
1
40
1
10
1.2190424629263164
20
1.8970772709899051
30
0
10
1.2190424629263164
20
1.9251387922804484
30
0
10
1.2544563296364559
20
1.9166893869789665
30
0
10
1.2977421670037756
20
1.8782951486121451
30
0
0
SPLINE
5
324
100
AcDbEntity
8
0
100
AcDbSpline
70
1064
71
3
72
8
73
4
74
0
42
0.000000001
43
0.0000000001
44
0.0000000001
40
0
40
0
40
0
40
0
40
1
40
1
40
1
40
1
10
1.2977421670037756
20
1.8782951486121451
30
0
10
1.3555161846946289
20
1.8270448015753684
30
0
10
1.3805386456912525
20
1.8253549205150725
30
0
10
1.3918536830664971
20
1.8719400704103659
30
0
0
SPLINE
5
325
100
AcDbEntity
8
0
100
AcDbSpline
70
1064
71
3
72
8
73
4
74
0
42
0.000000001
43
0.0000000001
44
0.0000000001
40
0
40
0
40
0
40
0
40
1
40
1
40
1
40
1
10
1.3918536830664971
20
1.8719400704103659
30
0
10
1.4003312237446344
20
1.9068384882278944
30
0
10
1.4397141568316958
20
1.9226488114465474
30
0
10
1.4793696513800958
20
1.9070741220073744
30
0
0
SPLINE
5
326
100
AcDbEntity
8
0
100
AcDbSpline
70
1064
71
3
72
8
73
4
74
0
42
0.000000001
43
0.0000000001
44
0.0000000001
40
0
40
0
40
0
40
0
40
1
40
1
40
1
40
1
10
1.4793696513800958
20
1.9070741220073744
30
0
10
1.5313411872512683
20
1.8866548724005445
30
0
10
1.5514718294397611
20
1.9069017928253669
30
0
10
1.5514718294397611
20
1.9795315091972996
30
0
0
SPLINE
5
327
100
AcDbEntity
8
0
100
AcDbSpline
70
1064
71
3
72
8
73
4
74
0
42
0.000000001
43
0.0000000001
44
0.0000000001
40
0
40
0
40
0
40
0
40
1
40
1
40
1
40
1
10
1.5514718294397611
20
1.9795315091972996
30
0
10
1.5514718294397611
20
2.0579096347119066
30
0
10
1.5613167933848218
20
2.0655114617916777
30
0
10
1.595795378628837
20
2.013737093364715
30
0
0
SPLINE
5
328
100
AcDbEntity
8
0
100
AcDbSpline
70
1064
71
3
72
8
73
4
74
0
42
0.000000001
43
0.0000000001
44
0.0000000001
40
0
40
0
40
0
40
0
40
1
40
1
40
1
40
1
10
1.595795378628837
20
2.013737093364715
30
0
10
1.6645122993771573
20
1.9105365317968881
30
0
10
1.7099497237318226
20
1.9350195848692164
30
0
10
1.6876267202405981
20
2.0632219455164371
30
0
0
SPLINE
5
329
100
AcDbEntity
8
0
100
AcDbSpline
70
1064
71
3
72
8
73
4
74
0
42
0.000000001
43
0.0000000001
44
0.0000000001
40
0
40
0
40
0
40
0
40
1
40
1
40
1
40
1
10
1.6876267202405981
20
2.0632219455164371
30
0
10
1.6688936149643527
20
2.1708063504592072
30
0
10
1.6721596266363634
20
2.1728320975783149
30
0
10
1.7323984571874711
20
2.0909581515144153
30
0
0
SPLINE
5
330
100
AcDbEntity
8
0
100
AcDbSpline
70
1064
71
3
72
8
73
4
74
0
42
0.000000001
43
0.0000000001
44
0.0000000001
40
0
40
0
40
0
40
0
40
1
40
1
40
1
40
1
10
1.7323984571874711
20
2.0909581515144153
30
0
10
1.8219564383848041
20
1.9692339613418381
30
0
10
1.8594468277766067
20
1.9804388750943998
30
0
10
1.8348710158843702
20
2.1215799920804979
30
0
0
SPLINE
5
331
100
AcDbEntity
8
0
100
AcDbSpline
70
1064
71
3
72
8
73
4
74
0
42
0.000000001
43
0.0000000001
44
0.0000000001
40
0
40
0
40
0
40
0
40
1
40
1
40
1
40
1
10
1.8348710158843702
20
2.1215799920804979
30
0
10
1.8193255608600005
20
2.2108553006655081
30
0
10
1.8246918344377256
20
2.2246891136741995
30
0
10
1.8564178786336711
20
2.1770524040764543
30
0
0
SPLINE
5
332
100
AcDbEntity
8
0
100
AcDbSpline
70
1064
71
3
72
8
73
4
74
0
42
0.000000001
43
0.0000000001
44
0.0000000001
40
0
40
0
40
0
40
0
40
1
40
1
40
1
40
1
10
1.8564178786336711
20
2.1770524040764543
30
0
10
1.9309800337857292
20
2.0650718465314566
30
0
10
2.0019524006266223
20
2.101232839376344
30
0
10
1.9768181674500878
20
2.2384015928710692
30
0
0
SPLINE
5
333
100
AcDbEntity
8
0
100
AcDbSpline
70
1064
71
3
72
8
73
4
74
0
42
0.000000001
43
0.0000000001
44
0.0000000001
40
0
40
0
40
0
40
0
40
1
40
1
40
1
40
1
10
1.9768181674500878
20
2.2384015928710692
30
0
10
1.9551139224376264
20
2.3568585624296698
30
0
10
1.9567429167843824
20
2.3579892528789634
30
0
10
2.0088088600326879
20
2.2605845789019137
30
0
0
SPLINE
5
334
100
AcDbEntity
8
0
100
AcDbSpline
70
1064
71
3
72
8
73
4
74
0
42
0.000000001
43
0.0000000001
44
0.0000000001
40
0
40
0
40
0
40
0
40
1
40
1
40
1
40
1
10
2.0088088600326879
20
2.2605845789019137
30
0
10
2.073005656675396
20
2.1404834482700794
30
0
10
2.149349902188582
20
2.1848265603382355
30
0
10
2.1169384978019488
20
2.3233880149773474
30
0
0
SPLINE
5
335
100
AcDbEntity
8
0
100
AcDbSpline
70
1064
71
3
72
8
73
4
74
0
42
0.000000001
43
0.0000000001
44
0.0000000001
40
0
40
0
40
0
40
0
40
1
40
1
40
1
40
1
10
2.1169384978019488
20
2.3233880149773474
30
0
10
2.0987597473688449
20
2.4011084760626602
30
0
10
2.1038216972826804
20
2.4058985239380482
30
0
10
2.1444080771446017
20
2.3493464168629843
30
0
0
SPLINE
5
336
100
AcDbEntity
8
0
100
AcDbSpline
70
1064
71
3
72
8
73
4
74
0
42
0.000000001
43
0.0000000001
44
0.0000000001
40
0
40
0
40
0
40
0
40
1
40
1
40
1
40
1
10
2.1444080771446017
20
2.3493464168629843
30
0
10
2.2133400796589857
20
2.2532887240432551
30
0
10
2.2656344030349773
20
2.2625311952741791
30
0
10
2.2391724218687545
20
2.3660975167385137
30
0
0
SPLINE
5
337
100
AcDbEntity
8
0
100
AcDbSpline
70
1064
71
3
72
8
73
4
74
0
42
0.000000001
43
0.0000000001
44
0.0000000001
40
0
40
0
40
0
40
0
40
1
40
1
40
1
40
1
10
2.2391724218687545
20
2.3660975167385137
30
0
10
2.2270734405807171
20
2.4134475971865932
30
0
10
2.2327738217562119
20
2.4377126010898511
30
0
10
2.2518385068424793
20
2.4200172076353623
30
0
0
SPLINE
5
338
100
AcDbEntity
8
0
100
AcDbSpline
70
1064
71
3
72
8
73
4
74
0
42
0.000000001
43
0.0000000001
44
0.0000000001
40
0
40
0
40
0
40
0
40
1
40
1
40
1
40
1
10
2.2518385068424793
20
2.4200172076353623
30
0
10
2.3426602720091387
20
2.3357148268739936
30
0
10
2.4053112714930891
20
2.8615667750031686
30
0
10
2.3197535693561528
20
2.9900610401831753
30
0
0
SPLINE
5
339
100
AcDbEntity
8
0
100
AcDbSpline
70
1064
71
3
72
8
73
4
74
0
42
0.000000001
43
0.0000000001
44
0.0000000001
40
0
40
0
40
0
40
0
40
1
40
1
40
1
40
1
10
2.3197535693561528
20
2.9900610401831753
30
0
10
2.2489462780454734
20
3.0964057300921168
30
0
10
2.1146815130559653
20
3.0672645137224688
30
0
10
2.0513747175075769
20
2.9318137766646926
30
0
0
SPLINE
5
340
100
AcDbEntity
8
0
100
AcDbSpline
70
1064
71
3
72
8
73
4
74
0
42
0.000000001
43
0.0000000001
44
0.0000000001
40
0
40
0
40
0
40
0
40
1
40
1
40
1
40
1
10
2.0513747175075769
20
2.9318137766646926
30
0
10
1.9944106909336847
20
2.8099348419205175
30
0
10
1.9936341105765008
20
2.8114787707144191
30
0
10
2.0183151004197462
20
2.9974483350159593
30
0
0
LINE
5
341
100
AcDbEntity
8
0
100
AcDbLine
10
2.0183151004197462
20
2.9974483350159589
30
0
11
2.0435891312490315
21
3.1878966995886504
31
0
0
LINE
5
342
100
AcDbEntity
8
0
100
AcDbLine
10
2.0435891312490315
20
3.1878966995886504
30
0
11
1.9312229212170025
21
3.0677340228203858
31
0
0
SPLINE
5
343
100
AcDbEntity
8
0
100
AcDbSpline
70
1064
71
3
72
8
73
4
74
0
42
0.000000001
43
0.0000000001
44
0.0000000001
40
0
40
0
40
0
40
0
40
1
40
1
40
1
40
1
10
1.931222921217002
20
3.0677340228203853
30
0
10
1.869422797069213
20
3.0016422645984857
30
0
10
1.6934270039839781
20
2.771644352755108
30
0
10
1.5401214030360684
20
2.5566250120580452
30
0
0
LINE
5
344
100
AcDbEntity
8
0
100
AcDbLine
10
1.5401214030360681
20
2.5566250120580452
30
0
11
1.2613859849833484
21
2.1656804365250109
31
0
0
LINE
5
345
100
AcDbEntity
8
0
100
AcDbLine
10
1.2613859849833484
20
2.1656804365250109
30
0
11
1.3381164325026398
21
2.438442362421823
31
0
0
SPLINE
5
346
100
AcDbEntity
8
0
100
AcDbSpline
70
1064
71
3
72
8
73
4
74
0
42
0.000000001
43
0.0000000001
44
0.0000000001
40
0
40
0
40
0
40
0
40
1
40
1
40
1
40
1
10
1.3381164325026402
20
2.4384423624218234
30
0
10
1.4626798778333661
20
2.8812369202065762
30
0
10
1.3751122547266919
20
3.0266721990545324
30
0
10
1.1746589062542201
20
2.7099206117587848
30
0
0
LINE
5
347
100
AcDbEntity
8
0
100
AcDbLine
10
1.1746589062542201
20
2.7099206117587848
30
0
11
1.0605657775762207
21
2.5296326350803642
31
0
0
LINE
5
348
100
AcDbEntity
8
0
100
AcDbLine
10
1.0605657775762207
20
2.5296326350803642
30
0
11
1.1346567750731342
21
2.7237878355272525
31
0
0
SPLINE
5
349
100
AcDbEntity
8
0
100
AcDbSpline
70
1064
71
3
72
8
73
4
74
0
42
0.000000001
43
0.0000000001
44
0.0000000001
40
0
40
0
40
0
40
0
40
1
40
1
40
1
40
1
10
1.1346567750731347
20
2.7237878355272525
30
0
10
1.175406472004229
20
2.8305738991574576
30
0
10
1.2401514688764355
20
3.0008157879092674
30
0
10
1.2785349366693808
20
3.1021031438646052
30
0
0
SPLINE
5
350
100
AcDbEntity
8
0
100
AcDbSpline
70
1064
71
3
72
8
73
4
74
0
42
0.000000001
43
0.0000000001
44
0.0000000001
40
0
40
0
40
0
40
0
40
1
40
1
40
1
40
1
10
1.2785349366693808
20
3.1021031438646052
30
0
10
1.3195389510285136
20
3.2103100440158525
30
0
10
1.4701937818610948
20
3.4075144159076451
30
0
10
1.643814553502976
20
3.5802480439543989
30
0
0
SPLINE
5
351
100
AcDbEntity
8
0
100
AcDbSpline
70
1064
71
3
72
8
73
4
74
0
42
0.000000001
43
0.0000000001
44
0.0000000001
40
0
40
0
40
0
40
0
40
1
40
1
40
1
40
1
10
1.643814553502976
20
3.5802480439543989
30
0
10
2.0121884023456502
20
3.946742977174881
30
0
10
2.1274364003122552
20
4.0352093936810798
30
0
10
2.4534599130613635
20
4.2017462050197327
30
0
0
SPLINE
5
352
100
AcDbEntity
8
0
100
AcDbSpline
70
1064
71
3
72
8
73
4
74
0
42
0.000000001
43
0.0000000001
44
0.0000000001
40
0
40
0
40
0
40
0
40
1
40
1
40
1
40
1
10
3.9800530836480159
20
4.5379780237264731
30
0
10
4.0054461952609142
20
4.5891808923151469
30
0
10
4.0262237862567325
20
4.6061131136778872
30
0
10
4.0262237862567325
20
4.5756038146184261
30
0
0
SPLINE
5
353
100
AcDbEntity
8
0
100
AcDbSpline
70
1064
71
3
72
8
73
4
74
0
42
0.000000001
43
0.0000000001
44
0.0000000001
40
0
40
0
40
0
40
0
40
1
40
1
40
1
40
1
10
4.0262237862567325
20
4.5756038146184261
30
0
10
4.0262237862567325
20
4.4644391829963999
30
0
10
3.9300564094295787
20
4.3481609466674618
30
0
10
3.761235686910255
20
4.255196386818664
30
0
0
SPLINE
5
354
100
AcDbEntity
8
0
100
AcDbSpline
70
1064
71
3
72
8
73
4
74
0
42
0.000000001
43
0.0000000001
44
0.0000000001
40
0
40
0
40
0
40
0
40
1
40
1
40
1
40
1
10
3.761235686910255
20
4.255196386818664
30
0
10
3.4143427860038034
20
4.0641730054855998
30
0
10
3.1183195253187739
20
3.6314737725366029
30
0
10
3.0777677102066878
20
3.2561671910402139
30
0
0
SPLINE
5
355
100
AcDbEntity
8
0
100
AcDbSpline
70
1064
71
3
72
8
73
4
74
0
42
0.000000001
43
0.0000000001
44
0.0000000001
40
0
40
0
40
0
40
0
40
1
40
1
40
1
40
1
10
3.0777677102066878
20
3.2561671910402139
30
0
10
3.0584854430425628
20
3.0777097723053619
30
0
10
3.0708896272250095
20
3.0369416115333379
30
0
10
3.1975601210220304
20
2.8626992239135025
30
0
0
SPLINE
5
356
100
AcDbEntity
8
0
100
AcDbSpline
70
1064
71
3
72
8
73
4
74
0
42
0.000000001
43
0.0000000001
44
0.0000000001
40
0
40
0
40
0
40
0
40
1
40
1
40
1
40
1
10
3.1975601210220304
20
2.8626992239135025
30
0
10
3.3619396028989992
20
2.636571684821126
30
0
10
3.4461885704062518
20
2.6111021351048556
30
0
10
3.4276967452179843
20
2.793129229752719
30
0
0
SPLINE
5
357
100
AcDbEntity
8
0
100
AcDbSpline
70
1064
71
3
72
8
73
4
74
0
42
0.000000001
43
0.0000000001
44
0.0000000001
40
0
40
0
40
0
40
0
40
1
40
1
40
1
40
1
10
3.4276967452179843
20
2.793129229752719
30
0
10
3.4207165615921209
20
2.8617777903280754
30
0
10
3.3962965040127835
20
2.9125357682734028
30
0
10
3.3734161439304695
20
2.9059257132206913
30
0
0
SPLINE
5
358
100
AcDbEntity
8
0
100
AcDbSpline
70
1064
71
3
72
8
73
4
74
0
42
0.000000001
43
0.0000000001
44
0.0000000001
40
0
40
0
40
0
40
0
40
1
40
1
40
1
40
1
10
3.3734161439304695
20
2.9059257132206913
30
0
10
3.3488021954144078
20
2.8988057044661235
30
0
10
3.3318160799683576
20
2.9753567889592434
30
0
10
3.3318160799683576
20
3.0933794186407435
30
0
0
SPLINE
5
359
100
AcDbEntity
8
0
100
AcDbSpline
70
1064
71
3
72
8
73
4
74
0
42
0.000000001
43
0.0000000001
44
0.0000000001
40
0
40
0
40
0
40
0
40
1
40
1
40
1
40
1
10
3.3318160799683576
20
3.0933794186407435
30
0
10
3.3318160799683576
20
3.2030898029819532
30
0
10
3.3138842284557763
20
3.3094942805662839
30
0
10
3.2919681026258649
20
3.329836157887315
30
0
0
SPLINE
5
360
100
AcDbEntity
8
0
100
AcDbSpline
70
1064
71
3
72
8
73
4
74
0
42
0.000000001
43
0.0000000001
44
0.0000000001
40
0
40
0
40
0
40
0
40
1
40
1
40
1
40
1
10
3.2919681026258649
20
3.329836157887315
30
0
10
3.2663657066731466
20
3.35360175885496
30
0
10
3.278255279979573
20
3.4004207840686904
30
0
10
3.3252107233037407
20
3.4608116115960219
30
0
0
SPLINE
5
361
100
AcDbEntity
8
0
100
AcDbSpline
70
1064
71
3
72
8
73
4
74
0
42
0.000000001
43
0.0000000001
44
0.0000000001
40
0
40
0
40
0
40
0
40
1
40
1
40
1
40
1
10
3.3252107233037407
20
3.4608116115960219
30
0
10
3.3654108874215805
20
3.5125033323540626
30
0
10
3.3983018433672312
20
3.592486932799003
30
0
10
3.3983018433672312
20
3.638551578226191
30
0
0
SPLINE
5
362
100
AcDbEntity
8
0
100
AcDbSpline
70
1064
71
3
72
8
73
4
74
0
42
0.000000001
43
0.0000000001
44
0.0000000001
40
0
40
0
40
0
40
0
40
1
40
1
40
1
40
1
10
3.3983018433672312
20
3.638551578226191
30
0
10
3.3983018433672312
20
3.6857521894857959
30
0
10
3.4310473690896113
20
3.7223035606817607
30
0
10
3.473333761769779
20
3.7223035606817607
30
0
0
SPLINE
5
363
100
AcDbEntity
8
0
100
AcDbSpline
70
1064
71
3
72
8
73
4
74
0
42
0.000000001
43
0.0000000001
44
0.0000000001
40
0
40
0
40
0
40
0
40
1
40
1
40
1
40
1
10
3.473333761769779
20
3.7223035606817607
30
0
10
3.5146027920064484
20
3.7223035606817607
30
0
10
3.556892237951979
20
3.7556703589326741
30
0
10
3.5673112020471218
20
3.7964490704709415
30
0
0
SPLINE
5
364
100
AcDbEntity
8
0
100
AcDbSpline
70
1064
71
3
72
8
73
4
74
0
42
0.000000001
43
0.0000000001
44
0.0000000001
40
0
40
0
40
0
40
0
40
1
40
1
40
1
40
1
10
3.5673112020471218
20
3.7964490704709415
30
0
10
3.5781014761814296
20
3.8386785123679479
30
0
10
3.6332488751203122
20
3.8663953752944762
30
0
10
3.695430612789929
20
3.8608386384052591
30
0
0
SPLINE
5
365
100
AcDbEntity
8
0
100
AcDbSpline
70
1064
71
3
72
8
73
4
74
0
42
0.000000001
43
0.0000000001
44
0.0000000001
40
0
40
0
40
0
40
0
40
1
40
1
40
1
40
1
10
3.695430612789929
20
3.8608386384052591
30
0
10
3.7554755180593711
20
3.8554682983863766
30
0
10
3.804603924662914
20
3.8720206921642855
30
0
10
3.804603924662914
20
3.8976256433807039
30
0
0
SPLINE
5
366
100
AcDbEntity
8
0
100
AcDbSpline
70
1064
71
3
72
8
73
4
74
0
42
0.000000001
43
0.0000000001
44
0.0000000001
40
0
40
0
40
0
40
0
40
1
40
1
40
1
40
1
10
3.804603924662914
20
3.8976256433807039
30
0
10
3.804603924662914
20
3.9232305945971224
30
0
10
3.7852123032028087
20
3.9441808994383014
30
0
10
3.7615120950051208
20
3.9441808994383014
30
0
0
SPLINE
5
367
100
AcDbEntity
8
0
100
AcDbSpline
70
1064
71
3
72
8
73
4
74
0
42
0.000000001
43
0.0000000001
44
0.0000000001
40
0
40
0
40
0
40
0
40
1
40
1
40
1
40
1
10
3.7615120950051208
20
3.9441808994383014
30
0
10
3.7378097711589935
20
3.9441808994383014
30
0
10
3.728782519073901
20
3.9597538304164344
30
0
10
3.7414486589995342
20
3.9787663111905509
30
0
0
SPLINE
5
368
100
AcDbEntity
8
0
100
AcDbSpline
70
1064
71
3
72
8
73
4
74
0
42
0.000000001
43
0.0000000001
44
0.0000000001
40
0
40
0
40
0
40
0
40
1
40
1
40
1
40
1
10
3.7414486589995342
20
3.9787663111905509
30
0
10
3.7541142219301373
20
3.9977893427309144
30
0
10
3.831681064957956
20
3.9607491193655799
30
0
10
3.9138184229905892
20
3.8964474744833075
30
0
0
SPLINE
5
369
100
AcDbEntity
8
0
100
AcDbSpline
70
1064
71
3
72
8
73
4
74
0
42
0.000000001
43
0.0000000001
44
0.0000000001
40
0
40
0
40
0
40
0
40
1
40
1
40
1
40
1
10
3.9138184229905892
20
3.8964474744833075
30
0
10
3.9959558359751304
20
3.832149346523118
30
0
10
4.063159930709209
20
3.7959725275288614
30
0
10
4.063159930709209
20
3.81605766953792
30
0
0
SPLINE
5
370
100
AcDbEntity
8
0
100
AcDbSpline
70
1064
71
3
72
8
73
4
74
0
42
0.000000001
43
0.0000000001
44
0.0000000001
40
0
40
0
40
0
40
0
40
1
40
1
40
1
40
1
10
4.063159930709209
20
3.81605766953792
30
0
10
4.063159930709209
20
3.8361498453911445
30
0
10
4.1047135190955286
20
3.7939450219487139
30
0
10
4.1555017755419028
20
3.7222877345323937
30
0
0
SPLINE
5
371
100
AcDbEntity
8
0
100
AcDbSpline
70
1064
71
3
72
8
73
4
74
0
42
0.000000001
43
0.0000000001
44
0.0000000001
40
0
40
0
40
0
40
0
40
1
40
1
40
1
40
1
10
4.1555017755419028
20
3.7222877345323937
30
0
10
4.2062894824692032
20
3.650628688655031
30
0
10
4.2478431258074298
20
3.6125263548209987
30
0
10
4.2478431258074298
20
3.6376125600303544
30
0
0
SPLINE
5
372
100
AcDbEntity
8
0
100
AcDbSpline
70
1064
71
3
72
8
73
4
74
0
42
0.000000001
43
0.0000000001
44
0.0000000001
40
0
40
0
40
0
40
0
40
1
40
1
40
1
40
1
10
4.2478431258074298
20
3.6376125600303544
30
0
10
4.2478431258074298
20
3.6626970067786675
30
0
10
4.2859038610474638
20
3.5984006372795183
30
0
10
4.3324220795193877
20
3.4947305666137716
30
0
0
SPLINE
5
373
100
AcDbEntity
8
0
100
AcDbSpline
70
1064
71
3
72
8
73
4
74
0
42
0.000000001
43
0.0000000001
44
0.0000000001
40
0
40
0
40
0
40
0
40
1
40
1
40
1
40
1
10
4.3324220795193877
20
3.4947305666137716
30
0
10
4.3789402979913099
20
3.3910604959480279
30
0
10
4.441043152197671
20
3.3062393691795942
30
0
10
4.470428355036745
20
3.3062393691795942
30
0
0
SPLINE
5
374
100
AcDbEntity
8
0
100
AcDbSpline
70
1064
71
3
72
8
73
4
74
0
42
0.000000001
43
0.0000000001
44
0.0000000001
40
0
40
0
40
0
40
0
40
1
40
1
40
1
40
1
10
4.470428355036745
20
3.3062393691795942
30
0
10
4.5661373230513007
20
3.3062393691795942
30
0
10
4.551215791985002
20
3.117020168874487
30
0
10
4.4443763151006799
20
2.9758737765052659
30
0
0
SPLINE
5
375
100
AcDbEntity
8
0
100
AcDbSpline
70
1064
71
3
72
8
73
4
74
0
42
0.000000001
43
0.0000000001
44
0.0000000001
40
0
40
0
40
0
40
0
40
1
40
1
40
1
40
1
10
4.4443763151006799
20
2.9758737765052659
30
0
10
4.3198767238865008
20
2.8113961230454967
30
0
10
4.2913000834147912
20
2.8027849393282538
30
0
10
4.2981173071588819
20
2.931796192054283
30
0
0
SPLINE
5
376
100
AcDbEntity
8
0
100
AcDbSpline
70
1064
71
3
72
8
73
4
74
0
42
0.000000001
43
0.0000000001
44
0.0000000001
40
0
40
0
40
0
40
0
40
1
40
1
40
1
40
1
10
4.2981173071588819
20
2.931796192054283
30
0
10
4.3021755604817216
20
3.0085899441710486
30
0
10
4.272376679682778
20
3.0299552458178782
30
0
10
4.1555018304938107
20
3.0340524600431529
30
0
0
SPLINE
5
377
100
AcDbEntity
8
0
100
AcDbSpline
70
1064
71
3
72
8
73
4
74
0
42
0.000000001
43
0.0000000001
44
0.0000000001
40
0
40
0
40
0
40
0
40
1
40
1
40
1
40
1
10
4.1555018304938107
20
3.0340524600431529
30
0
10
3.8987882245271552
20
3.0430505051893939
30
0
10
3.8816360581545326
20
3.0529436070054481
30
0
10
3.8218541252385658
20
3.2265687747999325
30
0
0
SPLINE
5
378
100
AcDbEntity
8
0
100
AcDbSpline
70
1064
71
3
72
8
73
4
74
0
42
0.000000001
43
0.0000000001
44
0.0000000001
40
0
40
0
40
0
40
0
40
1
40
1
40
1
40
1
10
3.8218541252385658
20
3.2265687747999325
30
0
10
3.7896679961968429
20
3.3200450468116323
30
0
10
3.7445703669623764
20
3.3871320939826748
30
0
10
3.7216394854700781
20
3.3756511018466964
30
0
0
SPLINE
5
379
100
AcDbEntity
8
0
100
AcDbSpline
70
1064
71
3
72
8
73
4
74
0
42
0.000000001
43
0.0000000001
44
0.0000000001
40
0
40
0
40
0
40
0
40
1
40
1
40
1
40
1
10
3.7216394854700781
20
3.3756511018466964
30
0
10
3.6252292212116517
20
3.3273883801183937
30
0
10
3.6611026507244464
20
3.2034502874953348
30
0
10
3.842692575471971
20
2.9574240032642343
30
0
0
SPLINE
5
380
100
AcDbEntity
8
0
100
AcDbSpline
70
1064
71
3
72
8
73
4
74
0
42
0.000000001
43
0.0000000001
44
0.0000000001
40
0
40
0
40
0
40
0
40
1
40
1
40
1
40
1
10
3.842692575471971
20
2.9574240032642343
30
0
10
4.0589462184399734
20
2.6644345000140488
30
0
10
4.1891647096224833
20
2.2882768233738688
30
0
10
4.1550625449450331
20
2.05509609704648
30
0
0
SPLINE
5
381
100
AcDbEntity
8
0
100
AcDbSpline
70
1064
71
3
72
8
73
4
74
0
42
0.000000001
43
0.0000000001
44
0.0000000001
40
0
40
0
40
0
40
0
40
1
40
1
40
1
40
1
10
4.1550625449450331
20
2.05509609704648
30
0
10
4.1430218676308828
20
1.9727385741963344
30
0
10
4.0924812244798279
20
1.8225396243886063
30
0
10
4.0427577711456202
20
1.7213208484138613
30
0
0
SPLINE
5
382
100
AcDbEntity
8
0
100
AcDbSpline
70
1064
71
3
72
8
73
4
74
0
42
0.000000001
43
0.0000000001
44
0.0000000001
40
0
40
0
40
0
40
0
40
1
40
1
40
1
40
1
10
4.0427577711456202
20
1.7213208484138613
30
0
10
3.9930333286770772
20
1.6201003139780763
30
0
10
3.9523681203038059
20
1.5234130921057092
30
0
10
3.9523912825328291
20
1.506456252288396
30
0
0
SPLINE
5
383
100
AcDbEntity
8
0
100
AcDbSpline
70
1064
71
3
72
8
73
4
74
0
42
0.000000001
43
0.0000000001
44
0.0000000001
40
0
40
0
40
0
40
0
40
1
40
1
40
1
40
1
10
3.9523912825328291
20
1.506456252288396
30
0
10
3.9524129610603489
20
1.4895082047762862
30
0
10
4.0313642624464263
20
1.4712149345678927
30
0
10
4.1278399744267169
20
1.4658199760944399
30
0
0
SPLINE
5
384
100
AcDbEntity
8
0
100
AcDbSpline
70
1064
71
3
72
8
73
4
74
0
42
0.000000001
43
0.0000000001
44
0.0000000001
40
0
40
0
40
0
40
0
40
1
40
1
40
1
40
1
10
4.1278399744267169
20
1.4658199760944399
30
0
10
4.3357129844055073
20
1.4542000655362304
30
0
10
4.5880287342608019
20
1.3297361930619429
30
0
10
4.6106884830413568
20
1.2276452204109169
30
0
0
SPLINE
5
385
100
AcDbEntity
8
0
100
AcDbSpline
70
1064
71
3
72
8
73
4
74
0
42
0.000000001
43
0.0000000001
44
0.0000000001
40
0
40
0
40
0
40
0
40
1
40
1
40
1
40
1
10
4.6106884830413568
20
1.2276452204109169
30
0
10
4.6202276945729324
20
1.1846402971948813
30
0
10
4.6098172754994104
20
1.1708592380174161
30
0
10
4.5850638590420436
20
1.1938159469062499
30
0
0
SPLINE
5
386
100
AcDbEntity
8
0
100
AcDbSpline
70
1064
71
3
72
8
73
4
74
0
42
0.000000001
43
0.0000000001
44
0.0000000001
40
0
40
0
40
0
40
0
40
1
40
1
40
1
40
1
10
4.5850638590420436
20
1.1938159469062499
30
0
10
4.5610073426759454
20
1.216146643664529
30
0
10
4.5433359082531384
20
1.1966558614872891
30
0
10
4.5433359082531384
20
1.147805813771331
30
0
0
SPLINE
5
387
100
AcDbEntity
8
0
100
AcDbSpline
70
1064
71
3
72
8
73
4
74
0
42
0.000000001
43
0.0000000001
44
0.0000000001
40
0
40
0
40
0
40
0
40
1
40
1
40
1
40
1
10
4.5433359082531384
20
1.147805813771331
30
0
10
4.5433359082531384
20
1.0952700317136626
30
0
10
4.5222788868075412
20
1.0751989573929281
30
0
10
4.4879307573919958
20
1.0949921948692003
30
0
0
SPLINE
5
388
100
AcDbEntity
8
0
100
AcDbSpline
70
1064
71
3
72
8
73
4
74
0
42
0.000000001
43
0.0000000001
44
0.0000000001
40
0
40
0
40
0
40
0
40
1
40
1
40
1
40
1
10
4.4879307573919958
20
1.0949921948692003
30
0
10
4.4571967050307437
20
1.1127051729340989
30
0
10
4.4325260461461138
20
1.0965185390526948
30
0
10
4.4325260461461138
20
1.058723935900818
30
0
0
SPLINE
5
389
100
AcDbEntity
8
0
100
AcDbSpline
70
1064
71
3
72
8
73
4
74
0
42
0.000000001
43
0.0000000001
44
0.0000000001
40
0
40
0
40
0
40
0
40
1
40
1
40
1
40
1
10
4.4325260461461138
20
1.058723935900818
30
0
10
4.4325260461461138
20
1.0051541787511049
30
0
10
4.4206452239309613
20
1.0053370586993586
30
0
10
4.3771213349002318
20
1.0595996494991822
30
0
0
SPLINE
5
390
100
AcDbEntity
8
0
100
AcDbSpline
70
1064
71
3
72
8
73
4
74
0
42
0.000000001
43
0.0000000001
44
0.0000000001
40
0
40
0
40
0
40
0
40
1
40
1
40
1
40
1
10
4.3771213349002318
20
1.0595996494991822
30
0
10
4.334422933424384
20
1.1128212313627972
30
0
10
4.321716678606256
20
1.1132467789346943
30
0
10
4.321716678606256
20
1.0615638504818572
30
0
0
SPLINE
5
391
100
AcDbEntity
8
0
100
AcDbSpline
70
1064
71
3
72
8
73
4
74
0
42
0.000000001
43
0.0000000001
44
0.0000000001
40
0
40
0
40
0
40
0
40
1
40
1
40
1
40
1
10
4.321716678606256
20
1.0615638504818572
30
0
10
4.321716678606256
20
1.0246045163244051
30
0
10
4.2688664067818056
20
1.0611031336891439
30
0
10
4.2042709890018894
20
1.1427836490385435
30
0
0
SPLINE
5
392
100
AcDbEntity
8
0
100
AcDbSpline
70
1064
71
3
72
8
73
4
74
0
42
0.000000001
43
0.0000000001
44
0.0000000001
40
0
40
0
40
0
40
0
40
1
40
1
40
1
40
1
10
4.2042709890018894
20
1.1427836490385435
30
0
10
4.0984828520123902
20
1.2764706496723051
30
0
10
4.070070737551819
20
1.286725994462784
30
0
10
3.9180129020921908
20
1.2460897182688253
30
0
0
SPLINE
5
393
100
AcDbEntity
8
0
100
AcDbSpline
70
1064
71
3
72
8
73
4
74
0
42
0.000000001
43
0.0000000001
44
0.0000000001
40
0
40
0
40
0
40
0
40
1
40
1
40
1
40
1
10
3.9180129020921908
20
1.2460897182688253
30
0
10
3.8251651974747491
20
1.2212778329818514
30
0
10
3.6769215464406755
20
1.2036264010533821
30
0
10
3.5885820688408647
20
1.2068602109075823
30
0
0
SPLINE
5
394
100
AcDbEntity
8
0
100
AcDbSpline
70
1064
71
3
72
8
73
4
74
0
42
0.000000001
43
0.0000000001
44
0.0000000001
40
0
40
0
40
0
40
0
40
1
40
1
40
1
40
1
10
3.5885820688408647
20
1.2068602109075823
30
0
10
3.436537105865574
20
1.2124327739461658
30
0
10
3.4222425898021451
20
1.1991950792303361
30
0
10
3.3207920266814499
20
0.95894358105752242
30
0
0
SPLINE
5
395
100
AcDbEntity
8
0
100
AcDbSpline
70
1064
71
3
72
8
73
4
74
0
42
0.000000001
43
0.0000000001
44
0.0000000001
40
0
40
0
40
0
40
0
40
1
40
1
40
1
40
1
10
3.3207920266814499
20
0.95894358105752242
30
0
10
3.1539565517253845
20
0.56384903746798454
30
0
10
3.1856579225148498
20
0.41801282950270713
30
0
10
3.4457134012618593
20
0.38428906366049498
30
0
0
SPLINE
5
396
100
AcDbEntity
8
0
100
AcDbSpline
70
1064
71
3
72
8
73
4
74
0
42
0.000000001
43
0.0000000001
44
0.0000000001
40
0
40
0
40
0
40
0
40
1
40
1
40
1
40
1
10
3.4457134012618593
20
0.38428906366049498
30
0
10
3.6834614004315189
20
0.35345796623054532
30
0
10
3.5982033235703779
20
0.25534287399297539
30
0
10
3.3336628349866695
20
0.25534287399297539
30
0
0
LINE
5
397
100
AcDbEntity
8
0
100
AcDbLine
10
3.0843413870966145
20
0.25534287399297539
30
0
11
3.0923827195327962
21
0.79095252243805469
31
0
0
SPLINE
5
398
100
AcDbEntity
8
0
100
AcDbSpline
70
1064
71
3
72
8
73
4
74
0
42
0.000000001
43
0.0000000001
44
0.0000000001
40
0
40
0
40
0
40
0
40
1
40
1
40
1
40
1
10
3.0923827195327953
20
0.79095252243805658
30
0
10
3.0992030480596617
20
1.2446214032996827
30
0
10
3.0910729957687773
20
1.3319360278240979
30
0
10
3.0394968938241744
20
1.3616803963307738
30
0
0
SPLINE
5
399
100
AcDbEntity
8
0
100
AcDbSpline
70
1064
71
3
72
8
73
4
74
0
42
0.000000001
43
0.0000000001
44
0.0000000001
40
0
40
0
40
0
40
0
40
1
40
1
40
1
40
1
10
3.0394968938241744
20
1.3616803963307738
30
0
10
3.0002290300314769
20
1.3843100314660051
30
0
10
2.9513987100503183
20
1.348337193952492
30
0
10
2.9021713625372718
20
1.2604809634274814
30
0
0
SPLINE
5
400
100
AcDbEntity
8
0
100
AcDbSpline
70
1064
71
3
72
8
73
4
74
0
42
0.000000001
43
0.0000000001
44
0.0000000001
40
0
40
0
40
0
40
0
40
1
40
1
40
1
40
1
10
2.9021713625372718
20
1.2604809634274814
30
0
10
2.8601551340414764
20
1.1855072184880391
30
0
10
2.7543288604281524
20
1.0710894339403667
30
0
10
2.6669999484077791
20
1.006218047680846
30
0
0
SPLINE
5
401
100
AcDbEntity
8
0
100
AcDbSpline
70
1064
71
3
72
8
73
4
74
0
42
0.000000001
43
0.0000000001
44
0.0000000001
40
0
40
0
40
0
40
0
40
1
40
1
40
1
40
1
10
2.6669999484077791
20
1.006218047680846
30
0
10
2.4538612817939467
20
0.84789149094211513
30
0
10
2.4345816248454297
20
0.74705605947428466
30
0
10
2.5801073545331761
20
0.55177720242226769
30
0
0
SPLINE
5
402
100
AcDbEntity
8
0
100
AcDbSpline
70
1064
71
3
72
8
73
4
74
0
42
0.000000001
43
0.0000000001
44
0.0000000001
40
0
40
0
40
0
40
0
40
1
40
1
40
1
40
1
10
2.5801073545331761
20
0.55177720242226769
30
0
10
2.6627393072095131
20
0.44089392456678489
30
0
10
2.7368172811043441
20
0.39402566244390863
30
0
10
2.829439655424967
20
0.39402566244390863
30
0
0
SPLINE
5
403
100
AcDbEntity
8
0
100
AcDbSpline
70
1064
71
3
72
8
73
4
74
0
42
0.000000001
43
0.0000000001
44
0.0000000001
40
0
40
0
40
0
40
0
40
1
40
1
40
1
40
1
10
2.829439655424967
20
0.39402566244390863
30
0
10
3.0585769654445509
20
0.39402566244390863
30
0
10
2.9568866471513107
20
0.25738444726144949
30
0
10
2.7135909232052682
20
0.23835965726004915
30
0
0
SPLINE
5
404
100
AcDbEntity
8
0
100
AcDbSpline
70
1064
71
3
72
8
73
4
74
0
42
0.000000001
43
0.0000000001
44
0.0000000001
40
0
40
0
40
0
40
0
40
1
40
1
40
1
40
1
10
2.3659986768476626
20
0.34336088293374994
30
0
10
2.4100727443765622
20
0.38676145988398647
30
0
10
2.4016147665775049
20
0.41976425669943523
30
0
10
2.317901030649574
20
0.53104318828911612
30
0
0
SPLINE
5
405
100
AcDbEntity
8
0
100
AcDbSpline
70
1064
71
3
72
8
73
4
74
0
42
0.000000001
43
0.0000000001
44
0.0000000001
40
0
40
0
40
0
40
0
40
1
40
1
40
1
40
1
10
2.317901030649574
20
0.53104318828911612
30
0
10
2.1960553967613605
20
0.69301327630457443
30
0
10
2.1934205626992145
20
0.74131644263681695
30
0
10
2.2932117980202
20
0.98381173709780811
30
0
0
SPLINE
5
406
100
AcDbEntity
8
0
100
AcDbSpline
70
1064
71
3
72
8
73
4
74
0
42
0.000000001
43
0.0000000001
44
0.0000000001
40
0
40
0
40
0
40
0
40
1
40
1
40
1
40
1
10
2.2932117980202
20
0.98381173709780811
30
0
10
2.3354987196124788
20
1.0865709249443714
30
0
10
2.3552712951715202
20
1.1706464642314662
30
0
10
2.3371517828947317
20
1.1706464642314662
30
0
0
SPLINE
5
407
100
AcDbEntity
8
0
100
AcDbSpline
70
1064
71
3
72
8
73
4
74
0
42
0.000000001
43
0.0000000001
44
0.0000000001
40
0
40
0
40
0
40
0
40
1
40
1
40
1
40
1
10
2.3371517828947317
20
1.1706464642314662
30
0
10
2.2769640576176244
20
1.1706464642314662
30
0
10
1.8464945532684767
20
0.90189734642996888
30
0
10
1.7228401223920764
20
0.78712259429099507
30
0
0
SPLINE
5
408
100
AcDbEntity
8
0
100
AcDbSpline
70
1064
71
3
72
8
73
4
74
0
42
0.000000001
43
0.0000000001
44
0.0000000001
40
0
40
0
40
0
40
0
40
1
40
1
40
1
40
1
10
1.7228401223920764
20
0.78712259429099507
30
0
10
1.6558768269167852
20
0.72496627187860874
30
0
10
1.5812970871543184
20
0.60887970780313039
30
0
10
1.5571096753444889
20
0.5291493257480766
30
0
0
SPLINE
5
409
100
AcDbEntity
8
0
100
AcDbSpline
70
1064
71
3
72
8
73
4
74
0
42
0.000000001
43
0.0000000001
44
0.0000000001
40
0
40
0
40
0
40
0
40
1
40
1
40
1
40
1
10
1.5571096753444889
20
0.5291493257480766
30
0
10
1.5181806450136073
20
0.4008344235942406
30
0
10
1.5216940501733083
20
0.38082313694889813
30
0
10
1.5877029409186558
20
0.35489814582303753
30
0
0
SPLINE
5
410
100
AcDbEntity
8
0
100
AcDbSpline
70
1064
71
3
72
8
73
4
74
0
42
0.000000001
43
0.0000000001
44
0.0000000001
40
0
40
0
40
0
40
0
40
1
40
1
40
1
40
1
10
1.5877029409186558
20
0.35489814582303753
30
0
10
1.6597348904405007
20
0.32660978305821775
30
0
10
1.6912011220176548
20
0.23585209181573566
30
0
10
1.6345742803483529
20
0.21970590253827399
30
0
0
LINE
5
411
100
AcDbEntity
8
0
100
AcDbLine
10
1.2662556032208365
20
0.23656602699833854
30
0
11
1.2662608786039595
21
0.23640249012153725
31
0
0
SPLINE
5
412
100
AcDbEntity
8
0
100
AcDbSpline
70
1064
71
3
72
8
73
4
74
0
42
0.000000001
43
0.0000000001
44
0.0000000001
40
0
40
0
40
0
40
0
40
1
40
1
40
1
40
1
10
7.5302503588516672
20
6.3910530609229248
30
0
10
7.5302503588516672
20
6.4198839089188589
30
0
10
7.5631810587644379
20
6.4539233185179112
30
0
10
7.6034291546836181
20
6.4666985379799877
30
0
0
SPLINE
5
413
100
AcDbEntity
8
0
100
AcDbSpline
70
1064
71
3
72
8
73
4
74
0
42
0.000000001
43
0.0000000001
44
0.0000000001
40
0
40
0
40
0
40
0
40
1
40
1
40
1
40
1
10
7.6034291546836181
20
6.4666985379799877
30
0
10
7.6742195208067789
20
6.4891663946994553
30
0
10
7.6766079505155691
20
6.5220592876998476
30
0
10
7.6766079505155691
20
7.4746783004565733
30
0
0
LINE
5
414
100
AcDbEntity
8
0
100
AcDbLine
10
7.6766079503419382
20
7.8420195406181259
30
0
11
7.6766079505155691
21
8.4594323095050648
31
0
0
LINE
5
415
100
AcDbEntity
8
0
100
AcDbLine
10
7.6766079505155691
20
8.4594323095050648
30
0
11
7.5851341260141849
21
8.4823907768549418
31
0
0
SPLINE
5
416
100
AcDbEntity
8
0
100
AcDbSpline
70
1064
71
3
72
8
73
4
74
0
42
0.000000001
43
0.0000000001
44
0.0000000001
40
0
40
0
40
0
40
0
40
1
40
1
40
1
40
1
10
7.5851341260141849
20
8.4823907768549418
30
0
10
7.5348232367885055
20
8.4950182855895822
30
0
10
7.4936603015128007
20
8.5282619915676321
30
0
10
7.4936603015128007
20
8.5562672421048678
30
0
0
LINE
5
417
100
AcDbEntity
8
0
100
AcDbLine
10
8.7834400400211194
20
8.6071852400049149
30
0
11
8.7605712541843275
21
8.4928430692820012
31
0
0
SPLINE
5
418
100
AcDbEntity
8
0
100
AcDbSpline
70
1064
71
3
72
8
73
4
74
0
42
0.000000001
43
0.0000000001
44
0.0000000001
40
0
40
0
40
0
40
0
40
1
40
1
40
1
40
1
10
8.7605712541843275
20
8.4928430692819994
30
0
10
8.747993861589352
20
8.4299543478460848
30
0
10
8.7377029079627953
20
8.3393962419317429
30
0
10
8.7377029079627953
20
8.2916012708403173
30
0
0
SPLINE
5
419
100
AcDbEntity
8
0
100
AcDbSpline
70
1064
71
3
72
8
73
4
74
0
42
0.000000001
43
0.0000000001
44
0.0000000001
40
0
40
0
40
0
40
0
40
1
40
1
40
1
40
1
10
8.7377029079627953
20
8.2916012708403173
30
0
10
8.7377029079627953
20
8.2387498450258096
30
0
10
8.716198687893737
20
8.2047016431215525
30
0
10
8.6828187011850186
20
8.2047016431215525
30
0
0
SPLINE
5
420
100
AcDbEntity
8
0
100
AcDbSpline
70
1064
71
3
72
8
73
4
74
0
42
0.000000001
43
0.0000000001
44
0.0000000001
40
0
40
0
40
0
40
0
40
1
40
1
40
1
40
1
10
8.6828187011850186
20
8.2047016431215525
30
0
10
8.6526320797265566
20
8.2047016431215525
30
0
10
8.6279344944072385
20
8.221915218250837
30
0
10
8.6279344944072385
20
8.2429543253745798
30
0
0
SPLINE
5
421
100
AcDbEntity
8
0
100
AcDbSpline
70
1064
71
3
72
8
73
4
74
0
42
0.000000001
43
0.0000000001
44
0.0000000001
40
0
40
0
40
0
40
0
40
1
40
1
40
1
40
1
10
8.6279344944072385
20
8.2429543253745798
30
0
10
8.6279344944072385
20
8.2639934324983244
30
0
10
8.5875193446891736
20
8.3216217177304141
30
0
10
8.5381237344352776
20
8.3710177675995716
30
0
0
SPLINE
5
422
100
AcDbEntity
8
0
100
AcDbSpline
70
1064
71
3
72
8
73
4
74
0
42
0.000000001
43
0.0000000001
44
0.0000000001
40
0
40
0
40
0
40
0
40
1
40
1
40
1
40
1
10
8.5381237344352776
20
8.3710177675995716
30
0
10
8.4647879959554277
20
8.4443535060794233
30
0
10
8.4118104005612349
20
8.4608285275715325
30
0
10
8.249322445769236
20
8.4608285275715325
30
0
0
SPLINE
5
423
100
AcDbEntity
8
0
100
AcDbSpline
70
1064
71
3
72
8
73
4
74
0
42
0.000000001
43
0.0000000001
44
0.0000000001
40
0
40
0
40
0
40
0
40
1
40
1
40
1
40
1
10
8.249322445769236
20
8.4608285275715325
30
0
10
8.1016222691006128
20
8.4608285275715325
30
0
10
8.0446072471565344
20
8.4459106233311321
30
0
10
8.0281225541286982
20
8.4029514201021573
30
0
0
SPLINE
5
424
100
AcDbEntity
8
0
100
AcDbSpline
70
1064
71
3
72
8
73
4
74
0
42
0.000000001
43
0.0000000001
44
0.0000000001
40
0
40
0
40
0
40
0
40
1
40
1
40
1
40
1
10
8.0281225541286982
20
8.4029514201021573
30
0
10
7.9992640103713706
20
8.3277481959968807
30
0
10
7.9992640103713706
20
7.7523498495795522
30
0
10
8.0281225541286982
20
7.6771466254742746
30
0
0
SPLINE
5
425
100
AcDbEntity
8
0
100
AcDbSpline
70
1064
71
3
72
8
73
4
74
0
42
0.000000001
43
0.0000000001
44
0.0000000001
40
0
40
0
40
0
40
0
40
1
40
1
40
1
40
1
10
8.0281225541286982
20
7.6771466254742746
30
0
10
8.0589642023248924
20
7.5967726466782564
30
0
10
8.5247924016690213
20
7.5939626259349122
30
0
10
8.5910103294706044
20
7.6737527956653553
30
0
0
SPLINE
5
426
100
AcDbEntity
8
0
100
AcDbSpline
70
1064
71
3
72
8
73
4
74
0
42
0.000000001
43
0.0000000001
44
0.0000000001
40
0
40
0
40
0
40
0
40
1
40
1
40
1
40
1
10
8.5910103294706044
20
7.6737527956653553
30
0
10
8.6158789251261503
20
7.7037178510326632
30
0
10
8.6470177532382522
20
7.7215653513671896
30
0
10
8.660207529890716
20
7.7134131259816172
30
0
0
SPLINE
5
427
100
AcDbEntity
8
0
100
AcDbSpline
70
1064
71
3
72
8
73
4
74
0
42
0.000000001
43
0.0000000001
44
0.0000000001
40
0
40
0
40
0
40
0
40
1
40
1
40
1
40
1
10
8.660207529890716
20
7.7134131259816172
30
0
10
8.6973739228357356
20
7.6904432286349751
30
0
10
8.6508999956012804
20
7.2789360889202781
30
0
10
8.6096399053530668
20
7.2656561911394659
30
0
0
SPLINE
5
428
100
AcDbEntity
8
0
100
AcDbSpline
70
1064
71
3
72
8
73
4
74
0
42
0.000000001
43
0.0000000001
44
0.0000000001
40
0
40
0
40
0
40
0
40
1
40
1
40
1
40
1
10
8.6096399053530668
20
7.2656561911394659
30
0
10
8.5895156375858459
20
7.2591788998953444
30
0
10
8.5450019547967244
20
7.3031624066806371
30
0
10
8.5107203171892873
20
7.3633967311753281
30
0
0
SPLINE
5
429
100
AcDbEntity
8
0
100
AcDbSpline
70
1064
71
3
72
8
73
4
74
0
42
0.000000001
43
0.0000000001
44
0.0000000001
40
0
40
0
40
0
40
0
40
1
40
1
40
1
40
1
10
8.5107203171892873
20
7.3633967311753281
30
0
10
8.4534841687693163
20
7.4639648765649422
30
0
10
8.4321276594276924
20
7.4729136848020374
30
0
10
8.2493611319121367
20
7.4729136848020374
30
0
0
SPLINE
5
430
100
AcDbEntity
8
0
100
AcDbSpline
70
1064
71
3
72
8
73
4
74
0
42
0.000000001
43
0.0000000001
44
0.0000000001
40
0
40
0
40
0
40
0
40
1
40
1
40
1
40
1
10
8.2493611319121367
20
7.4729136848020374
30
0
10
8.1016257860226943
20
7.4729136848020374
30
0
10
8.0446081263870539
20
7.457997539022676
30
0
10
8.0281225541286982
20
7.4150365773326632
30
0
0
SPLINE
5
431
100
AcDbEntity
8
0
100
AcDbSpline
70
1064
71
3
72
8
73
4
74
0
42
0.000000001
43
0.0000000001
44
0.0000000001
40
0
40
0
40
0
40
0
40
1
40
1
40
1
40
1
10
8.0281225541286982
20
7.4150365773326632
30
0
10
7.996606975738584
20
7.3329094128788741
30
0
10
8.0015596812602539
20
6.5840722955374007
30
0
10
8.0339153644126551
20
6.5391365820984628
30
0
0
SPLINE
5
432
100
AcDbEntity
8
0
100
AcDbSpline
70
1064
71
3
72
8
73
4
74
0
42
0.000000001
43
0.0000000001
44
0.0000000001
40
0
40
0
40
0
40
0
40
1
40
1
40
1
40
1
10
8.0339153644126551
20
6.5391365820984628
30
0
10
8.0487005048444686
20
6.5186030325239752
30
0
10
8.1070049183467798
20
6.4814863161033633
30
0
10
8.1634814115970862
20
6.4566542085144158
30
0
0
SPLINE
5
433
100
AcDbEntity
8
0
100
AcDbSpline
70
1064
71
3
72
8
73
4
74
0
42
0.000000001
43
0.0000000001
44
0.0000000001
40
0
40
0
40
0
40
0
40
1
40
1
40
1
40
1
10
1.6440583201647696
20
4.2765493792382072
30
0
10
1.6440583201647696
20
4.3055340925752175
30
0
10
1.6852212554404737
20
4.3480044436348235
30
0
10
1.7355320347623395
20
4.3709277417638814
30
0
0
LINE
5
434
100
AcDbEntity
8
0
100
AcDbLine
10
1.7355320347623395
20
4.3709277417638814
30
0
11
1.8270057493599088
21
4.4126050268940453
31
0
0
LINE
5
435
100
AcDbEntity
8
0
100
AcDbLine
10
1.8270057493599088
20
4.4126050268940453
30
0
11
1.8270057493599088
21
5.3678960212024096
31
0
0
LINE
5
436
100
AcDbEntity
8
0
100
AcDbLine
10
1.8270057493599088
20
5.3678960212024096
30
0
11
1.8270057493599088
21
6.323185257049726
31
0
0
LINE
5
437
100
AcDbEntity
8
0
100
AcDbLine
10
1.8270057493599088
20
6.323185257049726
30
0
11
1.7169036678218426
21
6.3647438460596311
31
0
0
SPLINE
5
438
100
AcDbEntity
8
0
100
AcDbSpline
70
1064
71
3
72
8
73
4
74
0
42
0.000000001
43
0.0000000001
44
0.0000000001
40
0
40
0
40
0
40
0
40
1
40
1
40
1
40
1
10
1.7169036678218421
20
6.3647438460596311
30
0
10
1.6563477647642988
20
6.3876012018996553
30
0
10
1.6118446327414218
20
6.4214295961738035
30
0
10
1.6180065000363353
20
6.4399171763272127
30
0
0
SPLINE
5
439
100
AcDbEntity
8
0
100
AcDbSpline
70
1064
71
3
72
8
73
4
74
0
42
0.000000001
43
0.0000000001
44
0.0000000001
40
0
40
0
40
0
40
0
40
1
40
1
40
1
40
1
10
1.6180065000363353
20
6.4399171763272127
30
0
10
1.6368780841195503
20
6.4965308295387088
30
0
10
2.9936626617452511
20
6.4894354392387115
30
0
10
3.1565129694154885
20
6.4318713378346137
30
0
0
SPLINE
5
440
100
AcDbEntity
8
0
100
AcDbSpline
70
1064
71
3
72
8
73
4
74
0
42
0.000000001
43
0.0000000001
44
0.0000000001
40
0
40
0
40
0
40
0
40
1
40
1
40
1
40
1
10
3.1565129694154885
20
6.4318713378346137
30
0
10
3.3517171193492228
20
6.3628719642816005
30
0
10
3.5342180093437903
20
6.192109571061688
30
0
10
3.647439738148166
20
5.9725226278109087
30
0
0
SPLINE
5
441
100
AcDbEntity
8
0
100
AcDbSpline
70
1064
71
3
72
8
73
4
74
0
42
0.000000001
43
0.0000000001
44
0.0000000001
40
0
40
0
40
0
40
0
40
1
40
1
40
1
40
1
10
3.647439738148166
20
5.9725226278109087
30
0
10
3.7261279023250453
20
5.819911948685597
30
0
10
3.7462434876908763
20
5.7231060306929704
30
0
10
3.7588371735264343
20
5.4364188518133378
30
0
0
SPLINE
5
442
100
AcDbEntity
8
0
100
AcDbSpline
70
1064
71
3
72
8
73
4
74
0
42
0.000000001
43
0.0000000001
44
0.0000000001
40
0
40
0
40
0
40
0
40
1
40
1
40
1
40
1
10
3.6919498490632998
20
4.8953447856836902
30
0
10
3.5902627454566498
20
4.6589671771839578
30
0
10
3.3651175266632429
20
4.4542612104917199
30
0
10
3.0812878744510139
20
4.3401212627885073
30
0
0
SPLINE
5
443
100
AcDbEntity
8
0
100
AcDbSpline
70
1064
71
3
72
8
73
4
74
0
42
0.000000001
43
0.0000000001
44
0.0000000001
40
0
40
0
40
0
40
0
40
1
40
1
40
1
40
1
10
2.256932328862681
20
4.2394616774247673
30
0
10
1.7406083820759475
20
4.2263083888389001
30
0
10
1.6440583201647696
20
4.2321499964167426
30
0
10
1.6440583201647696
20
4.2765493792382072
30
0
0
SPLINE
5
444
100
AcDbEntity
8
0
100
AcDbSpline
70
1064
71
3
72
8
73
4
74
0
42
0.000000001
43
0.0000000001
44
0.0000000001
40
0
40
0
40
0
40
0
40
1
40
1
40
1
40
1
10
2.8698057880415178
20
4.5002643097824784
30
0
10
3.0607245958945537
20
4.5893584968802754
30
0
10
3.2764505631705196
20
4.7997803411859321
30
0
10
3.3888730989077649
20
5.0065674465200614
30
0
0
SPLINE
5
445
100
AcDbEntity
8
0
100
AcDbSpline
70
1064
71
3
72
8
73
4
74
0
42
0.000000001
43
0.0000000001
44
0.0000000001
40
0
40
0
40
0
40
0
40
1
40
1
40
1
40
1
10
3.3888730989077649
20
5.0065674465200614
30
0
10
3.4367868966302302
20
5.094698876197973
30
0
10
3.4546293207822982
20
5.2073625958573588
30
0
10
3.4544103580377659
20
5.4203852040424918
30
0
0
SPLINE
5
446
100
AcDbEntity
8
0
100
AcDbSpline
70
1064
71
3
72
8
73
4
74
0
42
0.000000001
43
0.0000000001
44
0.0000000001
40
0
40
0
40
0
40
0
40
1
40
1
40
1
40
1
10
3.4544103580377659
20
5.4203852040424918
30
0
10
3.453753476673155
20
6.0606347144173709
30
0
10
3.1812325629737712
20
6.3526403587151759
30
0
10
2.583832104729229
20
6.353212737783986
30
0
0
SPLINE
5
447
100
AcDbEntity
8
0
100
AcDbSpline
70
1064
71
3
72
8
73
4
74
0
42
0.000000001
43
0.0000000001
44
0.0000000001
40
0
40
0
40
0
40
0
40
1
40
1
40
1
40
1
10
2.583832104729229
20
6.353212737783986
30
0
10
2.3764595417722951
20
6.3533859461965143
30
0
10
2.2387966607250789
20
6.3106192944515174
30
0
10
2.1843133830646235
20
6.2290240644625987
30
0
0
SPLINE
5
448
100
AcDbEntity
8
0
100
AcDbSpline
70
1064
71
3
72
8
73
4
74
0
42
0.000000001
43
0.0000000001
44
0.0000000001
40
0
40
0
40
0
40
0
40
1
40
1
40
1
40
1
10
2.1843133830646235
20
6.2290240644625987
30
0
10
2.1695283525366245
20
6.2068806438051753
30
0
10
2.1571795598769654
20
5.815355776128647
30
0
10
2.1568712796757343
20
5.3589665560367594
30
0
0
SPLINE
5
449
100
AcDbEntity
8
0
100
AcDbSpline
70
1064
71
3
72
8
73
4
74
0
42
0.000000001
43
0.0000000001
44
0.0000000001
40
0
40
0
40
0
40
0
40
1
40
1
40
1
40
1
10
2.1568712796757343
20
5.3589665560367594
30
0
10
2.1564103430753909
20
4.6528829019824753
30
0
10
2.1648829380818504
20
4.5205973947983029
30
0
10
2.2138091491416443
20
4.4716717332575859
30
0
0
SPLINE
5
450
100
AcDbEntity
8
0
100
AcDbSpline
70
1064
71
3
72
8
73
4
74
0
42
0.000000001
43
0.0000000001
44
0.0000000001
40
0
40
0
40
0
40
0
40
1
40
1
40
1
40
1
10
2.2138091491416443
20
4.4716717332575859
30
0
10
2.3036533198733822
20
4.3818266832953272
30
0
10
2.6481910094991452
20
4.3968439405845388
30
0
10
2.8698057880415178
20
4.5002643097824784
30
0
0
SPLINE
5
451
100
AcDbEntity
8
0
100
AcDbSpline
70
1064
71
3
72
8
73
4
74
0
42
0.000000001
43
0.0000000001
44
0.0000000001
40
0
40
0
40
0
40
0
40
1
40
1
40
1
40
1
10
3.633433486053653
20
4.2322097840921318
30
0
10
3.633433486053653
20
4.2623955263200708
30
0
10
3.649898753582177
20
4.2870948701004323
30
0
10
3.670022980135466
20
4.2870948701004323
30
0
0
SPLINE
5
452
100
AcDbEntity
8
0
100
AcDbSpline
70
1064
71
3
72
8
73
4
74
0
42
0.000000001
43
0.0000000001
44
0.0000000001
40
0
40
0
40
0
40
0
40
1
40
1
40
1
40
1
10
3.7066124742172808
20
5.3076863151622868
30
0
10
3.7066124742172808
20
6.1811244649392423
30
0
10
3.6986993445813616
20
6.3313137432112452
30
0
10
3.651728226225571
20
6.3493388481109019
30
0
0
SPLINE
5
453
100
AcDbEntity
8
0
100
AcDbSpline
70
1064
71
3
72
8
73
4
74
0
42
0.000000001
43
0.0000000001
44
0.0000000001
40
0
40
0
40
0
40
0
40
1
40
1
40
1
40
1
10
3.651728226225571
20
6.3493388481109019
30
0
10
3.5130517297680499
20
6.4025533961303536
30
0
10
3.6305858369916288
20
6.4364433365409308
30
0
10
4.027913777220844
20
6.4578077589572418
30
0
0
SPLINE
5
454
100
AcDbEntity
8
0
100
AcDbSpline
70
1064
71
3
72
8
73
4
74
0
42
0.000000001
43
0.0000000001
44
0.0000000001
40
0
40
0
40
0
40
0
40
1
40
1
40
1
40
1
10
4.027913777220844
20
6.4578077589572418
30
0
10
4.5165206962253261
20
6.4840791669081579
30
0
10
4.6982033523168054
20
6.450775673254717
30
0
10
4.8506179630360577
20
6.3069986231683233
30
0
0
SPLINE
5
455
100
AcDbEntity
8
0
100
AcDbSpline
70
1064
71
3
72
8
73
4
74
0
42
0.000000001
43
0.0000000001
44
0.0000000001
40
0
40
0
40
0
40
0
40
1
40
1
40
1
40
1
10
4.8506179630360577
20
6.3069986231683233
30
0
10
5.0809750405470364
20
6.0896959208096586
30
0
10
5.0612576367031519
20
5.6651823240060102
30
0
10
4.8075270950366464
20
5.379264471831771
30
0
0
LINE
5
456
100
AcDbEntity
8
0
100
AcDbLine
10
4.8075270950366455
20
5.3792644718317719
30
0
11
4.6686005399239203
21
5.2227139607443398
31
0
0
LINE
5
457
100
AcDbEntity
8
0
100
AcDbLine
10
4.6686005399239203
20
5.2227139607443398
30
0
11
4.9743786709016176
21
4.8156179205507179
31
0
0
SPLINE
5
458
100
AcDbEntity
8
0
100
AcDbSpline
70
1064
71
3
72
8
73
4
74
0
42
0.000000001
43
0.0000000001
44
0.0000000001
40
0
40
0
40
0
40
0
40
1
40
1
40
1
40
1
10
4.9743786709016167
20
4.8156179205507197
30
0
10
5.2771782985874891
20
4.4124872100043069
30
0
10
5.3821890858931001
20
4.323684927439297
30
0
10
5.5561037403364395
20
4.323684927439297
30
0
0
SPLINE
5
459
100
AcDbEntity
8
0
100
AcDbSpline
70
1064
71
3
72
8
73
4
74
0
42
0.000000001
43
0.0000000001
44
0.0000000001
40
0
40
0
40
0
40
0
40
1
40
1
40
1
40
1
10
5.4831869551995815
20
4.1978318707427063
30
0
10
5.1951453217032046
20
4.1546370337342529
30
0
10
5.0431836246057964
20
4.2233946188941447
30
0
10
4.85740869996072
20
4.4809757506249426
30
0
0
SPLINE
5
460
100
AcDbEntity
8
0
100
AcDbSpline
70
1064
71
3
72
8
73
4
74
0
42
0.000000001
43
0.0000000001
44
0.0000000001
40
0
40
0
40
0
40
0
40
1
40
1
40
1
40
1
10
4.85740869996072
20
4.4809757506249426
30
0
10
4.4908141938837964
20
4.9892650691082121
30
0
10
4.3360941857880286
20
5.1282467959360973
30
0
10
4.1365391361479151
20
5.1285175989363943
30
0
0
LINE
5
461
100
AcDbEntity
8
0
100
AcDbLine
10
4.136539136147916
20
5.1285175989363943
30
0
11
4.0359180171194442
21
5.1286327781345724
31
0
0
LINE
5
462
100
AcDbEntity
8
0
100
AcDbLine
10
4.0359180171194442
20
5.1286327781345724
30
0
11
4.0359180171194442
21
4.7227219406825141
31
0
0
SPLINE
5
463
100
AcDbEntity
8
0
100
AcDbSpline
70
1064
71
3
72
8
73
4
74
0
42
0.000000001
43
0.0000000001
44
0.0000000001
40
0
40
0
40
0
40
0
40
1
40
1
40
1
40
1
10
4.0359180171194442
20
4.7227219406825141
30
0
10
4.0359180171194442
20
4.3475841714460497
30
0
10
4.0414669508377905
20
4.3153603728717167
30
0
10
4.1090969778071171
20
4.2976755301834739
30
0
0
SPLINE
5
464
100
AcDbEntity
8
0
100
AcDbSpline
70
1064
71
3
72
8
73
4
74
0
42
0.000000001
43
0.0000000001
44
0.0000000001
40
0
40
0
40
0
40
0
40
1
40
1
40
1
40
1
10
4.1090969778071171
20
4.2976755301834739
30
0
10
4.1493454034377431
20
4.2871493823926983
30
0
10
4.1822759384947918
20
4.2557608528127897
30
0
10
4.1822759384947918
20
4.2279226560744396
30
0
0
SPLINE
5
465
100
AcDbEntity
8
0
100
AcDbSpline
70
1064
71
3
72
8
73
4
74
0
42
0.000000001
43
0.0000000001
44
0.0000000001
40
0
40
0
40
0
40
0
40
1
40
1
40
1
40
1
10
4.1822759384947918
20
4.2279226560744396
30
0
10
4.1822759384947918
20
4.189326194687915
30
0
10
4.1171091857323088
20
4.1773053550123835
30
0
10
3.9078547397501757
20
4.1773053550123835
30
0
0
SPLINE
5
466
100
AcDbEntity
8
0
100
AcDbSpline
70
1064
71
3
72
8
73
4
74
0
42
0.000000001
43
0.0000000001
44
0.0000000001
40
0
40
0
40
0
40
0
40
1
40
1
40
1
40
1
10
3.9078547397501757
20
4.1773053550123835
30
0
10
3.6883177752592919
20
4.1773053550123835
30
0
10
3.6334335410055596
20
4.1882816688296263
30
0
10
3.6334335410055596
20
4.2321904410206823
30
0
0
LINE
5
467
100
AcDbEntity
8
0
100
AcDbLine
10
3.6334335410055587
20
4.2321904410206823
30
0
11
3.633433486053653
21
4.2322097840921318
31
0
0
SPLINE
5
468
100
AcDbEntity
8
0
100
AcDbSpline
70
1064
71
3
72
8
73
4
74
0
42
0.000000001
43
0.0000000001
44
0.0000000001
40
0
40
0
40
0
40
0
40
1
40
1
40
1
40
1
10
4.5203255663025557
20
5.3872223872723248
30
0
10
4.7066733096317037
20
5.6152138950680444
30
0
10
4.692750254725186
20
6.0158985863065757
30
0
10
4.4914866953281223
20
6.2171623655112676
30
0
0
SPLINE
5
469
100
AcDbEntity
8
0
100
AcDbSpline
70
1064
71
3
72
8
73
4
74
0
42
0.000000001
43
0.0000000001
44
0.0000000001
40
0
40
0
40
0
40
0
40
1
40
1
40
1
40
1
10
4.4914866953281223
20
6.2171623655112676
30
0
10
4.383939492826749
20
6.3247098427721786
30
0
10
4.3481354126212537
20
6.3390131648787893
30
0
10
4.2112007542525971
20
6.3291367684426234
30
0
0
LINE
5
470
100
AcDbEntity
8
0
100
AcDbLine
10
4.2112007542525971
20
6.3291367684426234
30
0
11
4.0542128259812458
21
6.3178131585698045
31
0
0
LINE
5
471
100
AcDbEntity
8
0
100
AcDbLine
10
4.0542128259812458
20
6.3178131585698045
30
0
11
4.0439983104580612
21
5.8322185382802756
31
0
0
SPLINE
5
472
100
AcDbEntity
8
0
100
AcDbSpline
70
1064
71
3
72
8
73
4
74
0
42
0.000000001
43
0.0000000001
44
0.0000000001
40
0
40
0
40
0
40
0
40
1
40
1
40
1
40
1
10
4.0439983104580621
20
5.8322185382802756
30
0
10
4.0340010198253351
20
5.3569663066027466
30
0
10
4.0355596757304539
20
5.3458739343568036
30
0
10
4.1171772711457351
20
5.3114335956404268
30
0
0
SPLINE
5
473
100
AcDbEntity
8
0
100
AcDbSpline
70
1064
71
3
72
8
73
4
74
0
42
0.000000001
43
0.0000000001
44
0.0000000001
40
0
40
0
40
0
40
0
40
1
40
1
40
1
40
1
10
4.1171772711457351
20
5.3114335956404268
30
0
10
4.2404838564474847
20
5.2594016126709757
30
0
10
4.4476892557017189
20
5.298355041648799
30
0
10
4.5203255663025557
20
5.3872223872723248
30
0
0
SPLINE
5
474
100
AcDbEntity
8
0
100
AcDbSpline
70
1064
71
3
72
8
73
4
74
0
42
0.000000001
43
0.0000000001
44
0.0000000001
40
0
40
0
40
0
40
0
40
1
40
1
40
1
40
1
10
5.4784169098185336
20
4.2819038931077209
30
0
10
5.4784169098185336
20
4.3097755006058467
30
0
10
5.5192376046141547
20
4.3593254158160812
30
0
10
5.5691295404968422
20
4.3920169650272918
30
0
0
SPLINE
5
475
100
AcDbEntity
8
0
100
AcDbSpline
70
1064
71
3
72
8
73
4
74
0
42
0.000000001
43
0.0000000001
44
0.0000000001
40
0
40
0
40
0
40
0
40
1
40
1
40
1
40
1
10
5.5691295404968422
20
4.3920169650272918
30
0
10
5.6901318824121336
20
4.4713006979779584
30
0
10
5.7079864165908232
20
4.5103754607676034
30
0
10
6.1017355176764498
20
5.5575970398327206
30
0
0
SPLINE
5
476
100
AcDbEntity
8
0
100
AcDbSpline
70
1064
71
3
72
8
73
4
74
0
42
0.000000001
43
0.0000000001
44
0.0000000001
40
0
40
0
40
0
40
0
40
1
40
1
40
1
40
1
10
6.1017355176764498
20
5.5575970398327206
30
0
10
6.2890085412245504
20
6.0556714581294537
30
0
10
6.461504117607892
20
6.4631868912813282
30
0
10
6.4850591428658912
20
6.4631868912813282
30
0
0
SPLINE
5
477
100
AcDbEntity
8
0
100
AcDbSpline
70
1064
71
3
72
8
73
4
74
0
42
0.000000001
43
0.0000000001
44
0.0000000001
40
0
40
0
40
0
40
0
40
1
40
1
40
1
40
1
10
7.5105204259728664
20
4.3409952179258315
30
0
10
7.5432981397750805
20
4.3409952179258315
30
0
10
7.5632962379626161
20
4.3204141899032402
30
0
10
7.5549602533982707
20
4.2952576462522485
30
0
0
SPLINE
5
478
100
AcDbEntity
8
0
100
AcDbSpline
70
1064
71
3
72
8
73
4
74
0
42
0.000000001
43
0.0000000001
44
0.0000000001
40
0
40
0
40
0
40
0
40
1
40
1
40
1
40
1
10
6.868817987162954
20
4.2715553498820755
30
0
10
6.868817987162954
20
4.295247095486002
30
0
10
6.8965060552899375
20
4.3348775319645698
30
0
10
6.9303465389837395
20
4.3596225957319934
30
0
0
SPLINE
5
479
100
AcDbEntity
8
0
100
AcDbSpline
70
1064
71
3
72
8
73
4
74
0
42
0.000000001
43
0.0000000001
44
0.0000000001
40
0
40
0
40
0
40
0
40
1
40
1
40
1
40
1
10
6.9303465389837395
20
4.3596225957319934
30
0
10
6.9872694615308006
20
4.4012453685698887
30
0
10
6.9844148198385438
20
4.425070757212926
30
0
10
6.8922070576602188
20
4.6778864595229086
30
0
0
SPLINE
5
480
100
AcDbEntity
8
0
100
AcDbSpline
70
1064
71
3
72
8
73
4
74
0
42
0.000000001
43
0.0000000001
44
0.0000000001
40
0
40
0
40
0
40
0
40
1
40
1
40
1
40
1
10
6.8922070576602188
20
4.6778864595229086
30
0
10
6.7392600728608345
20
5.0972416108631027
30
0
10
6.7263246136364083
20
5.1093741128147308
30
0
10
6.4321496878370334
20
5.1093741128147308
30
0
0
SPLINE
5
481
100
AcDbEntity
8
0
100
AcDbSpline
70
1064
71
3
72
8
73
4
74
0
42
0.000000001
43
0.0000000001
44
0.0000000001
40
0
40
0
40
0
40
0
40
1
40
1
40
1
40
1
10
6.4321496878370334
20
5.1093741128147308
30
0
10
6.1435910667946345
20
5.1093741128147308
30
0
10
6.1355524819538303
20
5.1030805807493813
30
0
10
6.0078222680960884
20
4.7771515852812225
30
0
0
SPLINE
5
482
100
AcDbEntity
8
0
100
AcDbSpline
70
1064
71
3
72
8
73
4
74
0
42
0.000000001
43
0.0000000001
44
0.0000000001
40
0
40
0
40
0
40
0
40
1
40
1
40
1
40
1
10
6.0078222680960884
20
4.7771515852812225
30
0
10
5.8965314668943805
20
4.4931724364045635
30
0
10
5.8918664895605248
20
4.3774340476151812
30
0
10
5.9906702391032347
20
4.3515969795413652
30
0
0
SPLINE
5
483
100
AcDbEntity
8
0
100
AcDbSpline
70
1064
71
3
72
8
73
4
74
0
42
0.000000001
43
0.0000000001
44
0.0000000001
40
0
40
0
40
0
40
0
40
1
40
1
40
1
40
1
10
5.9906702391032347
20
4.3515969795413652
30
0
10
6.0309187746376747
20
4.3410708317505904
30
0
10
6.0638492547428156
20
4.3096823021706783
30
0
10
6.0638492547428156
20
4.2818441054323282
30
0
0
SPLINE
5
484
100
AcDbEntity
8
0
100
AcDbSpline
70
1064
71
3
72
8
73
4
74
0
42
0.000000001
43
0.0000000001
44
0.0000000001
40
0
40
0
40
0
40
0
40
1
40
1
40
1
40
1
10
6.0638492547428156
20
4.2818441054323282
30
0
10
6.0638492547428156
20
4.2429662902792638
30
0
10
5.9959638662592081
20
4.231226804370273
30
0
10
5.7711334119921203
20
4.231226804370273
30
0
0
SPLINE
5
485
100
AcDbEntity
8
0
100
AcDbSpline
70
1064
71
3
72
8
73
4
74
0
42
0.000000001
43
0.0000000001
44
0.0000000001
40
0
40
0
40
0
40
0
40
1
40
1
40
1
40
1
10
6.6856039313124889
20
5.264880977274391
30
0
10
6.6854311625152221
20
5.2699110550818631
30
0
10
6.6292158007294884
20
5.4222157619860614
30
0
10
6.5606235109074413
20
5.6033337322757824
30
0
0
SPLINE
5
486
100
AcDbEntity
8
0
100
AcDbSpline
70
1064
71
3
72
8
73
4
74
0
42
0.000000001
43
0.0000000001
44
0.0000000001
40
0
40
0
40
0
40
0
40
1
40
1
40
1
40
1
10
6.5606235109074413
20
5.6033337322757824
30
0
10
6.4192399461053302
20
5.9766558904875247
30
0
10
6.4549802271461854
20
5.9908677726200068
30
0
10
6.2615761093713855
20
5.4844178043855081
30
0
0
LINE
5
487
100
AcDbEntity
8
0
100
AcDbLine
10
6.2615761093713864
20
5.4844178043855081
30
0
11
6.1742465379281217
21
5.2557334629396752
31
0
0
LINE
5
488
100
AcDbEntity
8
0
100
AcDbLine
10
6.1742465379281217
20
5.2557334629396752
30
0
11
6.4300584380441537
21
5.2557334629396752
31
0
0
SPLINE
5
489
100
AcDbEntity
8
0
100
AcDbSpline
70
1064
71
3
72
8
73
4
74
0
42
0.000000001
43
0.0000000001
44
0.0000000001
40
0
40
0
40
0
40
0
40
1
40
1
40
1
40
1
10
6.4300584380441537
20
5.2557334629396752
30
0
10
6.570755104002167
20
5.2557334629396752
30
0
10
6.6857503231941422
20
5.2598473825448409
30
0
10
6.6856039313124889
20
5.264880977274391
30
0
0
SPLINE
5
490
100
AcDbEntity
8
0
100
AcDbSpline
70
1064
71
3
72
8
73
4
74
0
42
0.000000001
43
0.0000000001
44
0.0000000001
40
0
40
0
40
0
40
0
40
1
40
1
40
1
40
1
10
7.9145668551063215
20
4.2624693816837897
30
0
10
7.5785117617341884
20
4.3347491643085849
30
0
10
7.302309846426132
20
4.5490633621282539
30
0
10
7.1400946729031025
20
4.8634128916421426
30
0
0
LINE
5
491
100
AcDbEntity
8
0
100
AcDbLine
10
8.6703032943417337
20
6.4286260979836483
30
0
11
8.9573676631146366
21
6.3840315259866447
31
0
0
LINE
5
492
100
AcDbEntity
8
0
100
AcDbLine
10
8.9573676631146366
20
6.3840315259866447
30
0
11
8.9390730740604631
21
6.1302126216528352
31
0
0
SPLINE
5
493
100
AcDbEntity
8
0
100
AcDbSpline
70
1064
71
3
72
8
73
4
74
0
42
0.000000001
43
0.0000000001
44
0.0000000001
40
0
40
0
40
0
40
0
40
1
40
1
40
1
40
1
10
8.9390730740604631
20
6.1302126216528361
30
0
10
8.9290111599844852
20
5.9906127957690778
30
0
10
8.9057950780921171
20
5.8757940821040808
30
0
10
8.8874815855817531
20
5.8750608038500287
30
0
0
SPLINE
5
494
100
AcDbEntity
8
0
100
AcDbSpline
70
1064
71
3
72
8
73
4
74
0
42
0.000000001
43
0.0000000001
44
0.0000000001
40
0
40
0
40
0
40
0
40
1
40
1
40
1
40
1
10
8.8874815855817531
20
5.8750608038500287
30
0
10
8.8691685326866505
20
5.8743292840570192
30
0
10
8.8327398141482867
20
5.9363792195764287
30
0
10
8.8065295127185426
20
6.0129522848325623
30
0
0
SPLINE
5
495
100
AcDbEntity
8
0
100
AcDbSpline
70
1064
71
3
72
8
73
4
74
0
42
0.000000001
43
0.0000000001
44
0.0000000001
40
0
40
0
40
0
40
0
40
1
40
1
40
1
40
1
10
8.8065295127185426
20
6.0129522848325623
30
0
10
8.7803192112887967
20
6.0895253500886941
30
0
10
8.7237671042137332
20
6.1807754104226253
30
0
10
8.6808571378939039
20
6.2157300989934603
30
0
0
SPLINE
5
496
100
AcDbEntity
8
0
100
AcDbSpline
70
1064
71
3
72
8
73
4
74
0
42
0.000000001
43
0.0000000001
44
0.0000000001
40
0
40
0
40
0
40
0
40
1
40
1
40
1
40
1
10
8.6808571378939039
20
6.2157300989934603
30
0
10
8.488945733735191
20
6.3720643193728597
30
0
10
8.0081134655596564
20
6.3911515347412164
30
0
10
7.740492840131151
20
6.2530587099695003
30
0
0
SPLINE
5
497
100
AcDbEntity
8
0
100
AcDbSpline
70
1064
71
3
72
8
73
4
74
0
42
0.000000001
43
0.0000000001
44
0.0000000001
40
0
40
0
40
0
40
0
40
1
40
1
40
1
40
1
10
7.740492840131151
20
6.2530587099695003
30
0
10
7.4784522512006522
20
6.1178462443827684
30
0
10
7.3456242587853682
20
5.8088380402805848
30
0
10
7.3744480729371373
20
5.4015019701548814
30
0
0
SPLINE
5
498
100
AcDbEntity
8
0
100
AcDbSpline
70
1064
71
3
72
8
73
4
74
0
42
0.000000001
43
0.0000000001
44
0.0000000001
40
0
40
0
40
0
40
0
40
1
40
1
40
1
40
1
10
7.3744480729371373
20
5.4015019701548814
30
0
10
7.4031180217478285
20
4.99633935787572
30
0
10
7.6176586214265107
20
4.6388257644215907
30
0
10
7.9267490335823565
20
4.481139287501744
30
0
0
SPLINE
5
499
100
AcDbEntity
8
0
100
AcDbSpline
70
1064
71
3
72
8
73
4
74
0
42
0.000000001
43
0.0000000001
44
0.0000000001
40
0
40
0
40
0
40
0
40
1
40
1
40
1
40
1
10
7.9267490335823565
20
4.481139287501744
30
0
10
8.1016587571672112
20
4.3919079404427563
30
0
10
8.4413314445157184
20
4.3549468478242641
30
0
10
8.5823257300049018
20
4.4098037984559086
30
0
0
LINE
5
500
100
AcDbEntity
8
0
100
AcDbLine
10
8.5823257300049018
20
4.4098037984559086
30
0
11
8.6829466292257429
21
4.4489524166092718
31
0
0
LINE
5
501
100
AcDbEntity
8
0
100
AcDbLine
10
8.6829466292257429
20
4.4489524166092718
30
0
11
8.6829466292257429
21
4.8349627504615631
31
0
0
LINE
5
502
100
AcDbEntity
8
0
100
AcDbLine
10
8.6829466292257429
20
4.8349627504615631
30
0
11
8.6829466292257429
21
5.220973084313858
31
0
0
LINE
5
503
100
AcDbEntity
8
0
100
AcDbLine
10
8.6829466292257429
20
5.220973084313858
30
0
11
8.5717490264592016
21
5.2432123410980083
31
0
0
SPLINE
5
504
100
AcDbEntity
8
0
100
AcDbSpline
70
1064
71
3
72
8
73
4
74
0
42
0.000000001
43
0.0000000001
44
0.0000000001
40
0
40
0
40
0
40
0
40
1
40
1
40
1
40
1
10
8.5717490264592016
20
5.24321234109801
30
0
10
8.3520420682423797
20
5.2871536448183205
30
0
10
8.4835837464062536
20
5.3470802386308556
30
0
10
8.8231170757172688
20
5.3577268410029308
30
0
0
SPLINE
5
505
100
AcDbEntity
8
0
100
AcDbSpline
70
1064
71
3
72
8
73
4
74
0
42
0.000000001
43
0.0000000001
44
0.0000000001
40
0
40
0
40
0
40
0
40
1
40
1
40
1
40
1
10
9.1586099011715785
20
5.3206663953356284
30
0
10
9.1586099011715785
20
5.2944969781250846
30
0
10
9.1215630835773407
20
5.2568325010902326
30
0
10
9.0762835910049109
20
5.2369671667112847
30
0
0
SPLINE
5
506
100
AcDbEntity
8
0
100
AcDbSpline
70
1064
71
3
72
8
73
4
74
0
42
0.000000001
43
0.0000000001
44
0.0000000001
40
0
40
0
40
0
40
0
40
1
40
1
40
1
40
1
10
9.0762835910049109
20
5.2369671667112847
30
0
10
8.99922387165571
20
5.2031598739696294
30
0
10
8.9932912637190032
20
5.1755195040983786
30
0
10
8.9835454330151254
20
4.8048948251233634
30
0
0
LINE
5
507
100
AcDbEntity
8
0
100
AcDbLine
10
8.9835454330151254
20
4.8048948251233625
30
0
11
8.9731340248072673
21
4.40894039408483
31
0
0
LINE
5
508
100
AcDbEntity
8
0
100
AcDbLine
10
8.9731340248072673
20
4.40894039408483
30
0
11
8.8150140872408418
21
4.3389976061833773
31
0
0
SPLINE
5
509
100
AcDbEntity
8
0
100
AcDbSpline
70
1064
71
3
72
8
73
4
74
0
42
0.000000001
43
0.0000000001
44
0.0000000001
40
0
40
0
40
0
40
0
40
1
40
1
40
1
40
1
10
11.22509572682794
20
4.2834706818951549
30
0
10
11.22509572682794
20
4.3096629590992288
30
0
10
11.25802642674071
20
4.3516585256777951
30
0
10
11.298274962275149
20
4.3767939677962966
30
0
0
SPLINE
5
510
100
AcDbEntity
8
0
100
AcDbSpline
70
1064
71
3
72
8
73
4
74
0
42
0.000000001
43
0.0000000001
44
0.0000000001
40
0
40
0
40
0
40
0
40
1
40
1
40
1
40
1
10
11.371454197722363
20
5.4283958733142716
30
0
10
11.371454197722363
20
6.2087745063462147
30
0
10
11.381708663282319
20
6.4342760333080333
30
0
10
11.417190890165424
20
6.4342021779443153
30
0
0
SPLINE
5
511
100
AcDbEntity
8
0
100
AcDbSpline
70
1064
71
3
72
8
73
4
74
0
42
0.000000001
43
0.0000000001
44
0.0000000001
40
0
40
0
40
0
40
0
40
1
40
1
40
1
40
1
10
11.417190890165424
20
6.4342021779443153
30
0
10
11.442345675355375
20
6.4341652502624589
30
0
10
11.792232823275159
20
6.089249271705274
30
0
10
12.194717299389042
20
5.6677575902003943
30
0
0
LINE
5
512
100
AcDbEntity
8
0
100
AcDbLine
10
12.194717299389042
20
5.6677575902003943
30
0
11
12.926507016169598
21
4.9014079593526807
31
0
0
LINE
5
513
100
AcDbEntity
8
0
100
AcDbLine
10
12.926507016169598
20
4.9014079593526807
30
0
11
12.955442492597465
21
5.5855266765451974
31
0
0
SPLINE
5
514
100
AcDbEntity
8
0
100
AcDbSpline
70
1064
71
3
72
8
73
4
74
0
42
0.000000001
43
0.0000000001
44
0.0000000001
40
0
40
0
40
0
40
0
40
1
40
1
40
1
40
1
10
12.955442492597463
20
5.5855266765451965
30
0
10
12.98525192416265
20
6.2903169825039074
30
0
10
12.967545100711396
20
6.4342971348405236
30
0
10
12.851063762132236
20
6.4342971348405236
30
0
0
SPLINE
5
515
100
AcDbEntity
8
0
100
AcDbSpline
70
1064
71
3
72
8
73
4
74
0
42
0.000000001
43
0.0000000001
44
0.0000000001
40
0
40
0
40
0
40
0
40
1
40
1
40
1
40
1
10
12.851063762132236
20
6.4342971348405236
30
0
10
12.818768745885748
20
6.4342971348405236
30
0
10
12.799206746036354
20
6.4548781628631149
30
0
10
12.807591088279324
20
6.4800338272835871
30
0
0
SPLINE
5
516
100
AcDbEntity
8
0
100
AcDbSpline
70
1064
71
3
72
8
73
4
74
0
42
0.000000001
43
0.0000000001
44
0.0000000001
40
0
40
0
40
0
40
0
40
1
40
1
40
1
40
1
10
12.807591088279324
20
6.4800338272835871
30
0
10
12.818057448394708
20
6.5114337868602616
30
0
10
12.91268375392715
20
6.5257705197266489
30
0
10
13.109454665172366
20
6.5257705197266489
30
0
0
SPLINE
5
517
100
AcDbEntity
8
0
100
AcDbSpline
70
1064
71
3
72
8
73
4
74
0
42
0.000000001
43
0.0000000001
44
0.0000000001
40
0
40
0
40
0
40
0
40
1
40
1
40
1
40
1
10
13.109454665172366
20
6.5257705197266489
30
0
10
13.306224697187062
20
6.5257705197266489
30
0
10
13.400851881950024
20
6.5114329076297404
30
0
10
13.411318242065409
20
6.4800338272835871
30
0
0
SPLINE
5
518
100
AcDbEntity
8
0
100
AcDbSpline
70
1064
71
3
72
8
73
4
74
0
42
0.000000001
43
0.0000000001
44
0.0000000001
40
0
40
0
40
0
40
0
40
1
40
1
40
1
40
1
10
13.411318242065409
20
6.4800338272835871
30
0
10
13.419703463538898
20
6.4548781628631149
30
0
10
13.401073448041178
20
6.4342971348405236
30
0
10
13.369917914549184
20
6.4342971348405236
30
0
0
SPLINE
5
519
100
AcDbEntity
8
0
100
AcDbSpline
70
1064
71
3
72
8
73
4
74
0
42
0.000000001
43
0.0000000001
44
0.0000000001
40
0
40
0
40
0
40
0
40
1
40
1
40
1
40
1
10
12.45360496767322
20
5.0449317910491898
30
0
10
12.032515094516187
20
5.4870950613202645
30
0
10
11.674046656716854
20
5.8488658889543927
30
0
10
11.657009806922179
20
5.8488658889543927
30
0
0
SPLINE
5
520
100
AcDbEntity
8
0
100
AcDbSpline
70
1064
71
3
72
8
73
4
74
0
42
0.000000001
43
0.0000000001
44
0.0000000001
40
0
40
0
40
0
40
0
40
1
40
1
40
1
40
1
10
11.657009806922179
20
5.8488658889543927
30
0
10
11.639972957127503
20
5.8488658889543927
30
0
10
11.630497489808661
20
5.5236763263539252
30
0
10
11.635953994418546
20
5.1262236865085518
30
0
0
SPLINE
5
521
100
AcDbEntity
8
0
100
AcDbSpline
70
1064
71
3
72
8
73
4
74
0
42
0.000000001
43
0.0000000001
44
0.0000000001
40
0
40
0
40
0
40
0
40
1
40
1
40
1
40
1
10
11.635953994418546
20
5.1262236865085518
30
0
10
11.645703781659767
20
4.4160146828523361
30
0
10
11.647293430440735
20
4.4029581096237171
30
0
10
11.728338262123852
20
4.3674037858379355
30
0
0
SPLINE
5
522
100
AcDbEntity
8
0
100
AcDbSpline
70
1064
71
3
72
8
73
4
74
0
42
0.000000001
43
0.0000000001
44
0.0000000001
40
0
40
0
40
0
40
0
40
1
40
1
40
1
40
1
10
11.728338262123852
20
4.3674037858379355
30
0
10
11.875710485808348
20
4.3027504487474877
30
0
10
11.792275026340141
20
4.2574489754120455
30
0
10
11.505727645113261
20
4.2465377246533151
30
0
0
SPLINE
5
523
100
AcDbEntity
8
0
100
AcDbSpline
70
1064
71
3
72
8
73
4
74
0
42
0.000000001
43
0.0000000001
44
0.0000000001
40
0
40
0
40
0
40
0
40
1
40
1
40
1
40
1
10
11.505727645113261
20
4.2465377246533151
30
0
10
11.294216434192775
20
4.2384839730860318
30
0
10
11.22509572682794
20
4.247580492050564
30
0
10
11.22509572682794
20
4.2834706818951549
30
0
0
LINE
5
524
100
AcDbEntity
8
0
100
AcDbLine
10
13.224340200356917
20
4.7165497424289846
30
0
11
13.265009887310651
21
4.819553356360232
31
0
0
LINE
5
525
100
AcDbEntity
8
0
100
AcDbLine
10
13.265009887310651
20
4.819553356360232
30
0
11
13.33167490383188
21
4.6662454474322077
31
0
0
SPLINE
5
526
100
AcDbEntity
8
0
100
AcDbSpline
70
1064
71
3
72
8
73
4
74
0
42
0.000000001
43
0.0000000001
44
0.0000000001
40
0
40
0
40
0
40
0
40
1
40
1
40
1
40
1
10
13.33167490383188
20
4.6662454474322068
30
0
10
13.422651523473954
20
4.4570290281700835
30
0
10
13.580506812653725
20
4.3745343453587493
30
0
10
13.777140563937751
20
4.4334480656117323
30
0
0
SPLINE
5
527
100
AcDbEntity
8
0
100
AcDbSpline
70
1064
71
3
72
8
73
4
74
0
42
0.000000001
43
0.0000000001
44
0.0000000001
40
0
40
0
40
0
40
0
40
1
40
1
40
1
40
1
10
13.777140563937751
20
4.4334480656117323
30
0
10
13.980343046440023
20
4.494329503769471
30
0
10
14.06181870107816
20
4.5891896846203508
30
0
10
14.06181870107816
20
4.7648933533651681
30
0
0
SPLINE
5
528
100
AcDbEntity
8
0
100
AcDbSpline
70
1064
71
3
72
8
73
4
74
0
42
0.000000001
43
0.0000000001
44
0.0000000001
40
0
40
0
40
0
40
0
40
1
40
1
40
1
40
1
10
14.06181870107816
20
4.7648933533651681
30
0
10
14.06181870107816
20
4.9015380854697082
30
0
10
14.034675975681482
20
4.9398215407909509
30
0
10
13.661448774365949
20
5.329597618962314
30
0
0
SPLINE
5
529
100
AcDbEntity
8
0
100
AcDbSpline
70
1064
71
3
72
8
73
4
74
0
42
0.000000001
43
0.0000000001
44
0.0000000001
40
0
40
0
40
0
40
0
40
1
40
1
40
1
40
1
10
13.661448774365949
20
5.329597618962314
30
0
10
13.358678710806327
20
5.6457917741081021
30
0
10
13.255255703916827
20
5.7787560472540571
30
0
10
13.237193671335312
20
5.8750344269344152
30
0
0
SPLINE
5
530
100
AcDbEntity
8
0
100
AcDbSpline
70
1064
71
3
72
8
73
4
74
0
42
0.000000001
43
0.0000000001
44
0.0000000001
40
0
40
0
40
0
40
0
40
1
40
1
40
1
40
1
10
14.146166801826594
20
6.4453024632649436
30
0
10
14.320925297761931
20
6.396774213919465
30
0
10
14.341414006579878
20
6.3437662850723182
30
0
10
14.252445549446502
20
6.17034861568066
30
0
0
LINE
5
531
100
AcDbEntity
8
0
100
AcDbLine
10
14.252445549446504
20
6.1703486156806608
30
0
11
14.181719367151334
21
6.0324887869968649
31
0
0
LINE
5
532
100
AcDbEntity
8
0
100
AcDbLine
10
14.181719367151334
20
6.0324887869968649
30
0
11
14.130915669218943
21
6.1384448570157666
31
0
0
SPLINE
5
533
100
AcDbEntity
8
0
100
AcDbSpline
70
1064
71
3
72
8
73
4
74
0
42
0.000000001
43
0.0000000001
44
0.0000000001
40
0
40
0
40
0
40
0
40
1
40
1
40
1
40
1
10
14.130915669218943
20
6.1384448570157693
30
0
10
14.065407720062622
20
6.2750676083572969
30
0
10
13.929279975504102
20
6.34522932465834
30
0
10
13.773710685677491
20
6.322551331844485
30
0
0
SPLINE
5
534
100
AcDbEntity
8
0
100
AcDbSpline
70
1064
71
3
72
8
73
4
74
0
42
0.000000001
43
0.0000000001
44
0.0000000001
40
0
40
0
40
0
40
0
40
1
40
1
40
1
40
1
10
13.773710685677491
20
6.322551331844485
30
0
10
13.6175531906327
20
6.2997871744396265
30
0
10
13.512974874839335
20
6.2063873954832047
30
0
10
13.512974874839335
20
6.0896853700434148
30
0
0
SPLINE
5
535
100
AcDbEntity
8
0
100
AcDbSpline
70
1064
71
3
72
8
73
4
74
0
42
0.000000001
43
0.0000000001
44
0.0000000001
40
0
40
0
40
0
40
0
40
1
40
1
40
1
40
1
10
13.512974874839335
20
6.0896853700434148
30
0
10
13.512974874839335
20
5.943210840720293
30
0
10
13.644195633863244
20
5.7716738454118675
30
0
10
13.949409958269705
20
5.519164115323
30
0
0
SPLINE
5
536
100
AcDbEntity
8
0
100
AcDbSpline
70
1064
71
3
72
8
73
4
74
0
42
0.000000001
43
0.0000000001
44
0.0000000001
40
0
40
0
40
0
40
0
40
1
40
1
40
1
40
1
10
13.949409958269705
20
5.519164115323
30
0
10
14.405746424530365
20
5.1416286844572818
30
0
10
14.496133959723737
20
4.8507888998295838
30
0
10
14.251248037477655
20
4.5479449809062462
30
0
0
SPLINE
5
537
100
AcDbEntity
8
0
100
AcDbSpline
70
1064
71
3
72
8
73
4
74
0
42
0.000000001
43
0.0000000001
44
0.0000000001
40
0
40
0
40
0
40
0
40
1
40
1
40
1
40
1
10
6.0201994159400325
20
6.4520707798113328
30
0
10
5.6235576464421406
20
6.6625471364092563
30
0
10
5.456347784140088
20
7.006226037624173
30
0
10
5.485289854796858
20
7.5515081010246741
30
0
0
SPLINE
5
538
100
AcDbEntity
8
0
100
AcDbSpline
70
1064
71
3
72
8
73
4
74
0
42
0.000000001
43
0.0000000001
44
0.0000000001
40
0
40
0
40
0
40
0
40
1
40
1
40
1
40
1
10
5.485289854796858
20
7.5515081010246741
30
0
10
5.5099604037776722
20
8.0163115571972252
30
0
10
5.6971285790862103
20
8.3138185468614587
30
0
10
6.0802673460587284
20
8.4972357049621454
30
0
0
SPLINE
5
539
100
AcDbEntity
8
0
100
AcDbSpline
70
1064
71
3
72
8
73
4
74
0
42
0.000000001
43
0.0000000001
44
0.0000000001
40
0
40
0
40
0
40
0
40
1
40
1
40
1
40
1
10
7.0604029769909493
20
8.5266705843256254
30
0
10
7.4700424112725896
20
8.383181042619416
30
0
10
7.7204868288689301
20
7.9925266131581285
30
0
10
7.7219283273072001
20
7.4947942155338492
30
0
0
SPLINE
5
540
100
AcDbEntity
8
0
100
AcDbSpline
70
1064
71
3
72
8
73
4
74
0
42
0.000000001
43
0.0000000001
44
0.0000000001
40
0
40
0
40
0
40
0
40
1
40
1
40
1
40
1
10
7.116524261110996
20
6.4440504390038278
30
0
10
6.9179696109474254
20
6.3420500270964091
30
0
10
6.8563373099252267
20
6.3290224684749647
30
0
10
6.5723451923983918
20
6.3290224684749647
30
0
0
SPLINE
5
541
100
AcDbEntity
8
0
100
AcDbSpline
70
1064
71
3
72
8
73
4
74
0
42
0.000000001
43
0.0000000001
44
0.0000000001
40
0
40
0
40
0
40
0
40
1
40
1
40
1
40
1
10
9.7359851974141272
20
6.3955028465868997
30
0
10
9.8847008853338636
20
6.4681519060302852
30
0
10
9.9819345489746887
20
6.485627491854661
30
0
10
10.239112113896601
20
6.4859299471536964
30
0
0
SPLINE
5
542
100
AcDbEntity
8
0
100
AcDbSpline
70
1064
71
3
72
8
73
4
74
0
42
0.000000001
43
0.0000000001
44
0.0000000001
40
0
40
0
40
0
40
0
40
1
40
1
40
1
40
1
10
10.239112113896601
20
6.4859299471536964
30
0
10
10.661587214738597
20
6.48639066394641
30
0
10
10.896951070448253
20
6.3957534272852277
30
0
10
11.118676302324758
20
6.1470815384181066
30
0
0
SPLINE
5
543
100
AcDbEntity
8
0
100
AcDbSpline
70
1064
71
3
72
8
73
4
74
0
42
0.000000001
43
0.0000000001
44
0.0000000001
40
0
40
0
40
0
40
0
40
1
40
1
40
1
40
1
10
11.118676302324758
20
6.1470815384181066
30
0
10
11.324687047109336
20
5.9160329461027965
30
0
10
11.383200717475518
20
5.7404699542412496
30
0
10
11.383078504433174
20
5.353775579044048
30
0
0
SPLINE
5
544
100
AcDbEntity
8
0
100
AcDbSpline
70
1064
71
3
72
8
73
4
74
0
42
0.000000001
43
0.0000000001
44
0.0000000001
40
0
40
0
40
0
40
0
40
1
40
1
40
1
40
1
10
11.280768603382556
20
4.8273503726155447
30
0
10
11.15847467183273
20
4.5651286621978366
30
0
10
10.913543029599584
20
4.3271051341638307
30
0
10
10.680158321791451
20
4.2436819839229063
30
0
0
SPLINE
5
545
100
AcDbEntity
8
0
100
AcDbSpline
70
1064
71
3
72
8
73
4
74
0
42
0.000000001
43
0.0000000001
44
0.0000000001
40
0
40
0
40
0
40
0
40
1
40
1
40
1
40
1
10
10.680158321791451
20
4.2436819839229063
30
0
10
10.415197368687293
20
4.1489712722605017
30
0
10
9.9621725241818915
20
4.1635295712180422
30
0
10
9.7359851974141272
20
4.2740224707224437
30
0
0
SPLINE
5
546
100
AcDbEntity
8
0
100
AcDbSpline
70
1064
71
3
72
8
73
4
74
0
42
0.000000001
43
0.0000000001
44
0.0000000001
40
0
40
0
40
0
40
0
40
1
40
1
40
1
40
1
10
10.377695109683463
20
5.37030862975051
30
0
10
10.377695109683463
20
5.9923299329755082
30
0
10
10.364578309164195
20
6.3399302023116144
30
0
10
10.341105491959857
20
6.3399302023116144
30
0
0
SPLINE
5
547
100
AcDbEntity
8
0
100
AcDbSpline
70
1064
71
3
72
8
73
4
74
0
42
0.000000001
43
0.0000000001
44
0.0000000001
40
0
40
0
40
0
40
0
40
1
40
1
40
1
40
1
10
10.341105491959857
20
6.3399302023116144
30
0
10
10.317656413979574
20
6.3399302023116144
30
0
10
10.304515874236253
20
6.0004610568285903
30
0
10
10.304515874236253
20
5.3947011220792342
30
0
0
SPLINE
5
548
100
AcDbEntity
8
0
100
AcDbSpline
70
1064
71
3
72
8
73
4
74
0
42
0.000000001
43
0.0000000001
44
0.0000000001
40
0
40
0
40
0
40
0
40
1
40
1
40
1
40
1
10
10.304515874236253
20
5.3947011220792342
30
0
10
10.304515874236253
20
4.5619282631034128
30
0
10
10.314407657206525
20
4.4006861779588862
30
0
10
10.365498863519102
20
4.4006861779588862
30
0
0
SPLINE
5
549
100
AcDbEntity
8
0
100
AcDbSpline
70
1064
71
3
72
8
73
4
74
0
42
0.000000001
43
0.0000000001
44
0.0000000001
40
0
40
0
40
0
40
0
40
1
40
1
40
1
40
1
10
10.365498863519102
20
4.4006861779588862
30
0
10
10.372206513159581
20
4.4006861779588862
30
0
10
10.377695109683463
20
4.8370157537268037
30
0
10
10.377695109683463
20
5.37030862975051
30
0
0
SPLINE
5
550
100
AcDbEntity
8
0
100
AcDbSpline
70
1064
71
3
72
8
73
4
74
0
42
0.000000001
43
0.0000000001
44
0.0000000001
40
0
40
0
40
0
40
0
40
1
40
1
40
1
40
1
10
10.194747460680695
20
5.3916519506343281
30
0
10
10.194747460680695
20
6.1388800761233879
30
0
10
10.184820508489603
20
6.3427235176750694
30
0
10
10.149010768237634
20
6.3308020310483464
30
0
0
SPLINE
5
551
100
AcDbEntity
8
0
100
AcDbSpline
70
1064
71
3
72
8
73
4
74
0
42
0.000000001
43
0.0000000001
44
0.0000000001
40
0
40
0
40
0
40
0
40
1
40
1
40
1
40
1
10
10.149010768237634
20
6.3308020310483464
30
0
10
10.114451733400998
20
6.3192972996883165
30
0
10
10.100874655704276
20
6.0973935840161619
30
0
10
10.093457027418534
20
5.4228532041133848
30
0
0
SPLINE
5
552
100
AcDbEntity
8
0
100
AcDbSpline
70
1064
71
3
72
8
73
4
74
0
42
0.000000001
43
0.0000000001
44
0.0000000001
40
0
40
0
40
0
40
0
40
1
40
1
40
1
40
1
10
10.093457027418534
20
5.4228532041133848
30
0
10
10.088058112407738
20
4.931856591506234
30
0
10
10.091659440619482
20
4.5092394949351862
30
0
10
10.101455827078288
20
4.4837031236993639
30
0
0
SPLINE
5
553
100
AcDbEntity
8
0
100
AcDbSpline
70
1064
71
3
72
8
73
4
74
0
42
0.000000001
43
0.0000000001
44
0.0000000001
40
0
40
0
40
0
40
0
40
1
40
1
40
1
40
1
10
10.101455827078288
20
4.4837031236993639
30
0
10
10.111254851228656
20
4.4581685109245806
30
0
10
10.136254012616485
20
4.4372762352977508
30
0
10
10.157009567897388
20
4.4372762352977508
30
0
0
SPLINE
5
554
100
AcDbEntity
8
0
100
AcDbSpline
70
1064
71
3
72
8
73
4
74
0
42
0.000000001
43
0.0000000001
44
0.0000000001
40
0
40
0
40
0
40
0
40
1
40
1
40
1
40
1
10
10.157009567897388
20
4.4372762352977508
30
0
10
10.181969163911798
20
4.4372762352977508
30
0
10
10.194747460680695
20
4.7604338961654689
30
0
10
10.194747460680695
20
5.3916519506343281
30
0
0
SPLINE
5
555
100
AcDbEntity
8
0
100
AcDbSpline
70
1064
71
3
72
8
73
4
74
0
42
0.000000001
43
0.0000000001
44
0.0000000001
40
0
40
0
40
0
40
0
40
1
40
1
40
1
40
1
10
10.725295379019567
20
4.5202034995251452
30
0
10
10.955607176158745
20
4.6488067892896874
30
0
10
11.080213483977344
20
4.9316086484994708
30
0
10
11.080213483977344
20
5.3257131785229861
30
0
0
SPLINE
5
556
100
AcDbEntity
8
0
100
AcDbSpline
70
1064
71
3
72
8
73
4
74
0
42
0.000000001
43
0.0000000001
44
0.0000000001
40
0
40
0
40
0
40
0
40
1
40
1
40
1
40
1
10
11.080213483977344
20
5.3257131785229861
30
0
10
11.080213483977344
20
5.7799553176839433
30
0
10
10.951445778105477
20
6.0406392539213947
30
0
10
10.624674479798728
20
6.2479266414216594
30
0
0
LINE
5
557
100
AcDbEntity
8
0
100
AcDbLine
10
10.624674479798728
20
6.2479266414216594
30
0
11
10.524053580577887
21
6.311755260283932
31
0
0
LINE
5
558
100
AcDbEntity
8
0
100
AcDbLine
10
10.524053580577887
20
6.311755260283932
30
0
11
10.524053580577887
21
5.3745148685603219
31
0
0
SPLINE
5
559
100
AcDbEntity
8
0
100
AcDbSpline
70
1064
71
3
72
8
73
4
74
0
42
0.000000001
43
0.0000000001
44
0.0000000001
40
0
40
0
40
0
40
0
40
1
40
1
40
1
40
1
10
10.524053580577887
20
5.3745148685603228
30
0
10
10.524053580577887
20
4.8590325651892821
30
0
10
10.536402373237546
20
4.437545279837007
30
0
10
10.551495683966778
20
4.4378758705126957
30
0
0
SPLINE
5
560
100
AcDbEntity
8
0
100
AcDbSpline
70
1064
71
3
72
8
73
4
74
0
42
0.000000001
43
0.0000000001
44
0.0000000001
40
0
40
0
40
0
40
0
40
1
40
1
40
1
40
1
10
10.551495683966778
20
4.4378758705126957
30
0
10
10.566588994696005
20
4.4382222873377506
30
0
10
10.644798747565948
20
4.4752537183978811
30
0
10
10.725295379019567
20
4.5202034995251452
30
0
0
SPLINE
5
561
100
AcDbEntity
8
0
100
AcDbSpline
70
1064
71
3
72
8
73
4
74
0
42
0.000000001
43
0.0000000001
44
0.0000000001
40
0
40
0
40
0
40
0
40
1
40
1
40
1
40
1
10
9.9936968948772105
20
6.2970501298294783
30
0
10
9.9542598891131409
20
6.3364871355935479
30
0
10
9.7235251820936295
20
6.1944113965642149
30
0
10
9.6362993598517779
20
6.0769813682534961
30
0
0
SPLINE
5
562
100
AcDbEntity
8
0
100
AcDbSpline
70
1064
71
3
72
8
73
4
74
0
42
0.000000001
43
0.0000000001
44
0.0000000001
40
0
40
0
40
0
40
0
40
1
40
1
40
1
40
1
10
9.6362993598517779
20
6.0769813682534961
30
0
10
9.5062866635629621
20
5.9019485523957771
30
0
10
9.4629573042848794
20
5.7425748321071985
30
0
10
9.4629573042848794
20
5.4393994432776518
30
0
0
SPLINE
5
563
100
AcDbEntity
8
0
100
AcDbSpline
70
1064
71
3
72
8
73
4
74
0
42
0.000000001
43
0.0000000001
44
0.0000000001
40
0
40
0
40
0
40
0
40
1
40
1
40
1
40
1
10
9.4629573042848794
20
5.4393994432776518
30
0
10
9.4629573042848794
20
5.0108413860799486
30
0
10
9.6315352492767463
20
4.6711656214246222
30
0
10
9.9203259871765432
20
4.5178243017368196
30
0
0
SPLINE
5
564
100
AcDbEntity
8
0
100
AcDbSpline
70
1064
71
3
72
8
73
4
74
0
42
0.000000001
43
0.0000000001
44
0.0000000001
40
0
40
0
40
0
40
0
40
1
40
1
40
1
40
1
10
9.9203259871765432
20
4.5178243017368196
30
0
10
9.9924558609976017
20
4.4795250202662071
30
0
10
9.9936454598917628
20
4.4918658998511827
30
0
10
10.003303367543598
20
5.3783069897950035
30
0
0
SPLINE
5
565
100
AcDbEntity
8
0
100
AcDbSpline
70
1064
71
3
72
8
73
4
74
0
42
0.000000001
43
0.0000000001
44
0.0000000001
40
0
40
0
40
0
40
0
40
1
40
1
40
1
40
1
10
10.003303367543598
20
5.3783069897950035
30
0
10
10.008690852557629
20
5.8729427375262766
30
0
10
10.004369434549641
20
6.2863771505417896
30
0
10
9.9936968948772105
20
6.2970501298294783
30
0
0
SPLINE
5
566
100
AcDbEntity
8
0
100
AcDbSpline
70
1064
71
3
72
8
73
4
74
0
42
0.000000001
43
0.0000000001
44
0.0000000001
40
0
40
0
40
0
40
0
40
1
40
1
40
1
40
1
10
2.0288930129074121
20
8.4856949251507761
30
0
10
2.0288930129074121
20
8.514178477091134
30
0
10
2.0695810537982604
20
8.5478688321735703
30
0
10
2.1193105518422963
20
8.5605631624277638
30
0
0
SPLINE
5
567
100
AcDbEntity
8
0
100
AcDbSpline
70
1064
71
3
72
8
73
4
74
0
42
0.000000001
43
0.0000000001
44
0.0000000001
40
0
40
0
40
0
40
0
40
1
40
1
40
1
40
1
10
2.1193105518422963
20
8.5605631624277638
30
0
10
2.1690400498863327
20
8.5732574926819574
30
0
10
2.2249510880081762
20
8.6127516484298567
30
0
10
2.2435574741856623
20
8.6483297114396898
30
0
0
SPLINE
5
568
100
AcDbEntity
8
0
100
AcDbSpline
70
1064
71
3
72
8
73
4
74
0
42
0.000000001
43
0.0000000001
44
0.0000000001
40
0
40
0
40
0
40
0
40
1
40
1
40
1
40
1
10
2.2435574741856623
20
8.6483297114396898
30
0
10
2.2621634207478878
20
8.6839068952190033
30
0
10
2.3207999635792986
20
9.1065565233193055
30
0
10
2.3738604264500425
20
9.5875518887563835
30
0
0
SPLINE
5
569
100
AcDbEntity
8
0
100
AcDbSpline
70
1064
71
3
72
8
73
4
74
0
42
0.000000001
43
0.0000000001
44
0.0000000001
40
0
40
0
40
0
40
0
40
1
40
1
40
1
40
1
10
2.3738604264500425
20
9.5875518887563835
30
0
10
2.4867203244193017
20
10.610626280807979
30
0
10
2.4961339158902685
20
10.666766907999476
30
0
10
2.5548211243804189
20
10.666766907999476
30
0
0
SPLINE
5
570
100
AcDbEntity
8
0
100
AcDbSpline
70
1064
71
3
72
8
73
4
74
0
42
0.000000001
43
0.0000000001
44
0.0000000001
40
0
40
0
40
0
40
0
40
1
40
1
40
1
40
1
10
2.5548211243804189
20
10.666766907999476
30
0
10
2.5792686785204859
20
10.666766907999476
30
0
10
2.6726352665247597
20
10.514160625026765
30
0
10
2.7623031515371483
20
10.327641541649946
30
0
0
SPLINE
5
571
100
AcDbEntity
8
0
100
AcDbSpline
70
1064
71
3
72
8
73
4
74
0
42
0.000000001
43
0.0000000001
44
0.0000000001
40
0
40
0
40
0
40
0
40
1
40
1
40
1
40
1
10
2.7623031515371483
20
10.327641541649946
30
0
10
2.8519710365495383
20
10.141122458273125
30
0
10
3.0423724172412925
20
9.7625548107764057
30
0
10
3.1854183596739825
20
9.4863770743076614
30
0
0
LINE
5
572
100
AcDbEntity
8
0
100
AcDbLine
10
3.1854183596739825
20
9.4863770743076614
30
0
11
3.4455010945671241
21
8.9842362148538655
31
0
0
LINE
5
573
100
AcDbEntity
8
0
100
AcDbLine
10
3.4455010945671241
20
8.9842362148538655
30
0
11
3.8921215690096913
21
9.8441087169308634
31
0
0
SPLINE
5
574
100
AcDbEntity
8
0
100
AcDbSpline
70
1064
71
3
72
8
73
4
74
0
42
0.000000001
43
0.0000000001
44
0.0000000001
40
0
40
0
40
0
40
0
40
1
40
1
40
1
40
1
10
3.8921215690096913
20
9.8441087169308616
30
0
10
4.1377632448400048
20
10.317038021573371
30
0
10
4.3500312534309646
20
10.703979460546817
30
0
10
4.3638286882768735
20
10.703976822855257
30
0
0
SPLINE
5
575
100
AcDbEntity
8
0
100
AcDbSpline
70
1064
71
3
72
8
73
4
74
0
42
0.000000001
43
0.0000000001
44
0.0000000001
40
0
40
0
40
0
40
0
40
1
40
1
40
1
40
1
10
4.3638286882768735
20
10.703976822855257
30
0
10
4.3776261231227824
20
10.703974185163695
30
0
10
4.4608685914917547
20
10.264380026473361
30
0
10
4.5488119757421037
20
9.7271015985004752
30
0
0
SPLINE
5
576
100
AcDbEntity
8
0
100
AcDbSpline
70
1064
71
3
72
8
73
4
74
0
42
0.000000001
43
0.0000000001
44
0.0000000001
40
0
40
0
40
0
40
0
40
1
40
1
40
1
40
1
10
4.7396126919458634
20
8.6675365021588249
30
0
10
4.7566097565594889
20
8.6220556657972125
30
0
10
4.8122621910045069
20
8.5741877185725901
30
0
10
4.8632845975288586
20
8.5611627976427087
30
0
0
SPLINE
5
577
100
AcDbEntity
8
0
100
AcDbSpline
70
1064
71
3
72
8
73
4
74
0
42
0.000000001
43
0.0000000001
44
0.0000000001
40
0
40
0
40
0
40
0
40
1
40
1
40
1
40
1
10
4.8632845975288586
20
8.5611627976427087
30
0
10
4.9143071139570242
20
8.5481396351738681
30
0
10
4.9560525394525232
20
8.514178477091134
30
0
10
4.9560525394525232
20
8.4856949251507761
30
0
0
SPLINE
5
578
100
AcDbEntity
8
0
100
AcDbSpline
70
1064
71
3
72
8
73
4
74
0
42
0.000000001
43
0.0000000001
44
0.0000000001
40
0
40
0
40
0
40
0
40
1
40
1
40
1
40
1
10
4.9560525394525232
20
8.4856949251507761
30
0
10
4.9560525394525232
20
8.4452907658142173
30
0
10
4.8836681283957937
20
8.433908247496527
30
0
10
4.6267470789782212
20
8.433908247496527
30
0
0
SPLINE
5
579
100
AcDbEntity
8
0
100
AcDbSpline
70
1064
71
3
72
8
73
4
74
0
42
0.000000001
43
0.0000000001
44
0.0000000001
40
0
40
0
40
0
40
0
40
1
40
1
40
1
40
1
10
4.6267470789782212
20
8.433908247496527
30
0
10
4.2733317987875195
20
8.433908247496527
30
0
10
4.2376089375013501
20
8.4573705139346202
30
0
10
4.3710539299343578
20
8.6018421561321663
30
0
0
LINE
5
580
100
AcDbEntity
8
0
100
AcDbLine
10
4.3710539299343569
20
8.6018421561321681
30
0
11
4.4446662413647964
21
8.681537368966401
31
0
0
LINE
5
581
100
AcDbEntity
8
0
100
AcDbLine
10
4.4446662413647964
20
8.681537368966401
30
0
11
4.3117778018512309
21
9.2491641968135099
31
0
0
SPLINE
5
582
100
AcDbEntity
8
0
100
AcDbSpline
70
1064
71
3
72
8
73
4
74
0
42
0.000000001
43
0.0000000001
44
0.0000000001
40
0
40
0
40
0
40
0
40
1
40
1
40
1
40
1
10
4.3117778018512309
20
9.2491641968135081
30
0
10
4.2386893469552547
20
9.5613587323217875
30
0
10
4.1653046463257963
20
9.8028921485934113
30
0
10
4.1487016418410549
20
9.785904535707882
30
0
0
SPLINE
5
583
100
AcDbEntity
8
0
100
AcDbSpline
70
1064
71
3
72
8
73
4
74
0
42
0.000000001
43
0.0000000001
44
0.0000000001
40
0
40
0
40
0
40
0
40
1
40
1
40
1
40
1
10
4.1487016418410549
20
9.785904535707882
30
0
10
4.1320980878372362
20
9.7689169228223509
30
0
10
3.9840679249639086
20
9.5038210078333041
30
0
10
3.8197453732631383
20
9.1968033816294099
30
0
0
SPLINE
5
584
100
AcDbEntity
8
0
100
AcDbSpline
70
1064
71
3
72
8
73
4
74
0
42
0.000000001
43
0.0000000001
44
0.0000000001
40
0
40
0
40
0
40
0
40
1
40
1
40
1
40
1
10
3.8197453732631383
20
9.1968033816294099
30
0
10
3.6554233985573967
20
8.8897848761949927
30
0
10
3.5002211325211636
20
8.6162254882161378
30
0
10
3.4748522272235309
20
8.5888928490270438
30
0
0
SPLINE
5
585
100
AcDbEntity
8
0
100
AcDbSpline
70
1064
71
3
72
8
73
4
74
0
42
0.000000001
43
0.0000000001
44
0.0000000001
40
0
40
0
40
0
40
0
40
1
40
1
40
1
40
1
10
3.4748522272235309
20
8.5888928490270438
30
0
10
3.4175047874528404
20
8.5271075618942866
30
0
10
3.3900563302496431
20
8.5657471055763104
30
0
10
2.9976515657607901
20
9.2606680489430193
30
0
0
SPLINE
5
586
100
AcDbEntity
8
0
100
AcDbSpline
70
1064
71
3
72
8
73
4
74
0
42
0.000000001
43
0.0000000001
44
0.0000000001
40
0
40
0
40
0
40
0
40
1
40
1
40
1
40
1
10
2.9976515657607901
20
9.2606680489430193
30
0
10
2.8391245444633988
20
9.5414089918128759
30
0
10
2.7016286622631602
20
9.7631808229069641
30
0
10
2.6921056065923978
20
9.7534952194937343
30
0
0
SPLINE
5
587
100
AcDbEntity
8
0
100
AcDbSpline
70
1064
71
3
72
8
73
4
74
0
42
0.000000001
43
0.0000000001
44
0.0000000001
40
0
40
0
40
0
40
0
40
1
40
1
40
1
40
1
10
2.6921056065923978
20
9.7534952194937343
30
0
10
2.667113534000638
20
9.7280766651476505
30
0
10
2.581545391001272
20
9.0046246913924808
30
0
10
2.5794825513445843
20
8.8013052712309872
30
0
0
SPLINE
5
588
100
AcDbEntity
8
0
100
AcDbSpline
70
1064
71
3
72
8
73
4
74
0
42
0.000000001
43
0.0000000001
44
0.0000000001
40
0
40
0
40
0
40
0
40
1
40
1
40
1
40
1
10
2.5794825513445843
20
8.8013052712309872
30
0
10
2.5783704346400356
20
8.6918102983672867
30
0
10
2.5977231226736568
20
8.6122232308870679
30
0
10
2.6326197270782381
20
8.5827672499910985
30
0
0
SPLINE
5
589
100
AcDbEntity
8
0
100
AcDbSpline
70
1064
71
3
72
8
73
4
74
0
42
0.000000001
43
0.0000000001
44
0.0000000001
40
0
40
0
40
0
40
0
40
1
40
1
40
1
40
1
10
2.6326197270782381
20
8.5827672499910985
30
0
10
2.6628057990176224
20
8.5572862702780625
30
0
10
2.687503988807924
20
8.5133704642428434
30
0
10
2.687503988807924
20
8.4851744206826716
30
0
0
SPLINE
5
590
100
AcDbEntity
8
0
100
AcDbSpline
70
1064
71
3
72
8
73
4
74
0
42
0.000000001
43
0.0000000001
44
0.0000000001
40
0
40
0
40
0
40
0
40
1
40
1
40
1
40
1
10
2.687503988807924
20
8.4851744206826716
30
0
10
2.687503988807924
20
8.445427925775407
30
0
10
2.6135125092155431
20
8.4339091267270483
30
0
10
2.358198583285529
20
8.4339091267270483
30
0
0
SPLINE
5
591
100
AcDbEntity
8
0
100
AcDbSpline
70
1064
71
3
72
8
73
4
74
0
42
0.000000001
43
0.0000000001
44
0.0000000001
40
0
40
0
40
0
40
0
40
1
40
1
40
1
40
1
10
2.358198583285529
20
8.4339091267270483
30
0
10
2.101276984348881
20
8.4339091267270483
30
0
10
2.0288931228112275
20
8.4452925242752581
30
0
10
2.0288930129074121
20
8.4856949251507761
30
0
0
SPLINE
5
592
100
AcDbEntity
8
0
100
AcDbSpline
70
1064
71
3
72
8
73
4
74
0
42
0.000000001
43
0.0000000001
44
0.0000000001
40
0
40
0
40
0
40
0
40
1
40
1
40
1
40
1
10
8.1078195254239738
20
8.5557608053250895
30
0
10
8.1078195254239738
20
8.5817939418049658
30
0
10
8.1489829003149392
20
8.6212054498839414
30
0
10
8.1992933499253589
20
8.6433435951582425
30
0
0
LINE
5
593
100
AcDbEntity
8
0
100
AcDbLine
10
8.1992933499253589
20
8.6433435951582442
30
0
11
8.2907671744267439
21
8.6835947683842445
31
0
0
LINE
5
594
100
AcDbEntity
8
0
100
AcDbLine
10
8.2907671744267439
20
8.6835947683842445
30
0
11
8.2907671744267439
21
9.6002057744066374
31
0
0
SPLINE
5
595
100
AcDbEntity
8
0
100
AcDbSpline
70
1064
71
3
72
8
73
4
74
0
42
0.000000001
43
0.0000000001
44
0.0000000001
40
0
40
0
40
0
40
0
40
1
40
1
40
1
40
1
10
8.2907671744267439
20
9.6002057744066374
30
0
10
8.2907671744267439
20
10.104342487141844
30
0
10
8.2807734007160985
20
10.541970686388462
30
0
10
8.2685578114802851
20
10.572712102305323
30
0
0
SPLINE
5
596
100
AcDbEntity
8
0
100
AcDbSpline
70
1064
71
3
72
8
73
4
74
0
42
0.000000001
43
0.0000000001
44
0.0000000001
40
0
40
0
40
0
40
0
40
1
40
1
40
1
40
1
10
8.2685578114802851
20
10.572712102305323
30
0
10
8.2563431014749948
20
10.603453518222183
30
0
10
8.2151797265840294
20
10.628605665720572
30
0
10
8.1770848662094213
20
10.628605665720572
30
0
0
SPLINE
5
597
100
AcDbEntity
8
0
100
AcDbSpline
70
1064
71
3
72
8
73
4
74
0
42
0.000000001
43
0.0000000001
44
0.0000000001
40
0
40
0
40
0
40
0
40
1
40
1
40
1
40
1
10
8.1078199650392335
20
10.681610077645638
30
0
10
8.1078199650392335
20
10.724568401644092
30
0
10
8.1667701733588132
20
10.734614489570705
30
0
10
8.4188306166517322
20
10.734614489570705
30
0
0
SPLINE
5
598
100
AcDbEntity
8
0
100
AcDbSpline
70
1064
71
3
72
8
73
4
74
0
42
0.000000001
43
0.0000000001
44
0.0000000001
40
0
40
0
40
0
40
0
40
1
40
1
40
1
40
1
10
8.4188306166517322
20
10.734614489570705
30
0
10
8.6708919391751724
20
10.734614489570705
30
0
10
8.7298412682642308
20
10.724568401644092
30
0
10
8.7298412682642308
20
10.681610077645638
30
0
0
SPLINE
5
599
100
AcDbEntity
8
0
100
AcDbSpline
70
1064
71
3
72
8
73
4
74
0
42
0.000000001
43
0.0000000001
44
0.0000000001
40
0
40
0
40
0
40
0
40
1
40
1
40
1
40
1
10
8.7298412682642308
20
10.681610077645638
30
0
10
8.7298412682642308
20
10.652457431279222
30
0
10
8.7051436829449127
20
10.628605665720572
30
0
10
8.6749570614864542
20
10.628605665720572
30
0
0
SPLINE
5
600
100
AcDbEntity
8
0
100
AcDbSpline
70
1064
71
3
72
8
73
4
74
0
42
0.000000001
43
0.0000000001
44
0.0000000001
40
0
40
0
40
0
40
0
40
1
40
1
40
1
40
1
10
8.6749570614864542
20
10.628605665720572
30
0
10
8.6293526932367186
20
10.628605665720572
30
0
10
8.620072854708674
20
10.559896438239306
30
0
10
8.620072854708674
20
10.222238507628402
30
0
0
LINE
5
601
100
AcDbEntity
8
0
100
AcDbLine
10
8.620072854708674
20
10.222238507628402
30
0
11
8.620072854708674
21
9.8158713495362306
31
0
0
LINE
5
602
100
AcDbEntity
8
0
100
AcDbLine
10
8.620072854708674
20
9.8158713495362306
30
0
11
9.1872099511558947
21
9.8158713495362289
31
0
0
LINE
5
603
100
AcDbEntity
8
0
100
AcDbLine
10
9.1872099511558947
20
9.8158713495362289
30
0
11
9.7543470476031136
21
9.8158713495362289
31
0
0
LINE
5
604
100
AcDbEntity
8
0
100
AcDbLine
10
9.7543470476031136
20
9.8158713495362289
30
0
11
9.7543470476031136
21
10.207878914768482
31
0
0
SPLINE
5
605
100
AcDbEntity
8
0
100
AcDbSpline
70
1064
71
3
72
8
73
4
74
0
42
0.000000001
43
0.0000000001
44
0.0000000001
40
0
40
0
40
0
40
0
40
1
40
1
40
1
40
1
10
9.7543470476031136
20
10.207878914768484
30
0
10
9.7543470476031136
20
10.570167609179153
30
0
10
9.7487982237885813
20
10.601287094219806
30
0
10
9.6811682517711599
20
10.618367905540504
30
0
0
SPLINE
5
606
100
AcDbEntity
8
0
100
AcDbSpline
70
1064
71
3
72
8
73
4
74
0
42
0.000000001
43
0.0000000001
44
0.0000000001
40
0
40
0
40
0
40
0
40
1
40
1
40
1
40
1
10
9.6811682517711599
20
10.618367905540504
30
0
10
9.6409197162367199
20
10.628532689587376
30
0
10
9.6079894559392116
20
10.658845920240779
30
0
10
9.6079894559392116
20
10.685731910325488
30
0
0
SPLINE
5
607
100
AcDbEntity
8
0
100
AcDbSpline
70
1064
71
3
72
8
73
4
74
0
42
0.000000001
43
0.0000000001
44
0.0000000001
40
0
40
0
40
0
40
0
40
1
40
1
40
1
40
1
10
9.6079894559392116
20
10.685731910325488
30
0
10
9.6079894559392116
20
10.723278570470599
30
0
10
9.6758748444228182
20
10.734614489570705
30
0
10
9.900705518497535
20
10.734614489570705
30
0
0
SPLINE
5
608
100
AcDbEntity
8
0
100
AcDbSpline
70
1064
71
3
72
8
73
4
74
0
42
0.000000001
43
0.0000000001
44
0.0000000001
40
0
40
0
40
0
40
0
40
1
40
1
40
1
40
1
10
9.900705518497535
20
10.734614489570705
30
0
10
10.12651301768047
20
10.734614489570705
30
0
10
10.193421581055864
20
10.72336297660056
30
0
10
10.193421581055864
20
10.685390768883554
30
0
0
SPLINE
5
609
100
AcDbEntity
8
0
100
AcDbSpline
70
1064
71
3
72
8
73
4
74
0
42
0.000000001
43
0.0000000001
44
0.0000000001
40
0
40
0
40
0
40
0
40
1
40
1
40
1
40
1
10
10.138537374278084
20
10.615826050105895
30
0
10
10.091597454867793
20
10.598431353489397
30
0
10
10.083653167500305
20
10.455213494014007
30
0
10
10.083653167500305
20
9.6264094816074799
30
0
0
SPLINE
5
610
100
AcDbEntity
8
0
100
AcDbSpline
70
1064
71
3
72
8
73
4
74
0
42
0.000000001
43
0.0000000001
44
0.0000000001
40
0
40
0
40
0
40
0
40
1
40
1
40
1
40
1
10
10.083653167500305
20
9.6264094816074799
30
0
10
10.083653167500305
20
8.7976054692009509
30
0
10
10.091597454867793
20
8.65438848895608
30
0
10
10.138537374278084
20
8.6369929131090633
30
0
0
SPLINE
5
611
100
AcDbEntity
8
0
100
AcDbSpline
70
1064
71
3
72
8
73
4
74
0
42
0.000000001
43
0.0000000001
44
0.0000000001
40
0
40
0
40
0
40
0
40
1
40
1
40
1
40
1
10
10.193421581055864
20
8.5625405518682474
30
0
10
10.193421581055864
20
8.5184559335731027
30
0
10
10.139170420252805
20
8.5084265510263783
30
0
10
9.900705518497535
20
8.5084265510263783
30
0
0
SPLINE
5
612
100
AcDbEntity
8
0
100
AcDbSpline
70
1064
71
3
72
8
73
4
74
0
42
0.000000001
43
0.0000000001
44
0.0000000001
40
0
40
0
40
0
40
0
40
1
40
1
40
1
40
1
10
9.900705518497535
20
8.5084265510263783
30
0
10
9.5956907794192183
20
8.5084265510263783
30
0
10
9.5282375327364068
20
8.549336267912194
30
0
10
9.6811686913864214
20
8.6415710664290248
30
0
0
SPLINE
5
613
100
AcDbEntity
8
0
100
AcDbSpline
70
1064
71
3
72
8
73
4
74
0
42
0.000000001
43
0.0000000001
44
0.0000000001
40
0
40
0
40
0
40
0
40
1
40
1
40
1
40
1
10
9.6811686913864214
20
8.6415710664290248
30
0
10
9.748683484205662
20
8.6822899902919026
30
0
10
9.7543474872183733
20
8.7239760677272713
30
0
10
9.7543474872183733
20
9.1801155863513504
30
0
0
LINE
5
614
100
AcDbEntity
8
0
100
AcDbLine
10
9.7543474872183715
20
9.1801155863513504
30
0
11
9.7543474872183733
21
9.6745244926083469
31
0
0
LINE
5
615
100
AcDbEntity
8
0
100
AcDbLine
10
9.7543474872183733
20
9.6745244926083469
30
0
11
9.1872103907711544
21
9.6745244926083469
31
0
0
LINE
5
616
100
AcDbEntity
8
0
100
AcDbLine
10
9.1872103907711544
20
9.6745244926083469
30
0
11
8.6200732943239355
21
9.6745244926083469
31
0
0
LINE
5
617
100
AcDbEntity
8
0
100
AcDbLine
10
8.6200732943239355
20
9.6745244926083469
30
0
11
8.6200732943239355
21
9.1610389217492418
31
0
0
SPLINE
5
618
100
AcDbEntity
8
0
100
AcDbSpline
70
1064
71
3
72
8
73
4
74
0
42
0.000000001
43
0.0000000001
44
0.0000000001
40
0
40
0
40
0
40
0
40
1
40
1
40
1
40
1
10
8.6200732943239355
20
9.1610389217492418
30
0
10
8.6200732943239355
20
8.7372049701378973
30
0
10
8.629655588151012
20
8.6440021388180561
30
0
10
8.6749575011017122
20
8.6272141112606668
30
0
0
SPLINE
5
619
100
AcDbEntity
8
0
100
AcDbSpline
70
1064
71
3
72
8
73
4
74
0
42
0.000000001
43
0.0000000001
44
0.0000000001
40
0
40
0
40
0
40
0
40
1
40
1
40
1
40
1
10
8.6749575011017122
20
8.6272141112606668
30
0
10
8.7051441225601742
20
8.6160276613490367
30
0
10
8.7298417078794923
20
8.5847235378990892
30
0
10
8.7298417078794923
20
8.557650271713527
30
0
0
SPLINE
5
620
100
AcDbEntity
8
0
100
AcDbSpline
70
1064
71
3
72
8
73
4
74
0
42
0.000000001
43
0.0000000001
44
0.0000000001
40
0
40
0
40
0
40
0
40
1
40
1
40
1
40
1
10
8.7298417078794923
20
8.557650271713527
30
0
10
8.7298417078794923
20
8.5194371548339181
30
0
10
8.6602756702560519
20
8.5084265510263783
30
0
10
8.4188310562669937
20
8.5084265510263783
30
0
0
SPLINE
5
621
100
AcDbEntity
8
0
100
AcDbSpline
70
1064
71
3
72
8
73
4
74
0
42
0.000000001
43
0.0000000001
44
0.0000000001
40
0
40
0
40
0
40
0
40
1
40
1
40
1
40
1
10
5.3990522876599876
20
8.4399265804089776
30
0
10
5.1194958881088013
20
8.516498766434589
30
0
10
4.8417216888225587
20
8.7381290414148847
30
0
10
4.7218481689917038
20
8.9802533005962477
30
0
0
SPLINE
5
622
100
AcDbEntity
8
0
100
AcDbSpline
70
1064
71
3
72
8
73
4
74
0
42
0.000000001
43
0.0000000001
44
0.0000000001
40
0
40
0
40
0
40
0
40
1
40
1
40
1
40
1
10
4.7190938694825935
20
10.153371018653456
30
0
10
4.8281426328571655
20
10.376009771040701
30
0
10
5.1010069891096093
20
10.607652723187833
30
0
10
5.3391607531644558
20
10.679763693552703
30
0
0
SPLINE
5
623
100
AcDbEntity
8
0
100
AcDbSpline
70
1064
71
3
72
8
73
4
74
0
42
0.000000001
43
0.0000000001
44
0.0000000001
40
0
40
0
40
0
40
0
40
1
40
1
40
1
40
1
10
6.567048927550859
20
10.407776369744404
30
0
10
6.7754533774273504
20
10.19070754270418
30
0
10
6.826092659252418
20
10.033902054765822
30
0
10
6.8256519449540436
20
9.607005743251765
30
0
0
SPLINE
5
624
100
AcDbEntity
8
0
100
AcDbSpline
70
1064
71
3
72
8
73
4
74
0
42
0.000000001
43
0.0000000001
44
0.0000000001
40
0
40
0
40
0
40
0
40
1
40
1
40
1
40
1
10
6.8256519449540436
20
9.607005743251765
30
0
10
6.8253061875518783
20
9.2680439137790387
30
0
10
6.8144342823589374
20
9.2044482910046845
30
0
10
6.727380569491463
20
9.0319168859776333
30
0
0
SPLINE
5
625
100
AcDbEntity
8
0
100
AcDbSpline
70
1064
71
3
72
8
73
4
74
0
42
0.000000001
43
0.0000000001
44
0.0000000001
40
0
40
0
40
0
40
0
40
1
40
1
40
1
40
1
10
6.727380569491463
20
9.0319168859776333
30
0
10
6.6119173798549795
20
8.8030804376517668
30
0
10
6.4185882164820489
20
8.6158570906280705
30
0
10
6.1875882016529946
20
8.5091730177382363
30
0
0
SPLINE
5
626
100
AcDbEntity
8
0
100
AcDbSpline
70
1064
71
3
72
8
73
4
74
0
42
0.000000001
43
0.0000000001
44
0.0000000001
40
0
40
0
40
0
40
0
40
1
40
1
40
1
40
1
10
5.6368839236329054
20
9.5250640964377915
30
0
10
5.6368839236329054
20
10.163600865758839
30
0
10
5.6243364248756258
20
10.489090245966779
30
0
10
5.6002945257169285
20
10.474231250171247
30
0
0
SPLINE
5
627
100
AcDbEntity
8
0
100
AcDbSpline
70
1064
71
3
72
8
73
4
74
0
42
0.000000001
43
0.0000000001
44
0.0000000001
40
0
40
0
40
0
40
0
40
1
40
1
40
1
40
1
10
5.6002945257169285
20
10.474231250171247
30
0
10
5.5774626675619956
20
10.460121358779135
30
0
10
5.5637051278009526
20
10.103890562654335
30
0
10
5.5637051278009526
20
9.526843659011174
30
0
0
SPLINE
5
628
100
AcDbEntity
8
0
100
AcDbSpline
70
1064
71
3
72
8
73
4
74
0
42
0.000000001
43
0.0000000001
44
0.0000000001
40
0
40
0
40
0
40
0
40
1
40
1
40
1
40
1
10
5.5637051278009526
20
9.526843659011174
30
0
10
5.5637051278009526
20
8.7121723979902885
30
0
10
5.5736575776771371
20
8.5532831337184732
30
0
10
5.6246874576609125
20
8.5532831337184732
30
0
0
SPLINE
5
629
100
AcDbEntity
8
0
100
AcDbSpline
70
1064
71
3
72
8
73
4
74
0
42
0.000000001
43
0.0000000001
44
0.0000000001
40
0
40
0
40
0
40
0
40
1
40
1
40
1
40
1
10
5.6246874576609125
20
8.5532831337184732
30
0
10
5.6313957667242827
20
8.5532831337184732
30
0
10
5.6368841434405343
20
8.9905842592114844
30
0
10
5.6368839236329054
20
9.5250640964377915
30
0
0
SPLINE
5
630
100
AcDbEntity
8
0
100
AcDbSpline
70
1064
71
3
72
8
73
4
74
0
42
0.000000001
43
0.0000000001
44
0.0000000001
40
0
40
0
40
0
40
0
40
1
40
1
40
1
40
1
10
5.8564209705516488
20
9.5024502874519285
30
0
10
5.8564209705516488
20
10.095759438801254
30
0
10
5.8427025565487662
20
10.460095861094041
30
0
10
5.8198315726356737
20
10.474231250171247
30
0
0
SPLINE
5
631
100
AcDbEntity
8
0
100
AcDbSpline
70
1064
71
3
72
8
73
4
74
0
42
0.000000001
43
0.0000000001
44
0.0000000001
40
0
40
0
40
0
40
0
40
1
40
1
40
1
40
1
10
5.8198315726356737
20
10.474231250171247
30
0
10
5.7957890140540878
20
10.489090245966779
30
0
10
5.7832421747196978
20
10.163600865758839
30
0
10
5.7832421747196978
20
9.5250640964377915
30
0
0
SPLINE
5
632
100
AcDbEntity
8
0
100
AcDbSpline
70
1064
71
3
72
8
73
4
74
0
42
0.000000001
43
0.0000000001
44
0.0000000001
40
0
40
0
40
0
40
0
40
1
40
1
40
1
40
1
10
5.7832421747196978
20
9.5250640964377915
30
0
10
5.7832421747196978
20
8.901603492850823
30
0
10
5.7963567771626643
20
8.5532831337184732
30
0
10
5.8198315726356737
20
8.5532831337184732
30
0
0
SPLINE
5
633
100
AcDbEntity
8
0
100
AcDbSpline
70
1064
71
3
72
8
73
4
74
0
42
0.000000001
43
0.0000000001
44
0.0000000001
40
0
40
0
40
0
40
0
40
1
40
1
40
1
40
1
10
5.8198315726356737
20
8.5532831337184732
30
0
10
5.8432839477304102
20
8.5532831337184732
30
0
10
5.8564209705516488
20
8.8940649703685235
30
0
10
5.8564209705516488
20
9.5024502874519285
30
0
0
SPLINE
5
634
100
AcDbEntity
8
0
100
AcDbSpline
70
1064
71
3
72
8
73
4
74
0
42
0.000000001
43
0.0000000001
44
0.0000000001
40
0
40
0
40
0
40
0
40
1
40
1
40
1
40
1
10
6.2282042555449815
20
8.6800066286303057
30
0
10
6.4114732633029732
20
8.8045408395462275
30
0
10
6.5226638322253523
20
9.0497942801498557
30
0
10
6.5435739122702206
20
9.3756168887250428
30
0
0
SPLINE
5
635
100
AcDbEntity
8
0
100
AcDbSpline
70
1064
71
3
72
8
73
4
74
0
42
0.000000001
43
0.0000000001
44
0.0000000001
40
0
40
0
40
0
40
0
40
1
40
1
40
1
40
1
10
6.5435739122702206
20
9.3756168887250428
30
0
10
6.5683060073874655
20
9.7610029689078193
30
0
10
6.483167918016413
20
10.022589874889768
30
0
10
6.2605487285082448
20
10.245209284205565
30
0
0
SPLINE
5
636
100
AcDbEntity
8
0
100
AcDbSpline
70
1064
71
3
72
8
73
4
74
0
42
0.000000001
43
0.0000000001
44
0.0000000001
40
0
40
0
40
0
40
0
40
1
40
1
40
1
40
1
10
6.2605487285082448
20
10.245209284205565
30
0
10
5.9620187541334735
20
10.543738818965078
30
0
10
5.9661893841072056
20
10.554232435226595
30
0
10
5.9661893841072056
20
9.504608798379623
30
0
0
SPLINE
5
637
100
AcDbEntity
8
0
100
AcDbSpline
70
1064
71
3
72
8
73
4
74
0
42
0.000000001
43
0.0000000001
44
0.0000000001
40
0
40
0
40
0
40
0
40
1
40
1
40
1
40
1
10
5.9661893841072056
20
9.504608798379623
30
0
10
5.9661893841072056
20
8.4769641660827499
30
0
10
5.9596569211479249
20
8.4975232133423315
30
0
10
6.2282042555449815
20
8.6800066286303057
30
0
0
SPLINE
5
638
100
AcDbEntity
8
0
100
AcDbSpline
70
1064
71
3
72
8
73
4
74
0
42
0.000000001
43
0.0000000001
44
0.0000000001
40
0
40
0
40
0
40
0
40
1
40
1
40
1
40
1
10
5.4905261121613718
20
9.5411988557184895
30
0
10
5.4905261121613718
20
10.284720145333351
30
0
10
5.4812807834312558
20
10.455936221501814
30
0
10
5.4411313811379962
20
10.455936221501814
30
0
0
SPLINE
5
639
100
AcDbEntity
8
0
100
AcDbSpline
70
1064
71
3
72
8
73
4
74
0
42
0.000000001
43
0.0000000001
44
0.0000000001
40
0
40
0
40
0
40
0
40
1
40
1
40
1
40
1
10
5.4411313811379962
20
10.455936221501814
30
0
10
5.3328472186047646
20
10.455936221501814
30
0
10
5.0798933671992579
20
10.227436518465275
30
0
10
5.0028951939864905
20
10.060067955054283
30
0
0
SPLINE
5
640
100
AcDbEntity
8
0
100
AcDbSpline
70
1064
71
3
72
8
73
4
74
0
42
0.000000001
43
0.0000000001
44
0.0000000001
40
0
40
0
40
0
40
0
40
1
40
1
40
1
40
1
10
5.0028951939864905
20
10.060067955054283
30
0
10
4.8878699710530045
20
9.8100385342635938
30
0
10
4.8920359850665056
20
9.3400528934035361
30
0
10
5.0116444168954448
20
9.0730912512501032
30
0
0
SPLINE
5
641
100
AcDbEntity
8
0
100
AcDbSpline
70
1064
71
3
72
8
73
4
74
0
42
0.000000001
43
0.0000000001
44
0.0000000001
40
0
40
0
40
0
40
0
40
1
40
1
40
1
40
1
10
5.0116444168954448
20
9.0730912512501032
30
0
10
5.0965994065106157
20
8.8834737595192337
30
0
10
5.3443777773613341
20
8.6264614899351653
30
0
10
5.4422277815969915
20
8.6264614899351653
30
0
0
SPLINE
5
642
100
AcDbEntity
8
0
100
AcDbSpline
70
1064
71
3
72
8
73
4
74
0
42
0.000000001
43
0.0000000001
44
0.0000000001
40
0
40
0
40
0
40
0
40
1
40
1
40
1
40
1
10
5.4422277815969915
20
8.6264614899351653
30
0
10
5.4809440381419243
20
8.6264614899351653
30
0
10
5.490525892353741
20
8.8079293939720227
30
0
10
5.4905261121613718
20
9.5411988557184895
30
0
0
SPLINE
5
643
100
AcDbEntity
8
0
100
AcDbSpline
70
1064
71
3
72
8
73
4
74
0
42
0.000000001
43
0.0000000001
44
0.0000000001
40
0
40
0
40
0
40
0
40
1
40
1
40
1
40
1
10
6.9908028691848427
20
8.5741710131927018
30
0
10
6.9908028691848427
20
8.6023784867496378
30
0
10
7.0157800498096625
20
8.6351008090290637
30
0
10
7.0463064938642743
20
8.6468877733861582
30
0
0
SPLINE
5
644
100
AcDbEntity
8
0
100
AcDbSpline
70
1064
71
3
72
8
73
4
74
0
42
0.000000001
43
0.0000000001
44
0.0000000001
40
0
40
0
40
0
40
0
40
1
40
1
40
1
40
1
10
7.0463064938642743
20
8.6468877733861582
30
0
10
7.0942883014412956
20
8.665414039682469
30
0
10
7.1004870964180666
20
8.7969240655476071
30
0
10
7.0920434061149678
20
9.6172558126591188
30
0
0
LINE
5
645
100
AcDbEntity
8
0
100
AcDbLine
10
7.0920434061149678
20
9.6172558126591188
30
0
11
7.0822766936862269
21
10.566193487226737
31
0
0
LINE
5
646
100
AcDbEntity
8
0
100
AcDbLine
10
7.0822766936862269
20
10.566193487226737
30
0
11
6.8078554399897042
21
10.566193487226737
31
0
0
SPLINE
5
647
100
AcDbEntity
8
0
100
AcDbSpline
70
1064
71
3
72
8
73
4
74
0
42
0.000000001
43
0.0000000001
44
0.0000000001
40
0
40
0
40
0
40
0
40
1
40
1
40
1
40
1
10
6.8078554399897033
20
10.566193487226737
30
0
10
6.5490622889864714
20
10.566193487226737
30
0
10
6.5327532222550957
20
10.561353323211685
30
0
10
6.5214621439115312
20
10.481204427428901
30
0
0
LINE
5
648
100
AcDbEntity
8
0
100
AcDbLine
10
6.3763730620810026
20
10.575678626081308
30
0
11
6.3633679238378305
21
10.731867773424833
31
0
0
LINE
5
649
100
AcDbEntity
8
0
100
AcDbLine
10
6.3633679238378305
20
10.731867773424833
30
0
11
7.2567164685579044
21
10.731867773424831
31
0
0
LINE
5
650
100
AcDbEntity
8
0
100
AcDbLine
10
7.2567164685579044
20
10.731867773424831
30
0
11
8.1500652330856056
21
10.731867773424831
31
0
0
SPLINE
5
651
100
AcDbEntity
8
0
100
AcDbSpline
70
1064
71
3
72
8
73
4
74
0
42
0.000000001
43
0.0000000001
44
0.0000000001
40
0
40
0
40
0
40
0
40
1
40
1
40
1
40
1
10
8.1250243082480544
20
10.565840915788041
30
0
10
8.0983058115774913
20
10.388696188220212
30
0
10
8.0532874504696341
20
10.312960150419544
30
0
10
8.0240213833660796
20
10.395918187715152
30
0
0
SPLINE
5
652
100
AcDbEntity
8
0
100
AcDbSpline
70
1064
71
3
72
8
73
4
74
0
42
0.000000001
43
0.0000000001
44
0.0000000001
40
0
40
0
40
0
40
0
40
1
40
1
40
1
40
1
10
8.0240213833660796
20
10.395918187715152
30
0
10
7.9747189715473512
20
10.535666603556866
30
0
10
7.8680661113409931
20
10.588310530968549
30
0
10
7.6567883361236841
20
10.577182110271268
30
0
0
LINE
5
653
100
AcDbEntity
8
0
100
AcDbLine
10
7.6567883361236841
20
10.57718211027127
30
0
11
7.4481715520765039
21
10.56619436645726
31
0
0
LINE
5
654
100
AcDbEntity
8
0
100
AcDbLine
10
7.4481715520765039
20
10.56619436645726
30
0
11
7.4384046198401332
21
9.6172566918896401
31
0
0
SPLINE
5
655
100
AcDbEntity
8
0
100
AcDbSpline
70
1064
71
3
72
8
73
4
74
0
42
0.000000001
43
0.0000000001
44
0.0000000001
40
0
40
0
40
0
40
0
40
1
40
1
40
1
40
1
10
7.4384046198401332
20
9.6172566918896401
30
0
10
7.429961369152295
20
8.7969249447781266
30
0
10
7.4361573066298741
20
8.6654149189129885
30
0
10
7.4841413122831959
20
8.6468886526166795
30
0
0
SPLINE
5
656
100
AcDbEntity
8
0
100
AcDbSpline
70
1064
71
3
72
8
73
4
74
0
42
0.000000001
43
0.0000000001
44
0.0000000001
40
0
40
0
40
0
40
0
40
1
40
1
40
1
40
1
10
7.4841413122831959
20
8.6468886526166795
30
0
10
7.5146686355683299
20
8.635101688259585
30
0
10
7.5396449369626293
20
8.6023793659801591
30
0
10
7.5396449369626293
20
8.5741718924232213
30
0
0
SPLINE
5
657
100
AcDbEntity
8
0
100
AcDbSpline
70
1064
71
3
72
8
73
4
74
0
42
0.000000001
43
0.0000000001
44
0.0000000001
40
0
40
0
40
0
40
0
40
1
40
1
40
1
40
1
10
7.2652239030737356
20
8.5228863761656264
30
0
10
7.0550543979274494
20
8.5228863761656264
30
0
10
6.9908026493772129
20
8.5348931481528325
30
0
10
6.9908028691848427
20
8.5741710131927018
30
0
0
SPLINE
5
658
100
AcDbEntity
8
0
100
AcDbSpline
70
1064
71
3
72
8
73
4
74
0
42
0.000000001
43
0.0000000001
44
0.0000000001
40
0
40
0
40
0
40
0
40
1
40
1
40
1
40
1
10
10.235880062503444
20
8.6318502937949759
30
0
10
10.306747361297145
20
8.6503827147049304
30
0
10
10.309058858335394
20
8.6817589350575535
30
0
10
10.309058858335394
20
9.6249402874078154
30
0
0
LINE
5
659
100
AcDbEntity
8
0
100
AcDbLine
10
10.309058858335394
20
9.6249402874078154
30
0
11
10.309058858335394
21
10.598902621048358
31
0
0
LINE
5
660
100
AcDbEntity
8
0
100
AcDbLine
10
10.309058858335394
20
10.598902621048358
30
0
11
10.217585033834009
21
10.633681463515106
31
0
0
SPLINE
5
661
100
AcDbEntity
8
0
100
AcDbSpline
70
1064
71
3
72
8
73
4
74
0
42
0.000000001
43
0.0000000001
44
0.0000000001
40
0
40
0
40
0
40
0
40
1
40
1
40
1
40
1
10
10.720690409168734
20
10.750850360361254
30
0
10
11.047709210866987
20
10.756841437127569
30
0
10
11.324074223436588
20
10.758846961944707
30
0
10
11.334836005006842
20
10.755304542177832
30
0
0
SPLINE
5
662
100
AcDbEntity
8
0
100
AcDbSpline
70
1064
71
3
72
8
73
4
74
0
42
0.000000001
43
0.0000000001
44
0.0000000001
40
0
40
0
40
0
40
0
40
1
40
1
40
1
40
1
10
11.334836005006842
20
10.556958049839977
30
0
10
11.314503799221537
20
10.357533620884057
30
0
10
11.247463351268076
20
10.281934743044578
30
0
10
11.206209855248767
20
10.411912270112579
30
0
0
SPLINE
5
663
100
AcDbEntity
8
0
100
AcDbSpline
70
1064
71
3
72
8
73
4
74
0
42
0.000000001
43
0.0000000001
44
0.0000000001
40
0
40
0
40
0
40
0
40
1
40
1
40
1
40
1
10
11.206209855248767
20
10.411912270112579
30
0
10
11.160539105094738
20
10.555808895549754
30
0
10
11.082040524998831
20
10.597090526945719
30
0
10
10.854089901422309
20
10.597090526945719
30
0
0
LINE
5
664
100
AcDbEntity
8
0
100
AcDbLine
10
10.854089901422308
20
10.597090526945719
30
0
11
10.635968195833851
21
10.597090526945719
31
0
0
LINE
5
665
100
AcDbEntity
8
0
100
AcDbLine
10
10.635968195833851
20
10.597090526945719
30
0
11
10.646314101367937
21
10.185458536497119
31
0
0
LINE
5
666
100
AcDbEntity
8
0
100
AcDbLine
10
10.646314101367937
20
10.185458536497119
30
0
11
10.656659567286759
21
9.7738265460485181
31
0
0
LINE
5
667
100
AcDbEntity
8
0
100
AcDbLine
10
10.656659567286759
20
9.7738265460485181
30
0
11
10.865428897829238
21
9.7629021068319801
31
0
0
SPLINE
5
668
100
AcDbEntity
8
0
100
AcDbSpline
70
1064
71
3
72
8
73
4
74
0
42
0.000000001
43
0.0000000001
44
0.0000000001
40
0
40
0
40
0
40
0
40
1
40
1
40
1
40
1
10
10.865428897829236
20
9.7629021068319819
30
0
10
11.004970694498645
20
9.7555992181291611
30
0
10
11.112261436447586
20
9.771660122046141
30
0
10
11.188987487814279
20
9.8113362785117708
30
0
0
SPLINE
5
669
100
AcDbEntity
8
0
100
AcDbSpline
70
1064
71
3
72
8
73
4
74
0
42
0.000000001
43
0.0000000001
44
0.0000000001
40
0
40
0
40
0
40
0
40
1
40
1
40
1
40
1
10
11.188987487814279
20
9.8113362785117708
30
0
10
11.252121514565397
20
9.8439847454274805
30
0
10
11.310897195626668
20
9.8635766391145712
30
0
10
11.319598940087518
20
9.8548748946537188
30
0
0
SPLINE
5
670
100
AcDbEntity
8
0
100
AcDbSpline
70
1064
71
3
72
8
73
4
74
0
42
0.000000001
43
0.0000000001
44
0.0000000001
40
0
40
0
40
0
40
0
40
1
40
1
40
1
40
1
10
11.319598940087518
20
9.8548748946537188
30
0
10
11.328300684548369
20
9.8461731501928682
30
0
10
11.324502408700045
20
9.7461668331058195
30
0
10
11.3111609647828
20
9.6326397090753559
30
0
0
SPLINE
5
671
100
AcDbEntity
8
0
100
AcDbSpline
70
1064
71
3
72
8
73
4
74
0
42
0.000000001
43
0.0000000001
44
0.0000000001
40
0
40
0
40
0
40
0
40
1
40
1
40
1
40
1
10
11.3111609647828
20
9.6326397090753559
30
0
10
11.284967808348206
20
9.4097732359833142
30
0
10
11.226387316462473
20
9.3660183291333361
30
0
10
11.157276280633363
20
9.5177005408290594
30
0
0
SPLINE
5
672
100
AcDbEntity
8
0
100
AcDbSpline
70
1064
71
3
72
8
73
4
74
0
42
0.000000001
43
0.0000000001
44
0.0000000001
40
0
40
0
40
0
40
0
40
1
40
1
40
1
40
1
10
11.157276280633363
20
9.5177005408290594
30
0
10
11.119021839919295
20
9.6016609009179756
30
0
10
11.095999188741423
20
9.6091739257151829
30
0
10
10.876981986867893
20
9.6091739257151829
30
0
0
LINE
5
673
100
AcDbEntity
8
0
100
AcDbLine
10
10.876981986867893
20
9.6091739257151829
30
0
11
10.638365417847849
21
9.6091739257151829
31
0
0
LINE
5
674
100
AcDbEntity
8
0
100
AcDbLine
10
10.638365417847849
20
9.6091739257151829
30
0
11
10.638365417847846
21
9.1940654577887422
31
0
0
SPLINE
5
675
100
AcDbEntity
8
0
100
AcDbSpline
70
1064
71
3
72
8
73
4
74
0
42
0.000000001
43
0.0000000001
44
0.0000000001
40
0
40
0
40
0
40
0
40
1
40
1
40
1
40
1
10
10.638365417847846
20
9.1940654577887422
30
0
10
10.638365417847846
20
8.7041520571827835
30
0
10
10.664824981130138
20
8.6578473818235135
30
0
10
10.944773297685813
20
8.6578473818235135
30
0
0
SPLINE
5
676
100
AcDbEntity
8
0
100
AcDbSpline
70
1064
71
3
72
8
73
4
74
0
42
0.000000001
43
0.0000000001
44
0.0000000001
40
0
40
0
40
0
40
0
40
1
40
1
40
1
40
1
10
10.944773297685813
20
8.6578473818235135
30
0
10
11.079222591180804
20
8.6578473818235135
30
0
10
11.137199051698987
20
8.6776907354394517
30
0
10
11.207165578824492
20
8.7476581417954744
30
0
0
SPLINE
5
677
100
AcDbEntity
8
0
100
AcDbSpline
70
1064
71
3
72
8
73
4
74
0
42
0.000000001
43
0.0000000001
44
0.0000000001
40
0
40
0
40
0
40
0
40
1
40
1
40
1
40
1
10
11.207165578824492
20
8.7476581417954744
30
0
10
11.256561628693648
20
8.7970541916646319
30
0
10
11.296976338796453
20
8.8546824768967216
30
0
10
11.296976338796453
20
8.8757215840204662
30
0
0
SPLINE
5
678
100
AcDbEntity
8
0
100
AcDbSpline
70
1064
71
3
72
8
73
4
74
0
42
0.000000001
43
0.0000000001
44
0.0000000001
40
0
40
0
40
0
40
0
40
1
40
1
40
1
40
1
10
11.296976338796453
20
8.8757215840204662
30
0
10
11.296976338796453
20
8.896760691144209
30
0
10
11.313441688752839
20
8.9139742662734935
30
0
10
11.333565516904798
20
8.9139742662734935
30
0
0
LINE
5
679
100
AcDbEntity
8
0
100
AcDbLine
10
11.32441922024948
20
8.5114897901596116
30
0
11
10.743560074236045
21
8.5114897901596116
31
0
0
SPLINE
5
680
100
AcDbEntity
8
0
100
AcDbSpline
70
1064
71
3
72
8
73
4
74
0
42
0.000000001
43
0.0000000001
44
0.0000000001
40
0
40
0
40
0
40
0
40
1
40
1
40
1
40
1
10
10.743560074236047
20
8.5114897901596116
30
0
10
10.27339990611768
20
8.5114897901596116
30
0
10
10.162701706286752
20
8.5211358281994212
30
0
10
10.162701706286752
20
8.5621062119911464
30
0
0
LINE
5
681
100
AcDbEntity
8
0
100
AcDbLine
10
10.16270170628675
20
8.5621062119911464
30
0
11
10.162701266671492
21
8.5620965404554212
31
0
0
SPLINE
5
682
100
AcDbEntity
8
0
100
AcDbSpline
70
1064
71
3
72
8
73
4
74
0
42
0.000000001
43
0.0000000001
44
0.0000000001
40
0
40
0
40
0
40
0
40
1
40
1
40
1
40
1
10
11.397596358786773
20
9.6228345303113478
30
0
10
11.397596358786773
20
10.483779693623285
30
0
10
11.38965866564819
20
10.632381960805887
30
0
10
11.342712152008993
20
10.65038156802045
30
0
0
SPLINE
5
683
100
AcDbEntity
8
0
100
AcDbSpline
70
1064
71
3
72
8
73
4
74
0
42
0.000000001
43
0.0000000001
44
0.0000000001
40
0
40
0
40
0
40
0
40
1
40
1
40
1
40
1
10
11.287827945231216
20
10.722351861502048
30
0
10
11.287827945231216
20
10.763549965998569
30
0
10
11.389630530271535
20
10.773277772476781
30
0
10
11.820781438274027
20
10.773277772476781
30
0
0
SPLINE
5
684
100
AcDbEntity
8
0
100
AcDbSpline
70
1064
71
3
72
8
73
4
74
0
42
0.000000001
43
0.0000000001
44
0.0000000001
40
0
40
0
40
0
40
0
40
1
40
1
40
1
40
1
10
11.820781438274027
20
10.773277772476781
30
0
10
12.142897210975017
20
10.773277772476781
30
0
10
12.385351181601546
20
10.757048056299874
30
0
10
12.43365522716431
20
10.732251997162267
30
0
0
SPLINE
5
685
100
AcDbEntity
8
0
100
AcDbSpline
70
1064
71
3
72
8
73
4
74
0
42
0.000000001
43
0.0000000001
44
0.0000000001
40
0
40
0
40
0
40
0
40
1
40
1
40
1
40
1
10
12.43365522716431
20
10.732251997162267
30
0
10
12.8303174387718
20
10.528635397084861
30
0
10
12.887101662704264
20
10.06516837130339
30
0
10
12.560769979657739
20
9.6947511907311981
30
0
0
SPLINE
5
686
100
AcDbEntity
8
0
100
AcDbSpline
70
1064
71
3
72
8
73
4
74
0
42
0.000000001
43
0.0000000001
44
0.0000000001
40
0
40
0
40
0
40
0
40
1
40
1
40
1
40
1
10
12.560769979657739
20
9.6947511907311981
30
0
10
12.428745603938141
20
9.5448907446738414
30
0
10
12.41887975826822
20
9.5208947853098369
30
0
10
12.466261491015036
20
9.4648798880827663
30
0
0
SPLINE
5
687
100
AcDbEntity
8
0
100
AcDbSpline
70
1064
71
3
72
8
73
4
74
0
42
0.000000001
43
0.0000000001
44
0.0000000001
40
0
40
0
40
0
40
0
40
1
40
1
40
1
40
1
10
12.466261491015036
20
9.4648798880827663
30
0
10
12.495358745858665
20
9.4304808732008496
30
0
10
12.639298453591341
20
9.2501225580807951
30
0
10
12.786128192044725
20
9.0640835345681392
30
0
0
SPLINE
5
688
100
AcDbEntity
8
0
100
AcDbSpline
70
1064
71
3
72
8
73
4
74
0
42
0.000000001
43
0.0000000001
44
0.0000000001
40
0
40
0
40
0
40
0
40
1
40
1
40
1
40
1
10
12.786128192044725
20
9.0640835345681392
30
0
10
13.01521610029944
20
8.7738178874702939
30
0
10
13.078408156264908
20
8.7168455082064575
30
0
10
13.231553407546652
20
8.6624993905071914
30
0
0
SPLINE
5
689
100
AcDbEntity
8
0
100
AcDbSpline
70
1064
71
3
72
8
73
4
74
0
42
0.000000001
43
0.0000000001
44
0.0000000001
40
0
40
0
40
0
40
0
40
1
40
1
40
1
40
1
10
13.231553407546652
20
8.6624993905071914
30
0
10
13.511953208974576
20
8.5629942348167951
30
0
10
13.467422820805565
20
8.4957665107624809
30
0
10
13.132315537934474
20
8.5126741136706503
30
0
0
SPLINE
5
690
100
AcDbEntity
8
0
100
AcDbSpline
70
1064
71
3
72
8
73
4
74
0
42
0.000000001
43
0.0000000001
44
0.0000000001
40
0
40
0
40
0
40
0
40
1
40
1
40
1
40
1
10
13.132315537934474
20
8.5126741136706503
30
0
10
12.855323634003797
20
8.5266494827931343
30
0
10
12.854221958161677
20
8.5271145957384498
30
0
10
12.702389398046959
20
8.6941578438568783
30
0
0
SPLINE
5
691
100
AcDbEntity
8
0
100
AcDbSpline
70
1064
71
3
72
8
73
4
74
0
42
0.000000001
43
0.0000000001
44
0.0000000001
40
0
40
0
40
0
40
0
40
1
40
1
40
1
40
1
10
12.702389398046959
20
8.6941578438568783
30
0
10
12.618666430198564
20
8.7862669124092854
30
0
10
12.475990176723769
20
8.9581336191628758
30
0
10
12.385330959299575
20
9.0760841519417017
30
0
0
SPLINE
5
692
100
AcDbEntity
8
0
100
AcDbSpline
70
1064
71
3
72
8
73
4
74
0
42
0.000000001
43
0.0000000001
44
0.0000000001
40
0
40
0
40
0
40
0
40
1
40
1
40
1
40
1
10
12.385330959299575
20
9.0760841519417017
30
0
10
12.205383244832566
20
9.310202138003886
30
0
10
11.980072510893686
20
9.4630563639833625
30
0
10
11.836670013009002
20
9.4483046343113237
30
0
0
SPLINE
5
693
100
AcDbEntity
8
0
100
AcDbSpline
70
1064
71
3
72
8
73
4
74
0
42
0.000000001
43
0.0000000001
44
0.0000000001
40
0
40
0
40
0
40
0
40
1
40
1
40
1
40
1
10
11.836670013009002
20
9.4483046343113237
30
0
10
11.7460318971173
20
9.4389812738725194
30
0
10
11.745100791996149
20
9.4352770756898821
30
0
10
11.734779504916638
20
9.0428008805902316
30
0
0
SPLINE
5
694
100
AcDbEntity
8
0
100
AcDbSpline
70
1064
71
3
72
8
73
4
74
0
42
0.000000001
43
0.0000000001
44
0.0000000001
40
0
40
0
40
0
40
0
40
1
40
1
40
1
40
1
10
11.734779504916638
20
9.0428008805902316
30
0
10
11.724994548454598
20
8.6707193166428365
30
0
10
11.728876351202365
20
8.6455276037710291
30
0
10
11.798811226029134
20
8.6272545558646065
30
0
0
SPLINE
5
695
100
AcDbEntity
8
0
100
AcDbSpline
70
1064
71
3
72
8
73
4
74
0
42
0.000000001
43
0.0000000001
44
0.0000000001
40
0
40
0
40
0
40
0
40
1
40
1
40
1
40
1
10
11.798811226029134
20
8.6272545558646065
30
0
10
11.839757870596806
20
8.6165560788918238
30
0
10
11.873259191117347
20
8.5850444570390518
30
0
10
11.873259191117347
20
8.5572282410637133
30
0
0
SPLINE
5
696
100
AcDbEntity
8
0
100
AcDbSpline
70
1064
71
3
72
8
73
4
74
0
42
0.000000001
43
0.0000000001
44
0.0000000001
40
0
40
0
40
0
40
0
40
1
40
1
40
1
40
1
10
11.873259191117347
20
8.5572282410637133
30
0
10
11.873259191117347
20
8.5186643112064484
30
0
10
11.808092383402958
20
8.5066549015276802
30
0
10
11.598838157228453
20
8.5066549015276802
30
0
0
SPLINE
5
697
100
AcDbEntity
8
0
100
AcDbSpline
70
1064
71
3
72
8
73
4
74
0
42
0.000000001
43
0.0000000001
44
0.0000000001
40
0
40
0
40
0
40
0
40
1
40
1
40
1
40
1
10
11.598838157228453
20
8.5066549015276802
30
0
10
11.379301330117338
20
8.5066549015276802
30
0
10
11.324417123339561
20
8.5176215438091987
30
0
10
11.324418002570081
20
8.561491629857354
30
0
0
SPLINE
5
698
100
AcDbEntity
8
0
100
AcDbSpline
70
1064
71
3
72
8
73
4
74
0
42
0.000000001
43
0.0000000001
44
0.0000000001
40
0
40
0
40
0
40
0
40
1
40
1
40
1
40
1
10
12.194633772489597
20
9.6113895866267072
30
0
10
12.45087935305984
20
9.7908713089178789
30
0
10
12.448320792245344
20
10.354258487195398
30
0
10
12.19049083827726
20
10.523193839393823
30
0
0
SPLINE
5
699
100
AcDbEntity
8
0
100
AcDbSpline
70
1064
71
3
72
8
73
4
74
0
42
0.000000001
43
0.0000000001
44
0.0000000001
40
0
40
0
40
0
40
0
40
1
40
1
40
1
40
1
10
12.19049083827726
20
10.523193839393823
30
0
10
12.129430037093352
20
10.563203224226703
30
0
10
12.040431686122279
20
10.579316881974909
30
0
10
11.922161113434013
20
10.571776601031567
30
0
0
LINE
5
700
100
AcDbEntity
8
0
100
AcDbLine
10
11.922161113434013
20
10.571776601031567
30
0
11
11.745194869661836
21
10.56049519422373
31
0
0
LINE
5
701
100
AcDbEntity
8
0
100
AcDbLine
10
11.745194869661836
20
10.56049519422373
30
0
11
11.734851601819313
21
10.103510735069504
31
0
0
SPLINE
5
702
100
AcDbEntity
8
0
100
AcDbSpline
70
1064
71
3
72
8
73
4
74
0
42
0.000000001
43
0.0000000001
44
0.0000000001
40
0
40
0
40
0
40
0
40
1
40
1
40
1
40
1
10
11.734851601819315
20
10.103510735069504
30
0
10
11.725845643598388
20
9.7056589245678477
30
0
10
11.732667593206527
20
9.6405580591424904
30
0
10
11.787581693822002
20
9.6004053597347774
30
0
0
SPLINE
5
703
100
AcDbEntity
8
0
100
AcDbSpline
70
1064
71
3
72
8
73
4
74
0
42
0.000000001
43
0.0000000001
44
0.0000000001
40
0
40
0
40
0
40
0
40
1
40
1
40
1
40
1
10
11.787581693822002
20
9.6004053597347774
30
0
10
11.87478465607032
20
9.5366409247004995
30
0
10
12.096453617193516
20
9.5426232091616114
30
0
10
12.194633772489597
20
9.6113895866267072
30
0
0
SPLINE
5
704
100
AcDbEntity
8
0
100
AcDbSpline
70
1064
71
3
72
8
73
4
74
0
42
0.000000001
43
0.0000000001
44
0.0000000001
40
0
40
0
40
0
40
0
40
1
40
1
40
1
40
1
10
6.1502293449980385
20
8.3126305062791062
30
0
10
5.6800698363025663
20
7.9957901167007916
30
0
10
5.6772475063319376
20
7.1231089844019513
30
0
10
6.1450491385792043
20
6.7113328001480008
30
0
0
SPLINE
5
705
100
AcDbEntity
8
0
100
AcDbSpline
70
1064
71
3
72
8
73
4
74
0
42
0.000000001
43
0.0000000001
44
0.0000000001
40
0
40
0
40
0
40
0
40
1
40
1
40
1
40
1
10
6.3726318041829142
20
7.4810903284929546
30
0
10
6.3726318041829142
20
8.488311315030387
30
0
10
6.3784791267591379
20
8.4664483689089849
30
0
10
6.1502293449980385
20
8.3126305062791062
30
0
0
SPLINE
5
706
100
AcDbEntity
8
0
100
AcDbSpline
70
1064
71
3
72
8
73
4
74
0
42
0.000000001
43
0.0000000001
44
0.0000000001
40
0
40
0
40
0
40
0
40
1
40
1
40
1
40
1
10
6.3411924990404529
20
6.5663538419401597
30
0
10
6.3584834464555344
20
6.5663538419401597
30
0
10
6.3726307051447648
20
6.9779858323887582
30
0
10
6.3726318041829142
20
7.4810903284929546
30
0
0
SPLINE
5
707
100
AcDbEntity
8
0
100
AcDbSpline
70
1064
71
3
72
8
73
4
74
0
42
0.000000001
43
0.0000000001
44
0.0000000001
40
0
40
0
40
0
40
0
40
1
40
1
40
1
40
1
10
6.4458106000148652
20
7.4810885700319174
30
0
10
6.4458106000148661
20
6.6598573700979919
30
0
10
6.4533157117373898
20
6.5297620261402525
30
0
10
6.5006948067926444
20
6.5297620261402525
30
0
0
SPLINE
5
708
100
AcDbEntity
8
0
100
AcDbSpline
70
1064
71
3
72
8
73
4
74
0
42
0.000000001
43
0.0000000001
44
0.0000000001
40
0
40
0
40
0
40
0
40
1
40
1
40
1
40
1
10
6.5006948067926427
20
8.4324151139235806
30
0
10
6.4533157117373889
20
8.4324151139235806
30
0
10
6.4458106000148652
20
8.3023188907353198
30
0
10
6.4458106000148652
20
7.4810885700319174
30
0
0
SPLINE
5
709
100
AcDbEntity
8
0
100
AcDbSpline
70
1064
71
3
72
8
73
4
74
0
42
0.000000001
43
0.0000000001
44
0.0000000001
40
0
40
0
40
0
40
0
40
1
40
1
40
1
40
1
10
6.5555790135704219
20
7.4810885700319174
30
0
10
6.5555790135704219
20
8.3023197699658411
30
0
10
6.5480732424250077
20
8.4324151139235806
30
0
10
6.5006948067926427
20
8.4324151139235806
30
0
0
SPLINE
5
710
100
AcDbEntity
8
0
100
AcDbSpline
70
1064
71
3
72
8
73
4
74
0
42
0.000000001
43
0.0000000001
44
0.0000000001
40
0
40
0
40
0
40
0
40
1
40
1
40
1
40
1
10
6.5006948067926444
20
6.5297620261402525
30
0
10
6.5480732424250085
20
6.5297620261402525
30
0
10
6.5555790135704237
20
6.6598582493285106
30
0
10
6.5555790135704219
20
7.4810885700319174
30
0
0
SPLINE
5
711
100
AcDbEntity
8
0
100
AcDbSpline
70
1064
71
3
72
8
73
4
74
0
42
0.000000001
43
0.0000000001
44
0.0000000001
40
0
40
0
40
0
40
0
40
1
40
1
40
1
40
1
10
6.7019370448495845
20
8.4324177516151391
30
0
10
6.6784622493765768
20
8.4324177516151391
30
0
10
6.6653476469336086
20
8.0840982717133123
30
0
10
6.6653476469336086
20
7.4606367888958305
30
0
0
SPLINE
5
712
100
AcDbEntity
8
0
100
AcDbSpline
70
1064
71
3
72
8
73
4
74
0
42
0.000000001
43
0.0000000001
44
0.0000000001
40
0
40
0
40
0
40
0
40
1
40
1
40
1
40
1
10
6.7385264427655605
20
7.4832497186511704
30
0
10
6.7385264427655605
20
8.091635035734571
30
0
10
6.7253894199443218
20
8.4324177516151391
30
0
10
6.7019370448495845
20
8.4324177516151391
30
0
0
SPLINE
5
713
100
AcDbEntity
8
0
100
AcDbSpline
70
1064
71
3
72
8
73
4
74
0
42
0.000000001
43
0.0000000001
44
0.0000000001
40
0
40
0
40
0
40
0
40
1
40
1
40
1
40
1
10
6.7019370448495863
20
6.5114696351623804
30
0
10
6.7248086881855693
20
6.5256050242395851
30
0
10
6.7385264427655622
20
6.8899414465323705
30
0
10
6.7385264427655605
20
7.4832497186511704
30
0
0
SPLINE
5
714
100
AcDbEntity
8
0
100
AcDbSpline
70
1064
71
3
72
8
73
4
74
0
42
0.000000001
43
0.0000000001
44
0.0000000001
40
0
40
0
40
0
40
0
40
1
40
1
40
1
40
1
10
6.6653476469336086
20
7.4606367888958305
30
0
10
6.6653476469336095
20
6.8221008988053038
30
0
10
6.6778947060756302
20
6.4966106393668497
30
0
10
6.7019370448495863
20
6.5114696351623804
30
0
0
SPLINE
5
715
100
AcDbEntity
8
0
100
AcDbSpline
70
1064
71
3
72
8
73
4
74
0
42
0.000000001
43
0.0000000001
44
0.0000000001
40
0
40
0
40
0
40
0
40
1
40
1
40
1
40
1
10
6.8482950761287453
20
7.4627935413624815
30
0
10
6.8482950761287471
20
6.7406876695341209
30
0
10
6.858634607241556
20
6.5297927992084697
30
0
10
6.894031768571808
20
6.5298983068709218
30
0
0
SPLINE
5
716
100
AcDbEntity
8
0
100
AcDbSpline
70
1064
71
3
72
8
73
4
74
0
42
0.000000001
43
0.0000000001
44
0.0000000001
40
0
40
0
40
0
40
0
40
1
40
1
40
1
40
1
10
6.1450491385792043
20
6.7113328001480008
30
0
10
6.2356366987159797
20
6.6315945050182679
30
0
10
6.3239015516253678
20
6.5663538419401597
30
0
10
6.3411924990404529
20
6.5663538419401597
30
0
0
SPLINE
5
717
100
AcDbEntity
8
0
100
AcDbSpline
70
1064
71
3
72
8
73
4
74
0
42
0.000000001
43
0.0000000001
44
0.0000000001
40
0
40
0
40
0
40
0
40
1
40
1
40
1
40
1
10
6.8820397236958186
20
8.3958259358152354
30
0
10
6.8623218802366752
20
8.3958259358152354
30
0
10
6.8482950761287453
20
8.0079903194024951
30
0
10
6.8482950761287453
20
7.4627935413624815
30
0
0
SPLINE
5
718
100
AcDbEntity
8
0
100
AcDbSpline
70
1064
71
3
72
8
73
4
74
0
42
0.000000001
43
0.0000000001
44
0.0000000001
40
0
40
0
40
0
40
0
40
1
40
1
40
1
40
1
10
7.321960736332124
20
7.9757753131333686
30
0
10
7.2379120135759027
20
8.1390158892508673
30
0
10
6.9689545181410626
20
8.3958259358152354
30
0
10
6.8820397236958186
20
8.3958259358152354
30
0
0
SPLINE
5
719
100
AcDbEntity
8
0
100
AcDbSpline
70
1064
71
3
72
8
73
4
74
0
42
0.000000001
43
0.0000000001
44
0.0000000001
40
0
40
0
40
0
40
0
40
1
40
1
40
1
40
1
10
7.2551488883139825
20
6.7613188136963762
30
0
10
7.4612374449996191
20
7.0081777292303382
30
0
10
7.4958848425035578
20
7.6379758264086774
30
0
10
7.321960736332124
20
7.9757753131333686
30
0
0
SPLINE
5
720
100
AcDbEntity
8
0
100
AcDbSpline
70
1064
71
3
72
8
73
4
74
0
42
0.000000001
43
0.0000000001
44
0.0000000001
40
0
40
0
40
0
40
0
40
1
40
1
40
1
40
1
10
6.894031768571808
20
6.5298983068709218
30
0
10
6.9191869933770187
20
6.529956336085271
30
0
10
6.9958048993896931
20
6.5641970894735051
30
0
10
7.064293440010327
20
6.6059499884284287
30
0
0
SPLINE
5
721
100
AcDbEntity
8
0
100
AcDbSpline
70
1064
71
3
72
8
73
4
74
0
42
0.000000001
43
0.0000000001
44
0.0000000001
40
0
40
0
40
0
40
0
40
1
40
1
40
1
40
1
10
7.064293440010327
20
6.6059499884284287
30
0
10
7.1327819806309609
20
6.6477037666138736
30
0
10
7.2186669763291302
20
6.7176192983691871
30
0
10
7.2551488883139825
20
6.7613188136963762
30
0
0
SPLINE
5
722
100
AcDbEntity
8
0
100
AcDbSpline
70
1064
71
3
72
8
73
4
74
0
42
0.000000001
43
0.0000000001
44
0.0000000001
40
0
40
0
40
0
40
0
40
0.12179927716828073
40
0.12179927716828073
40
0.12179927716828073
40
0.12179927716828073
10
2.4534599130613635
20
4.2017462050197327
30
0
10
2.4874903373879049
20
4.2191292098648496
30
0
10
2.5191612456341388
20
4.2347555762538782
30
0
10
2.5497277267123395
20
4.24887880376808
30
0
0
SPLINE
5
723
100
AcDbEntity
8
0
100
AcDbSpline
70
1064
71
3
72
8
73
4
74
0
42
0.000000001
43
0.0000000001
44
0.0000000001
40
0.81187970304726609
40
0.81187970304726609
40
0.81187970304726609
40
0.81187970304726609
40
1
40
1
40
1
40
1
10
3.1911784973006876
20
4.3902839584965809
30
0
10
3.2812861036776311
20
4.3983585580262599
30
0
10
3.385722424592589
20
4.4062736106137468
30
0
10
3.5091117741641416
20
4.4149631231498816
30
0
0
SPLINE
5
724
100
AcDbEntity
8
0
100
AcDbSpline
70
1064
71
3
72
8
73
4
74
0
42
0.000000001
43
0.0000000001
44
0.0000000001
40
0.78257522443721095
40
0.78257522443721095
40
0.78257522443721095
40
0.78257522443721095
40
1
40
1
40
1
40
1
10
2.5497277241803911
20
4.2488788616918232
30
0
10
2.4688822914588191
20
4.2453465256995759
30
0
10
2.3730164287806597
20
4.2424190231577352
30
0
10
2.256932328862681
20
4.2394616774247673
30
0
0
SPLINE
5
725
100
AcDbEntity
8
0
100
AcDbSpline
70
1064
71
3
72
8
73
4
74
0
42
0.000000001
43
0.0000000001
44
0.0000000001
40
0
40
0
40
0
40
0
40
0.20930899512178655
40
0.20930899512178655
40
0.20930899512178655
40
0.20930899512178655
10
3.5091117741641416
20
4.4149631231498816
30
0
10
3.5800262014867972
20
4.4199573525394094
30
0
10
3.6402732646166762
20
4.4249969576804649
30
0
10
3.691549427417451
20
4.4305250824615223
30
0
0
SPLINE
5
726
100
AcDbEntity
8
0
100
AcDbSpline
70
1064
71
3
72
8
73
4
74
0
42
0.000000001
43
0.0000000001
44
0.0000000001
40
0.36664881830891988
40
0.36664881830891988
40
0.36664881830891988
40
0.36664881830891988
40
0.78517082166952767
40
0.78517082166952767
40
0.78517082166952767
40
0.78517082166952767
10
3.6915494273966076
20
4.430525082164694
30
0
10
3.6980384761315084
20
4.5383010539845641
30
0
10
3.7025290162286857
20
4.7052391381838525
30
0
10
3.7048287648751326
20
4.9259746034916292
30
0
0
SPLINE
5
727
100
AcDbEntity
8
0
100
AcDbSpline
70
1064
71
3
72
8
73
4
74
0
42
0.000000001
43
0.0000000001
44
0.0000000001
40
0.93621047173775684
40
0.93621047173775684
40
0.93621047173775684
40
0.93621047173775684
40
1
40
1
40
1
40
1
10
3.7048287418155019
20
4.9259745471489707
30
0
10
3.7007821074276435
20
4.9160867835069491
30
0
10
3.6964925997321565
20
4.9059048256475304
30
0
10
3.6919498490632998
20
4.8953447856836902
30
0
0
SPLINE
5
728
100
AcDbEntity
8
0
100
AcDbSpline
70
1064
71
3
72
8
73
4
74
0
42
0.000000001
43
0.0000000001
44
0.0000000001
40
0
40
0
40
0
40
0
40
0.31131234964980437
40
0.31131234964980437
40
0.31131234964980437
40
0.31131234964980437
10
5.7711334119921203
20
4.231226804370273
30
0
10
5.7010895249502189
20
4.231226804370273
30
0
10
5.6462880038603096
20
4.2323630072996652
30
0
10
5.6040268918037208
20
4.2351032472793433
30
0
0
SPLINE
5
729
100
AcDbEntity
8
0
100
AcDbSpline
70
1064
71
3
72
8
73
4
74
0
42
0.000000001
43
0.0000000001
44
0.0000000001
40
0.70938406848662516
40
0.70938406848662516
40
0.70938406848662516
40
0.70938406848662516
40
1
40
1
40
1
40
1
10
5.6040269325463887
20
4.235103269438822
30
0
10
5.5753571915436639
20
4.2193266105288911
30
0
10
5.5342588225020508
20
4.2054902681290267
30
0
10
5.4831869551995815
20
4.1978318707427063
30
0
0
SPLINE
5
730
100
AcDbEntity
8
0
100
AcDbSpline
70
1064
71
3
72
8
73
4
74
0
42
0.000000001
43
0.0000000001
44
0.0000000001
40
0
40
0
40
0
40
0
40
0.20163242791374775
40
0.20163242791374775
40
0.20163242791374775
40
0.20163242791374775
10
6.8569485949445665
20
4.034690647674017
30
0
10
7.0013448588114588
20
4.1226849720126699
30
0
10
7.1669460206684521
20
4.1928402022757725
30
0
10
7.3445876575330233
20
4.2451738526577971
30
0
0
SPLINE
5
731
100
AcDbEntity
8
0
100
AcDbSpline
70
1064
71
3
72
8
73
4
74
0
42
0.000000001
43
0.0000000001
44
0.0000000001
40
0.35832840877741534
40
0.35832840877741534
40
0.35832840877741534
40
0.35832840877741534
40
1
40
1
40
1
40
1
10
7.3445876505623096
20
4.2451738520966344
30
0
10
7.1427645701003231
20
4.2269165326261584
30
0
10
6.868817987162954
20
4.2317255645908975
30
0
10
6.868817987162954
20
4.2715553498820755
30
0
0
SPLINE
5
732
100
AcDbEntity
8
0
100
AcDbSpline
70
1064
71
3
72
8
73
4
74
0
42
0.000000001
43
0.0000000001
44
0.0000000001
40
0
40
0
40
0
40
0
40
0.13310052965944016
40
0.13310052965944016
40
0.13310052965944016
40
0.13310052965944016
10
8.8150140872408418
20
4.3389976061833799
30
0
10
8.791647437730834
20
4.3286613975230024
30
0
10
8.7622528109745659
20
4.318924312933647
30
0
10
8.7283558282784401
20
4.3099160106138488
30
0
0
SPLINE
5
733
100
AcDbEntity
8
0
100
AcDbSpline
70
1064
71
3
72
8
73
4
74
0
42
0.000000001
43
0.0000000001
44
0.0000000001
40
0.27967770716295148
40
0.27967770716295148
40
0.27967770716295148
40
0.27967770716295148
40
0.33574904638049624
40
0.33574904638049624
40
0.33574904638049624
40
0.33574904638049624
10
7.5557456515236803
20
4.2979346336950135
30
0
10
7.6073556785601335
20
4.3086520976822076
30
0
10
7.6596225067409343
20
4.3179919016116477
30
0
10
7.7123490541509341
20
4.3259544221279977
30
0
0
SPLINE
5
734
100
AcDbEntity
8
0
100
AcDbSpline
70
1064
71
3
72
8
73
4
74
0
42
0.000000001
43
0.0000000001
44
0.0000000001
40
0.69417319805439648
40
0.69417319805439648
40
0.69417319805439648
40
0.69417319805439648
40
1
40
1
40
1
40
1
10
8.7283558282803106
20
4.309916010608946
30
0
10
9.0040724248291131
20
4.2573912316489206
30
0
10
9.2559874607445103
20
4.1639655687628609
30
0
10
9.452122986196688
20
4.0297001352399686
30
0
0
SPLINE
5
735
100
AcDbEntity
8
0
100
AcDbSpline
70
1064
71
3
72
8
73
4
74
0
42
0.000000001
43
0.0000000001
44
0.0000000001
40
0.33073122096000485
40
0.33073122096000485
40
0.33073122096000485
40
0.33073122096000485
40
1
40
1
40
1
40
1
10
13.125003484231899
20
4.3490048411350815
30
0
10
12.986643425684678
20
4.4888760264338163
30
0
10
12.735427272947133
20
4.749005719018534
30
0
10
12.45360496767322
20
5.0449317910491898
30
0
0
SPLINE
5
736
100
AcDbEntity
8
0
100
AcDbSpline
70
1064
71
3
72
8
73
4
74
0
42
0.000000001
43
0.0000000001
44
0.0000000001
40
0
40
0
40
0
40
0
40
0.34875846882352668
40
0.34875846882352668
40
0.34875846882352668
40
0.34875846882352668
10
14.251248037477655
20
4.5479449809062462
30
0
10
14.177075414623696
20
4.4562181900639919
30
0
10
14.072102678950628
20
4.3782893963264646
30
0
10
13.957318234980193
20
4.3208966498597094
30
0
0
SPLINE
5
737
100
AcDbEntity
8
0
100
AcDbSpline
70
1064
71
3
72
8
73
4
74
0
42
0.000000001
43
0.0000000001
44
0.0000000001
40
0.65828131353615971
40
0.65828131353615971
40
0.65828131353615971
40
0.65828131353615971
40
1
40
1
40
1
40
1
10
13.957318470172279
20
4.3208965702688227
30
0
10
14.226180509492172
20
4.2693674795592775
30
0
10
14.47017221534392
20
4.1756868826169677
30
0
10
14.653174202211055
20
4.0413991765450179
30
0
0
SPLINE
5
738
100
AcDbEntity
8
0
100
AcDbSpline
70
1064
71
3
72
8
73
4
74
0
42
0.000000001
43
0.0000000001
44
0.0000000001
40
0.99999579579563858
40
0.99999579579563858
40
0.99999579579563858
40
0.99999579579563858
40
1
40
1
40
1
40
1
10
13.224339151550852
20
4.7165470861447867
30
0
10
13.224339501150649
20
4.716547971571921
30
0
10
13.224339850752669
20
4.7165488569999869
30
0
10
13.224340200356917
20
4.7165497424289837
30
0
0
SPLINE
5
739
100
AcDbEntity
8
0
100
AcDbSpline
70
1064
71
3
72
8
73
4
74
0
42
0.000000001
43
0.0000000001
44
0.0000000001
40
0
40
0
40
0
40
0
40
0.32170593717555906
40
0.32170593717555906
40
0.32170593717555906
40
0.32170593717555906
10
12.384853537126974
20
4.138383578333297
30
0
10
12.601990123435284
20
4.248156828158173
30
0
10
12.858752701592753
20
4.3179343705733082
30
0
10
13.125003482019235
20
4.3490048408712649
30
0
0
SPLINE
5
740
100
AcDbEntity
8
0
100
AcDbSpline
70
1064
71
3
72
8
73
4
74
0
42
0.000000001
43
0.0000000001
44
0.0000000001
40
0.36448602593598012
40
0.36448602593598012
40
0.36448602593598012
40
0.36448602593598012
40
0.36978072063928147
40
0.36978072063928147
40
0.36978072063928147
40
0.36978072063928147
10
13.231653138638485
20
4.3593496030021548
30
0
10
13.2360679026915
20
4.3596919136427648
30
0
10
13.240484151260697
20
4.3600237860483881
30
0
10
13.244901749990117
20
4.3603452259638322
30
0
0
SPLINE
5
741
100
AcDbEntity
8
0
100
AcDbSpline
70
1064
71
3
72
8
73
4
74
0
42
0.000000001
43
0.0000000001
44
0.0000000001
40
0.20143844077235926
40
0.20143844077235926
40
0.20143844077235926
40
0.20143844077235926
40
1
40
1
40
1
40
1
10
13.249596409592515
20
6.1166587584624068
30
0
10
13.342401193719564
20
6.4059423049125517
30
0
10
13.718623651511365
20
6.5640273931463629
30
0
10
14.146166801826594
20
6.4453024632649436
30
0
0
SPLINE
5
742
100
AcDbEntity
8
0
100
AcDbSpline
70
1064
71
3
72
8
73
4
74
0
42
0.000000001
43
0.0000000001
44
0.0000000001
40
0
40
0
40
0
40
0
40
0.60631352034687547
40
0.60631352034687547
40
0.60631352034687547
40
0.60631352034687547
10
13.369917914549184
20
6.4342971348405236
30
0
10
13.296615996285201
20
6.4342971348405236
30
0
10
13.262654712893278
20
6.386263517387154
30
0
10
13.249596409949177
20
6.1166587657833711
30
0
0
SPLINE
5
743
100
AcDbEntity
8
0
100
AcDbSpline
70
1064
71
3
72
8
73
4
74
0
42
0.000000001
43
0.0000000001
44
0.0000000001
40
0.76768874573152635
40
0.76768874573152635
40
0.76768874573152635
40
0.76768874573152635
40
1
40
1
40
1
40
1
10
13.243264364942853
20
5.8510259780303411
30
0
10
13.242023929714703
20
5.6978242599908207
30
0
10
13.243131763749961
20
5.5053136366622288
30
0
10
13.245550757432147
20
5.26373270221469
30
0
0
SPLINE
5
744
100
AcDbEntity
8
0
100
AcDbSpline
70
1064
71
3
72
8
73
4
74
0
42
0.000000001
43
0.0000000001
44
0.0000000001
40
0
40
0
40
0
40
0
40
0.8740707715786481
40
0.8740707715786481
40
0.8740707715786481
40
0.8740707715786481
10
11.298274962275149
20
4.3767939677962966
30
0
10
11.359718849761695
20
4.4151656570874076
30
0
10
11.36965903989244
20
4.4516484363715501
30
0
10
11.371188173191198
20
5.1054965962531247
30
0
0
SPLINE
5
745
100
AcDbEntity
8
0
100
AcDbSpline
70
1064
71
3
72
8
73
4
74
0
42
0.000000001
43
0.0000000001
44
0.0000000001
40
0.40914471096962912
40
0.40914471096962912
40
0.40914471096962912
40
0.40914471096962912
40
1
40
1
40
1
40
1
10
11.37118806288175
20
5.1054957968592456
30
0
10
11.35801542336622
20
5.010036242681128
30
0
10
11.331544857721367
20
4.9362257251474295
30
0
10
11.280768603382556
20
4.8273503726155447
30
0
0
SPLINE
5
746
100
AcDbEntity
8
0
100
AcDbSpline
70
1064
71
3
72
8
73
4
74
0
42
0.000000001
43
0.0000000001
44
0.0000000001
40
0
40
0
40
0
40
0
40
0.69148274950962396
40
0.69148274950962396
40
0.69148274950962396
40
0.69148274950962396
10
8.8231170757172688
20
5.3577268410029308
30
0
10
9.0003645357161233
20
5.3632849277712662
30
0
10
9.0929002290579568
20
5.3608175277542252
30
0
10
9.1331270182517645
20
5.3467469814378168
30
0
0
SPLINE
5
747
100
AcDbEntity
8
0
100
AcDbSpline
70
1064
71
3
72
8
73
4
74
0
42
0.000000001
43
0.0000000001
44
0.0000000001
40
0
40
0
40
0
40
0
40
0.47745655377071838
40
0.47745655377071838
40
0.47745655377071838
40
0.47745655377071838
10
9.7359851974141272
20
4.2740224707224437
30
0
10
9.352167620820742
20
4.4615211092203273
30
0
10
9.1516062616242628
20
4.8640751526921058
30
0
10
9.1343011198246913
20
5.2763253760805755
30
0
0
SPLINE
5
748
100
AcDbEntity
8
0
100
AcDbSpline
70
1064
71
3
72
8
73
4
74
0
42
0.000000001
43
0.0000000001
44
0.0000000001
40
0.50462158463570805
40
0.50462158463570805
40
0.50462158463570805
40
0.50462158463570805
40
1
40
1
40
1
40
1
10
9.1331270185040605
20
5.3467470085940887
30
0
10
9.1368078758461309
20
5.7749265347582348
30
0
10
9.337760602149487
20
6.2009662386201638
30
0
10
9.7359851974141272
20
6.3955028465868997
30
0
0
SPLINE
5
749
100
AcDbEntity
8
0
100
AcDbSpline
70
1064
71
3
72
8
73
4
74
0
42
0.000000001
43
0.0000000001
44
0.0000000001
40
0.2549856732261544
40
0.2549856732261544
40
0.2549856732261544
40
0.2549856732261544
40
1
40
1
40
1
40
1
10
7.0721378113352085
20
5.0696785158565554
30
0
10
7.0233668465051586
20
5.3029448786787619
30
0
10
7.026571008274761
20
5.6096844317505514
30
0
10
7.0913430990054316
20
5.8046942268377233
30
0
0
SPLINE
5
750
100
AcDbEntity
8
0
100
AcDbSpline
70
1064
71
3
72
8
73
4
74
0
42
0.000000001
43
0.0000000001
44
0.0000000001
40
0
40
0
40
0
40
0
40
0.1676756079315026
40
0.1676756079315026
40
0.1676756079315026
40
0.1676756079315026
10
6.9082780727281836
20
5.4844178043855081
30
0
10
6.9698160982513659
20
5.3260773497238612
30
0
10
7.0239839749834934
20
5.1886891078357014
30
0
10
7.0721377422729184
20
5.0696784879127508
30
0
0
SPLINE
5
751
100
AcDbEntity
8
0
100
AcDbSpline
70
1064
71
3
72
8
73
4
74
0
42
0.000000001
43
0.0000000001
44
0.0000000001
40
0.34641222827921359
40
0.34641222827921359
40
0.34641222827921359
40
0.34641222827921359
40
1
40
1
40
1
40
1
10
7.2072699480274789
20
4.7486226022042173
30
0
10
7.3509980587849126
20
4.4260446483329012
30
0
10
7.4253112585488381
20
4.3409952179258315
30
0
10
7.5105204259728664
20
4.3409952179258315
30
0
0
SPLINE
5
752
100
AcDbEntity
8
0
100
AcDbSpline
70
1064
71
3
72
8
73
4
74
0
42
0.000000001
43
0.0000000001
44
0.0000000001
40
0
40
0
40
0
40
0
40
0.015799482485789117
40
0.015799482485789117
40
0.015799482485789117
40
0.015799482485789117
10
6.5723451923983918
20
6.3290224684749647
30
0
10
6.5677617465530984
20
6.3290224684749647
30
0
10
6.5632377356644227
20
6.3290253613977292
30
0
10
6.5587715973958796
20
6.3290314954164506
30
0
0
SPLINE
5
753
100
AcDbEntity
8
0
100
AcDbSpline
70
1064
71
3
72
8
73
4
74
0
42
0.000000001
43
0.0000000001
44
0.0000000001
40
0.21648374470829168
40
0.21648374470829168
40
0.21648374470829168
40
0.21648374470829168
40
1
40
1
40
1
40
1
10
6.4133952734191313
20
6.3315475094714264
30
0
10
6.2523221379678908
20
6.3387206186371303
30
0
10
6.1847707503350486
20
6.3647407053013145
30
0
10
6.0201994159400325
20
6.4520707798113328
30
0
0
SPLINE
5
754
100
AcDbEntity
8
0
100
AcDbSpline
70
1064
71
3
72
8
73
4
74
0
42
0.000000001
43
0.0000000001
44
0.0000000001
40
0.33336955243416422
40
0.33336955243416422
40
0.33336955243416422
40
0.33336955243416422
40
1
40
1
40
1
40
1
10
6.558771597236067
20
6.3290314953415079
30
0
10
6.6376787466983096
20
6.1586466650030065
30
0
10
6.7688083305782714
20
5.8432802760329468
30
0
10
6.9082780727281836
20
5.4844178043855081
30
0
0
SPLINE
5
755
100
AcDbEntity
8
0
100
AcDbSpline
70
1064
71
3
72
8
73
4
74
0
42
0.000000001
43
0.0000000001
44
0.0000000001
40
0.40419868478730697
40
0.40419868478730697
40
0.40419868478730697
40
0.40419868478730697
40
1
40
1
40
1
40
1
10
7.6334394877104703
20
6.345201458828881
30
0
10
7.5550974211345157
20
6.3523174994455882
30
0
10
7.5302500969283175
20
6.3661525318634187
30
0
10
7.5302503588516672
20
6.3910530609229248
30
0
0
SPLINE
5
756
100
AcDbEntity
8
0
100
AcDbSpline
70
1064
71
3
72
8
73
4
74
0
42
0.000000001
43
0.0000000001
44
0.0000000001
40
0
40
0
40
0
40
0
40
0.4918847943450087
40
0.4918847943450087
40
0.4918847943450087
40
0.4918847943450087
10
7.0913430990054316
20
5.8046942268377233
30
0
10
7.17318250213944
20
6.0510898302907643
30
0
10
7.3652765066592041
20
6.2357617091355397
30
0
10
7.6334391040710674
20
6.345201302083896
30
0
0
SPLINE
5
757
100
AcDbEntity
8
0
100
AcDbSpline
70
1064
71
3
72
8
73
4
74
0
42
0.000000001
43
0.0000000001
44
0.0000000001
40
0.77395037188071758
40
0.77395037188071758
40
0.77395037188071758
40
0.77395037188071758
40
1
40
1
40
1
40
1
10
8.1633581852375414
20
6.4567083955325772
30
0
10
8.3215208175134645
20
6.4653092111494113
30
0
10
8.4916085032641462
20
6.4563854730769314
30
0
10
8.6703032943417337
20
6.4286260979836483
30
0
0
SPLINE
5
758
100
AcDbEntity
8
0
100
AcDbSpline
70
1064
71
3
72
8
73
4
74
0
42
0.000000001
43
0.0000000001
44
0.0000000001
40
0.2728396547717189
40
0.2728396547717189
40
0.2728396547717189
40
0.2728396547717189
40
1
40
1
40
1
40
1
10
7.6762895114557521
20
7.127320392908068
30
0
10
7.5946530009175719
20
6.8256301071042857
30
0
10
7.4047459935692252
20
6.5921123562103228
30
0
10
7.116524261110996
20
6.4440504390038278
30
0
0
SPLINE
5
759
100
AcDbEntity
8
0
100
AcDbSpline
70
1064
71
3
72
8
73
4
74
0
42
0.000000001
43
0.0000000001
44
0.0000000001
40
0
40
0
40
0
40
0
40
0.80252816570966523
40
0.80252816570966523
40
0.80252816570966523
40
0.80252816570966523
10
5.3391607531644558
20
10.679763693552703
30
0
10
5.6804062700997999
20
10.783089997810816
30
0
10
6.0896666527552279
20
10.727766219724257
30
0
10
6.3785092139396884
20
10.555531533507732
30
0
0
SPLINE
5
760
100
AcDbEntity
8
0
100
AcDbSpline
70
1064
71
3
72
8
73
4
74
0
42
0.000000001
43
0.0000000001
44
0.0000000001
40
0.94136412497940136
40
0.94136412497940136
40
0.94136412497940136
40
0.94136412497940136
40
1
40
1
40
1
40
1
10
6.5166296209496615
20
10.455861882419132
30
0
10
6.5342774085749138
20
10.440413514646236
30
0
10
6.551108342883583
20
10.424379583769241
30
0
10
6.567048927550859
20
10.407776369744404
30
0
0
SPLINE
5
761
100
AcDbEntity
8
0
100
AcDbSpline
70
1064
71
3
72
8
73
4
74
0
42
0.000000001
43
0.0000000001
44
0.0000000001
40
0
40
0
40
0
40
0
40
0.060537696915671527
40
0.060537696915671527
40
0.060537696915671527
40
0.060537696915671527
10
6.5214621439115312
20
10.481204427428901
30
0
10
6.5201578129981685
20
10.471945395832245
30
0
10
6.5185335539745255
20
10.463506617786328
30
0
10
6.5166296209936778
20
10.45586188234148
30
0
0
SPLINE
5
762
100
AcDbEntity
8
0
100
AcDbSpline
70
1064
71
3
72
8
73
4
74
0
42
0.000000001
43
0.0000000001
44
0.0000000001
40
0.96103942830227818
40
0.96103942830227818
40
0.96103942830227818
40
0.96103942830227818
40
1
40
1
40
1
40
1
10
6.378509232636338
20
10.555531535928029
30
0
10
6.3776614275607475
20
10.562082165665819
30
0
10
6.3769457939661169
20
10.568800191331517
30
0
10
6.3763730620810026
20
10.575678626081308
30
0
0
SPLINE
5
763
100
AcDbEntity
8
0
100
AcDbSpline
70
1064
71
3
72
8
73
4
74
0
42
0.000000001
43
0.0000000001
44
0.0000000001
40
0.31551483576425909
40
0.31551483576425909
40
0.31551483576425909
40
0.31551483576425909
40
1
40
1
40
1
40
1
10
7.5381142262376839
20
8.5867108905130696
30
0
10
7.6089886693257247
20
8.6028059374311496
30
0
10
7.7781586223241916
20
8.6071852400049149
30
0
10
8.1385499509593302
20
8.6071852400049149
30
0
0
SPLINE
5
764
100
AcDbEntity
8
0
100
AcDbSpline
70
1064
71
3
72
8
73
4
74
0
42
0.000000001
43
0.0000000001
44
0.0000000001
40
0.4228621151242542
40
0.4228621151242542
40
0.4228621151242542
40
0.4228621151242542
40
1
40
1
40
1
40
1
10
7.4990031258091996
20
8.5378192359350713
30
0
10
7.4592141378965335
20
8.5268859823534005
30
0
10
7.3865209404578671
20
8.5228863761656264
30
0
10
7.2652239030737356
20
8.5228863761656264
30
0
0
LINE
5
765
100
AcDbEntity
8
0
100
AcDbLine
10
8.1385499509593302
20
8.6071852400049149
30
0
11
8.1414829670026592
21
8.6071852385628826
31
0
0
LINE
5
766
100
AcDbEntity
8
0
100
AcDbLine
10
8.7058343667463358
20
8.6071852399995361
30
0
11
8.7834400400211194
21
8.6071852400049149
31
0
0
SPLINE
5
767
100
AcDbEntity
8
0
100
AcDbSpline
70
1064
71
3
72
8
73
4
74
0
42
0.000000001
43
0.0000000001
44
0.0000000001
40
0
40
0
40
0
40
0
40
0.40222894112888086
40
0.40222894112888086
40
0.40222894112888086
40
0.40222894112888086
10
8.1770848662094213
20
10.628605665720572
30
0
10
8.1617616572065295
20
10.628605665720572
30
0
10
8.1475590862502649
20
10.632464598054787
30
0
10
8.1360547604243809
20
10.638975247858401
30
0
0
LINE
5
768
100
AcDbEntity
8
0
100
AcDbLine
10
8.1500652330856056
20
10.731867773424831
30
0
11
8.1482490273934616
21
10.719825928010163
31
0
0
LINE
5
769
100
AcDbEntity
8
0
100
AcDbLine
10
8.1360547604243791
20
10.638975247858401
30
0
11
8.1250243082480544
21
10.565840915788041
31
0
0
SPLINE
5
770
100
AcDbEntity
8
0
100
AcDbSpline
70
1064
71
3
72
8
73
4
74
0
42
0.000000001
43
0.0000000001
44
0.0000000001
40
0
40
0
40
0
40
0
40
0.068728626061606679
40
0.068728626061606679
40
0.068728626061606679
40
0.068728626061606679
10
10.217585033834011
20
10.633681463515105
30
0
10
10.203644042432948
20
10.638981811489606
30
0
10
10.191258091723697
20
10.644056888215029
30
0
10
10.180467442531629
20
10.648916069558677
30
0
0
SPLINE
5
771
100
AcDbEntity
8
0
100
AcDbSpline
70
1064
71
3
72
8
73
4
74
0
42
0.000000001
43
0.0000000001
44
0.0000000001
40
0.48156752237633804
40
0.48156752237633804
40
0.48156752237633804
40
0.48156752237633804
40
1
40
1
40
1
40
1
10
10.167424790048361
20
10.715142935050766
30
0
10
10.24155412434005
20
10.734783857415895
30
0
10
10.420215963548822
20
10.745344946386595
30
0
10
10.720690409168734
20
10.750850360361254
30
0
0
SPLINE
5
772
100
AcDbEntity
8
0
100
AcDbSpline
70
1064
71
3
72
8
73
4
74
0
42
0.000000001
43
0.0000000001
44
0.0000000001
40
0.44453399794148413
40
0.44453399794148413
40
0.44453399794148413
40
0.44453399794148413
40
1
40
1
40
1
40
1
10
10.180467443164833
20
10.648916069290131
30
0
10
10.17037905733233
20
10.634461026404704
30
0
10
10.155305016215268
20
10.622040231098199
30
0
10
10.138537374278084
20
10.615826050105895
30
0
0
SPLINE
5
773
100
AcDbEntity
8
0
100
AcDbSpline
70
1064
71
3
72
8
73
4
74
0
42
0.000000001
43
0.0000000001
44
0.0000000001
40
0
40
0
40
0
40
0
40
0.0095518133479972483
40
0.0095518133479972483
40
0.0095518133479972483
40
0.0095518133479972483
10
11.342712152008993
20
10.65038156802045
30
0
10
11.34242382343346
20
10.650492122528441
30
0
10
11.34213599550144
20
10.650604575887987
30
0
10
11.341848684955099
20
10.650718906147315
30
0
0
SPLINE
5
774
100
AcDbEntity
8
0
100
AcDbSpline
70
1064
71
3
72
8
73
4
74
0
42
0.000000001
43
0.0000000001
44
0.0000000001
40
0
40
0
40
0
40
0
40
0.016613757602123809
40
0.016613757602123809
40
0.016613757602123809
40
0.016613757602123809
10
11.334836005006842
20
10.755304542177832
30
0
10
11.335014798637216
20
10.755245674667178
30
0
10
11.335190621833556
20
10.755163149493814
30
0
10
11.33536347459586
20
10.755057284977795
30
0
0
SPLINE
5
775
100
AcDbEntity
8
0
100
AcDbSpline
70
1064
71
3
72
8
73
4
74
0
42
0.000000001
43
0.0000000001
44
0.0000000001
40
0.6810818642023827
40
0.6810818642023827
40
0.6810818642023827
40
0.6810818642023827
40
1
40
1
40
1
40
1
10
11.34184868401903
20
10.650718906188464
30
0
10
11.340605691993819
20
10.622623699651463
30
0
10
11.338268132323089
20
10.590619535782256
30
0
10
11.334836005006842
20
10.556958049839977
30
0
0
SPLINE
5
776
100
AcDbEntity
8
0
100
AcDbSpline
70
1064
71
3
72
8
73
4
74
0
42
0.000000001
43
0.0000000001
44
0.0000000001
40
0.46387046670044019
40
0.46387046670044019
40
0.46387046670044019
40
0.46387046670044019
40
1
40
1
40
1
40
1
10
10.181402378024192
20
8.6006926542009019
30
0
10
10.194826951557978
20
8.6145673975772663
30
0
10
10.214301869622096
20
8.6262073864739151
30
0
10
10.235880062503444
20
8.6318502937949759
30
0
0
SPLINE
5
777
100
AcDbEntity
8
0
100
AcDbSpline
70
1064
71
3
72
8
73
4
74
0
42
0.000000001
43
0.0000000001
44
0.0000000001
40
0
40
0
40
0
40
0
40
0.57289720721627524
40
0.57289720721627524
40
0.57289720721627524
40
0.57289720721627524
10
10.138537374278084
20
8.6369929131090633
30
0
10
10.15583120540693
20
8.6305842271960262
30
0
10
10.171323473342618
20
8.61685097345201
30
0
10
10.181402369888152
20
8.6006926597145235
30
0
0
SPLINE
5
778
100
AcDbEntity
8
0
100
AcDbSpline
70
1064
71
3
72
8
73
4
74
0
42
0.000000001
43
0.0000000001
44
0.0000000001
40
0.69830657870152812
40
0.69830657870152812
40
0.69830657870152812
40
0.69830657870152812
40
1
40
1
40
1
40
1
10
11.344144147450704
20
8.6101181610478541
30
0
10
11.349197718284721
20
8.6140832105026526
30
0
10
11.354935954113641
20
8.6163292374175491
30
0
10
11.361007180678426
20
8.6163292374175491
30
0
0
LINE
5
779
100
AcDbEntity
8
0
100
AcDbLine
10
11.347286788406873
20
8.6258319608825254
30
0
11
11.344144147450704
21
8.6101181610478541
31
0
0
LINE
5
780
100
AcDbEntity
8
0
100
AcDbLine
10
11.330316808215462
20
8.5409788466879668
30
0
11
11.32441922024948
21
8.5114897901596116
31
0
0
ARC
5
781
100
AcDbEntity
8
0
100
AcDbCircle
10
11.335759638659864
20
8.7824085650097103
30
0
40
0.13158399568073717
100
AcDbArc
50
66.129935626812767
51
90.955433387413905
0
SPLINE
5
782
100
AcDbEntity
8
0
100
AcDbSpline
70
1064
71
3
72
8
73
4
74
0
42
0.000000001
43
0.0000000001
44
0.0000000001
40
0.99997847213050817
40
0.99997847213050817
40
0.99997847213050817
40
0.99997847213050817
40
1
40
1
40
1
40
1
10
11.347288959313474
20
8.6258428156222227
30
0
10
11.347288235696169
20
8.6258391973979052
30
0
10
11.347287512060635
20
8.6258355791513406
30
0
10
11.347286788406873
20
8.6258319608825254
30
0
0
SPLINE
5
783
100
AcDbEntity
8
0
100
AcDbSpline
70
1064
71
3
72
8
73
4
74
0
42
0.000000001
43
0.0000000001
44
0.0000000001
40
0.5244573776712117
40
0.5244573776712117
40
0.5244573776712117
40
0.5244573776712117
40
1
40
1
40
1
40
1
10
11.389006925798018
20
8.9027375903194574
30
0
10
11.394637968992399
20
9.0726802931581307
30
0
10
11.397596358786773
20
9.3153335271905693
30
0
10
11.397596358786773
20
9.6228345303113478
30
0
0
SPLINE
5
784
100
AcDbEntity
8
0
100
AcDbSpline
70
1064
71
3
72
8
73
4
74
0
42
0.000000001
43
0.0000000001
44
0.0000000001
40
0.27578690680331941
40
0.27578690680331941
40
0.27578690680331941
40
0.27578690680331941
40
1
40
1
40
1
40
1
10
5.9933401225935414
20
8.4517317392540505
30
0
10
5.7925458867054544
20
8.4122112657071462
30
0
10
5.5339911281662015
20
8.4029670486167625
30
0
10
5.3990522876599876
20
8.4399265804089776
30
0
0
SPLINE
5
785
100
AcDbEntity
8
0
100
AcDbSpline
70
1064
71
3
72
8
73
4
74
0
42
0.000000001
43
0.0000000001
44
0.0000000001
40
0.2418228117192168
40
0.2418228117192168
40
0.2418228117192168
40
0.2418228117192168
40
1
40
1
40
1
40
1
10
6.2834946179906543
20
8.5593189406444754
30
0
10
6.5292487897537272
20
8.6065432833437132
30
0
10
6.8575079562935608
20
8.5977414785550543
30
0
10
7.0604029769909493
20
8.5266705843256254
30
0
0
SPLINE
5
786
100
AcDbEntity
8
0
100
AcDbSpline
70
1064
71
3
72
8
73
4
74
0
42
0.000000001
43
0.0000000001
44
0.0000000001
40
0.32750462128299018
40
0.32750462128299018
40
0.32750462128299018
40
0.32750462128299018
40
1
40
1
40
1
40
1
10
4.6115265885389878
20
9.3518605944773476
30
0
10
4.5724504211540209
20
9.6266035090820452
30
0
10
4.6082277536037495
20
9.9270243019600581
30
0
10
4.7190938694825935
20
10.153371018653456
30
0
0
LINE
5
787
100
AcDbEntity
8
0
100
AcDbLine
10
4.5488119757421037
20
9.7271015985004752
30
0
11
4.6115265885389878
21
9.3518605944773476
31
0
0
LINE
5
788
100
AcDbEntity
8
0
100
AcDbLine
10
4.7396126919458634
20
8.6675365021588249
30
0
11
4.6528626286037902
21
9.10453423010207
31
0
0
ARC
5
789
100
AcDbEntity
8
0
100
AcDbCircle
10
6.0447657375653483
20
9.7958616233734759
30
0
40
1.5541325006010613
100
AcDbArc
50
206.41257111429772
51
211.65476241793516
0
LINE
5
790
100
AcDbEntity
8
0
100
AcDbLine
10
1.3273695574840958
20
0.25534287399297539
30
0
11
1.3273695574840958
21
-0.86157059817113013
31
0
0
LINE
5
791
100
AcDbEntity
8
0
100
AcDbLine
10
1.3273695574840958
20
-0.86157059817113013
30
0
11
4.1558135255901698
21
-0.86157059817113013
31
0
0
LINE
5
792
100
AcDbEntity
8
0
100
AcDbLine
10
4.1558135255901698
20
-0.86157059817113013
30
0
11
4.1558135255901698
21
0.25534287399297539
31
0
0
SPLINE
5
793
100
AcDbEntity
8
0
100
AcDbSpline
70
1064
71
3
72
8
73
4
74
0
42
0.000000001
43
0.0000000001
44
0.0000000001
40
0.81452937324633268
40
0.81452937324633268
40
0.81452937324633268
40
0.81452937324633268
40
1
40
1
40
1
40
1
10
1.3273695575420872
20
0.21713228142961274
30
0
10
1.3054974904890422
20
0.22241610842458601
30
0
10
1.2849088555348804
20
0.22890395252110177
30
0
10
1.2662556032208365
20
0.23656602699833854
30
0
0
SPLINE
5
794
100
AcDbEntity
8
0
100
AcDbSpline
70
1064
71
3
72
8
73
4
74
0
42
0.000000001
43
0.0000000001
44
0.0000000001
40
0.51245635508548892
40
0.51245635508548892
40
0.51245635508548892
40
0.51245635508548892
40
1
40
1
40
1
40
1
10
2.4054011829919593
20
0.25534288140420369
30
0
10
2.3457090761431743
20
0.27460777311891843
30
0
10
2.3275221312035996
20
0.30547305268430613
30
0
10
2.3659986768476626
20
0.34336088293374994
30
0
0
LINE
5
795
100
AcDbEntity
8
0
100
AcDbLine
10
2.4054011829919593
20
0.25534288140420369
30
0
11
1.6635771599398288
21
0.25534287401666511
31
0
0
LINE
5
796
100
AcDbEntity
8
0
100
AcDbLine
10
4.1558135255901698
20
0.25534287399297539
30
0
11
3.333662834986669
21
0.25534287399297545
31
0
0
LINE
5
797
100
AcDbEntity
8
0
100
AcDbLine
10
3.0843413870966145
20
0.25534287399297539
30
0
11
2.8181814512448753
21
0.25534287401753758
31
0
0
LINE
5
798
100
AcDbEntity
8
0
100
AcDbLine
10
9.8109726200857228
20
-1.3740002083248308
30
0
11
9.8109726200857228
21
-2.4844930634041265
31
0
0
LINE
5
799
100
AcDbEntity
8
0
100
AcDbLine
10
9.8109726200857228
20
-2.4844930634041265
30
0
11
5.9988469146063661
21
-2.4844930634041265
31
0
0
LINE
5
800
100
AcDbEntity
8
0
100
AcDbLine
10
5.9988469146063661
20
-2.4844930634041265
30
0
11
5.9988469146063661
21
-1.3740002083248308
31
0
0
SPLINE
5
801
100
AcDbEntity
8
0
100
AcDbSpline
70
1064
71
3
72
8
73
4
74
0
42
0.000000001
43
0.0000000001
44
0.0000000001
40
0.96786085817307321
40
0.96786085817307321
40
0.96786085817307321
40
0.96786085817307321
40
1
40
1
40
1
40
1
10
7.4966269476854857
20
-1.3740002083241005
30
0
10
7.492717354414955
20
-1.3688460573528807
30
0
10
7.4888813226021638
20
-1.3635259213451998
30
0
10
7.4851198958524519
20
-1.3580398556416651
30
0
0
LINE
5
802
100
AcDbEntity
8
0
100
AcDbLine
10
5.9988469146063661
20
-1.3740002083248308
30
0
11
7.4966269476854857
21
-1.3740002083241005
31
0
0
LINE
5
803
100
AcDbEntity
8
0
100
AcDbLine
10
8.8628669530343185
20
-1.3740002082170659
30
0
11
9.8109726200857228
21
-1.3740002083248308
31
0
0
SPLINE
5
804
100
AcDbEntity
8
0
100
AcDbSpline
70
1064
71
3
72
8
73
4
74
0
42
0.000000001
43
0.0000000001
44
0.0000000001
40
0
40
0
40
0
40
0
40
0.066544859056757805
40
0.066544859056757805
40
0.066544859056757805
40
0.066544859056757805
10
8.8851393154752873
20
-1.3465043512134176
30
0
10
8.8784578464448813
20
-1.3562492548083294
30
0
10
8.8709994211647327
20
-1.3654165299219536
30
0
10
8.8628669530343185
20
-1.3740002082170666
30
0
0
SPLINE
5
805
100
AcDbEntity
8
0
100
AcDbSpline
70
1064
71
3
72
8
73
4
74
0
42
0.000000001
43
0.0000000001
44
0.0000000001
40
0
40
0
40
0
40
0
40
0.00067038828693538242
40
0.00067038828693538242
40
0.00067038828693538242
40
0.00067038828693538242
10
8.4067992262099551
20
-1.3742458325945188
30
0
10
8.4067371567216185
20
-1.3741639224429008
30
0
10
8.4066750865670699
20
-1.3740820685527013
30
0
10
8.406613015715239
20
-1.3740002709249111
30
0
0
SPLINE
5
806
100
AcDbEntity
8
0
100
AcDbSpline
70
1064
71
3
72
8
73
4
74
0
42
0.000000001
43
0.0000000001
44
0.0000000001
40
0.96714642322732247
40
0.96714642322732247
40
0.96714642322732247
40
0.96714642322732247
40
1
40
1
40
1
40
1
10
8.0407176752092866
20
-1.3740002083257157
30
0
10
8.0344127855784926
20
-1.3780424649907204
30
0
10
8.0279986510125401
20
-1.3822232735852962
30
0
10
8.0214716148567877
20
-1.386542750653472
30
0
0
LINE
5
807
100
AcDbEntity
8
0
100
AcDbLine
10
11.803112416537152
20
-0.81972899627047158
30
0
11
14.389361074368816
21
-0.81972899627047158
31
0
0
LINE
5
808
100
AcDbEntity
8
0
100
AcDbLine
10
14.389361074368816
20
-0.81972899627047158
30
0
11
14.389361074368816
21
0.27019870215023406
31
0
0
SPLINE
5
809
100
AcDbEntity
8
0
100
AcDbSpline
70
1064
71
3
72
8
73
4
74
0
42
0.000000001
43
0.0000000001
44
0.0000000001
40
0
40
0
40
0
40
0
40
0.15679544448369476
40
0.15679544448369476
40
0.15679544448369476
40
0.15679544448369476
10
12.09334641653426
20
0.35743736356608435
30
0
10
12.084295812987055
20
0.33000363057364041
30
0
10
12.072678775416026
20
0.30036505126351876
30
0
10
12.059522621529545
20
0.27019870583975647
30
0
0
LINE
5
810
100
AcDbEntity
8
0
100
AcDbLine
10
11.803112416537152
20
0.27019870215023406
30
0
11
11.80311241303718
21
0.26534055224197894
31
0
0
LINE
5
811
100
AcDbEntity
8
0
100
AcDbLine
10
11.803112416528645
20
0.043189428514300181
30
0
11
11.803112416537152
21
-0.81972899627047158
31
0
0
LINE
5
812
100
AcDbEntity
8
0
100
AcDbLine
10
11.808142280414758
20
0.2701987021509854
30
0
11
11.803112416537152
21
0.27019870215023406
31
0
0
SPLINE
5
813
100
AcDbEntity
8
0
100
AcDbSpline
70
1064
71
3
72
8
73
4
74
0
42
0.000000001
43
0.0000000001
44
0.0000000001
40
0.31443749385568248
40
0.31443749385568248
40
0.31443749385568248
40
0.31443749385568248
40
1
40
1
40
1
40
1
10
12.146386863886015
20
0.27019870570307186
30
0
10
12.138152390023826
20
0.29981687262932294
30
0
10
12.145129088545113
20
0.33109617953295445
30
0
10
12.167316959449872
20
0.38220001194391517
30
0
0
LINE
5
814
100
AcDbEntity
8
0
100
AcDbLine
10
14.389361074368816
20
0.27019870215023406
30
0
11
12.767191301795714
21
0.27019870582838895
31
0
0
LINE
5
815
100
AcDbEntity
8
0
100
AcDbLine
10
12.523788849927774
20
0.27019870522933698
30
0
11
12.296793845904874
21
0.27019870547266617
31
0
0
LINE
5
816
100
AcDbEntity
8
0
100
AcDbLine
10
12.392811247332759
20
0.07665016622503712
30
0
11
12.392811247332759
21
-0.045420146274962873
31
0
0
LINE
5
817
100
AcDbEntity
8
0
100
AcDbLine
10
12.392811247332759
20
-0.045420146274962873
30
0
11
12.124256559832759
21
-0.045420146274962873
31
0
0
SPLINE
5
818
100
AcDbEntity
8
0
100
AcDbSpline
70
1064
71
3
72
9
73
5
74
0
42
0.000000001
43
0.0000000001
44
0.0000000001
40
0
40
0
40
0
40
0
40
0.049024568217942405
40
0.098049136435884809
40
0.098049136435884809
40
0.098049136435884809
40
0.098049136435884809
10
12.124256559832759
20
-0.045420146274962873
30
0
10
12.117135791603593
20
-0.04643739887912951
30
0
10
12.102894255145259
20
-0.048471904087462866
30
0
10
12.100859749936925
20
-0.062713440545796181
30
0
10
12.099842497332759
20
-0.069834208774962866
30
0
0
LINE
5
819
100
AcDbEntity
8
0
100
AcDbLine
10
12.099842497332759
20
-0.069834208774962866
30
0
11
12.099842497332759
21
-0.58252952127496282
31
0
0
SPLINE
5
820
100
AcDbEntity
8
0
100
AcDbSpline
70
1064
71
3
72
9
73
5
74
0
42
0.000000001
43
0.0000000001
44
0.0000000001
40
0
40
0
40
0
40
0
40
0.049024568217942405
40
0.098049136435884809
40
0.098049136435884809
40
0.098049136435884809
40
0.098049136435884809
10
12.099842497332759
20
-0.58252952127496282
30
0
10
12.100859749936925
20
-0.58965028950412945
30
0
10
12.102894255145259
20
-0.60389182596246282
30
0
10
12.117135791603593
20
-0.60592633117079597
30
0
10
12.124256559832759
20
-0.60694358377496282
30
0
0
LINE
5
821
100
AcDbEntity
8
0
100
AcDbLine
10
12.124256559832761
20
-0.60694358377496282
30
0
11
12.246326872332759
21
-0.60694358377496282
31
0
0
SPLINE
5
822
100
AcDbEntity
8
0
100
AcDbSpline
70
1064
71
3
72
9
73
5
74
0
42
0.000000001
43
0.0000000001
44
0.0000000001
40
0
40
0
40
0
40
0
40
0.049024568217942405
40
0.098049136435884809
40
0.098049136435884809
40
0.098049136435884809
40
0.098049136435884809
10
12.246326872332759
20
-0.60694358377496282
30
0
10
12.253447640561925
20
-0.6059263311707962
30
0
10
12.267689177020259
20
-0.60389182596246305
30
0
10
12.269723682228593
20
-0.58965028950412934
30
0
10
12.270740934832759
20
-0.58252952127496282
30
0
0
LINE
5
823
100
AcDbEntity
8
0
100
AcDbLine
10
12.270740934832761
20
-0.58252952127496271
30
0
11
12.270740934832759
21
-0.33838889627496282
31
0
0
LINE
5
824
100
AcDbEntity
8
0
100
AcDbLine
10
12.270740934832759
20
-0.33838889627496282
30
0
11
12.148670622332759
21
-0.33838889627496282
31
0
0
LINE
5
825
100
AcDbEntity
8
0
100
AcDbLine
10
12.148670622332759
20
-0.33838889627496282
30
0
11
12.148670622332759
21
-0.21631858377496285
31
0
0
LINE
5
826
100
AcDbEntity
8
0
100
AcDbLine
10
12.148670622332759
20
-0.21631858377496285
30
0
11
12.392811247332759
21
-0.21631858377496285
31
0
0
LINE
5
827
100
AcDbEntity
8
0
100
AcDbLine
10
12.392811247332759
20
-0.21631858377496285
30
0
11
12.392811247332759
21
-0.65577170877496282
31
0
0
SPLINE
5
828
100
AcDbEntity
8
0
100
AcDbSpline
70
1064
71
3
72
9
73
5
74
0
42
0.000000001
43
0.0000000001
44
0.0000000001
40
0
40
0
40
0
40
0
40
0.14707370465382721
40
0.29414740930765443
40
0.29414740930765443
40
0.29414740930765443
40
0.29414740930765443
10
12.392811247332759
20
-0.65577170877496282
30
0
10
12.389759489520259
20
-0.67713401346246282
30
0
10
12.383655973895259
20
-0.71985862283746282
30
0
10
12.340931364520259
20
-0.72596213846246282
30
0
10
12.319569059832759
20
-0.72901389627496282
30
0
0
LINE
5
829
100
AcDbEntity
8
0
100
AcDbLine
10
12.319569059832759
20
-0.72901389627496282
30
0
11
12.051014372332759
21
-0.72901389627496282
31
0
0
SPLINE
5
830
100
AcDbEntity
8
0
100
AcDbSpline
70
1064
71
3
72
9
73
5
74
0
42
0.000000001
43
0.0000000001
44
0.0000000001
40
0
40
0
40
0
40
0
40
0.14707370465382721
40
0.29414740930765443
40
0.29414740930765443
40
0.29414740930765443
40
0.29414740930765443
10
12.051014372332759
20
-0.72901389627496282
30
0
10
12.029652067645259
20
-0.72596213846246282
30
0
10
11.986927458270259
20
-0.71985862283746282
30
0
10
11.980823942645259
20
-0.67713401346246305
30
0
10
11.977772184832759
20
-0.65577170877496282
30
0
0
LINE
5
831
100
AcDbEntity
8
0
100
AcDbLine
10
11.977772184832759
20
-0.65577170877496271
30
0
11
11.977772184832759
21
0.0034079787250371257
31
0
0
SPLINE
5
832
100
AcDbEntity
8
0
100
AcDbSpline
70
1064
71
3
72
9
73
5
74
0
42
0.000000001
43
0.0000000001
44
0.0000000001
40
0
40
0
40
0
40
0
40
0.14707370465382721
40
0.29414740930765443
40
0.29414740930765443
40
0.29414740930765443
40
0.29414740930765443
10
11.977772184832759
20
0.0034079787250371257
30
0
10
11.980823942645259
20
0.024770283412537123
30
0
10
11.986927458270259
20
0.067494892787537134
30
0
10
12.029652067645259
20
0.073598408412537106
30
0
10
12.051014372332759
20
0.07665016622503712
30
0
0
LINE
5
833
100
AcDbEntity
8
0
100
AcDbLine
10
12.051014372332761
20
0.076650166225037134
30
0
11
12.392811247332759
21
0.07665016622503712
31
0
0
SPLINE
5
834
100
AcDbEntity
8
0
100
AcDbSpline
70
1064
71
3
72
9
73
5
74
0
42
0.000000001
43
0.0000000001
44
0.0000000001
40
0
40
0
40
0
40
0
40
0.049024568217942405
40
0.098049136435884809
40
0.098049136435884809
40
0.098049136435884809
40
0.098049136435884809
10
12.710194059832761
20
-0.38721702127496282
30
0
10
12.717314828061925
20
-0.38619976867079614
30
0
10
12.731556364520261
20
-0.38416526346246282
30
0
10
12.733590869728593
20
-0.36992372700412945
30
0
10
12.734608122332761
20
-0.36280295877496282
30
0
0
LINE
5
835
100
AcDbEntity
8
0
100
AcDbLine
10
12.734608122332764
20
-0.36280295877496288
30
0
11
12.734608122332761
21
-0.069834208774962866
31
0
0
SPLINE
5
836
100
AcDbEntity
8
0
100
AcDbSpline
70
1064
71
3
72
9
73
5
74
0
42
0.000000001
43
0.0000000001
44
0.0000000001
40
0
40
0
40
0
40
0
40
0.049024568217942405
40
0.098049136435884809
40
0.098049136435884809
40
0.098049136435884809
40
0.098049136435884809
10
12.734608122332761
20
-0.069834208774962866
30
0
10
12.733590869728593
20
-0.062713440545796181
30
0
10
12.731556364520261
20
-0.048471904087462866
30
0
10
12.717314828061925
20
-0.04643739887912951
30
0
10
12.710194059832761
20
-0.045420146274962873
30
0
0
LINE
5
837
100
AcDbEntity
8
0
100
AcDbLine
10
12.710194059832759
20
-0.045420146274962866
30
0
11
12.563709684832761
21
-0.045420146274962873
31
0
0
LINE
5
838
100
AcDbEntity
8
0
100
AcDbLine
10
12.563709684832761
20
-0.045420146274962873
30
0
11
12.563709684832759
21
-0.72901389627496282
31
0
0
LINE
5
839
100
AcDbEntity
8
0
100
AcDbLine
10
12.563709684832759
20
-0.72901389627496282
30
0
11
12.441639372332759
21
-0.72901389627496282
31
0
0
LINE
5
840
100
AcDbEntity
8
0
100
AcDbLine
10
12.441639372332759
20
-0.72901389627496282
30
0
11
12.441639372332759
21
0.07665016622503712
31
0
0
LINE
5
841
100
AcDbEntity
8
0
100
AcDbLine
10
12.441639372332759
20
0.07665016622503712
30
0
11
12.783436247332761
21
0.07665016622503712
31
0
0
SPLINE
5
842
100
AcDbEntity
8
0
100
AcDbSpline
70
1064
71
3
72
9
73
5
74
0
42
0.000000001
43
0.0000000001
44
0.0000000001
40
0
40
0
40
0
40
0
40
0.14707370465382721
40
0.29414740930765443
40
0.29414740930765443
40
0.29414740930765443
40
0.29414740930765443
10
12.783436247332761
20
0.07665016622503712
30
0
10
12.804798552020261
20
0.07359840841253712
30
0
10
12.847523161395261
20
0.06749489278753712
30
0
10
12.853626677020261
20
0.024770283412537123
30
0
10
12.856678434832761
20
0.0034079787250371257
30
0
0
LINE
5
843
100
AcDbEntity
8
0
100
AcDbLine
10
12.856678434832764
20
0.0034079787250371279
30
0
11
12.856678434832761
21
-0.43604514627496282
31
0
0
SPLINE
5
844
100
AcDbEntity
8
0
100
AcDbSpline
70
1064
71
3
72
9
73
5
74
0
42
0.000000001
43
0.0000000001
44
0.0000000001
40
0
40
0
40
0
40
0
40
0.14707370465382721
40
0.29414740930765443
40
0.29414740930765443
40
0.29414740930765443
40
0.29414740930765443
10
12.856678434832761
20
-0.43604514627496282
30
0
10
12.853626677020261
20
-0.45740745096246282
30
0
10
12.847523161395261
20
-0.50013206033746282
30
0
10
12.804798552020261
20
-0.50623557596246282
30
0
10
12.783436247332761
20
-0.50928733377496282
30
0
0
LINE
5
845
100
AcDbEntity
8
0
100
AcDbLine
10
12.783436247332759
20
-0.50928733377496282
30
0
11
12.753162813587384
21
-0.50928733377496282
31
0
0
LINE
5
846
100
AcDbEntity
8
0
100
AcDbLine
10
12.753162813587384
20
-0.50928733377496282
30
0
11
12.877674476018035
21
-0.72901389627496282
31
0
0
LINE
5
847
100
AcDbEntity
8
0
100
AcDbLine
10
12.877674476018035
20
-0.72901389627496282
30
0
11
12.737049519196203
21
-0.72901389627496282
31
0
0
LINE
5
848
100
AcDbEntity
8
0
100
AcDbLine
10
12.737049519196203
20
-0.72901389627496282
30
0
11
12.612537809832761
21
-0.50928733377496282
31
0
0
LINE
5
849
100
AcDbEntity
8
0
100
AcDbLine
10
12.612537809832761
20
-0.50928733377496282
30
0
11
12.612537809832761
21
-0.38721702127496282
31
0
0
LINE
5
850
100
AcDbEntity
8
0
100
AcDbLine
10
12.612537809832761
20
-0.38721702127496282
30
0
11
12.710194059832761
21
-0.38721702127496282
31
0
0
LINE
5
851
100
AcDbEntity
8
0
100
AcDbLine
10
13.198475309832761
20
-0.46045920877496282
30
0
11
13.076404997332761
21
-0.46045920877496282
31
0
0
LINE
5
852
100
AcDbEntity
8
0
100
AcDbLine
10
13.076404997332761
20
-0.46045920877496282
30
0
11
13.076404997332761
21
-0.33838889627496282
31
0
0
LINE
5
853
100
AcDbEntity
8
0
100
AcDbLine
10
13.076404997332761
20
-0.33838889627496282
30
0
11
13.198475309832761
21
-0.33838889627496282
31
0
0
LINE
5
854
100
AcDbEntity
8
0
100
AcDbLine
10
13.198475309832761
20
-0.33838889627496282
30
0
11
13.198475309832761
21
-0.069834208774962866
31
0
0
SPLINE
5
855
100
AcDbEntity
8
0
100
AcDbSpline
70
1064
71
3
72
9
73
5
74
0
42
0.000000001
43
0.0000000001
44
0.0000000001
40
0
40
0
40
0
40
0
40
0.049024568217942405
40
0.098049136435884809
40
0.098049136435884809
40
0.098049136435884809
40
0.098049136435884809
10
13.198475309832761
20
-0.069834208774962866
30
0
10
13.197458057228593
20
-0.062713440545796181
30
0
10
13.195423552020261
20
-0.048471904087462866
30
0
10
13.181182015561925
20
-0.04643739887912951
30
0
10
13.174061247332761
20
-0.045420146274962873
30
0
0
LINE
5
856
100
AcDbEntity
8
0
100
AcDbLine
10
13.174061247332759
20
-0.045420146274962866
30
0
11
13.051990934832761
21
-0.045420146274962873
31
0
0
SPLINE
5
857
100
AcDbEntity
8
0
100
AcDbSpline
70
1064
71
3
72
9
73
5
74
0
42
0.000000001
43
0.0000000001
44
0.0000000001
40
0
40
0
40
0
40
0
40
0.049024568217942405
40
0.098049136435884809
40
0.098049136435884809
40
0.098049136435884809
40
0.098049136435884809
10
13.051990934832761
20
-0.045420146274962873
30
0
10
13.044870166603593
20
-0.04643739887912951
30
0
10
13.030628630145261
20
-0.048471904087462866
30
0
10
13.028594124936925
20
-0.062713440545796181
30
0
10
13.027576872332761
20
-0.069834208774962866
30
0
0
LINE
5
858
100
AcDbEntity
8
0
100
AcDbLine
10
13.027576872332759
20
-0.069834208774962866
30
0
11
13.027576872332761
21
-0.72901389627496282
31
0
0
LINE
5
859
100
AcDbEntity
8
0
100
AcDbLine
10
13.027576872332761
20
-0.72901389627496282
30
0
11
12.905506559832761
21
-0.72901389627496282
31
0
0
LINE
5
860
100
AcDbEntity
8
0
100
AcDbLine
10
12.905506559832761
20
-0.72901389627496282
30
0
11
12.905506559832761
21
0.0034079787250371257
31
0
0
SPLINE
5
861
100
AcDbEntity
8
0
100
AcDbSpline
70
1064
71
3
72
9
73
5
74
0
42
0.000000001
43
0.0000000001
44
0.0000000001
40
0
40
0
40
0
40
0
40
0.14707370465382721
40
0.29414740930765443
40
0.29414740930765443
40
0.29414740930765443
40
0.29414740930765443
10
12.905506559832761
20
0.0034079787250371257
30
0
10
12.908558317645261
20
0.024770283412537123
30
0
10
12.914661833270259
20
0.067494892787537134
30
0
10
12.957386442645261
20
0.073598408412537106
30
0
10
12.978748747332761
20
0.07665016622503712
30
0
0
LINE
5
862
100
AcDbEntity
8
0
100
AcDbLine
10
12.978748747332764
20
0.076650166225037134
30
0
11
13.247303434832761
21
0.07665016622503712
31
0
0
SPLINE
5
863
100
AcDbEntity
8
0
100
AcDbSpline
70
1064
71
3
72
9
73
5
74
0
42
0.000000001
43
0.0000000001
44
0.0000000001
40
0
40
0
40
0
40
0
40
0.14707370465382721
40
0.29414740930765443
40
0.29414740930765443
40
0.29414740930765443
40
0.29414740930765443
10
13.247303434832761
20
0.07665016622503712
30
0
10
13.268665739520261
20
0.07359840841253712
30
0
10
13.311390348895261
20
0.06749489278753712
30
0
10
13.317493864520261
20
0.024770283412537123
30
0
10
13.320545622332761
20
0.0034079787250371257
30
0
0
LINE
5
864
100
AcDbEntity
8
0
100
AcDbLine
10
13.320545622332764
20
0.0034079787250371279
30
0
11
13.320545622332761
21
-0.72901389627496282
31
0
0
LINE
5
865
100
AcDbEntity
8
0
100
AcDbLine
10
13.320545622332761
20
-0.72901389627496282
30
0
11
13.198475309832761
21
-0.72901389627496282
31
0
0
LINE
5
866
100
AcDbEntity
8
0
100
AcDbLine
10
13.198475309832761
20
-0.72901389627496282
30
0
11
13.198475309832761
21
-0.46045920877496282
31
0
0
LINE
5
867
100
AcDbEntity
8
0
100
AcDbLine
10
13.491444059832761
20
-0.045420146274962873
30
0
11
13.491444059832761
21
-0.72901389627496282
31
0
0
LINE
5
868
100
AcDbEntity
8
0
100
AcDbLine
10
13.491444059832761
20
-0.72901389627496282
30
0
11
13.369373747332761
21
-0.72901389627496282
31
0
0
LINE
5
869
100
AcDbEntity
8
0
100
AcDbLine
10
13.369373747332761
20
-0.72901389627496282
30
0
11
13.369373747332761
21
0.07665016622503712
31
0
0
LINE
5
870
100
AcDbEntity
8
0
100
AcDbLine
10
13.369373747332761
20
0.07665016622503712
30
0
11
13.711170622332761
21
0.07665016622503712
31
0
0
SPLINE
5
871
100
AcDbEntity
8
0
100
AcDbSpline
70
1064
71
3
72
9
73
5
74
0
42
0.000000001
43
0.0000000001
44
0.0000000001
40
0
40
0
40
0
40
0
40
0.14707370465382721
40
0.29414740930765443
40
0.29414740930765443
40
0.29414740930765443
40
0.29414740930765443
10
13.711170622332761
20
0.07665016622503712
30
0
10
13.732532927020261
20
0.07359840841253712
30
0
10
13.775257536395261
20
0.06749489278753712
30
0
10
13.781361052020261
20
0.024770283412537123
30
0
10
13.784412809832761
20
0.0034079787250371257
30
0
0
LINE
5
872
100
AcDbEntity
8
0
100
AcDbLine
10
13.784412809832764
20
0.0034079787250371279
30
0
11
13.784412809832761
21
-0.65577170877496282
31
0
0
SPLINE
5
873
100
AcDbEntity
8
0
100
AcDbSpline
70
1064
71
3
72
9
73
5
74
0
42
0.000000001
43
0.0000000001
44
0.0000000001
40
0
40
0
40
0
40
0
40
0.14707370465382721
40
0.29414740930765443
40
0.29414740930765443
40
0.29414740930765443
40
0.29414740930765443
10
13.784412809832761
20
-0.65577170877496282
30
0
10
13.781361052020261
20
-0.67713401346246282
30
0
10
13.775257536395259
20
-0.71985862283746282
30
0
10
13.732532927020261
20
-0.72596213846246282
30
0
10
13.711170622332761
20
-0.72901389627496282
30
0
0
LINE
5
874
100
AcDbEntity
8
0
100
AcDbLine
10
13.711170622332759
20
-0.72901389627496282
30
0
11
13.540272184832761
21
-0.72901389627496282
31
0
0
LINE
5
875
100
AcDbEntity
8
0
100
AcDbLine
10
13.540272184832761
20
-0.72901389627496282
30
0
11
13.540272184832761
21
-0.60694358377496282
31
0
0
LINE
5
876
100
AcDbEntity
8
0
100
AcDbLine
10
13.540272184832761
20
-0.60694358377496282
30
0
11
13.637928434832761
21
-0.60694358377496282
31
0
0
SPLINE
5
877
100
AcDbEntity
8
0
100
AcDbSpline
70
1064
71
3
72
9
73
5
74
0
42
0.000000001
43
0.0000000001
44
0.0000000001
40
0
40
0
40
0
40
0
40
0.049024568217942405
40
0.098049136435884809
40
0.098049136435884809
40
0.098049136435884809
40
0.098049136435884809
10
13.637928434832761
20
-0.60694358377496282
30
0
10
13.645049203061925
20
-0.6059263311707962
30
0
10
13.659290739520261
20
-0.60389182596246305
30
0
10
13.661325244728593
20
-0.58965028950412934
30
0
10
13.662342497332761
20
-0.58252952127496282
30
0
0
LINE
5
878
100
AcDbEntity
8
0
100
AcDbLine
10
13.662342497332764
20
-0.58252952127496271
30
0
11
13.662342497332761
21
-0.069834208774962866
31
0
0
SPLINE
5
879
100
AcDbEntity
8
0
100
AcDbSpline
70
1064
71
3
72
9
73
5
74
0
42
0.000000001
43
0.0000000001
44
0.0000000001
40
0
40
0
40
0
40
0
40
0.049024568217942405
40
0.098049136435884809
40
0.098049136435884809
40
0.098049136435884809
40
0.098049136435884809
10
13.662342497332761
20
-0.069834208774962866
30
0
10
13.661325244728593
20
-0.062713440545796181
30
0
10
13.659290739520261
20
-0.048471904087462866
30
0
10
13.645049203061925
20
-0.04643739887912951
30
0
10
13.637928434832761
20
-0.045420146274962873
30
0
0
LINE
5
880
100
AcDbEntity
8
0
100
AcDbLine
10
13.637928434832759
20
-0.045420146274962866
30
0
11
13.491444059832761
21
-0.045420146274962873
31
0
0
LWPOLYLINE
5
881
100
AcDbEntity
8
0
100
AcDbPolyline
90
9
70
1
43
0.0
10
14.101795622332761
20
-0.72901389627496282
10
14.101795622332761
20
-0.33838889627496282
10
14.262928284647829
20
0.07665016622503712
10
14.132068962212555
20
0.07665016622503712
10
14.040760466082761
20
-0.15772482438840463
10
13.949451782221802
20
0.07665016622503712
10
13.818592459786528
20
0.07665016622503712
10
13.979725309832761
20
-0.33838889627496282
10
13.979725309832761
20
-0.72901389627496282
0
LINE
5
882
100
AcDbEntity
8
0
100
AcDbLine
10
6.4858926915426567
20
-1.5675487442500278
30
0
11
6.4858926915426567
21
-1.6896190567500278
31
0
0
LINE
5
883
100
AcDbEntity
8
0
100
AcDbLine
10
6.4858926915426567
20
-1.6896190567500278
30
0
11
6.2173380040426567
21
-1.6896190567500278
31
0
0
SPLINE
5
884
100
AcDbEntity
8
0
100
AcDbSpline
70
1064
71
3
72
9
73
5
74
0
42
0.000000001
43
0.0000000001
44
0.0000000001
40
0
40
0
40
0
40
0
40
0.049024568217942405
40
0.098049136435884809
40
0.098049136435884809
40
0.098049136435884809
40
0.098049136435884809
10
6.2173380040426576
20
-1.6896190567500278
30
0
10
6.2102172358134906
20
-1.6906363093541943
30
0
10
6.1959756993551576
20
-1.6926708145625278
30
0
10
6.1939411941468245
20
-1.7069123510208613
30
0
10
6.1929239415426576
20
-1.7140331192500278
30
0
0
LINE
5
885
100
AcDbEntity
8
0
100
AcDbLine
10
6.1929239415426576
20
-1.7140331192500278
30
0
11
6.1929239415426576
21
-1.8605174942500278
31
0
0
SPLINE
5
886
100
AcDbEntity
8
0
100
AcDbSpline
70
1064
71
3
72
9
73
5
74
0
42
0.000000001
43
0.0000000001
44
0.0000000001
40
0
40
0
40
0
40
0
40
0.049024568217942405
40
0.098049136435884809
40
0.098049136435884809
40
0.098049136435884809
40
0.098049136435884809
10
6.1929239415426576
20
-1.8605174942500278
30
0
10
6.1939411941468245
20
-1.8676382624791943
30
0
10
6.1959756993551576
20
-1.8818797989375278
30
0
10
6.2102172358134906
20
-1.8839143041458613
30
0
10
6.2173380040426576
20
-1.8849315567500278
30
0
0
LINE
5
887
100
AcDbEntity
8
0
100
AcDbLine
10
6.2173380040426567
20
-1.8849315567500278
30
0
11
6.4126505040426567
21
-1.8849315567500278
31
0
0
SPLINE
5
888
100
AcDbEntity
8
0
100
AcDbSpline
70
1064
71
3
72
9
73
5
74
0
42
0.000000001
43
0.0000000001
44
0.0000000001
40
0
40
0
40
0
40
0
40
0.14707370465382721
40
0.29414740930765443
40
0.29414740930765443
40
0.29414740930765443
40
0.29414740930765443
10
6.4126505040426567
20
-1.8849315567500278
30
0
10
6.4340128087301567
20
-1.8879833145625278
30
0
10
6.4767374181051567
20
-1.8940868301875278
30
0
10
6.4828409337301567
20
-1.9368114395625278
30
0
10
6.4858926915426567
20
-1.9581737442500278
30
0
0
LINE
5
889
100
AcDbEntity
8
0
100
AcDbLine
10
6.4858926915426585
20
-1.9581737442500278
30
0
11
6.4858926915426567
21
-2.2999706192500278
31
0
0
SPLINE
5
890
100
AcDbEntity
8
0
100
AcDbSpline
70
1064
71
3
72
9
73
5
74
0
42
0.000000001
43
0.0000000001
44
0.0000000001
40
0
40
0
40
0
40
0
40
0.14707370465382721
40
0.29414740930765443
40
0.29414740930765443
40
0.29414740930765443
40
0.29414740930765443
10
6.4858926915426567
20
-2.2999706192500278
30
0
10
6.4828409337301567
20
-2.3213329239375278
30
0
10
6.4767374181051567
20
-2.3640575333125278
30
0
10
6.4340128087301567
20
-2.3701610489375278
30
0
10
6.4126505040426567
20
-2.3732128067500278
30
0
0
LINE
5
891
100
AcDbEntity
8
0
100
AcDbLine
10
6.4126505040426558
20
-2.3732128067500282
30
0
11
6.0708536290426567
21
-2.3732128067500278
31
0
0
LINE
5
892
100
AcDbEntity
8
0
100
AcDbLine
10
6.0708536290426567
20
-2.3732128067500278
30
0
11
6.0708536290426576
21
-2.2511424942500278
31
0
0
LINE
5
893
100
AcDbEntity
8
0
100
AcDbLine
10
6.0708536290426576
20
-2.2511424942500278
30
0
11
6.3394083165426567
21
-2.2511424942500278
31
0
0
SPLINE
5
894
100
AcDbEntity
8
0
100
AcDbSpline
70
1064
71
3
72
9
73
5
74
0
42
0.000000001
43
0.0000000001
44
0.0000000001
40
0
40
0
40
0
40
0
40
0.049024568217942405
40
0.098049136435884809
40
0.098049136435884809
40
0.098049136435884809
40
0.098049136435884809
10
6.3394083165426567
20
-2.2511424942500278
30
0
10
6.3465290847718245
20
-2.2501252416458613
30
0
10
6.3607706212301567
20
-2.2480907364375278
30
0
10
6.3628051264384906
20
-2.2338491999791943
30
0
10
6.3638223790426567
20
-2.2267284317500278
30
0
0
LINE
5
895
100
AcDbEntity
8
0
100
AcDbLine
10
6.3638223790426585
20
-2.2267284317500278
30
0
11
6.3638223790426567
21
-2.0314159317500278
31
0
0
SPLINE
5
896
100
AcDbEntity
8
0
100
AcDbSpline
70
1064
71
3
72
9
73
5
74
0
42
0.000000001
43
0.0000000001
44
0.0000000001
40
0
40
0
40
0
40
0
40
0.049024568217942405
40
0.098049136435884809
40
0.098049136435884809
40
0.098049136435884809
40
0.098049136435884809
10
6.3638223790426567
20
-2.0314159317500278
30
0
10
6.3628051264384906
20
-2.0242951635208608
30
0
10
6.3607706212301585
20
-2.0100536270625278
30
0
10
6.3465290847718245
20
-2.0080191218541943
30
0
10
6.3394083165426567
20
-2.0070018692500278
30
0
0
LINE
5
897
100
AcDbEntity
8
0
100
AcDbLine
10
6.3394083165426558
20
-2.0070018692500278
30
0
11
6.1440958165426567
21
-2.0070018692500278
31
0
0
SPLINE
5
898
100
AcDbEntity
8
0
100
AcDbSpline
70
1064
71
3
72
9
73
5
74
0
42
0.000000001
43
0.0000000001
44
0.0000000001
40
0
40
0
40
0
40
0
40
0.14707370465382721
40
0.29414740930765443
40
0.29414740930765443
40
0.29414740930765443
40
0.29414740930765443
10
6.1440958165426576
20
-2.0070018692500278
30
0
10
6.1227335118551576
20
-2.0039501114375278
30
0
10
6.0800089024801576
20
-1.9978465958125278
30
0
10
6.0739053868551576
20
-1.9551219864375278
30
0
10
6.0708536290426576
20
-1.9337596817500278
30
0
0
LINE
5
899
100
AcDbEntity
8
0
100
AcDbLine
10
6.0708536290426585
20
-1.9337596817500278
30
0
11
6.0708536290426576
21
-1.6407909317500278
31
0
0
SPLINE
5
900
100
AcDbEntity
8
0
100
AcDbSpline
70
1064
71
3
72
9
73
5
74
0
42
0.000000001
43
0.0000000001
44
0.0000000001
40
0
40
0
40
0
40
0
40
0.14707370465382721
40
0.29414740930765443
40
0.29414740930765443
40
0.29414740930765443
40
0.29414740930765443
10
6.0708536290426576
20
-1.6407909317500278
30
0
10
6.0739053868551576
20
-1.6194286270625278
30
0
10
6.0800089024801576
20
-1.5767040176875278
30
0
10
6.1227335118551576
20
-1.5706005020625278
30
0
10
6.1440958165426576
20
-1.5675487442500278
30
0
0
LINE
5
901
100
AcDbEntity
8
0
100
AcDbLine
10
6.1440958165426567
20
-1.5675487442500278
30
0
11
6.4858926915426567
21
-1.5675487442500278
31
0
0
LINE
5
902
100
AcDbEntity
8
0
100
AcDbLine
10
6.9497598790426567
20
-1.5675487442500278
30
0
11
6.9497598790426567
21
-1.6896190567500278
31
0
0
LINE
5
903
100
AcDbEntity
8
0
100
AcDbLine
10
6.9497598790426567
20
-1.6896190567500278
30
0
11
6.6812051915426567
21
-1.6896190567500278
31
0
0
SPLINE
5
904
100
AcDbEntity
8
0
100
AcDbSpline
70
1064
71
3
72
9
73
5
74
0
42
0.000000001
43
0.0000000001
44
0.0000000001
40
0
40
0
40
0
40
0
40
0.049024568217942405
40
0.098049136435884809
40
0.098049136435884809
40
0.098049136435884809
40
0.098049136435884809
10
6.6812051915426567
20
-1.6896190567500278
30
0
10
6.6740844233134906
20
-1.6906363093541943
30
0
10
6.6598428868551567
20
-1.6926708145625278
30
0
10
6.6578083816468245
20
-1.7069123510208613
30
0
10
6.6567911290426567
20
-1.7140331192500278
30
0
0
LINE
5
905
100
AcDbEntity
8
0
100
AcDbLine
10
6.6567911290426558
20
-1.7140331192500278
30
0
11
6.6567911290426567
21
-2.2267284317500278
31
0
0
SPLINE
5
906
100
AcDbEntity
8
0
100
AcDbSpline
70
1064
71
3
72
9
73
5
74
0
42
0.000000001
43
0.0000000001
44
0.0000000001
40
0
40
0
40
0
40
0
40
0.049024568217942405
40
0.098049136435884809
40
0.098049136435884809
40
0.098049136435884809
40
0.098049136435884809
10
6.6567911290426567
20
-2.2267284317500278
30
0
10
6.6578083816468245
20
-2.2338491999791943
30
0
10
6.6598428868551567
20
-2.2480907364375278
30
0
10
6.6740844233134906
20
-2.2501252416458608
30
0
10
6.6812051915426567
20
-2.2511424942500278
30
0
0
LINE
5
907
100
AcDbEntity
8
0
100
AcDbLine
10
6.6812051915426585
20
-2.2511424942500278
30
0
11
6.9497598790426567
21
-2.2511424942500278
31
0
0
LINE
5
908
100
AcDbEntity
8
0
100
AcDbLine
10
6.9497598790426567
20
-2.2511424942500278
30
0
11
6.9497598790426567
21
-2.3732128067500278
31
0
0
LINE
5
909
100
AcDbEntity
8
0
100
AcDbLine
10
6.9497598790426567
20
-2.3732128067500278
30
0
11
6.6079630040426567
21
-2.3732128067500278
31
0
0
SPLINE
5
910
100
AcDbEntity
8
0
100
AcDbSpline
70
1064
71
3
72
9
73
5
74
0
42
0.000000001
43
0.0000000001
44
0.0000000001
40
0
40
0
40
0
40
0
40
0.14707370465382721
40
0.29414740930765443
40
0.29414740930765443
40
0.29414740930765443
40
0.29414740930765443
10
6.6079630040426567
20
-2.3732128067500278
30
0
10
6.5866006993551567
20
-2.3701610489375278
30
0
10
6.5438760899801567
20
-2.3640575333125278
30
0
10
6.5377725743551567
20
-2.3213329239375278
30
0
10
6.5347208165426567
20
-2.2999706192500278
30
0
0
LINE
5
911
100
AcDbEntity
8
0
100
AcDbLine
10
6.5347208165426558
20
-2.2999706192500278
30
0
11
6.5347208165426567
21
-1.6407909317500278
31
0
0
SPLINE
5
912
100
AcDbEntity
8
0
100
AcDbSpline
70
1064
71
3
72
9
73
5
74
0
42
0.000000001
43
0.0000000001
44
0.0000000001
40
0
40
0
40
0
40
0
40
0.14707370465382721
40
0.29414740930765443
40
0.29414740930765443
40
0.29414740930765443
40
0.29414740930765443
10
6.5347208165426567
20
-1.6407909317500278
30
0
10
6.5377725743551567
20
-1.6194286270625278
30
0
10
6.5438760899801567
20
-1.5767040176875278
30
0
10
6.5866006993551567
20
-1.5706005020625278
30
0
10
6.6079630040426567
20
-1.5675487442500278
30
0
0
LINE
5
913
100
AcDbEntity
8
0
100
AcDbLine
10
6.6079630040426585
20
-1.5675487442500278
30
0
11
6.9497598790426567
21
-1.5675487442500278
31
0
0
LINE
5
914
100
AcDbEntity
8
0
100
AcDbLine
10
7.2915567540426567
20
-2.1046581192500278
30
0
11
7.1694864415426567
21
-2.1046581192500278
31
0
0
LINE
5
915
100
AcDbEntity
8
0
100
AcDbLine
10
7.1694864415426567
20
-2.1046581192500278
30
0
11
7.1694864415426567
21
-1.9825878067500278
31
0
0
LINE
5
916
100
AcDbEntity
8
0
100
AcDbLine
10
7.1694864415426567
20
-1.9825878067500278
30
0
11
7.2915567540426567
21
-1.9825878067500278
31
0
0
LINE
5
917
100
AcDbEntity
8
0
100
AcDbLine
10
7.2915567540426567
20
-1.9825878067500278
30
0
11
7.2915567540426567
21
-1.7140331192500278
31
0
0
SPLINE
5
918
100
AcDbEntity
8
0
100
AcDbSpline
70
1064
71
3
72
9
73
5
74
0
42
0.000000001
43
0.0000000001
44
0.0000000001
40
0
40
0
40
0
40
0
40
0.049024568217942405
40
0.098049136435884809
40
0.098049136435884809
40
0.098049136435884809
40
0.098049136435884809
10
7.2915567540426567
20
-1.7140331192500278
30
0
10
7.2905395014384906
20
-1.7069123510208613
30
0
10
7.2885049962301567
20
-1.6926708145625278
30
0
10
7.2742634597718245
20
-1.6906363093541943
30
0
10
7.2671426915426567
20
-1.6896190567500278
30
0
0
LINE
5
919
100
AcDbEntity
8
0
100
AcDbLine
10
7.2671426915426558
20
-1.6896190567500278
30
0
11
7.1450723790426567
21
-1.6896190567500278
31
0
0
SPLINE
5
920
100
AcDbEntity
8
0
100
AcDbSpline
70
1064
71
3
72
9
73
5
74
0
42
0.000000001
43
0.0000000001
44
0.0000000001
40
0
40
0
40
0
40
0
40
0.049024568217942405
40
0.098049136435884809
40
0.098049136435884809
40
0.098049136435884809
40
0.098049136435884809
10
7.1450723790426567
20
-1.6896190567500278
30
0
10
7.1379516108134906
20
-1.6906363093541943
30
0
10
7.1237100743551567
20
-1.6926708145625278
30
0
10
7.1216755691468245
20
-1.7069123510208613
30
0
10
7.1206583165426567
20
-1.7140331192500278
30
0
0
LINE
5
921
100
AcDbEntity
8
0
100
AcDbLine
10
7.1206583165426558
20
-1.7140331192500278
30
0
11
7.1206583165426567
21
-2.3732128067500278
31
0
0
LINE
5
922
100
AcDbEntity
8
0
100
AcDbLine
10
7.1206583165426567
20
-2.3732128067500278
30
0
11
6.9985880040426567
21
-2.3732128067500278
31
0
0
LINE
5
923
100
AcDbEntity
8
0
100
AcDbLine
10
6.9985880040426567
20
-2.3732128067500278
30
0
11
6.9985880040426567
21
-1.6407909317500278
31
0
0
SPLINE
5
924
100
AcDbEntity
8
0
100
AcDbSpline
70
1064
71
3
72
9
73
5
74
0
42
0.000000001
43
0.0000000001
44
0.0000000001
40
0
40
0
40
0
40
0
40
0.14707370465382721
40
0.29414740930765443
40
0.29414740930765443
40
0.29414740930765443
40
0.29414740930765443
10
6.9985880040426567
20
-1.6407909317500278
30
0
10
7.0016397618551567
20
-1.6194286270625278
30
0
10
7.0077432774801567
20
-1.5767040176875278
30
0
10
7.0504678868551567
20
-1.5706005020625278
30
0
10
7.0718301915426567
20
-1.5675487442500278
30
0
0
LINE
5
925
100
AcDbEntity
8
0
100
AcDbLine
10
7.0718301915426585
20
-1.5675487442500278
30
0
11
7.3403848790426567
21
-1.5675487442500278
31
0
0
SPLINE
5
926
100
AcDbEntity
8
0
100
AcDbSpline
70
1064
71
3
72
9
73
5
74
0
42
0.000000001
43
0.0000000001
44
0.0000000001
40
0
40
0
40
0
40
0
40
0.14707370465382721
40
0.29414740930765443
40
0.29414740930765443
40
0.29414740930765443
40
0.29414740930765443
10
7.3403848790426567
20
-1.5675487442500278
30
0
10
7.3617471837301567
20
-1.5706005020625278
30
0
10
7.4044717931051567
20
-1.5767040176875278
30
0
10
7.4105753087301585
20
-1.6194286270625278
30
0
10
7.4136270665426567
20
-1.6407909317500278
30
0
0
LINE
5
927
100
AcDbEntity
8
0
100
AcDbLine
10
7.4136270665426585
20
-1.6407909317500278
30
0
11
7.4136270665426567
21
-2.3732128067500278
31
0
0
LINE
5
928
100
AcDbEntity
8
0
100
AcDbLine
10
7.4136270665426567
20
-2.3732128067500278
30
0
11
7.2915567540426567
21
-2.3732128067500278
31
0
0
LINE
5
929
100
AcDbEntity
8
0
100
AcDbLine
10
7.2915567540426567
20
-2.3732128067500278
30
0
11
7.2915567540426567
21
-2.1046581192500278
31
0
0
SPLINE
5
930
100
AcDbEntity
8
0
100
AcDbSpline
70
1064
71
3
72
9
73
5
74
0
42
0.000000001
43
0.0000000001
44
0.0000000001
40
0
40
0
40
0
40
0
40
0.049024568217942405
40
0.098049136435884809
40
0.098049136435884809
40
0.098049136435884809
40
0.098049136435884809
10
7.7310098790426567
20
-2.0314159317500278
30
0
10
7.7381306472718245
20
-2.0303986791458608
30
0
10
7.7523721837301567
20
-2.0283641739375278
30
0
10
7.7544066889384906
20
-2.0141226374791943
30
0
10
7.7554239415426567
20
-2.0070018692500278
30
0
0
LINE
5
931
100
AcDbEntity
8
0
100
AcDbLine
10
7.7554239415426585
20
-2.0070018692500278
30
0
11
7.7554239415426567
21
-1.7140331192500278
31
0
0
SPLINE
5
932
100
AcDbEntity
8
0
100
AcDbSpline
70
1064
71
3
72
9
73
5
74
0
42
0.000000001
43
0.0000000001
44
0.0000000001
40
0
40
0
40
0
40
0
40
0.049024568217942405
40
0.098049136435884809
40
0.098049136435884809
40
0.098049136435884809
40
0.098049136435884809
10
7.7554239415426567
20
-1.7140331192500278
30
0
10
7.7544066889384906
20
-1.7069123510208613
30
0
10
7.7523721837301585
20
-1.6926708145625278
30
0
10
7.7381306472718245
20
-1.6906363093541943
30
0
10
7.7310098790426567
20
-1.6896190567500278
30
0
0
LINE
5
933
100
AcDbEntity
8
0
100
AcDbLine
10
7.7310098790426558
20
-1.6896190567500278
30
0
11
7.5845255040426567
21
-1.6896190567500278
31
0
0
LINE
5
934
100
AcDbEntity
8
0
100
AcDbLine
10
7.5845255040426567
20
-1.6896190567500278
30
0
11
7.5845255040426567
21
-2.3732128067500278
31
0
0
LINE
5
935
100
AcDbEntity
8
0
100
AcDbLine
10
7.5845255040426567
20
-2.3732128067500278
30
0
11
7.4624551915426567
21
-2.3732128067500278
31
0
0
LINE
5
936
100
AcDbEntity
8
0
100
AcDbLine
10
7.4624551915426567
20
-2.3732128067500278
30
0
11
7.4624551915426567
21
-1.5675487442500278
31
0
0
LINE
5
937
100
AcDbEntity
8
0
100
AcDbLine
10
7.4624551915426567
20
-1.5675487442500278
30
0
11
7.8042520665426567
21
-1.5675487442500278
31
0
0
SPLINE
5
938
100
AcDbEntity
8
0
100
AcDbSpline
70
1064
71
3
72
9
73
5
74
0
42
0.000000001
43
0.0000000001
44
0.0000000001
40
0
40
0
40
0
40
0
40
0.14707370465382721
40
0.29414740930765443
40
0.29414740930765443
40
0.29414740930765443
40
0.29414740930765443
10
7.8042520665426567
20
-1.5675487442500278
30
0
10
7.8256143712301567
20
-1.5706005020625278
30
0
10
7.8683389806051567
20
-1.5767040176875278
30
0
10
7.8744424962301567
20
-1.6194286270625278
30
0
10
7.8774942540426567
20
-1.6407909317500278
30
0
0
LINE
5
939
100
AcDbEntity
8
0
100
AcDbLine
10
7.8774942540426585
20
-1.6407909317500278
30
0
11
7.8774942540426567
21
-2.0802440567500278
31
0
0
SPLINE
5
940
100
AcDbEntity
8
0
100
AcDbSpline
70
1064
71
3
72
9
73
5
74
0
42
0.000000001
43
0.0000000001
44
0.0000000001
40
0
40
0
40
0
40
0
40
0.14707370465382721
40
0.29414740930765443
40
0.29414740930765443
40
0.29414740930765443
40
0.29414740930765443
10
7.8774942540426567
20
-2.0802440567500278
30
0
10
7.8744424962301567
20
-2.1016063614375278
30
0
10
7.8683389806051567
20
-2.1443309708125278
30
0
10
7.8256143712301567
20
-2.1504344864375278
30
0
10
7.8042520665426567
20
-2.1534862442500278
30
0
0
LINE
5
941
100
AcDbEntity
8
0
100
AcDbLine
10
7.8042520665426558
20
-2.1534862442500282
30
0
11
7.773978538931698
21
-2.1534862442500278
31
0
0
LINE
5
942
100
AcDbEntity
8
0
100
AcDbLine
10
7.773978538931698
20
-2.1534862442500278
30
0
11
7.8984902952279308
21
-2.3732128067500278
31
0
0
LINE
5
943
100
AcDbEntity
8
0
100
AcDbLine
10
7.8984902952279308
20
-2.3732128067500278
30
0
11
7.7578653853388895
21
-2.3732128067500278
31
0
0
LINE
5
944
100
AcDbEntity
8
0
100
AcDbLine
10
7.7578653853388895
20
-2.3732128067500278
30
0
11
7.6333536290426567
21
-2.1534862442500278
31
0
0
LINE
5
945
100
AcDbEntity
8
0
100
AcDbLine
10
7.6333536290426567
20
-2.1534862442500278
30
0
11
7.6333536290426567
21
-2.0314159317500278
31
0
0
LINE
5
946
100
AcDbEntity
8
0
100
AcDbLine
10
7.6333536290426567
20
-2.0314159317500278
30
0
11
7.7310098790426567
21
-2.0314159317500278
31
0
0
LWPOLYLINE
5
947
100
AcDbEntity
8
0
100
AcDbPolyline
90
6
70
1
43
0.0
10
7.9263223790426567
20
-1.5675487442500278
10
7.9263223790426567
20
-2.3732128067500278
10
8.3413614415426576
20
-2.3732128067500278
10
8.3413614415426576
20
-2.2511424942500278
10
8.0483926915426576
20
-2.2511424942500278
10
8.0483926915426576
20
-1.5675487442500278
0
LWPOLYLINE
5
948
100
AcDbEntity
8
0
100
AcDbPolyline
90
12
70
1
43
0.0
10
8.8052286290426576
20
-1.6896190567500278
10
8.8052286290426576
20
-1.5675487442500278
10
8.3901895665426576
20
-1.5675487442500278
10
8.3901895665426576
20
-2.3732128067500278
10
8.8052286290426576
20
-2.3732128067500278
10
8.8052286290426576
20
-2.2511424942500278
10
8.5122598790426576
20
-2.2511424942500278
10
8.5122598790426576
20
-2.0314159317500278
10
8.6831583165426576
20
-2.0314159317500278
10
8.6831583165426576
20
-1.9093456192500278
10
8.5122598790426576
20
-1.9093456192500278
10
8.5122598790426576
20
-1.6896190567500278
0
LWPOLYLINE
5
949
100
AcDbEntity
8
0
100
AcDbPolyline
90
8
70
1
43
0.0
10
8.8540567540426576
20
-1.6896190567500278
10
9.0005411290426576
20
-1.6896190567500278
10
9.0005411290426576
20
-2.3732128067500278
10
9.1226114415426558
20
-2.3732128067500278
10
9.1226114415426558
20
-1.6896190567500278
10
9.2690958165426558
20
-1.6896190567500278
10
9.2690958165426558
20
-1.5675487442500278
10
8.8540567540426576
20
-1.5675487442500278
0
LWPOLYLINE
5
950
100
AcDbEntity
8
0
100
AcDbPolyline
90
8
70
1
43
0.0
10
9.3179239415426558
20
-1.6896190567500278
10
9.4644083165426558
20
-1.6896190567500278
10
9.4644083165426558
20
-2.3732128067500278
10
9.5864786290426558
20
-2.3732128067500278
10
9.5864786290426558
20
-1.6896190567500278
10
9.7329630040426558
20
-1.6896190567500278
10
9.7329630040426558
20
-1.5675487442500278
10
9.3179239415426558
20
-1.5675487442500278
0
LWPOLYLINE
5
951
100
AcDbEntity
8
0
100
AcDbPolyline
90
12
70
1
43
0.0
10
1.8371072634003556
20
-0.043879197715579285
10
1.8371072634003556
20
0.078191114784420701
10
1.4220682009003556
20
0.078191114784420701
10
1.4220682009003556
20
-0.72747294771557924
10
1.8371072634003556
20
-0.72747294771557924
10
1.8371072634003556
20
-0.60540263521557924
10
1.5441385134003556
20
-0.60540263521557924
10
1.5441385134003556
20
-0.38567607271557924
10
1.7150369509003556
20
-0.38567607271557924
10
1.7150369509003556
20
-0.26360576021557924
10
1.5441385134003556
20
-0.26360576021557924
10
1.5441385134003556
20
-0.043879197715579285
0
LWPOLYLINE
5
952
100
AcDbEntity
8
0
100
AcDbPolyline
90
13
70
1
43
0.0
10
2.0080057009003558
20
-0.72747294771557924
10
2.0080057009003558
20
-0.33391826209289088
10
2.1276345696041226
20
-0.72747294771557924
10
2.2555643472150817
20
-0.72747294771557924
10
2.3742166384003558
20
-0.33684794771557924
10
2.3742166384003558
20
-0.72747294771557924
10
2.4962869509003558
20
-0.72747294771557924
10
2.4962869509003558
20
0.078191114784420701
10
2.3722634833633691
20
0.078191114784420701
10
2.1911111696503558
20
-0.51848855018783946
10
2.0099588090045506
20
0.078191114784420701
10
1.8859353884003556
20
0.078191114784420701
10
1.8859353884003556
20
-0.72747294771557924
0
LWPOLYLINE
5
953
100
AcDbEntity
8
0
100
AcDbPolyline
90
12
70
1
43
0.0
10
2.9601541384003554
20
-0.043879197715579285
10
2.9601541384003554
20
0.078191114784420701
10
2.5451150759003558
20
0.078191114784420701
10
2.5451150759003558
20
-0.72747294771557924
10
2.9601541384003554
20
-0.72747294771557924
10
2.9601541384003554
20
-0.60540263521557924
10
2.6671853884003558
20
-0.60540263521557924
10
2.6671853884003558
20
-0.38567607271557924
10
2.8380838259003554
20
-0.38567607271557924
10
2.8380838259003554
20
-0.26360576021557924
10
2.6671853884003558
20
-0.26360576021557924
10
2.6671853884003558
20
-0.043879197715579285
0
LWPOLYLINE
5
954
100
AcDbEntity
8
0
100
AcDbPolyline
90
6
70
1
43
0.0
10
3.0089822634003554
20
0.078191114784420701
10
3.0089822634003554
20
-0.72747294771557924
10
3.4240213259003554
20
-0.72747294771557924
10
3.4240213259003554
20
-0.60540263521557924
10
3.1310525759003554
20
-0.60540263521557924
10
3.1310525759003554
20
0.078191114784420701
0
LWPOLYLINE
5
955
100
AcDbEntity
8
0
100
AcDbPolyline
90
4
70
1
43
0.0
10
3.5949197634003554
20
-0.72747294771557924
10
3.5949197634003554
20
0.078191114784420701
10
3.4728494509003554
20
0.078191114784420701
10
3.4728494509003554
20
-0.72747294771557924
0
LINE
5
956
100
AcDbEntity
8
0
100
AcDbLine
10
3.9367166384003554
20
-0.45891826021557924
30
0
11
3.8146463259003554
21
-0.45891826021557924
31
0
0
LINE
5
957
100
AcDbEntity
8
0
100
AcDbLine
10
3.8146463259003554
20
-0.45891826021557924
30
0
11
3.8146463259003554
21
-0.33684794771557924
31
0
0
LINE
5
958
100
AcDbEntity
8
0
100
AcDbLine
10
3.8146463259003554
20
-0.33684794771557924
30
0
11
3.9367166384003554
21
-0.33684794771557924
31
0
0
LINE
5
959
100
AcDbEntity
8
0
100
AcDbLine
10
3.9367166384003554
20
-0.33684794771557924
30
0
11
3.9367166384003554
21
-0.068293260215579285
31
0
0
SPLINE
5
960
100
AcDbEntity
8
0
100
AcDbSpline
70
1064
71
3
72
9
73
5
74
0
42
0.000000001
43
0.0000000001
44
0.0000000001
40
0
40
0
40
0
40
0
40
0.049024568217942405
40
0.098049136435884809
40
0.098049136435884809
40
0.098049136435884809
40
0.098049136435884809
10
3.9367166384003554
20
-0.068293260215579285
30
0
10
3.9356993857961884
20
-0.061172491986412607
30
0
10
3.9336648805878554
20
-0.046930955528079285
30
0
10
3.9194233441295219
20
-0.044896450319745922
30
0
10
3.9123025759003554
20
-0.043879197715579285
30
0
0
LINE
5
961
100
AcDbEntity
8
0
100
AcDbLine
10
3.9123025759003562
20
-0.043879197715579278
30
0
11
3.7902322634003554
21
-0.043879197715579285
31
0
0
SPLINE
5
962
100
AcDbEntity
8
0
100
AcDbSpline
70
1064
71
3
72
9
73
5
74
0
42
0.000000001
43
0.0000000001
44
0.0000000001
40
0
40
0
40
0
40
0
40
0.049024568217942405
40
0.098049136435884809
40
0.098049136435884809
40
0.098049136435884809
40
0.098049136435884809
10
3.7902322634003554
20
-0.043879197715579285
30
0
10
3.7831114951711884
20
-0.044896450319745922
30
0
10
3.7688699587128554
20
-0.046930955528079285
30
0
10
3.7668354535045219
20
-0.061172491986412607
30
0
10
3.7658182009003554
20
-0.068293260215579285
30
0
0
LINE
5
963
100
AcDbEntity
8
0
100
AcDbLine
10
3.7658182009003554
20
-0.068293260215579285
30
0
11
3.7658182009003554
21
-0.72747294771557924
31
0
0
LINE
5
964
100
AcDbEntity
8
0
100
AcDbLine
10
3.7658182009003554
20
-0.72747294771557924
30
0
11
3.6437478884003554
21
-0.72747294771557924
31
0
0
LINE
5
965
100
AcDbEntity
8
0
100
AcDbLine
10
3.6437478884003554
20
-0.72747294771557924
30
0
11
3.6437478884003554
21
0.0049489272844207089
31
0
0
SPLINE
5
966
100
AcDbEntity
8
0
100
AcDbSpline
70
1064
71
3
72
9
73
5
74
0
42
0.000000001
43
0.0000000001
44
0.0000000001
40
0
40
0
40
0
40
0
40
0.14707370465382721
40
0.29414740930765443
40
0.29414740930765443
40
0.29414740930765443
40
0.29414740930765443
10
3.6437478884003554
20
0.0049489272844207089
30
0
10
3.6467996462128549
20
0.026311231971920708
30
0
10
3.6529031618378549
20
0.069035841346920715
30
0
10
3.6956277712128554
20
0.075139356971920687
30
0
10
3.7169900759003554
20
0.078191114784420701
30
0
0
LINE
5
967
100
AcDbEntity
8
0
100
AcDbLine
10
3.7169900759003549
20
0.078191114784420715
30
0
11
3.9855447634003554
21
0.078191114784420701
31
0
0
SPLINE
5
968
100
AcDbEntity
8
0
100
AcDbSpline
70
1064
71
3
72
9
73
5
74
0
42
0.000000001
43
0.0000000001
44
0.0000000001
40
0
40
0
40
0
40
0
40
0.14707370465382721
40
0.29414740930765443
40
0.29414740930765443
40
0.29414740930765443
40
0.29414740930765443
10
3.9855447634003554
20
0.078191114784420701
30
0
10
4.0069070680878554
20
0.075139356971920701
30
0
10
4.0496316774628554
20
0.069035841346920701
30
0
10
4.0557351930878554
20
0.026311231971920708
30
0
10
4.0587869509003554
20
0.0049489272844207089
30
0
0
LINE
5
969
100
AcDbEntity
8
0
100
AcDbLine
10
4.0587869509003545
20
0.0049489272844207106
30
0
11
4.0587869509003554
21
-0.72747294771557924
31
0
0
LINE
5
970
100
AcDbEntity
8
0
100
AcDbLine
10
4.0587869509003554
20
-0.72747294771557924
30
0
11
3.9367166384003554
21
-0.72747294771557924
31
0
0
LINE
5
971
100
AcDbEntity
8
0
100
AcDbLine
10
3.9367166384003554
20
-0.72747294771557924
30
0
11
3.9367166384003554
21
-0.45891826021557924
31
0
0
SPLINE
5
972
100
AcDbEntity
8
0
100
AcDbSpline
70
1064
71
3
72
8
73
4
74
0
42
0.000000001
43
0.0000000001
44
0.0000000001
40
0
40
0
40
0
40
0
40
0.26124450161976492
40
0.26124450161976492
40
0.26124450161976492
40
0.26124450161976492
10
13.348323133736519
20
4.2580767460036428
30
0
10
13.305366654614344
20
4.2815721594945044
30
0
10
13.270717511948311
20
4.3097081025791928
30
0
10
13.244449572577151
20
4.3422114309881605
30
0
0
SPLINE
5
973
100
AcDbEntity
8
0
100
AcDbSpline
70
1064
71
3
72
8
73
4
74
0
42
0.000000001
43
0.0000000001
44
0.0000000001
40
0
40
0
40
0
40
0
40
0.69182042102961094
40
0.69182042102961094
40
0.69182042102961094
40
0.69182042102961094
10
13.245550757432147
20
5.26373270221469
30
0
10
13.249457673258167
20
4.8737753010548257
30
0
10
13.248929637180934
20
4.5330964057044882
30
0
10
13.244901749989985
20
4.3603452259638358
30
0
0
SPLINE
5
974
100
AcDbEntity
8
0
100
AcDbSpline
70
1064
71
3
72
8
73
4
74
0
42
0.000000001
43
0.0000000001
44
0.0000000001
40
0.71692018272013003
40
0.71692018272013003
40
0.71692018272013003
40
0.71692018272013003
40
1
40
1
40
1
40
1
10
13.244449569893501
20
4.3422113926582364
30
0
10
13.242698025023945
20
4.276574691954945
30
0
10
13.240366183303054
20
4.2397747142642812
30
0
10
13.237518107397356
20
4.2399399788278904
30
0
0
ENDSEC
0
SECTION
2
OBJECTS
0
DICTIONARY
5
C
100
AcDbDictionary
3
ACAD_GROUP
350
D
3
ACAD_MLINESTYLE
350
17
0
DICTIONARY
5
D
100
AcDbDictionary
0
DICTIONARY
5
1A
330
C
100
AcDbDictionary
0
DICTIONARY
5
17
100
AcDbDictionary
0
ENDSEC
0
EOF
