  0
SECTION
  2
HEADER
  9
$ACADVER
  1
AC1014
  9
$HANDSEED
  5
FFFF
  9
$MEASUREMENT
 70
     1
  0
ENDSEC
  0
SECTION
  2
TABLES
  0
TABLE
  2
VPORT
  5
8
330
0
100
AcDbSymbolTable
 70
     4
  0
VPORT
  5
2E
330
8
100
AcDbSymbolTableRecord
100
AcDbViewportTableRecord
  2
*ACTIVE
 70
     0
 10
0.0
 20
0.0
 11
1.0
 21
1.0
 12
210.0
 22
148.5
 13
0.0
 23
0.0
 14
10.0
 24
10.0
 15
10.0
 25
10.0
 16
0.0
 26
0.0
 36
1.0
 17
0.0
 27
0.0
 37
0.0
 40
341.0
 41
1.24
 42
50.0
 43
0.0
 44
0.0
 50
0.0
 51
0.0
 71
     0
 72
   100
 73
     1
 74
     3
 75
     0
 76
     0
 77
     0
 78
     0
  0
ENDTAB
  0
TABLE
  2
LTYPE
  5
5
330
0
100
AcDbSymbolTable
 70
     1
  0
LTYPE
  5
14
330
5
100
AcDbSymbolTableRecord
100
AcDbLinetypeTableRecord
  2
BYBLOCK
 70
     0
  3

 72
    65
 73
     0
 40
0.0
  0
LTYPE
  5
15
330
5
100
AcDbSymbolTableRecord
100
AcDbLinetypeTableRecord
  2
BYLAYER
 70
     0
  3

 72
    65
 73
     0
 40
0.0
  0
LTYPE
  5
16
330
5
100
AcDbSymbolTableRecord
100
AcDbLinetypeTableRecord
  2
CONTINUOUS
 70
     0
  3
Solid line
 72
    65
 73
     0
 40
0.0
  0
ENDTAB
  0
TABLE
  2
LAYER
  5
2
100
AcDbSymbolTable
 70
2
  0
LAYER
  5
50
100
AcDbSymbolTableRecord
100
AcDbLayerTableRecord
  2
0
 70
0
  6
CONTINUOUS
  0
LAYER
  5
51
100
AcDbSymbolTableRecord
100
AcDbLayerTableRecord
  2
Layer_1
 70
0
  6
CONTINUOUS
  0
ENDTAB
  0
TABLE
  2
STYLE
  5
3
330
0
100
AcDbSymbolTable
 70
     1
  0
STYLE
  5
11
330
3
100
AcDbSymbolTableRecord
100
AcDbTextStyleTableRecord
  2
STANDARD
 70
     0
 40
0.0
 41
1.0
 50
0.0
 71
     0
 42
2.5
  3
txt
  4

  0
ENDTAB
  0
TABLE
  2
VIEW
  5
6
330
0
100
AcDbSymbolTable
 70
     0
  0
ENDTAB
  0
TABLE
  2
UCS
  5
7
330
0
100
AcDbSymbolTable
 70
     0
  0
ENDTAB
  0
TABLE
  2
APPID
  5
9
330
0
100
AcDbSymbolTable
 70
     2
  0
APPID
  5
12
330
9
100
AcDbSymbolTableRecord
100
AcDbRegAppTableRecord
  2
ACAD
 70
     0
  0
ENDTAB
  0
TABLE
  2
DIMSTYLE
  5
A
330
0
100
AcDbSymbolTable
 70
     1
  0
DIMSTYLE
105
27
330
A
100
AcDbSymbolTableRecord
100
AcDbDimStyleTableRecord
  2
ISO-25
 70
     0
  3

  4

  5

  6

  7

 40
1.0
 41
2.5
 42
0.625
 43
3.75
 44
1.25
 45
0.0
 46
0.0
 47
0.0
 48
0.0
140
2.5
141
2.5
142
0.0
143
0.03937007874016
144
1.0
145
0.0
146
1.0
147
0.625
 71
     0
 72
     0
 73
     0
 74
     0
 75
     0
 76
     0
 77
     1
 78
     8
170
     0
171
     3
172
     1
173
     0
174
     0
175
     0
176
     0
177
     0
178
     0
270
     2
271
     2
272
     2
273
     2
274
     3
340
11
275
     0
280
     0
281
     0
282
     0
283
     0
284
     8
285
     0
286
     0
287
     3
288
     0
  0
ENDTAB
  0
TABLE
  2
BLOCK_RECORD
  5
1
330
0
100
AcDbSymbolTable
 70
     1
  0
BLOCK_RECORD
  5
1F
330
1
100
AcDbSymbolTableRecord
100
AcDbBlockTableRecord
  2
*MODEL_SPACE
  0
BLOCK_RECORD
  5
1B
330
1
100
AcDbSymbolTableRecord
100
AcDbBlockTableRecord
  2
*PAPER_SPACE
  0
ENDTAB
  0
ENDSEC
  0
SECTION
  2
BLOCKS
  0
BLOCK
  5
20
330
1F
100
AcDbEntity
  8
0
100
AcDbBlockBegin
  2
*MODEL_SPACE
 70
     0
 10
0.0
 20
0.0
 30
0.0
  3
*MODEL_SPACE
  1

  0
ENDBLK
  5
21
330
1F
100
AcDbEntity
  8
0
100
AcDbBlockEnd
  0
BLOCK
  5
1C
330
1B
100
AcDbEntity
 67
     1
  8
0
100
AcDbBlockBegin
  2
*PAPER_SPACE
  1

  0
ENDBLK
  5
1D
330
1B
100
AcDbEntity
 67
     1
  8
0
100
AcDbBlockEnd
  0
ENDSEC
  0
SECTION
  2
ENTITIES
  0
SPLINE
  5
100
100
AcDbEntity
  8
Layer_1
 62
3
100
AcDbSpline
 70
8
 71
3
 72
8
 73
4
 74
0
 40
0
 40
0
 40
0
 40
0
 40
1
 40
1
 40
1
 40
1
 10
3.135112
 20
19.865725
 30
0.0
 10
3.116504
 20
19.865450
 30
0.0
 10
3.097630
 20
19.864639
 30
0.0
 10
3.078290
 20
19.863335
 30
0.0
  0
SPLINE
  5
101
100
AcDbEntity
  8
Layer_1
 62
3
100
AcDbSpline
 70
8
 71
3
 72
8
 73
4
 74
0
 40
0
 40
0
 40
0
 40
0
 40
1
 40
1
 40
1
 40
1
 10
3.078290
 20
19.863335
 30
0.0
 10
2.977146
 20
19.856499
 30
0.0
 10
2.880029
 20
19.833444
 30
0.0
 10
2.781388
 20
19.792800
 30
0.0
  0
SPLINE
  5
102
100
AcDbEntity
  8
Layer_1
 62
3
100
AcDbSpline
 70
8
 71
3
 72
8
 73
4
 74
0
 40
0
 40
0
 40
0
 40
0
 40
1
 40
1
 40
1
 40
1
 10
2.781388
 20
19.792800
 30
0.0
 10
2.594086
 20
19.715611
 30
0.0
 10
2.443526
 20
19.582600
 30
0.0
 10
2.349213
 20
19.410965
 30
0.0
  0
SPLINE
  5
103
100
AcDbEntity
  8
Layer_1
 62
3
100
AcDbSpline
 70
8
 71
3
 72
8
 73
4
 74
0
 40
0
 40
0
 40
0
 40
0
 40
1
 40
1
 40
1
 40
1
 10
2.349213
 20
19.410965
 30
0.0
 10
2.325938
 20
19.368587
 30
0.0
 10
2.281496
 20
19.258319
 30
0.0
 10
2.266916
 20
19.206741
 30
0.0
  0
SPLINE
  5
104
100
AcDbEntity
  8
Layer_1
 62
3
100
AcDbSpline
 70
8
 71
3
 72
8
 73
4
 74
0
 40
0
 40
0
 40
0
 40
0
 40
1
 40
1
 40
1
 40
1
 10
2.266916
 20
19.206741
 30
0.0
 10
2.199770
 20
18.968717
 30
0.0
 10
2.213905
 20
18.743817
 30
0.0
 10
2.312510
 20
18.480650
 30
0.0
  0
SPLINE
  5
105
100
AcDbEntity
  8
Layer_1
 62
3
100
AcDbSpline
 70
8
 71
3
 72
8
 73
4
 74
0
 40
0
 40
0
 40
0
 40
0
 40
1
 40
1
 40
1
 40
1
 10
2.312510
 20
18.480650
 30
0.0
 10
2.364699
 20
18.341353
 30
0.0
 10
2.424712
 20
18.220106
 30
0.0
 10
2.587837
 20
17.924166
 30
0.0
  0
SPLINE
  5
106
100
AcDbEntity
  8
Layer_1
 62
3
100
AcDbSpline
 70
8
 71
3
 72
8
 73
4
 74
0
 40
0
 40
0
 40
0
 40
0
 40
1
 40
1
 40
1
 40
1
 10
2.587837
 20
17.924166
 30
0.0
 10
2.725106
 20
17.675128
 30
0.0
 10
2.793564
 20
17.541026
 30
0.0
 10
2.850999
 20
17.408745
 30
0.0
  0
SPLINE
  5
107
100
AcDbEntity
  8
Layer_1
 62
3
100
AcDbSpline
 70
8
 71
3
 72
8
 73
4
 74
0
 40
0
 40
0
 40
0
 40
0
 40
1
 40
1
 40
1
 40
1
 10
2.850999
 20
17.408745
 30
0.0
 10
2.864247
 20
17.378241
 30
0.0
 10
2.875602
 20
17.349984
 30
0.0
 10
2.887182
 20
17.321421
 30
0.0
  0
SPLINE
  5
108
100
AcDbEntity
  8
Layer_1
 62
3
100
AcDbSpline
 70
8
 71
3
 72
8
 73
4
 74
0
 40
0
 40
0
 40
0
 40
0
 40
1
 40
1
 40
1
 40
1
 10
2.887182
 20
17.321421
 30
0.0
 10
2.589835
 20
17.351493
 30
0.0
 10
2.211514
 20
17.359482
 30
0.0
 10
1.859956
 20
17.366434
 30
0.0
  0
SPLINE
  5
109
100
AcDbEntity
  8
Layer_1
 62
3
100
AcDbSpline
 70
8
 71
3
 72
8
 73
4
 74
0
 40
0
 40
0
 40
0
 40
0
 40
1
 40
1
 40
1
 40
1
 10
1.859956
 20
17.366434
 30
0.0
 10
1.877400
 20
17.962177
 30
0.0
 10
2.003806
 20
18.823436
 30
0.0
 10
2.003754
 20
19.397606
 30
0.0
  0
SPLINE
  5
10a
100
AcDbEntity
  8
Layer_1
 62
3
100
AcDbSpline
 70
8
 71
3
 72
8
 73
4
 74
0
 40
0
 40
0
 40
0
 40
0
 40
1
 40
1
 40
1
 40
1
 10
2.003754
 20
19.397606
 30
0.0
 10
2.005475
 20
19.456445
 30
0.0
 10
1.904491
 20
19.463060
 30
0.0
 10
1.809008
 20
19.465854
 30
0.0
  0
SPLINE
  5
10b
100
AcDbEntity
  8
Layer_1
 62
3
100
AcDbSpline
 70
8
 71
3
 72
8
 73
4
 74
0
 40
0
 40
0
 40
0
 40
0
 40
1
 40
1
 40
1
 40
1
 10
1.809008
 20
19.465854
 30
0.0
 10
1.601193
 20
19.471938
 30
0.0
 10
1.375871
 20
19.456490
 30
0.0
 10
1.223470
 20
19.435187
 30
0.0
  0
SPLINE
  5
10c
100
AcDbEntity
  8
Layer_1
 62
3
100
AcDbSpline
 70
8
 71
3
 72
8
 73
4
 74
0
 40
0
 40
0
 40
0
 40
0
 40
1
 40
1
 40
1
 40
1
 10
1.223470
 20
19.435187
 30
0.0
 10
1.206240
 20
18.846800
 30
0.0
 10
1.108857
 20
18.017845
 30
0.0
 10
1.090121
 20
17.377973
 30
0.0
  0
SPLINE
  5
10d
100
AcDbEntity
  8
Layer_1
 62
3
100
AcDbSpline
 70
8
 71
3
 72
8
 73
4
 74
0
 40
0
 40
0
 40
0
 40
0
 40
1
 40
1
 40
1
 40
1
 10
1.090121
 20
17.377973
 30
0.0
 10
1.086460
 20
17.252941
 30
0.0
 10
1.093507
 20
17.109183
 30
0.0
 10
1.129268
 20
16.986678
 30
0.0
  0
SPLINE
  5
10e
100
AcDbEntity
  8
Layer_1
 62
3
100
AcDbSpline
 70
8
 71
3
 72
8
 73
4
 74
0
 40
0
 40
0
 40
0
 40
0
 40
1
 40
1
 40
1
 40
1
 10
1.129268
 20
16.986678
 30
0.0
 10
1.234584
 20
16.935747
 30
0.0
 10
1.268012
 20
16.923695
 30
0.0
 10
1.442234
 20
16.922276
 30
0.0
  0
SPLINE
  5
10f
100
AcDbEntity
  8
Layer_1
 62
3
100
AcDbSpline
 70
8
 71
3
 72
8
 73
4
 74
0
 40
0
 40
0
 40
0
 40
0
 40
1
 40
1
 40
1
 40
1
 10
1.442234
 20
16.922276
 30
0.0
 10
1.573782
 20
16.920319
 30
0.0
 10
1.713781
 20
16.917336
 30
0.0
 10
1.850910
 20
16.914792
 30
0.0
  0
SPLINE
  5
110
100
AcDbEntity
  8
Layer_1
 62
3
100
AcDbSpline
 70
8
 71
3
 72
8
 73
4
 74
0
 40
0
 40
0
 40
0
 40
0
 40
1
 40
1
 40
1
 40
1
 10
1.850910
 20
16.914792
 30
0.0
 10
1.449930
 20
16.777855
 30
0.0
 10
1.115072
 20
16.448701
 30
0.0
 10
1.003821
 20
16.030945
 30
0.0
  0
SPLINE
  5
111
100
AcDbEntity
  8
Layer_1
 62
3
100
AcDbSpline
 70
8
 71
3
 72
8
 73
4
 74
0
 40
0
 40
0
 40
0
 40
0
 40
1
 40
1
 40
1
 40
1
 10
1.003821
 20
16.030945
 30
0.0
 10
0.949893
 20
15.828441
 30
0.0
 10
0.956804
 20
15.492506
 30
0.0
 10
1.019001
 20
15.291288
 30
0.0
  0
SPLINE
  5
112
100
AcDbEntity
  8
Layer_1
 62
3
100
AcDbSpline
 70
8
 71
3
 72
8
 73
4
 74
0
 40
0
 40
0
 40
0
 40
0
 40
1
 40
1
 40
1
 40
1
 10
1.019001
 20
15.291288
 30
0.0
 10
1.112525
 20
14.988725
 30
0.0
 10
1.291986
 20
14.754834
 30
0.0
 10
1.569136
 20
14.574294
 30
0.0
  0
SPLINE
  5
113
100
AcDbEntity
  8
Layer_1
 62
3
100
AcDbSpline
 70
8
 71
3
 72
8
 73
4
 74
0
 40
0
 40
0
 40
0
 40
0
 40
1
 40
1
 40
1
 40
1
 10
1.569136
 20
14.574294
 30
0.0
 10
1.662360
 20
14.513567
 30
0.0
 10
1.738616
 20
14.460272
 30
0.0
 10
1.738616
 20
14.455886
 30
0.0
  0
SPLINE
  5
114
100
AcDbEntity
  8
Layer_1
 62
3
100
AcDbSpline
 70
8
 71
3
 72
8
 73
4
 74
0
 40
0
 40
0
 40
0
 40
0
 40
1
 40
1
 40
1
 40
1
 10
1.738616
 20
14.455886
 30
0.0
 10
1.738616
 20
14.451501
 30
0.0
 10
1.715371
 20
14.393659
 30
0.0
 10
1.686940
 20
14.327343
 30
0.0
  0
SPLINE
  5
115
100
AcDbEntity
  8
Layer_1
 62
3
100
AcDbSpline
 70
8
 71
3
 72
8
 73
4
 74
0
 40
0
 40
0
 40
0
 40
0
 40
1
 40
1
 40
1
 40
1
 10
1.686940
 20
14.327343
 30
0.0
 10
1.658510
 20
14.261027
 30
0.0
 10
1.596845
 20
14.053421
 30
0.0
 10
1.549901
 20
13.866032
 30
0.0
  0
SPLINE
  5
116
100
AcDbEntity
  8
Layer_1
 62
3
100
AcDbSpline
 70
8
 71
3
 72
8
 73
4
 74
0
 40
0
 40
0
 40
0
 40
0
 40
1
 40
1
 40
1
 40
1
 10
1.549901
 20
13.866032
 30
0.0
 10
1.470294
 20
13.548264
 30
0.0
 10
1.464561
 20
13.494903
 30
0.0
 10
1.465265
 20
13.072941
 30
0.0
  0
SPLINE
  5
117
100
AcDbEntity
  8
Layer_1
 62
3
100
AcDbSpline
 70
8
 71
3
 72
8
 73
4
 74
0
 40
0
 40
0
 40
0
 40
0
 40
1
 40
1
 40
1
 40
1
 10
1.465265
 20
13.072941
 30
0.0
 10
1.466068
 20
12.577524
 30
0.0
 10
1.492791
 20
12.413733
 30
0.0
 10
1.631262
 20
12.054730
 30
0.0
  0
SPLINE
  5
118
100
AcDbEntity
  8
Layer_1
 62
3
100
AcDbSpline
 70
8
 71
3
 72
8
 73
4
 74
0
 40
0
 40
0
 40
0
 40
0
 40
1
 40
1
 40
1
 40
1
 10
1.631262
 20
12.054730
 30
0.0
 10
1.675214
 20
11.940779
 30
0.0
 10
1.752984
 20
11.781918
 30
0.0
 10
1.804069
 20
11.701742
 30
0.0
  0
SPLINE
  5
119
100
AcDbEntity
  8
Layer_1
 62
3
100
AcDbSpline
 70
8
 71
3
 72
8
 73
4
 74
0
 40
0
 40
0
 40
0
 40
0
 40
1
 40
1
 40
1
 40
1
 10
1.804069
 20
11.701742
 30
0.0
 10
1.855154
 20
11.621566
 30
0.0
 10
1.897275
 20
11.548070
 30
0.0
 10
1.897647
 20
11.538373
 30
0.0
  0
SPLINE
  5
11a
100
AcDbEntity
  8
Layer_1
 62
3
100
AcDbSpline
 70
8
 71
3
 72
8
 73
4
 74
0
 40
0
 40
0
 40
0
 40
0
 40
1
 40
1
 40
1
 40
1
 10
1.897647
 20
11.538373
 30
0.0
 10
1.898049
 20
11.528677
 30
0.0
 10
1.822136
 20
11.466352
 30
0.0
 10
1.728999
 20
11.399902
 30
0.0
  0
SPLINE
  5
11b
100
AcDbEntity
  8
Layer_1
 62
3
100
AcDbSpline
 70
8
 71
3
 72
8
 73
4
 74
0
 40
0
 40
0
 40
0
 40
0
 40
1
 40
1
 40
1
 40
1
 10
1.728999
 20
11.399902
 30
0.0
 10
0.961494
 20
10.852317
 30
0.0
 10
0.231589
 20
9.379431
 30
0.0
 10
0.032534
 20
7.976531
 30
0.0
  0
SPLINE
  5
11c
100
AcDbEntity
  8
Layer_1
 62
3
100
AcDbSpline
 70
8
 71
3
 72
8
 73
4
 74
0
 40
0
 40
0
 40
0
 40
0
 40
1
 40
1
 40
1
 40
1
 10
0.032534
 20
7.976531
 30
0.0
 10
-0.014610
 20
7.644267
 30
0.0
 10
-0.007811
 20
7.046907
 30
0.0
 10
0.045894
 20
6.805555
 30
0.0
  0
SPLINE
  5
11d
100
AcDbEntity
  8
Layer_1
 62
3
100
AcDbSpline
 70
8
 71
3
 72
8
 73
4
 74
0
 40
0
 40
0
 40
0
 40
0
 40
1
 40
1
 40
1
 40
1
 10
0.045894
 20
6.805555
 30
0.0
 10
0.143400
 20
6.367366
 30
0.0
 10
0.349959
 20
6.072507
 30
0.0
 10
0.625090
 20
5.978677
 30
0.0
  0
SPLINE
  5
11e
100
AcDbEntity
  8
Layer_1
 62
3
100
AcDbSpline
 70
8
 71
3
 72
8
 73
4
 74
0
 40
0
 40
0
 40
0
 40
0
 40
1
 40
1
 40
1
 40
1
 10
0.625090
 20
5.978677
 30
0.0
 10
0.754573
 20
5.934519
 30
0.0
 10
0.766552
 20
5.923669
 30
0.0
 10
0.760934
 20
5.855592
 30
0.0
  0
SPLINE
  5
11f
100
AcDbEntity
  8
Layer_1
 62
3
100
AcDbSpline
 70
8
 71
3
 72
8
 73
4
 74
0
 40
0
 40
0
 40
0
 40
0
 40
1
 40
1
 40
1
 40
1
 10
0.760934
 20
5.855592
 30
0.0
 10
0.721474
 20
5.377413
 30
0.0
 10
0.722858
 20
5.150879
 30
0.0
 10
0.766445
 20
4.955008
 30
0.0
  0
SPLINE
  5
120
100
AcDbEntity
  8
Layer_1
 62
3
100
AcDbSpline
 70
8
 71
3
 72
8
 73
4
 74
0
 40
0
 40
0
 40
0
 40
0
 40
1
 40
1
 40
1
 40
1
 10
0.766445
 20
4.955008
 30
0.0
 10
0.969282
 20
4.043453
 30
0.0
 10
1.667262
 20
3.402844
 30
0.0
 10
2.483030
 20
3.278279
 30
0.0
  0
SPLINE
  5
121
100
AcDbEntity
  8
Layer_1
 62
3
100
AcDbSpline
 70
8
 71
3
 72
8
 73
4
 74
0
 40
0
 40
0
 40
0
 40
0
 40
1
 40
1
 40
1
 40
1
 10
2.483030
 20
3.278279
 30
0.0
 10
2.351749
 20
2.896597
 30
0.0
 10
2.288058
 20
2.661215
 30
0.0
 10
2.133308
 20
1.907289
 30
0.0
  0
SPLINE
  5
122
100
AcDbEntity
  8
Layer_1
 62
3
100
AcDbSpline
 70
8
 71
3
 72
8
 73
4
 74
0
 40
0
 40
0
 40
0
 40
0
 40
1
 40
1
 40
1
 40
1
 10
2.133308
 20
1.907289
 30
0.0
 10
1.856221
 20
2.530541
 30
0.0
 10
1.516761
 20
3.045357
 30
0.0
 10
1.379277
 20
3.233162
 30
0.0
  0
SPLINE
  5
123
100
AcDbEntity
  8
Layer_1
 62
3
100
AcDbSpline
 70
8
 71
3
 72
8
 73
4
 74
0
 40
0
 40
0
 40
0
 40
0
 40
1
 40
1
 40
1
 40
1
 10
1.379277
 20
3.233162
 30
0.0
 10
1.214079
 20
3.217499
 30
0.0
 10
0.991782
 20
3.128066
 30
0.0
 10
0.858828
 20
3.042816
 30
0.0
  0
SPLINE
  5
124
100
AcDbEntity
  8
Layer_1
 62
3
100
AcDbSpline
 70
8
 71
3
 72
8
 73
4
 74
0
 40
0
 40
0
 40
0
 40
0
 40
1
 40
1
 40
1
 40
1
 10
0.858828
 20
3.042816
 30
0.0
 10
1.197881
 20
2.532269
 30
0.0
 10
1.689747
 20
1.762677
 30
0.0
 10
1.924109
 20
1.229382
 30
0.0
  0
SPLINE
  5
125
100
AcDbEntity
  8
Layer_1
 62
3
100
AcDbSpline
 70
8
 71
3
 72
8
 73
4
 74
0
 40
0
 40
0
 40
0
 40
0
 40
1
 40
1
 40
1
 40
1
 10
1.924109
 20
1.229382
 30
0.0
 10
1.964316
 20
0.895612
 30
0.0
 10
1.981301
 20
0.581046
 30
0.0
 10
1.973342
 20
0.349539
 30
0.0
  0
SPLINE
  5
126
100
AcDbEntity
  8
Layer_1
 62
3
100
AcDbSpline
 70
8
 71
3
 72
8
 73
4
 74
0
 40
0
 40
0
 40
0
 40
0
 40
1
 40
1
 40
1
 40
1
 10
1.973342
 20
0.349539
 30
0.0
 10
2.099176
 20
0.284552
 30
0.0
 10
2.339799
 20
0.315902
 30
0.0
 10
2.536473
 20
0.360194
 30
0.0
  0
SPLINE
  5
127
100
AcDbEntity
  8
Layer_1
 62
3
100
AcDbSpline
 70
8
 71
3
 72
8
 73
4
 74
0
 40
0
 40
0
 40
0
 40
0
 40
1
 40
1
 40
1
 40
1
 10
2.536473
 20
0.360194
 30
0.0
 10
2.554329
 20
0.622551
 30
0.0
 10
2.517216
 20
1.059162
 30
0.0
 10
2.504397
 20
1.284428
 30
0.0
  0
SPLINE
  5
128
100
AcDbEntity
  8
Layer_1
 62
3
100
AcDbSpline
 70
8
 71
3
 72
8
 73
4
 74
0
 40
0
 40
0
 40
0
 40
0
 40
1
 40
1
 40
1
 40
1
 10
2.504397
 20
1.284428
 30
0.0
 10
2.609879
 20
1.757643
 30
0.0
 10
2.696908
 20
2.116026
 30
0.0
 10
2.777749
 20
2.417096
 30
0.0
  0
SPLINE
  5
129
100
AcDbEntity
  8
Layer_1
 62
3
100
AcDbSpline
 70
8
 71
3
 72
8
 73
4
 74
0
 40
0
 40
0
 40
0
 40
0
 40
1
 40
1
 40
1
 40
1
 10
2.777749
 20
2.417096
 30
0.0
 10
2.775477
 20
2.376796
 30
0.0
 10
2.774075
 20
2.337372
 30
0.0
 10
2.774843
 20
2.311632
 30
0.0
  0
SPLINE
  5
12a
100
AcDbEntity
  8
Layer_1
 62
3
100
AcDbSpline
 70
8
 71
3
 72
8
 73
4
 74
0
 40
0
 40
0
 40
0
 40
0
 40
1
 40
1
 40
1
 40
1
 10
2.774843
 20
2.311632
 30
0.0
 10
2.783133
 20
2.035137
 30
0.0
 10
2.863192
 20
1.796091
 30
0.0
 10
3.033223
 20
1.539903
 30
0.0
  0
SPLINE
  5
12b
100
AcDbEntity
  8
Layer_1
 62
3
100
AcDbSpline
 70
8
 71
3
 72
8
 73
4
 74
0
 40
0
 40
0
 40
0
 40
0
 40
1
 40
1
 40
1
 40
1
 10
3.033223
 20
1.539903
 30
0.0
 10
3.123217
 20
1.404301
 30
0.0
 10
3.215078
 20
1.290436
 30
0.0
 10
3.454895
 20
1.017309
 30
0.0
  0
SPLINE
  5
12c
100
AcDbEntity
  8
Layer_1
 62
3
100
AcDbSpline
 70
8
 71
3
 72
8
 73
4
 74
0
 40
0
 40
0
 40
0
 40
0
 40
1
 40
1
 40
1
 40
1
 10
3.454895
 20
1.017309
 30
0.0
 10
3.656701
 20
0.787471
 30
0.0
 10
3.760329
 20
0.662139
 30
0.0
 10
3.853121
 20
0.535622
 30
0.0
  0
SPLINE
  5
12d
100
AcDbEntity
  8
Layer_1
 62
3
100
AcDbSpline
 70
8
 71
3
 72
8
 73
4
 74
0
 40
0
 40
0
 40
0
 40
0
 40
1
 40
1
 40
1
 40
1
 10
3.853121
 20
0.535622
 30
0.0
 10
3.973859
 20
0.371017
 30
0.0
 10
4.056482
 20
0.239017
 30
0.0
 10
4.149192
 20
0.062512
 30
0.0
  0
SPLINE
  5
12e
100
AcDbEntity
  8
Layer_1
 62
3
100
AcDbSpline
 70
8
 71
3
 72
8
 73
4
 74
0
 40
0
 40
0
 40
0
 40
0
 40
1
 40
1
 40
1
 40
1
 10
4.149192
 20
0.062512
 30
0.0
 10
4.167506
 20
0.027588
 30
0.0
 10
4.183753
 20
0.000006
 30
0.0
 10
4.184647
 20
0.001021
 30
0.0
  0
SPLINE
  5
12f
100
AcDbEntity
  8
Layer_1
 62
3
100
AcDbSpline
 70
8
 71
3
 72
8
 73
4
 74
0
 40
0
 40
0
 40
0
 40
0
 40
1
 40
1
 40
1
 40
1
 10
4.184647
 20
0.001021
 30
0.0
 10
4.185793
 20
0.002187
 30
0.0
 10
4.213796
 20
0.038068
 30
0.0
 10
4.246877
 20
0.080964
 30
0.0
  0
SPLINE
  5
130
100
AcDbEntity
  8
Layer_1
 62
3
100
AcDbSpline
 70
8
 71
3
 72
8
 73
4
 74
0
 40
0
 40
0
 40
0
 40
0
 40
1
 40
1
 40
1
 40
1
 10
4.246877
 20
0.080964
 30
0.0
 10
4.386247
 20
0.261831
 30
0.0
 10
4.494859
 20
0.376235
 30
0.0
 10
4.692204
 20
0.549865
 30
0.0
  0
SPLINE
  5
131
100
AcDbEntity
  8
Layer_1
 62
3
100
AcDbSpline
 70
8
 71
3
 72
8
 73
4
 74
0
 40
0
 40
0
 40
0
 40
0
 40
1
 40
1
 40
1
 40
1
 10
4.692204
 20
0.549865
 30
0.0
 10
4.817374
 20
0.660001
 30
0.0
 10
4.871691
 20
0.704262
 30
0.0
 10
5.093758
 20
0.877278
 30
0.0
  0
SPLINE
  5
132
100
AcDbEntity
  8
Layer_1
 62
3
100
AcDbSpline
 70
8
 71
3
 72
8
 73
4
 74
0
 40
0
 40
0
 40
0
 40
0
 40
1
 40
1
 40
1
 40
1
 10
5.093758
 20
0.877278
 30
0.0
 10
5.284293
 20
1.025730
 30
0.0
 10
5.338269
 20
1.069497
 30
0.0
 10
5.428507
 20
1.148919
 30
0.0
  0
SPLINE
  5
133
100
AcDbEntity
  8
Layer_1
 62
3
100
AcDbSpline
 70
8
 71
3
 72
8
 73
4
 74
0
 40
0
 40
0
 40
0
 40
0
 40
1
 40
1
 40
1
 40
1
 10
5.428507
 20
1.148919
 30
0.0
 10
5.610922
 20
1.309453
 30
0.0
 10
5.720847
 20
1.436239
 30
0.0
 10
5.809682
 20
1.588348
 30
0.0
  0
SPLINE
  5
134
100
AcDbEntity
  8
Layer_1
 62
3
100
AcDbSpline
 70
8
 71
3
 72
8
 73
4
 74
0
 40
0
 40
0
 40
0
 40
0
 40
1
 40
1
 40
1
 40
1
 10
5.809682
 20
1.588348
 30
0.0
 10
5.881324
 20
1.710553
 30
0.0
 10
5.925534
 20
1.827081
 30
0.0
 10
5.955508
 20
1.972106
 30
0.0
  0
SPLINE
  5
135
100
AcDbEntity
  8
Layer_1
 62
3
100
AcDbSpline
 70
8
 71
3
 72
8
 73
4
 74
0
 40
0
 40
0
 40
0
 40
0
 40
1
 40
1
 40
1
 40
1
 10
5.955508
 20
1.972106
 30
0.0
 10
5.957921
 20
1.983795
 30
0.0
 10
5.959763
 20
1.997198
 30
0.0
 10
5.961695
 20
2.010311
 30
0.0
  0
SPLINE
  5
136
100
AcDbEntity
  8
Layer_1
 62
3
100
AcDbSpline
 70
8
 71
3
 72
8
 73
4
 74
0
 40
0
 40
0
 40
0
 40
0
 40
1
 40
1
 40
1
 40
1
 10
5.961695
 20
2.010311
 30
0.0
 10
5.965930
 20
1.882159
 30
0.0
 10
5.971705
 20
1.754665
 30
0.0
 10
5.981659
 20
1.630294
 30
0.0
  0
SPLINE
  5
137
100
AcDbEntity
  8
Layer_1
 62
3
100
AcDbSpline
 70
8
 71
3
 72
8
 73
4
 74
0
 40
0
 40
0
 40
0
 40
0
 40
1
 40
1
 40
1
 40
1
 10
5.981659
 20
1.630294
 30
0.0
 10
6.027827
 20
1.053516
 30
0.0
 10
6.091508
 20
0.337362
 30
0.0
 10
6.834206
 20
0.437695
 30
0.0
  0
SPLINE
  5
138
100
AcDbEntity
  8
Layer_1
 62
3
100
AcDbSpline
 70
8
 71
3
 72
8
 73
4
 74
0
 40
0
 40
0
 40
0
 40
0
 40
1
 40
1
 40
1
 40
1
 10
6.834206
 20
0.437695
 30
0.0
 10
7.032083
 20
0.469276
 30
0.0
 10
7.223711
 20
0.611356
 30
0.0
 10
7.280054
 20
0.783353
 30
0.0
  0
SPLINE
  5
139
100
AcDbEntity
  8
Layer_1
 62
3
100
AcDbSpline
 70
8
 71
3
 72
8
 73
4
 74
0
 40
0
 40
0
 40
0
 40
0
 40
1
 40
1
 40
1
 40
1
 10
7.280054
 20
0.783353
 30
0.0
 10
7.293347
 20
0.733333
 30
0.0
 10
7.300397
 20
0.614369
 30
0.0
 10
7.310259
 20
0.555479
 30
0.0
  0
SPLINE
  5
13a
100
AcDbEntity
  8
Layer_1
 62
3
100
AcDbSpline
 70
8
 71
3
 72
8
 73
4
 74
0
 40
0
 40
0
 40
0
 40
0
 40
1
 40
1
 40
1
 40
1
 10
7.310259
 20
0.555479
 30
0.0
 10
7.395158
 20
0.516524
 30
0.0
 10
7.734028
 20
0.548669
 30
0.0
 10
7.847812
 20
0.610732
 30
0.0
  0
SPLINE
  5
13b
100
AcDbEntity
  8
Layer_1
 62
3
100
AcDbSpline
 70
8
 71
3
 72
8
 73
4
 74
0
 40
0
 40
0
 40
0
 40
0
 40
1
 40
1
 40
1
 40
1
 10
7.847812
 20
0.610732
 30
0.0
 10
7.732526
 20
1.330518
 30
0.0
 10
7.718806
 20
2.376107
 30
0.0
 10
7.611735
 20
3.459892
 30
0.0
  0
SPLINE
  5
13c
100
AcDbEntity
  8
Layer_1
 62
3
100
AcDbSpline
 70
8
 71
3
 72
8
 73
4
 74
0
 40
0
 40
0
 40
0
 40
0
 40
1
 40
1
 40
1
 40
1
 10
7.611735
 20
3.459892
 30
0.0
 10
7.010057
 20
3.423272
 30
0.0
 10
7.519388
 20
3.580679
 30
0.0
 10
7.825354
 20
3.834296
 30
0.0
  0
SPLINE
  5
13d
100
AcDbEntity
  8
Layer_1
 62
3
100
AcDbSpline
 70
8
 71
3
 72
8
 73
4
 74
0
 40
0
 40
0
 40
0
 40
0
 40
1
 40
1
 40
1
 40
1
 10
7.825354
 20
3.834296
 30
0.0
 10
8.337569
 20
4.312567
 30
0.0
 10
8.564856
 20
4.888123
 30
0.0
 10
8.516531
 20
5.584523
 30
0.0
  0
LINE
  5
13e
100
AcDbEntity
  8
Layer_1
 62
3
100
AcDbLine
 10
8.516531
 20
5.584523
 30
0.0
 11
8.500622
 21
5.813853
 31
0.0
  0
LINE
  5
13f
100
AcDbEntity
  8
Layer_1
 62
3
100
AcDbLine
 10
8.500622
 20
5.813853
 30
0.0
 11
8.644316
 21
5.815151
 31
0.0
  0
SPLINE
  5
140
100
AcDbEntity
  8
Layer_1
 62
3
100
AcDbSpline
 70
8
 71
3
 72
8
 73
4
 74
0
 40
0
 40
0
 40
0
 40
0
 40
1
 40
1
 40
1
 40
1
 10
8.644316
 20
5.815151
 30
0.0
 10
9.612215
 20
5.823851
 30
0.0
 10
9.792027
 20
7.733934
 30
0.0
 10
9.008751
 20
9.686317
 30
0.0
  0
SPLINE
  5
141
100
AcDbEntity
  8
Layer_1
 62
3
100
AcDbSpline
 70
8
 71
3
 72
8
 73
4
 74
0
 40
0
 40
0
 40
0
 40
0
 40
1
 40
1
 40
1
 40
1
 10
9.008751
 20
9.686317
 30
0.0
 10
8.726711
 20
10.389326
 30
0.0
 10
8.329002
 20
10.977923
 30
0.0
 10
7.916539
 20
11.302752
 30
0.0
  0
LINE
  5
142
100
AcDbEntity
  8
Layer_1
 62
3
100
AcDbLine
 10
7.916539
 20
11.302752
 30
0.0
 11
7.703961
 21
11.470123
 31
0.0
  0
LINE
  5
143
100
AcDbEntity
  8
Layer_1
 62
3
100
AcDbLine
 10
7.703961
 20
11.470123
 30
0.0
 11
7.811992
 21
11.629178
 31
0.0
  0
SPLINE
  5
144
100
AcDbEntity
  8
Layer_1
 62
3
100
AcDbSpline
 70
8
 71
3
 72
8
 73
4
 74
0
 40
0
 40
0
 40
0
 40
0
 40
1
 40
1
 40
1
 40
1
 10
7.811992
 20
11.629178
 30
0.0
 10
8.248397
 20
12.271701
 30
0.0
 10
8.337639
 20
13.198123
 30
0.0
 10
8.046146
 20
14.060327
 30
0.0
  0
SPLINE
  5
145
100
AcDbEntity
  8
Layer_1
 62
3
100
AcDbSpline
 70
8
 71
3
 72
8
 73
4
 74
0
 40
0
 40
0
 40
0
 40
0
 40
1
 40
1
 40
1
 40
1
 10
8.046146
 20
14.060327
 30
0.0
 10
8.002726
 20
14.188752
 30
0.0
 10
7.967176
 20
14.309235
 30
0.0
 10
7.967176
 20
14.328069
 30
0.0
  0
SPLINE
  5
146
100
AcDbEntity
  8
Layer_1
 62
3
100
AcDbSpline
 70
8
 71
3
 72
8
 73
4
 74
0
 40
0
 40
0
 40
0
 40
0
 40
1
 40
1
 40
1
 40
1
 10
7.967176
 20
14.328069
 30
0.0
 10
7.967176
 20
14.346903
 30
0.0
 10
8.005394
 20
14.382084
 30
0.0
 10
8.052124
 20
14.406245
 30
0.0
  0
SPLINE
  5
147
100
AcDbEntity
  8
Layer_1
 62
3
100
AcDbSpline
 70
8
 71
3
 72
8
 73
4
 74
0
 40
0
 40
0
 40
0
 40
0
 40
1
 40
1
 40
1
 40
1
 10
8.052124
 20
14.406245
 30
0.0
 10
8.183859
 20
14.474356
 30
0.0
 10
8.412228
 20
14.703681
 30
0.0
 10
8.511384
 20
14.867452
 30
0.0
  0
SPLINE
  5
148
100
AcDbEntity
  8
Layer_1
 62
3
100
AcDbSpline
 70
8
 71
3
 72
8
 73
4
 74
0
 40
0
 40
0
 40
0
 40
0
 40
1
 40
1
 40
1
 40
1
 10
8.511384
 20
14.867452
 30
0.0
 10
8.759290
 20
15.276912
 30
0.0
 10
8.757821
 20
15.836263
 30
0.0
 10
8.507742
 20
16.234180
 30
0.0
  0
SPLINE
  5
149
100
AcDbEntity
  8
Layer_1
 62
3
100
AcDbSpline
 70
8
 71
3
 72
8
 73
4
 74
0
 40
0
 40
0
 40
0
 40
0
 40
1
 40
1
 40
1
 40
1
 10
8.507742
 20
16.234180
 30
0.0
 10
8.361068
 20
16.467573
 30
0.0
 10
8.152152
 20
16.640831
 30
0.0
 10
7.906972
 20
16.740609
 30
0.0
  0
SPLINE
  5
14a
100
AcDbEntity
  8
Layer_1
 62
3
100
AcDbSpline
 70
8
 71
3
 72
8
 73
4
 74
0
 40
0
 40
0
 40
0
 40
0
 40
1
 40
1
 40
1
 40
1
 10
7.906972
 20
16.740609
 30
0.0
 10
8.160858
 20
16.738707
 30
0.0
 10
8.414778
 20
16.735638
 30
0.0
 10
8.657936
 20
16.730265
 30
0.0
  0
SPLINE
  5
14b
100
AcDbEntity
  8
Layer_1
 62
3
100
AcDbSpline
 70
8
 71
3
 72
8
 73
4
 74
0
 40
0
 40
0
 40
0
 40
0
 40
1
 40
1
 40
1
 40
1
 10
8.657936
 20
16.730265
 30
0.0
 10
8.662030
 20
16.870007
 30
0.0
 10
8.662090
 20
17.031962
 30
0.0
 10
8.609067
 20
17.151293
 30
0.0
  0
SPLINE
  5
14c
100
AcDbEntity
  8
Layer_1
 62
3
100
AcDbSpline
 70
8
 71
3
 72
8
 73
4
 74
0
 40
0
 40
0
 40
0
 40
0
 40
1
 40
1
 40
1
 40
1
 10
8.609067
 20
17.151293
 30
0.0
 10
8.468323
 20
17.170135
 30
0.0
 10
7.861040
 20
17.180552
 30
0.0
 10
7.630344
 20
17.183623
 30
0.0
  0
SPLINE
  5
14d
100
AcDbEntity
  8
Layer_1
 62
3
100
AcDbSpline
 70
8
 71
3
 72
8
 73
4
 74
0
 40
0
 40
0
 40
0
 40
0
 40
1
 40
1
 40
1
 40
1
 10
7.630344
 20
17.183623
 30
0.0
 10
7.602142
 20
17.346394
 30
0.0
 10
7.623061
 20
17.577612
 30
0.0
 10
7.627687
 20
17.735741
 30
0.0
  0
SPLINE
  5
14e
100
AcDbEntity
  8
Layer_1
 62
3
100
AcDbSpline
 70
8
 71
3
 72
8
 73
4
 74
0
 40
0
 40
0
 40
0
 40
0
 40
1
 40
1
 40
1
 40
1
 10
7.627687
 20
17.735741
 30
0.0
 10
7.905980
 20
17.749678
 30
0.0
 10
8.240280
 20
17.747291
 30
0.0
 10
8.512570
 20
17.717237
 30
0.0
  0
SPLINE
  5
14f
100
AcDbEntity
  8
Layer_1
 62
3
100
AcDbSpline
 70
8
 71
3
 72
8
 73
4
 74
0
 40
0
 40
0
 40
0
 40
0
 40
1
 40
1
 40
1
 40
1
 10
8.512570
 20
17.717237
 30
0.0
 10
8.571735
 20
17.807519
 30
0.0
 10
8.600200
 20
17.975963
 30
0.0
 10
8.603861
 20
18.100996
 30
0.0
  0
SPLINE
  5
150
100
AcDbEntity
  8
Layer_1
 62
3
100
AcDbSpline
 70
8
 71
3
 72
8
 73
4
 74
0
 40
0
 40
0
 40
0
 40
0
 40
1
 40
1
 40
1
 40
1
 10
8.603861
 20
18.100996
 30
0.0
 10
8.393606
 20
18.158678
 30
0.0
 10
7.865787
 20
18.148341
 30
0.0
 10
7.649210
 20
18.150999
 30
0.0
  0
SPLINE
  5
151
100
AcDbEntity
  8
Layer_1
 62
3
100
AcDbSpline
 70
8
 71
3
 72
8
 73
4
 74
0
 40
0
 40
0
 40
0
 40
0
 40
1
 40
1
 40
1
 40
1
 10
7.649210
 20
18.150999
 30
0.0
 10
7.653626
 20
18.301774
 30
0.0
 10
7.680361
 20
18.731625
 30
0.0
 10
7.712687
 20
18.870541
 30
0.0
  0
SPLINE
  5
152
100
AcDbEntity
  8
Layer_1
 62
3
100
AcDbSpline
 70
8
 71
3
 72
8
 73
4
 74
0
 40
0
 40
0
 40
0
 40
0
 40
1
 40
1
 40
1
 40
1
 10
7.712687
 20
18.870541
 30
0.0
 10
7.982537
 20
18.917851
 30
0.0
 10
8.363109
 20
18.884668
 30
0.0
 10
8.630375
 20
18.843719
 30
0.0
  0
SPLINE
  5
153
100
AcDbEntity
  8
Layer_1
 62
3
100
AcDbSpline
 70
8
 71
3
 72
8
 73
4
 74
0
 40
0
 40
0
 40
0
 40
0
 40
1
 40
1
 40
1
 40
1
 10
8.630375
 20
18.843719
 30
0.0
 10
8.674557
 20
18.904996
 30
0.0
 10
8.727796
 20
19.116883
 30
0.0
 10
8.730919
 20
19.223528
 30
0.0
  0
SPLINE
  5
154
100
AcDbEntity
  8
Layer_1
 62
3
100
AcDbSpline
 70
8
 71
3
 72
8
 73
4
 74
0
 40
0
 40
0
 40
0
 40
0
 40
1
 40
1
 40
1
 40
1
 10
8.730919
 20
19.223528
 30
0.0
 10
8.388731
 20
19.321176
 30
0.0
 10
7.449044
 20
19.315877
 30
0.0
 10
7.110304
 20
19.257470
 30
0.0
  0
SPLINE
  5
155
100
AcDbEntity
  8
Layer_1
 62
3
100
AcDbSpline
 70
8
 71
3
 72
8
 73
4
 74
0
 40
0
 40
0
 40
0
 40
0
 40
1
 40
1
 40
1
 40
1
 10
7.110304
 20
19.257470
 30
0.0
 10
6.993003
 20
19.304676
 30
0.0
 10
6.806831
 20
19.326282
 30
0.0
 10
6.653540
 20
19.324315
 30
0.0
  0
SPLINE
  5
156
100
AcDbEntity
  8
Layer_1
 62
3
100
AcDbSpline
 70
8
 71
3
 72
8
 73
4
 74
0
 40
0
 40
0
 40
0
 40
0
 40
1
 40
1
 40
1
 40
1
 10
6.653540
 20
19.324315
 30
0.0
 10
6.552258
 20
19.121167
 30
0.0
 10
6.461789
 20
18.880932
 30
0.0
 10
6.383567
 20
18.651347
 30
0.0
  0
SPLINE
  5
157
100
AcDbEntity
  8
Layer_1
 62
3
100
AcDbSpline
 70
8
 71
3
 72
8
 73
4
 74
0
 40
0
 40
0
 40
0
 40
0
 40
1
 40
1
 40
1
 40
1
 10
6.383567
 20
18.651347
 30
0.0
 10
6.244396
 20
18.239515
 30
0.0
 10
6.119595
 20
17.775729
 30
0.0
 10
6.057448
 20
17.416852
 30
0.0
  0
SPLINE
  5
158
100
AcDbEntity
  8
Layer_1
 62
3
100
AcDbSpline
 70
8
 71
3
 72
8
 73
4
 74
0
 40
0
 40
0
 40
0
 40
0
 40
1
 40
1
 40
1
 40
1
 10
6.057448
 20
17.416852
 30
0.0
 10
5.992792
 20
17.650620
 30
0.0
 10
5.912682
 20
18.035728
 30
0.0
 10
5.866809
 20
18.368322
 30
0.0
  0
SPLINE
  5
159
100
AcDbEntity
  8
Layer_1
 62
3
100
AcDbSpline
 70
8
 71
3
 72
8
 73
4
 74
0
 40
0
 40
0
 40
0
 40
0
 40
1
 40
1
 40
1
 40
1
 10
5.866809
 20
18.368322
 30
0.0
 10
5.796708
 20
18.823084
 30
0.0
 10
5.780615
 20
19.221036
 30
0.0
 10
5.780198
 20
19.342508
 30
0.0
  0
SPLINE
  5
15a
100
AcDbEntity
  8
Layer_1
 62
3
100
AcDbSpline
 70
8
 71
3
 72
8
 73
4
 74
0
 40
0
 40
0
 40
0
 40
0
 40
1
 40
1
 40
1
 40
1
 10
5.780198
 20
19.342508
 30
0.0
 10
5.606324
 20
19.373361
 30
0.0
 10
5.423626
 20
19.375076
 30
0.0
 10
5.264010
 20
19.350304
 30
0.0
  0
SPLINE
  5
15b
100
AcDbEntity
  8
Layer_1
 62
3
100
AcDbSpline
 70
8
 71
3
 72
8
 73
4
 74
0
 40
0
 40
0
 40
0
 40
0
 40
1
 40
1
 40
1
 40
1
 10
5.264010
 20
19.350304
 30
0.0
 10
5.270288
 20
19.228894
 30
0.0
 10
5.279678
 20
19.104618
 30
0.0
 10
5.291771
 20
18.979800
 30
0.0
  0
SPLINE
  5
15c
100
AcDbEntity
  8
Layer_1
 62
3
100
AcDbSpline
 70
8
 71
3
 72
8
 73
4
 74
0
 40
0
 40
0
 40
0
 40
0
 40
1
 40
1
 40
1
 40
1
 10
5.291771
 20
18.979800
 30
0.0
 10
5.217087
 20
19.082271
 30
0.0
 10
5.118924
 20
19.167953
 30
0.0
 10
5.000016
 20
19.233820
 30
0.0
  0
SPLINE
  5
15d
100
AcDbEntity
  8
Layer_1
 62
3
100
AcDbSpline
 70
8
 71
3
 72
8
 73
4
 74
0
 40
0
 40
0
 40
0
 40
0
 40
1
 40
1
 40
1
 40
1
 10
5.000016
 20
19.233820
 30
0.0
 10
4.966573
 20
19.252214
 30
0.0
 10
4.949645
 20
19.259707
 30
0.0
 10
4.881328
 20
19.285071
 30
0.0
  0
SPLINE
  5
15e
100
AcDbEntity
  8
Layer_1
 62
3
100
AcDbSpline
 70
8
 71
3
 72
8
 73
4
 74
0
 40
0
 40
0
 40
0
 40
0
 40
1
 40
1
 40
1
 40
1
 10
4.881328
 20
19.285071
 30
0.0
 10
4.797975
 20
19.316033
 30
0.0
 10
4.777269
 20
19.321813
 30
0.0
 10
4.705505
 20
19.334191
 30
0.0
  0
SPLINE
  5
15f
100
AcDbEntity
  8
Layer_1
 62
3
100
AcDbSpline
 70
8
 71
3
 72
8
 73
4
 74
0
 40
0
 40
0
 40
0
 40
0
 40
1
 40
1
 40
1
 40
1
 10
4.705505
 20
19.334191
 30
0.0
 10
4.623663
 20
19.348379
 30
0.0
 10
4.560776
 20
19.351197
 30
0.0
 10
4.472341
 20
19.345002
 30
0.0
  0
SPLINE
  5
160
100
AcDbEntity
  8
Layer_1
 62
3
100
AcDbSpline
 70
8
 71
3
 72
8
 73
4
 74
0
 40
0
 40
0
 40
0
 40
0
 40
1
 40
1
 40
1
 40
1
 10
4.472341
 20
19.345002
 30
0.0
 10
4.410224
 20
19.340661
 30
0.0
 10
4.335746
 20
19.327964
 30
0.0
 10
4.278530
 20
19.311996
 30
0.0
  0
SPLINE
  5
161
100
AcDbEntity
  8
Layer_1
 62
3
100
AcDbSpline
 70
8
 71
3
 72
8
 73
4
 74
0
 40
0
 40
0
 40
0
 40
0
 40
1
 40
1
 40
1
 40
1
 10
4.278530
 20
19.311996
 30
0.0
 10
4.211598
 20
19.293294
 30
0.0
 10
4.115014
 20
19.251528
 30
0.0
 10
4.057062
 20
19.216251
 30
0.0
  0
SPLINE
  5
162
100
AcDbEntity
  8
Layer_1
 62
3
100
AcDbSpline
 70
8
 71
3
 72
8
 73
4
 74
0
 40
0
 40
0
 40
0
 40
0
 40
1
 40
1
 40
1
 40
1
 10
4.057062
 20
19.216251
 30
0.0
 10
4.044029
 20
19.208373
 30
0.0
 10
4.032731
 20
19.202368
 30
0.0
 10
4.031485
 20
19.202581
 30
0.0
  0
SPLINE
  5
163
100
AcDbEntity
  8
Layer_1
 62
3
100
AcDbSpline
 70
8
 71
3
 72
8
 73
4
 74
0
 40
0
 40
0
 40
0
 40
0
 40
1
 40
1
 40
1
 40
1
 10
4.031485
 20
19.202581
 30
0.0
 10
4.030438
 20
19.202982
 30
0.0
 10
4.026515
 20
19.214812
 30
0.0
 10
4.023064
 20
19.228882
 30
0.0
  0
SPLINE
  5
164
100
AcDbEntity
  8
Layer_1
 62
3
100
AcDbSpline
 70
8
 71
3
 72
8
 73
4
 74
0
 40
0
 40
0
 40
0
 40
0
 40
1
 40
1
 40
1
 40
1
 10
4.023064
 20
19.228882
 30
0.0
 10
4.004227
 20
19.302792
 30
0.0
 10
3.961055
 20
19.399985
 30
0.0
 10
3.917997
 20
19.465281
 30
0.0
  0
SPLINE
  5
165
100
AcDbEntity
  8
Layer_1
 62
3
100
AcDbSpline
 70
8
 71
3
 72
8
 73
4
 74
0
 40
0
 40
0
 40
0
 40
0
 40
1
 40
1
 40
1
 40
1
 10
3.917997
 20
19.465281
 30
0.0
 10
3.835562
 20
19.590158
 30
0.0
 10
3.729985
 20
19.684305
 30
0.0
 10
3.585951
 20
19.761352
 30
0.0
  0
SPLINE
  5
166
100
AcDbEntity
  8
Layer_1
 62
3
100
AcDbSpline
 70
8
 71
3
 72
8
 73
4
 74
0
 40
0
 40
0
 40
0
 40
0
 40
1
 40
1
 40
1
 40
1
 10
3.585951
 20
19.761352
 30
0.0
 10
3.551995
 20
19.779493
 30
0.0
 10
3.414057
 20
19.830590
 30
0.0
 10
3.374724
 20
19.839528
 30
0.0
  0
SPLINE
  5
167
100
AcDbEntity
  8
Layer_1
 62
3
100
AcDbSpline
 70
8
 71
3
 72
8
 73
4
 74
0
 40
0
 40
0
 40
0
 40
0
 40
1
 40
1
 40
1
 40
1
 10
3.374724
 20
19.839528
 30
0.0
 10
3.310283
 20
19.854204
 30
0.0
 10
3.250940
 20
19.862552
 30
0.0
 10
3.190272
 20
19.865049
 30
0.0
  0
SPLINE
  5
168
100
AcDbEntity
  8
Layer_1
 62
3
100
AcDbSpline
 70
8
 71
3
 72
8
 73
4
 74
0
 40
0
 40
0
 40
0
 40
0
 40
1
 40
1
 40
1
 40
1
 10
3.190272
 20
19.865049
 30
0.0
 10
3.172072
 20
19.865801
 30
0.0
 10
3.153722
 20
19.866018
 30
0.0
 10
3.135112
 20
19.865726
 30
0.0
  0
LINE
  5
169
100
AcDbEntity
  8
Layer_1
 62
3
100
AcDbLine
 10
3.135112
 20
19.865726
 30
0.0
 11
3.135112
 21
19.865725
 31
0.0
  0
SPLINE
  5
16a
100
AcDbEntity
  8
Layer_1
 62
3
100
AcDbSpline
 70
8
 71
3
 72
8
 73
4
 74
0
 40
0
 40
0
 40
0
 40
0
 40
1
 40
1
 40
1
 40
1
 10
3.505942
 20
19.090775
 30
0.0
 10
3.516498
 20
19.090972
 30
0.0
 10
3.527057
 20
19.090736
 30
0.0
 10
3.537654
 20
19.089995
 30
0.0
  0
SPLINE
  5
16b
100
AcDbEntity
  8
Layer_1
 62
3
100
AcDbSpline
 70
8
 71
3
 72
8
 73
4
 74
0
 40
0
 40
0
 40
0
 40
0
 40
1
 40
1
 40
1
 40
1
 10
3.537654
 20
19.089995
 30
0.0
 10
3.580875
 20
19.087015
 30
0.0
 10
3.617846
 20
19.078486
 30
0.0
 10
3.659046
 20
19.061875
 30
0.0
  0
SPLINE
  5
16c
100
AcDbEntity
  8
Layer_1
 62
3
100
AcDbSpline
 70
8
 71
3
 72
8
 73
4
 74
0
 40
0
 40
0
 40
0
 40
0
 40
1
 40
1
 40
1
 40
1
 10
3.659046
 20
19.061875
 30
0.0
 10
3.674759
 20
19.055551
 30
0.0
 10
3.728614
 20
19.024536
 30
0.0
 10
3.741497
 20
19.014418
 30
0.0
  0
SPLINE
  5
16d
100
AcDbEntity
  8
Layer_1
 62
3
100
AcDbSpline
 70
8
 71
3
 72
8
 73
4
 74
0
 40
0
 40
0
 40
0
 40
0
 40
1
 40
1
 40
1
 40
1
 10
3.741497
 20
19.014418
 30
0.0
 10
3.796141
 20
18.971469
 30
0.0
 10
3.833678
 20
18.923195
 30
0.0
 10
3.859614
 20
18.862484
 30
0.0
  0
SPLINE
  5
16e
100
AcDbEntity
  8
Layer_1
 62
3
100
AcDbSpline
 70
8
 71
3
 72
8
 73
4
 74
0
 40
0
 40
0
 40
0
 40
0
 40
1
 40
1
 40
1
 40
1
 10
3.859614
 20
18.862484
 30
0.0
 10
3.873168
 20
18.830753
 30
0.0
 10
3.884689
 20
18.784673
 30
0.0
 10
3.887636
 20
18.750522
 30
0.0
  0
SPLINE
  5
16f
100
AcDbEntity
  8
Layer_1
 62
3
100
AcDbSpline
 70
8
 71
3
 72
8
 73
4
 74
0
 40
0
 40
0
 40
0
 40
0
 40
1
 40
1
 40
1
 40
1
 10
3.887636
 20
18.750522
 30
0.0
 10
3.888139
 20
18.744025
 30
0.0
 10
3.888943
 20
18.738544
 30
0.0
 10
3.889344
 20
18.738307
 30
0.0
  0
SPLINE
  5
170
100
AcDbEntity
  8
Layer_1
 62
3
100
AcDbSpline
 70
8
 71
3
 72
8
 73
4
 74
0
 40
0
 40
0
 40
0
 40
0
 40
1
 40
1
 40
1
 40
1
 10
3.889344
 20
18.738307
 30
0.0
 10
3.889848
 20
18.738110
 30
0.0
 10
3.894918
 20
18.740173
 30
0.0
 10
3.900833
 20
18.742933
 30
0.0
  0
SPLINE
  5
171
100
AcDbEntity
  8
Layer_1
 62
3
100
AcDbSpline
 70
8
 71
3
 72
8
 73
4
 74
0
 40
0
 40
0
 40
0
 40
0
 40
1
 40
1
 40
1
 40
1
 10
3.900833
 20
18.742933
 30
0.0
 10
3.927184
 20
18.755271
 30
0.0
 10
3.970006
 20
18.768211
 30
0.0
 10
3.998987
 20
18.772613
 30
0.0
  0
SPLINE
  5
172
100
AcDbEntity
  8
Layer_1
 62
3
100
AcDbSpline
 70
8
 71
3
 72
8
 73
4
 74
0
 40
0
 40
0
 40
0
 40
0
 40
1
 40
1
 40
1
 40
1
 10
3.998987
 20
18.772613
 30
0.0
 10
4.023752
 20
18.776373
 30
0.0
 10
4.055400
 20
18.777669
 30
0.0
 10
4.081440
 20
18.775940
 30
0.0
  0
SPLINE
  5
173
100
AcDbEntity
  8
Layer_1
 62
3
100
AcDbSpline
 70
8
 71
3
 72
8
 73
4
 74
0
 40
0
 40
0
 40
0
 40
0
 40
1
 40
1
 40
1
 40
1
 10
4.081440
 20
18.775940
 30
0.0
 10
4.118511
 20
18.773479
 30
0.0
 10
4.144460
 20
18.768428
 30
0.0
 10
4.177461
 20
18.757279
 30
0.0
  0
SPLINE
  5
174
100
AcDbEntity
  8
Layer_1
 62
3
100
AcDbSpline
 70
8
 71
3
 72
8
 73
4
 74
0
 40
0
 40
0
 40
0
 40
0
 40
1
 40
1
 40
1
 40
1
 10
4.177461
 20
18.757279
 30
0.0
 10
4.206396
 20
18.747502
 30
0.0
 10
4.214605
 20
18.743666
 30
0.0
 10
4.247124
 20
18.724897
 30
0.0
  0
SPLINE
  5
175
100
AcDbEntity
  8
Layer_1
 62
3
100
AcDbSpline
 70
8
 71
3
 72
8
 73
4
 74
0
 40
0
 40
0
 40
0
 40
0
 40
1
 40
1
 40
1
 40
1
 10
4.247124
 20
18.724897
 30
0.0
 10
4.273772
 20
18.709517
 30
0.0
 10
4.280324
 20
18.705261
 30
0.0
 10
4.292978
 20
18.695061
 30
0.0
  0
SPLINE
  5
176
100
AcDbEntity
  8
Layer_1
 62
3
100
AcDbSpline
 70
8
 71
3
 72
8
 73
4
 74
0
 40
0
 40
0
 40
0
 40
0
 40
1
 40
1
 40
1
 40
1
 10
4.292978
 20
18.695061
 30
0.0
 10
4.308960
 20
18.682091
 30
0.0
 10
4.323725
 20
18.668149
 30
0.0
 10
4.337167
 20
18.653322
 30
0.0
  0
LINE
  5
177
100
AcDbEntity
  8
Layer_1
 62
3
100
AcDbLine
 10
4.337167
 20
18.653322
 30
0.0
 11
4.337207
 21
18.653282
 31
0.0
  0
SPLINE
  5
178
100
AcDbEntity
  8
Layer_1
 62
3
100
AcDbSpline
 70
8
 71
3
 72
8
 73
4
 74
0
 40
0
 40
0
 40
0
 40
0
 40
1
 40
1
 40
1
 40
1
 10
4.337207
 20
18.653282
 30
0.0
 10
4.377567
 20
18.608772
 30
0.0
 10
4.406207
 20
18.556112
 30
0.0
 10
4.422051
 20
18.497243
 30
0.0
  0
SPLINE
  5
179
100
AcDbEntity
  8
Layer_1
 62
3
100
AcDbSpline
 70
8
 71
3
 72
8
 73
4
 74
0
 40
0
 40
0
 40
0
 40
0
 40
1
 40
1
 40
1
 40
1
 10
4.422051
 20
18.497243
 30
0.0
 10
4.443023
 20
18.419328
 30
0.0
 10
4.438700
 20
18.338626
 30
0.0
 10
4.409418
 20
18.261623
 30
0.0
  0
SPLINE
  5
17a
100
AcDbEntity
  8
Layer_1
 62
3
100
AcDbSpline
 70
8
 71
3
 72
8
 73
4
 74
0
 40
0
 40
0
 40
0
 40
0
 40
1
 40
1
 40
1
 40
1
 10
4.409418
 20
18.261623
 30
0.0
 10
4.403493
 20
18.246031
 30
0.0
 10
4.400294
 20
18.239769
 30
0.0
 10
4.383060
 20
18.209904
 30
0.0
  0
SPLINE
  5
17b
100
AcDbEntity
  8
Layer_1
 62
3
100
AcDbSpline
 70
8
 71
3
 72
8
 73
4
 74
0
 40
0
 40
0
 40
0
 40
0
 40
1
 40
1
 40
1
 40
1
 10
4.383060
 20
18.209904
 30
0.0
 10
4.368120
 20
18.184026
 30
0.0
 10
4.360730
 20
18.172369
 30
0.0
 10
4.352076
 20
18.160992
 30
0.0
  0
SPLINE
  5
17c
100
AcDbEntity
  8
Layer_1
 62
3
100
AcDbSpline
 70
8
 71
3
 72
8
 73
4
 74
0
 40
0
 40
0
 40
0
 40
0
 40
1
 40
1
 40
1
 40
1
 10
4.352076
 20
18.160992
 30
0.0
 10
4.315758
 20
18.113307
 30
0.0
 10
4.278593
 20
18.078574
 30
0.0
 10
4.229853
 20
18.046431
 30
0.0
  0
SPLINE
  5
17d
100
AcDbEntity
  8
Layer_1
 62
3
100
AcDbSpline
 70
8
 71
3
 72
8
 73
4
 74
0
 40
0
 40
0
 40
0
 40
0
 40
1
 40
1
 40
1
 40
1
 10
4.229853
 20
18.046431
 30
0.0
 10
4.169180
 20
18.006507
 30
0.0
 10
4.104448
 20
17.979551
 30
0.0
 10
4.005525
 20
17.953025
 30
0.0
  0
SPLINE
  5
17e
100
AcDbEntity
  8
Layer_1
 62
3
100
AcDbSpline
 70
8
 71
3
 72
8
 73
4
 74
0
 40
0
 40
0
 40
0
 40
0
 40
1
 40
1
 40
1
 40
1
 10
4.005525
 20
17.953025
 30
0.0
 10
3.956584
 20
17.939902
 30
0.0
 10
3.927960
 20
17.933371
 30
0.0
 10
3.827884
 20
17.912690
 30
0.0
  0
SPLINE
  5
17f
100
AcDbEntity
  8
Layer_1
 62
3
100
AcDbSpline
 70
8
 71
3
 72
8
 73
4
 74
0
 40
0
 40
0
 40
0
 40
0
 40
1
 40
1
 40
1
 40
1
 10
3.827884
 20
17.912690
 30
0.0
 10
3.711244
 20
17.888582
 30
0.0
 10
3.682404
 20
17.882023
 30
0.0
 10
3.614525
 20
17.863830
 30
0.0
  0
SPLINE
  5
180
100
AcDbEntity
  8
Layer_1
 62
3
100
AcDbSpline
 70
8
 71
3
 72
8
 73
4
 74
0
 40
0
 40
0
 40
0
 40
0
 40
1
 40
1
 40
1
 40
1
 10
3.614525
 20
17.863830
 30
0.0
 10
3.507512
 20
17.835151
 30
0.0
 10
3.445424
 20
17.812517
 30
0.0
 10
3.359993
 20
17.770996
 30
0.0
  0
SPLINE
  5
181
100
AcDbEntity
  8
Layer_1
 62
3
100
AcDbSpline
 70
8
 71
3
 72
8
 73
4
 74
0
 40
0
 40
0
 40
0
 40
0
 40
1
 40
1
 40
1
 40
1
 10
3.359993
 20
17.770996
 30
0.0
 10
3.339724
 20
17.761149
 30
0.0
 10
3.322630
 20
17.752896
 30
0.0
 10
3.321990
 20
17.752699
 30
0.0
  0
SPLINE
  5
182
100
AcDbEntity
  8
Layer_1
 62
3
100
AcDbSpline
 70
8
 71
3
 72
8
 73
4
 74
0
 40
0
 40
0
 40
0
 40
0
 40
1
 40
1
 40
1
 40
1
 10
3.321990
 20
17.752699
 30
0.0
 10
3.321388
 20
17.752463
 30
0.0
 10
3.319718
 20
17.765477
 30
0.0
 10
3.318399
 20
17.781495
 30
0.0
  0
SPLINE
  5
183
100
AcDbEntity
  8
Layer_1
 62
3
100
AcDbSpline
 70
8
 71
3
 72
8
 73
4
 74
0
 40
0
 40
0
 40
0
 40
0
 40
1
 40
1
 40
1
 40
1
 10
3.318399
 20
17.781495
 30
0.0
 10
3.311780
 20
17.862258
 30
0.0
 10
3.301620
 20
17.924959
 30
0.0
 10
3.281956
 20
18.006303
 30
0.0
  0
SPLINE
  5
184
100
AcDbEntity
  8
Layer_1
 62
3
100
AcDbSpline
 70
8
 71
3
 72
8
 73
4
 74
0
 40
0
 40
0
 40
0
 40
0
 40
1
 40
1
 40
1
 40
1
 10
3.281956
 20
18.006303
 30
0.0
 10
3.266847
 20
18.068825
 30
0.0
 10
3.247309
 20
18.132788
 30
0.0
 10
3.206782
 20
18.252215
 30
0.0
  0
SPLINE
  5
185
100
AcDbEntity
  8
Layer_1
 62
3
100
AcDbSpline
 70
8
 71
3
 72
8
 73
4
 74
0
 40
0
 40
0
 40
0
 40
0
 40
1
 40
1
 40
1
 40
1
 10
3.206782
 20
18.252215
 30
0.0
 10
3.158624
 20
18.394137
 30
0.0
 10
3.141743
 20
18.451958
 30
0.0
 10
3.129269
 20
18.517306
 30
0.0
  0
SPLINE
  5
186
100
AcDbEntity
  8
Layer_1
 62
3
100
AcDbSpline
 70
8
 71
3
 72
8
 73
4
 74
0
 40
0
 40
0
 40
0
 40
0
 40
1
 40
1
 40
1
 40
1
 10
3.129269
 20
18.517306
 30
0.0
 10
3.105704
 20
18.640764
 30
0.0
 10
3.114628
 20
18.742089
 30
0.0
 10
3.158121
 20
18.844512
 30
0.0
  0
SPLINE
  5
187
100
AcDbEntity
  8
Layer_1
 62
3
100
AcDbSpline
 70
8
 71
3
 72
8
 73
4
 74
0
 40
0
 40
0
 40
0
 40
0
 40
1
 40
1
 40
1
 40
1
 10
3.158121
 20
18.844512
 30
0.0
 10
3.167548
 20
18.866715
 30
0.0
 10
3.193200
 20
18.913388
 30
0.0
 10
3.205638
 20
18.930953
 30
0.0
  0
SPLINE
  5
188
100
AcDbEntity
  8
Layer_1
 62
3
100
AcDbSpline
 70
8
 71
3
 72
8
 73
4
 74
0
 40
0
 40
0
 40
0
 40
0
 40
1
 40
1
 40
1
 40
1
 10
3.205638
 20
18.930953
 30
0.0
 10
3.256029
 20
19.002097
 30
0.0
 10
3.327214
 20
19.052654
 30
0.0
 10
3.409951
 20
19.076077
 30
0.0
  0
SPLINE
  5
189
100
AcDbEntity
  8
Layer_1
 62
3
100
AcDbSpline
 70
8
 71
3
 72
8
 73
4
 74
0
 40
0
 40
0
 40
0
 40
0
 40
1
 40
1
 40
1
 40
1
 10
3.409951
 20
19.076077
 30
0.0
 10
3.442627
 20
19.085330
 30
0.0
 10
3.474250
 20
19.090162
 30
0.0
 10
3.505921
 20
19.090787
 30
0.0
  0
LINE
  5
18a
100
AcDbEntity
  8
Layer_1
 62
3
100
AcDbLine
 10
3.505921
 20
19.090787
 30
0.0
 11
3.505942
 21
19.090775
 31
0.0
  0
SPLINE
  5
18b
100
AcDbEntity
  8
Layer_1
 62
3
100
AcDbSpline
 70
8
 71
3
 72
8
 73
4
 74
0
 40
0
 40
0
 40
0
 40
0
 40
1
 40
1
 40
1
 40
1
 10
7.062945
 20
19.009948
 30
0.0
 10
7.072050
 20
18.963724
 30
0.0
 10
7.081752
 20
18.919061
 30
0.0
 10
7.091278
 20
18.881405
 30
0.0
  0
SPLINE
  5
18c
100
AcDbEntity
  8
Layer_1
 62
3
100
AcDbSpline
 70
8
 71
3
 72
8
 73
4
 74
0
 40
0
 40
0
 40
0
 40
0
 40
1
 40
1
 40
1
 40
1
 10
7.091278
 20
18.881405
 30
0.0
 10
7.018871
 20
18.338800
 30
0.0
 10
6.989356
 20
17.813351
 30
0.0
 10
6.982832
 20
17.268817
 30
0.0
  0
SPLINE
  5
18d
100
AcDbEntity
  8
Layer_1
 62
3
100
AcDbSpline
 70
8
 71
3
 72
8
 73
4
 74
0
 40
0
 40
0
 40
0
 40
0
 40
1
 40
1
 40
1
 40
1
 10
6.982832
 20
17.268817
 30
0.0
 10
6.980879
 20
17.058047
 30
0.0
 10
6.997500
 20
16.955357
 30
0.0
 10
7.054367
 20
16.800073
 30
0.0
  0
SPLINE
  5
18e
100
AcDbEntity
  8
Layer_1
 62
3
100
AcDbSpline
 70
8
 71
3
 72
8
 73
4
 74
0
 40
0
 40
0
 40
0
 40
0
 40
1
 40
1
 40
1
 40
1
 10
7.054367
 20
16.800073
 30
0.0
 10
6.745730
 20
16.725234
 30
0.0
 10
6.502142
 20
16.535546
 30
0.0
 10
6.257083
 20
16.193325
 30
0.0
  0
SPLINE
  5
18f
100
AcDbEntity
  8
Layer_1
 62
3
100
AcDbSpline
 70
8
 71
3
 72
8
 73
4
 74
0
 40
0
 40
0
 40
0
 40
0
 40
1
 40
1
 40
1
 40
1
 10
6.257083
 20
16.193325
 30
0.0
 10
6.225776
 20
16.149605
 30
0.0
 10
6.212072
 20
16.151464
 30
0.0
 10
6.033639
 20
16.224253
 30
0.0
  0
SPLINE
  5
190
100
AcDbEntity
  8
Layer_1
 62
3
100
AcDbSpline
 70
8
 71
3
 72
8
 73
4
 74
0
 40
0
 40
0
 40
0
 40
0
 40
1
 40
1
 40
1
 40
1
 10
6.033639
 20
16.224253
 30
0.0
 10
5.680178
 20
16.368437
 30
0.0
 10
5.329290
 20
16.441043
 30
0.0
 10
4.906128
 20
16.457481
 30
0.0
  0
SPLINE
  5
191
100
AcDbEntity
  8
Layer_1
 62
3
100
AcDbSpline
 70
8
 71
3
 72
8
 73
4
 74
0
 40
0
 40
0
 40
0
 40
0
 40
1
 40
1
 40
1
 40
1
 10
4.906128
 20
16.457481
 30
0.0
 10
4.454833
 20
16.475012
 30
0.0
 10
4.182819
 20
16.437034
 30
0.0
 10
3.746800
 20
16.295671
 30
0.0
  0
LINE
  5
192
100
AcDbEntity
  8
Layer_1
 62
3
100
AcDbLine
 10
3.746800
 20
16.295671
 30
0.0
 11
3.469186
 21
16.205644
 31
0.0
  0
LINE
  5
193
100
AcDbEntity
  8
Layer_1
 62
3
100
AcDbLine
 10
3.469186
 20
16.205644
 30
0.0
 11
3.376127
 21
16.358826
 31
0.0
  0
SPLINE
  5
194
100
AcDbEntity
  8
Layer_1
 62
3
100
AcDbSpline
 70
8
 71
3
 72
8
 73
4
 74
0
 40
0
 40
0
 40
0
 40
0
 40
1
 40
1
 40
1
 40
1
 10
3.376127
 20
16.358826
 30
0.0
 10
3.222571
 20
16.611562
 30
0.0
 10
2.998215
 20
16.795658
 30
0.0
 10
2.725137
 20
16.897221
 30
0.0
  0
SPLINE
  5
195
100
AcDbEntity
  8
Layer_1
 62
3
100
AcDbSpline
 70
8
 71
3
 72
8
 73
4
 74
0
 40
0
 40
0
 40
0
 40
0
 40
1
 40
1
 40
1
 40
1
 10
2.725137
 20
16.897221
 30
0.0
 10
2.657523
 20
16.906194
 30
0.0
 10
3.332220
 20
17.059393
 30
0.0
 10
3.686131
 20
17.200517
 30
0.0
  0
SPLINE
  5
196
100
AcDbEntity
  8
Layer_1
 62
3
100
AcDbSpline
 70
8
 71
3
 72
8
 73
4
 74
0
 40
0
 40
0
 40
0
 40
0
 40
1
 40
1
 40
1
 40
1
 10
3.686131
 20
17.200517
 30
0.0
 10
3.840169
 20
17.261589
 30
0.0
 10
3.906025
 20
17.285070
 30
0.0
 10
4.173204
 20
17.374334
 30
0.0
  0
SPLINE
  5
197
100
AcDbEntity
  8
Layer_1
 62
3
100
AcDbSpline
 70
8
 71
3
 72
8
 73
4
 74
0
 40
0
 40
0
 40
0
 40
0
 40
1
 40
1
 40
1
 40
1
 10
4.173204
 20
17.374334
 30
0.0
 10
4.402445
 20
17.450922
 30
0.0
 10
4.467860
 20
17.474112
 30
0.0
 10
4.578917
 20
17.518159
 30
0.0
  0
SPLINE
  5
198
100
AcDbEntity
  8
Layer_1
 62
3
100
AcDbSpline
 70
8
 71
3
 72
8
 73
4
 74
0
 40
0
 40
0
 40
0
 40
0
 40
1
 40
1
 40
1
 40
1
 10
4.578917
 20
17.518159
 30
0.0
 10
4.803405
 20
17.607186
 30
0.0
 10
4.946904
 20
17.686453
 30
0.0
 10
5.076388
 20
17.792866
 30
0.0
  0
SPLINE
  5
199
100
AcDbEntity
  8
Layer_1
 62
3
100
AcDbSpline
 70
8
 71
3
 72
8
 73
4
 74
0
 40
0
 40
0
 40
0
 40
0
 40
1
 40
1
 40
1
 40
1
 10
5.076388
 20
17.792866
 30
0.0
 10
5.180682
 20
17.878290
 30
0.0
 10
5.256280
 20
17.966143
 30
0.0
 10
5.325513
 20
18.081972
 30
0.0
  0
SPLINE
  5
19a
100
AcDbEntity
  8
Layer_1
 62
3
100
AcDbSpline
 70
8
 71
3
 72
8
 73
4
 74
0
 40
0
 40
0
 40
0
 40
0
 40
1
 40
1
 40
1
 40
1
 10
5.325513
 20
18.081972
 30
0.0
 10
5.341993
 20
18.109614
 30
0.0
 10
5.355390
 20
18.137465
 30
0.0
 10
5.381713
 20
18.198820
 30
0.0
  0
SPLINE
  5
19b
100
AcDbEntity
  8
Layer_1
 62
3
100
AcDbSpline
 70
8
 71
3
 72
8
 73
4
 74
0
 40
0
 40
0
 40
0
 40
0
 40
1
 40
1
 40
1
 40
1
 10
5.381713
 20
18.198820
 30
0.0
 10
5.388704
 20
18.215165
 30
0.0
 10
5.391008
 20
18.221547
 30
0.0
 10
5.395697
 20
18.232866
 30
0.0
  0
SPLINE
  5
19c
100
AcDbEntity
  8
Layer_1
 62
3
100
AcDbSpline
 70
8
 71
3
 72
8
 73
4
 74
0
 40
0
 40
0
 40
0
 40
0
 40
1
 40
1
 40
1
 40
1
 10
5.395697
 20
18.232866
 30
0.0
 10
5.417678
 20
18.112812
 30
0.0
 10
5.441710
 20
17.996683
 30
0.0
 10
5.467440
 20
17.886792
 30
0.0
  0
SPLINE
  5
19d
100
AcDbEntity
  8
Layer_1
 62
3
100
AcDbSpline
 70
8
 71
3
 72
8
 73
4
 74
0
 40
0
 40
0
 40
0
 40
0
 40
1
 40
1
 40
1
 40
1
 10
5.467440
 20
17.886792
 30
0.0
 10
5.583767
 20
17.382829
 30
0.0
 10
5.744253
 20
16.895975
 30
0.0
 10
5.852150
 20
16.782400
 30
0.0
  0
SPLINE
  5
19e
100
AcDbEntity
  8
Layer_1
 62
3
100
AcDbSpline
 70
8
 71
3
 72
8
 73
4
 74
0
 40
0
 40
0
 40
0
 40
0
 40
1
 40
1
 40
1
 40
1
 10
5.852150
 20
16.782400
 30
0.0
 10
6.030748
 20
16.777173
 30
0.0
 10
6.225369
 20
16.775189
 30
0.0
 10
6.357419
 20
16.808130
 30
0.0
  0
SPLINE
  5
19f
100
AcDbEntity
  8
Layer_1
 62
3
100
AcDbSpline
 70
8
 71
3
 72
8
 73
4
 74
0
 40
0
 40
0
 40
0
 40
0
 40
1
 40
1
 40
1
 40
1
 10
6.357419
 20
16.808130
 30
0.0
 10
6.386400
 20
16.983949
 30
0.0
 10
6.436495
 20
17.203303
 30
0.0
 10
6.506780
 20
17.433121
 30
0.0
  0
SPLINE
  5
1a0
100
AcDbEntity
  8
Layer_1
 62
3
100
AcDbSpline
 70
8
 71
3
 72
8
 73
4
 74
0
 40
0
 40
0
 40
0
 40
0
 40
1
 40
1
 40
1
 40
1
 10
6.506780
 20
17.433121
 30
0.0
 10
6.576958
 20
17.659263
 30
0.0
 10
6.644264
 20
17.922322
 30
0.0
 10
6.829676
 20
18.421133
 30
0.0
  0
SPLINE
  5
1a1
100
AcDbEntity
  8
Layer_1
 62
3
100
AcDbSpline
 70
8
 71
3
 72
8
 73
4
 74
0
 40
0
 40
0
 40
0
 40
0
 40
1
 40
1
 40
1
 40
1
 10
6.829676
 20
18.421133
 30
0.0
 10
6.887854
 20
18.581831
 30
0.0
 10
6.971245
 20
18.786399
 30
0.0
 10
7.062945
 20
19.009948
 30
0.0
  0
LINE
  5
1a2
100
AcDbEntity
  8
Layer_1
 62
3
100
AcDbLine
 10
7.062945
 20
19.009948
 30
0.0
 11
7.062945
 21
19.009948
 31
0.0
  0
SPLINE
  5
1a3
100
AcDbEntity
  8
Layer_1
 62
3
100
AcDbSpline
 70
8
 71
3
 72
8
 73
4
 74
0
 40
0
 40
0
 40
0
 40
0
 40
1
 40
1
 40
1
 40
1
 10
2.393299
 20
16.634313
 30
0.0
 10
2.447583
 20
16.634234
 30
0.0
 10
2.501048
 20
16.623426
 30
0.0
 10
2.552277
 20
16.601982
 30
0.0
  0
SPLINE
  5
1a4
100
AcDbEntity
  8
Layer_1
 62
3
100
AcDbSpline
 70
8
 71
3
 72
8
 73
4
 74
0
 40
0
 40
0
 40
0
 40
0
 40
1
 40
1
 40
1
 40
1
 10
2.552277
 20
16.601982
 30
0.0
 10
2.633607
 20
16.567943
 30
0.0
 10
2.700424
 20
16.510127
 30
0.0
 10
2.747336
 20
16.433311
 30
0.0
  0
SPLINE
  5
1a5
100
AcDbEntity
  8
Layer_1
 62
3
100
AcDbSpline
 70
8
 71
3
 72
8
 73
4
 74
0
 40
0
 40
0
 40
0
 40
0
 40
1
 40
1
 40
1
 40
1
 10
2.747336
 20
16.433311
 30
0.0
 10
2.756843
 20
16.417753
 30
0.0
 10
2.760095
 20
16.410789
 30
0.0
 10
2.774369
 20
16.375927
 30
0.0
  0
SPLINE
  5
1a6
100
AcDbEntity
  8
Layer_1
 62
3
100
AcDbSpline
 70
8
 71
3
 72
8
 73
4
 74
0
 40
0
 40
0
 40
0
 40
0
 40
1
 40
1
 40
1
 40
1
 10
2.774369
 20
16.375927
 30
0.0
 10
2.786708
 20
16.345707
 30
0.0
 10
2.791851
 20
16.331549
 30
0.0
 10
2.795892
 20
16.316463
 30
0.0
  0
SPLINE
  5
1a7
100
AcDbEntity
  8
Layer_1
 62
3
100
AcDbSpline
 70
8
 71
3
 72
8
 73
4
 74
0
 40
0
 40
0
 40
0
 40
0
 40
1
 40
1
 40
1
 40
1
 10
2.795892
 20
16.316463
 30
0.0
 10
2.812767
 20
16.253192
 30
0.0
 10
2.817934
 20
16.197889
 30
0.0
 10
2.812892
 20
16.134278
 30
0.0
  0
SPLINE
  5
1a8
100
AcDbEntity
  8
Layer_1
 62
3
100
AcDbSpline
 70
8
 71
3
 72
8
 73
4
 74
0
 40
0
 40
0
 40
0
 40
0
 40
1
 40
1
 40
1
 40
1
 10
2.812892
 20
16.134278
 30
0.0
 10
2.806755
 20
16.055175
 30
0.0
 10
2.786729
 20
15.981235
 30
0.0
 10
2.743436
 20
15.878074
 30
0.0
  0
SPLINE
  5
1a9
100
AcDbEntity
  8
Layer_1
 62
3
100
AcDbSpline
 70
8
 71
3
 72
8
 73
4
 74
0
 40
0
 40
0
 40
0
 40
0
 40
1
 40
1
 40
1
 40
1
 10
2.743436
 20
15.878074
 30
0.0
 10
2.722021
 20
15.827038
 30
0.0
 10
2.708480
 20
15.797955
 30
0.0
 10
2.659372
 20
15.697708
 30
0.0
  0
SPLINE
  5
1aa
100
AcDbEntity
  8
Layer_1
 62
3
100
AcDbSpline
 70
8
 71
3
 72
8
 73
4
 74
0
 40
0
 40
0
 40
0
 40
0
 40
1
 40
1
 40
1
 40
1
 10
2.659372
 20
15.697708
 30
0.0
 10
2.618948
 20
15.623541
 30
0.0
 10
2.588188
 20
15.548254
 30
0.0
 10
2.567250
 20
15.477423
 30
0.0
  0
SPLINE
  5
1ab
100
AcDbEntity
  8
Layer_1
 62
3
100
AcDbSpline
 70
8
 71
3
 72
8
 73
4
 74
0
 40
0
 40
0
 40
0
 40
0
 40
1
 40
1
 40
1
 40
1
 10
2.567250
 20
15.477423
 30
0.0
 10
2.565782
 20
15.472140
 30
0.0
 10
2.564313
 20
15.466835
 30
0.0
 10
2.562884
 20
15.461465
 30
0.0
  0
SPLINE
  5
1ac
100
AcDbEntity
  8
Layer_1
 62
3
100
AcDbSpline
 70
8
 71
3
 72
8
 73
4
 74
0
 40
0
 40
0
 40
0
 40
0
 40
1
 40
1
 40
1
 40
1
 10
2.562884
 20
15.461465
 30
0.0
 10
2.522398
 20
15.309771
 30
0.0
 10
2.495810
 20
15.127800
 30
0.0
 10
2.431875
 20
15.170021
 30
0.0
  0
SPLINE
  5
1ad
100
AcDbEntity
  8
Layer_1
 62
3
100
AcDbSpline
 70
8
 71
3
 72
8
 73
4
 74
0
 40
0
 40
0
 40
0
 40
0
 40
1
 40
1
 40
1
 40
1
 10
2.431875
 20
15.170021
 30
0.0
 10
2.357688
 20
15.218353
 30
0.0
 10
2.296685
 20
15.251535
 30
0.0
 10
2.213266
 20
15.289000
 30
0.0
  0
SPLINE
  5
1ae
100
AcDbEntity
  8
Layer_1
 62
3
100
AcDbSpline
 70
8
 71
3
 72
8
 73
4
 74
0
 40
0
 40
0
 40
0
 40
0
 40
1
 40
1
 40
1
 40
1
 10
2.213266
 20
15.289000
 30
0.0
 10
2.149153
 20
15.317798
 30
0.0
 10
2.080793
 20
15.343755
 30
0.0
 10
1.950520
 20
15.388695
 30
0.0
  0
SPLINE
  5
1af
100
AcDbEntity
  8
Layer_1
 62
3
100
AcDbSpline
 70
8
 71
3
 72
8
 73
4
 74
0
 40
0
 40
0
 40
0
 40
0
 40
1
 40
1
 40
1
 40
1
 10
1.950520
 20
15.388695
 30
0.0
 10
1.795711
 20
15.442098
 30
0.0
 10
1.734575
 20
15.466132
 30
0.0
 10
1.669786
 20
15.499098
 30
0.0
  0
SPLINE
  5
1b0
100
AcDbEntity
  8
Layer_1
 62
3
100
AcDbSpline
 70
8
 71
3
 72
8
 73
4
 74
0
 40
0
 40
0
 40
0
 40
0
 40
1
 40
1
 40
1
 40
1
 10
1.669786
 20
15.499098
 30
0.0
 10
1.547381
 20
15.561377
 30
0.0
 10
1.465823
 20
15.636933
 30
0.0
 10
1.406468
 20
15.743034
 30
0.0
  0
SPLINE
  5
1b1
100
AcDbEntity
  8
Layer_1
 62
3
100
AcDbSpline
 70
8
 71
3
 72
8
 73
4
 74
0
 40
0
 40
0
 40
0
 40
0
 40
1
 40
1
 40
1
 40
1
 10
1.406468
 20
15.743034
 30
0.0
 10
1.393615
 20
15.766035
 30
0.0
 10
1.370479
 20
15.819455
 30
0.0
 10
1.363630
 20
15.841949
 30
0.0
  0
SPLINE
  5
1b2
100
AcDbEntity
  8
Layer_1
 62
3
100
AcDbSpline
 70
8
 71
3
 72
8
 73
4
 74
0
 40
0
 40
0
 40
0
 40
0
 40
1
 40
1
 40
1
 40
1
 10
1.363630
 20
15.841949
 30
0.0
 10
1.335905
 20
15.933069
 30
0.0
 10
1.339838
 20
16.028354
 30
0.0
 10
1.374963
 20
16.115461
 30
0.0
  0
SPLINE
  5
1b3
100
AcDbEntity
  8
Layer_1
 62
3
100
AcDbSpline
 70
8
 71
3
 72
8
 73
4
 74
0
 40
0
 40
0
 40
0
 40
0
 40
1
 40
1
 40
1
 40
1
 10
1.374963
 20
16.115461
 30
0.0
 10
1.393465
 20
16.161333
 30
0.0
 10
1.417483
 20
16.200429
 30
0.0
 10
1.448370
 20
16.235064
 30
0.0
  0
SPLINE
  5
1b4
100
AcDbEntity
  8
Layer_1
 62
3
100
AcDbSpline
 70
8
 71
3
 72
8
 73
4
 74
0
 40
0
 40
0
 40
0
 40
0
 40
1
 40
1
 40
1
 40
1
 10
1.448370
 20
16.235064
 30
0.0
 10
1.479870
 20
16.270387
 30
0.0
 10
1.512004
 20
16.296516
 30
0.0
 10
1.553905
 20
16.320985
 30
0.0
  0
SPLINE
  5
1b5
100
AcDbEntity
  8
Layer_1
 62
3
100
AcDbSpline
 70
8
 71
3
 72
8
 73
4
 74
0
 40
0
 40
0
 40
0
 40
0
 40
1
 40
1
 40
1
 40
1
 10
1.553905
 20
16.320985
 30
0.0
 10
1.569882
 20
16.330327
 30
0.0
 10
1.632671
 20
16.356084
 30
0.0
 10
1.650031
 20
16.360437
 30
0.0
  0
SPLINE
  5
1b6
100
AcDbEntity
  8
Layer_1
 62
3
100
AcDbSpline
 70
8
 71
3
 72
8
 73
4
 74
0
 40
0
 40
0
 40
0
 40
0
 40
1
 40
1
 40
1
 40
1
 10
1.650031
 20
16.360437
 30
0.0
 10
1.723698
 20
16.378870
 30
0.0
 10
1.790581
 20
16.378953
 30
0.0
 10
1.860373
 20
16.360752
 30
0.0
  0
SPLINE
  5
1b7
100
AcDbEntity
  8
Layer_1
 62
3
100
AcDbSpline
 70
8
 71
3
 72
8
 73
4
 74
0
 40
0
 40
0
 40
0
 40
0
 40
1
 40
1
 40
1
 40
1
 10
1.860373
 20
16.360752
 30
0.0
 10
1.896851
 20
16.351218
 30
0.0
 10
1.944266
 20
16.330383
 30
0.0
 10
1.975734
 20
16.310073
 30
0.0
  0
SPLINE
  5
1b8
100
AcDbEntity
  8
Layer_1
 62
3
100
AcDbSpline
 70
8
 71
3
 72
8
 73
4
 74
0
 40
0
 40
0
 40
0
 40
0
 40
1
 40
1
 40
1
 40
1
 10
1.975734
 20
16.310073
 30
0.0
 10
1.981679
 20
16.306163
 30
0.0
 10
1.987002
 20
16.303175
 30
0.0
 10
1.987483
 20
16.303367
 30
0.0
  0
SPLINE
  5
1b9
100
AcDbEntity
  8
Layer_1
 62
3
100
AcDbSpline
 70
8
 71
3
 72
8
 73
4
 74
0
 40
0
 40
0
 40
0
 40
0
 40
1
 40
1
 40
1
 40
1
 10
1.987483
 20
16.303367
 30
0.0
 10
1.987967
 20
16.303682
 30
0.0
 10
1.989640
 20
16.309408
 30
0.0
 10
1.991227
 20
16.316362
 30
0.0
  0
SPLINE
  5
1ba
100
AcDbEntity
  8
Layer_1
 62
3
100
AcDbSpline
 70
8
 71
3
 72
8
 73
4
 74
0
 40
0
 40
0
 40
0
 40
0
 40
1
 40
1
 40
1
 40
1
 10
1.991227
 20
16.316362
 30
0.0
 10
1.998198
 20
16.347369
 30
0.0
 10
2.015616
 20
16.393028
 30
0.0
 10
2.031206
 20
16.420995
 30
0.0
  0
SPLINE
  5
1bb
100
AcDbEntity
  8
Layer_1
 62
3
100
AcDbSpline
 70
8
 71
3
 72
8
 73
4
 74
0
 40
0
 40
0
 40
0
 40
0
 40
1
 40
1
 40
1
 40
1
 10
2.031206
 20
16.420995
 30
0.0
 10
2.044539
 20
16.444895
 30
0.0
 10
2.064690
 20
16.473119
 30
0.0
 10
2.083610
 20
16.494441
 30
0.0
  0
SPLINE
  5
1bc
100
AcDbEntity
  8
Layer_1
 62
3
100
AcDbSpline
 70
8
 71
3
 72
8
 73
4
 74
0
 40
0
 40
0
 40
0
 40
0
 40
1
 40
1
 40
1
 40
1
 10
2.083610
 20
16.494441
 30
0.0
 10
2.110542
 20
16.524803
 30
0.0
 10
2.132193
 20
16.543814
 30
0.0
 10
2.163931
 20
16.564820
 30
0.0
  0
SPLINE
  5
1bd
100
AcDbEntity
  8
Layer_1
 62
3
100
AcDbSpline
 70
8
 71
3
 72
8
 73
4
 74
0
 40
0
 40
0
 40
0
 40
0
 40
1
 40
1
 40
1
 40
1
 10
2.163931
 20
16.564820
 30
0.0
 10
2.191739
 20
16.583262
 30
0.0
 10
2.200510
 20
16.587768
 30
0.0
 10
2.238481
 20
16.603284
 30
0.0
  0
SPLINE
  5
1be
100
AcDbEntity
  8
Layer_1
 62
3
100
AcDbSpline
 70
8
 71
3
 72
8
 73
4
 74
0
 40
0
 40
0
 40
0
 40
0
 40
1
 40
1
 40
1
 40
1
 10
2.238481
 20
16.603284
 30
0.0
 10
2.269598
 20
16.616006
 30
0.0
 10
2.277714
 20
16.618780
 30
0.0
 10
2.294992
 20
16.622880
 30
0.0
  0
SPLINE
  5
1bf
100
AcDbEntity
  8
Layer_1
 62
3
100
AcDbSpline
 70
8
 71
3
 72
8
 73
4
 74
0
 40
0
 40
0
 40
0
 40
0
 40
1
 40
1
 40
1
 40
1
 10
2.294992
 20
16.622880
 30
0.0
 10
2.327878
 20
16.630576
 30
0.0
 10
2.360730
 20
16.634368
 30
0.0
 10
2.393301
 20
16.634316
 30
0.0
  0
LINE
  5
1c0
100
AcDbEntity
  8
Layer_1
 62
3
100
AcDbLine
 10
2.393301
 20
16.634316
 30
0.0
 11
2.393299
 21
16.634313
 31
0.0
  0
SPLINE
  5
1c1
100
AcDbEntity
  8
Layer_1
 62
3
100
AcDbSpline
 70
8
 71
3
 72
8
 73
4
 74
0
 40
0
 40
0
 40
0
 40
0
 40
1
 40
1
 40
1
 40
1
 10
7.390520
 20
16.605101
 30
0.0
 10
7.415256
 20
16.604518
 30
0.0
 10
7.439561
 20
16.601766
 30
0.0
 10
7.463718
 20
16.596837
 30
0.0
  0
SPLINE
  5
1c2
100
AcDbEntity
  8
Layer_1
 62
3
100
AcDbSpline
 70
8
 71
3
 72
8
 73
4
 74
0
 40
0
 40
0
 40
0
 40
0
 40
1
 40
1
 40
1
 40
1
 10
7.463718
 20
16.596837
 30
0.0
 10
7.512993
 20
16.586777
 30
0.0
 10
7.554135
 20
16.571222
 30
0.0
 10
7.598992
 20
16.545793
 30
0.0
  0
SPLINE
  5
1c3
100
AcDbEntity
  8
Layer_1
 62
3
100
AcDbSpline
 70
8
 71
3
 72
8
 73
4
 74
0
 40
0
 40
0
 40
0
 40
0
 40
1
 40
1
 40
1
 40
1
 10
7.598992
 20
16.545793
 30
0.0
 10
7.616099
 20
16.536117
 30
0.0
 10
7.673266
 20
16.492200
 30
0.0
 10
7.686539
 20
16.478585
 30
0.0
  0
SPLINE
  5
1c4
100
AcDbEntity
  8
Layer_1
 62
3
100
AcDbSpline
 70
8
 71
3
 72
8
 73
4
 74
0
 40
0
 40
0
 40
0
 40
0
 40
1
 40
1
 40
1
 40
1
 10
7.686539
 20
16.478585
 30
0.0
 10
7.742817
 20
16.420784
 30
0.0
 10
7.778609
 20
16.359468
 30
0.0
 10
7.799144
 20
16.285640
 30
0.0
  0
SPLINE
  5
1c5
100
AcDbEntity
  8
Layer_1
 62
3
100
AcDbSpline
 70
8
 71
3
 72
8
 73
4
 74
0
 40
0
 40
0
 40
0
 40
0
 40
1
 40
1
 40
1
 40
1
 10
7.799144
 20
16.285640
 30
0.0
 10
7.809874
 20
16.247049
 30
0.0
 10
7.806609
 20
16.168566
 30
0.0
 10
7.804758
 20
16.128820
 30
0.0
  0
SPLINE
  5
1c6
100
AcDbEntity
  8
Layer_1
 62
3
100
AcDbSpline
 70
8
 71
3
 72
8
 73
4
 74
0
 40
0
 40
0
 40
0
 40
0
 40
1
 40
1
 40
1
 40
1
 10
7.804758
 20
16.128820
 30
0.0
 10
7.817574
 20
16.099765
 30
0.0
 10
7.912381
 20
16.159721
 30
0.0
 10
7.945748
 20
16.160891
 30
0.0
  0
SPLINE
  5
1c7
100
AcDbEntity
  8
Layer_1
 62
3
100
AcDbSpline
 70
8
 71
3
 72
8
 73
4
 74
0
 40
0
 40
0
 40
0
 40
0
 40
1
 40
1
 40
1
 40
1
 10
7.945748
 20
16.160891
 30
0.0
 10
7.974818
 20
16.161395
 30
0.0
 10
8.011505
 20
16.158045
 30
0.0
 10
8.041198
 20
16.152055
 30
0.0
  0
SPLINE
  5
1c8
100
AcDbEntity
  8
Layer_1
 62
3
100
AcDbSpline
 70
8
 71
3
 72
8
 73
4
 74
0
 40
0
 40
0
 40
0
 40
0
 40
1
 40
1
 40
1
 40
1
 10
8.041198
 20
16.152055
 30
0.0
 10
8.083474
 20
16.143530
 30
0.0
 10
8.112501
 20
16.133765
 30
0.0
 10
8.148761
 20
16.115877
 30
0.0
  0
SPLINE
  5
1c9
100
AcDbEntity
  8
Layer_1
 62
3
100
AcDbSpline
 70
8
 71
3
 72
8
 73
4
 74
0
 40
0
 40
0
 40
0
 40
0
 40
1
 40
1
 40
1
 40
1
 10
8.148761
 20
16.115877
 30
0.0
 10
8.180558
 20
16.100195
 30
0.0
 10
8.189347
 20
16.094586
 30
0.0
 10
8.223883
 20
16.068005
 30
0.0
  0
SPLINE
  5
1ca
100
AcDbEntity
  8
Layer_1
 62
3
100
AcDbSpline
 70
8
 71
3
 72
8
 73
4
 74
0
 40
0
 40
0
 40
0
 40
0
 40
1
 40
1
 40
1
 40
1
 10
8.223883
 20
16.068005
 30
0.0
 10
8.252179
 20
16.046220
 30
0.0
 10
8.259075
 20
16.040248
 30
0.0
 10
8.272076
 20
16.026578
 30
0.0
  0
SPLINE
  5
1cb
100
AcDbEntity
  8
Layer_1
 62
3
100
AcDbSpline
 70
8
 71
3
 72
8
 73
4
 74
0
 40
0
 40
0
 40
0
 40
0
 40
1
 40
1
 40
1
 40
1
 10
8.272076
 20
16.026578
 30
0.0
 10
8.337769
 20
15.957011
 30
0.0
 10
8.378027
 20
15.872757
 30
0.0
 10
8.390297
 20
15.779160
 30
0.0
  0
SPLINE
  5
1cc
100
AcDbEntity
  8
Layer_1
 62
3
100
AcDbSpline
 70
8
 71
3
 72
8
 73
4
 74
0
 40
0
 40
0
 40
0
 40
0
 40
1
 40
1
 40
1
 40
1
 10
8.390297
 20
15.779160
 30
0.0
 10
8.402478
 20
15.686294
 30
0.0
 10
8.385156
 20
15.594024
 30
0.0
 10
8.339661
 20
15.509910
 30
0.0
  0
SPLINE
  5
1cd
100
AcDbEntity
  8
Layer_1
 62
3
100
AcDbSpline
 70
8
 71
3
 72
8
 73
4
 74
0
 40
0
 40
0
 40
0
 40
0
 40
1
 40
1
 40
1
 40
1
 10
8.339661
 20
15.509910
 30
0.0
 10
8.330455
 20
15.492876
 30
0.0
 10
8.325813
 20
15.486166
 30
0.0
 10
8.301397
 20
15.454449
 30
0.0
  0
SPLINE
  5
1ce
100
AcDbEntity
  8
Layer_1
 62
3
100
AcDbSpline
 70
8
 71
3
 72
8
 73
4
 74
0
 40
0
 40
0
 40
0
 40
0
 40
1
 40
1
 40
1
 40
1
 10
8.301397
 20
15.454449
 30
0.0
 10
8.280235
 20
15.426968
 30
0.0
 10
8.269898
 20
15.414699
 30
0.0
 10
8.258196
 20
15.402938
 30
0.0
  0
SPLINE
  5
1cf
100
AcDbEntity
  8
Layer_1
 62
3
100
AcDbSpline
 70
8
 71
3
 72
8
 73
4
 74
0
 40
0
 40
0
 40
0
 40
0
 40
1
 40
1
 40
1
 40
1
 10
8.258196
 20
15.402938
 30
0.0
 10
8.209094
 20
15.353640
 30
0.0
 10
8.161071
 20
15.319335
 30
0.0
 10
8.099945
 20
15.289988
 30
0.0
  0
SPLINE
  5
1d0
100
AcDbEntity
  8
Layer_1
 62
3
100
AcDbSpline
 70
8
 71
3
 72
8
 73
4
 74
0
 40
0
 40
0
 40
0
 40
0
 40
1
 40
1
 40
1
 40
1
 10
8.099945
 20
15.289988
 30
0.0
 10
8.024007
 20
15.253360
 30
0.0
 10
7.945413
 20
15.232262
 30
0.0
 10
7.827528
 20
15.216905
 30
0.0
  0
SPLINE
  5
1d1
100
AcDbEntity
  8
Layer_1
 62
3
100
AcDbSpline
 70
8
 71
3
 72
8
 73
4
 74
0
 40
0
 40
0
 40
0
 40
0
 40
1
 40
1
 40
1
 40
1
 10
7.827528
 20
15.216905
 30
0.0
 10
7.769205
 20
15.209298
 30
0.0
 10
7.735243
 20
15.206192
 30
0.0
 10
7.616926
 20
15.197725
 30
0.0
  0
SPLINE
  5
1d2
100
AcDbEntity
  8
Layer_1
 62
3
100
AcDbSpline
 70
8
 71
3
 72
8
 73
4
 74
0
 40
0
 40
0
 40
0
 40
0
 40
1
 40
1
 40
1
 40
1
 10
7.616926
 20
15.197725
 30
0.0
 10
7.479028
 20
15.187865
 30
0.0
 10
7.444844
 20
15.184706
 30
0.0
 10
7.363953
 20
15.174179
 30
0.0
  0
SPLINE
  5
1d3
100
AcDbEntity
  8
Layer_1
 62
3
100
AcDbSpline
 70
8
 71
3
 72
8
 73
4
 74
0
 40
0
 40
0
 40
0
 40
0
 40
1
 40
1
 40
1
 40
1
 10
7.363953
 20
15.174179
 30
0.0
 10
7.236430
 20
15.157580
 30
0.0
 10
7.161521
 20
15.141029
 30
0.0
 10
7.056862
 20
15.106347
 30
0.0
  0
SPLINE
  5
1d4
100
AcDbEntity
  8
Layer_1
 62
3
100
AcDbSpline
 70
8
 71
3
 72
8
 73
4
 74
0
 40
0
 40
0
 40
0
 40
0
 40
1
 40
1
 40
1
 40
1
 10
7.056862
 20
15.106347
 30
0.0
 10
7.032029
 20
15.098122
 30
0.0
 10
7.011094
 20
15.091303
 30
0.0
 10
7.010332
 20
15.091169
 30
0.0
  0
SPLINE
  5
1d5
100
AcDbEntity
  8
Layer_1
 62
3
100
AcDbSpline
 70
8
 71
3
 72
8
 73
4
 74
0
 40
0
 40
0
 40
0
 40
0
 40
1
 40
1
 40
1
 40
1
 10
7.010332
 20
15.091169
 30
0.0
 10
7.009730
 20
15.091051
 30
0.0
 10
7.009730
 20
15.106213
 30
0.0
 10
7.010647
 20
15.124851
 30
0.0
  0
LINE
  5
1d6
100
AcDbEntity
  8
Layer_1
 62
3
100
AcDbLine
 10
7.010647
 20
15.124851
 30
0.0
 11
7.010765
 21
15.124733
 31
0.0
  0
SPLINE
  5
1d7
100
AcDbEntity
  8
Layer_1
 62
3
100
AcDbSpline
 70
8
 71
3
 72
8
 73
4
 74
0
 40
0
 40
0
 40
0
 40
0
 40
1
 40
1
 40
1
 40
1
 10
7.010765
 20
15.124733
 30
0.0
 10
7.015534
 20
15.218678
 30
0.0
 10
7.013494
 20
15.292434
 30
0.0
 10
7.003331
 20
15.389045
 30
0.0
  0
SPLINE
  5
1d8
100
AcDbEntity
  8
Layer_1
 62
3
100
AcDbSpline
 70
8
 71
3
 72
8
 73
4
 74
0
 40
0
 40
0
 40
0
 40
0
 40
1
 40
1
 40
1
 40
1
 10
7.003331
 20
15.389045
 30
0.0
 10
6.995534
 20
15.463300
 30
0.0
 10
6.982829
 20
15.539929
 30
0.0
 10
6.954515
 20
15.683557
 30
0.0
  0
SPLINE
  5
1d9
100
AcDbEntity
  8
Layer_1
 62
3
100
AcDbSpline
 70
8
 71
3
 72
8
 73
4
 74
0
 40
0
 40
0
 40
0
 40
0
 40
1
 40
1
 40
1
 40
1
 10
6.954515
 20
15.683557
 30
0.0
 10
6.920866
 20
15.854238
 30
0.0
 10
6.910290
 20
15.923264
 30
0.0
 10
6.905958
 20
16.000367
 30
0.0
  0
SPLINE
  5
1da
100
AcDbEntity
  8
Layer_1
 62
3
100
AcDbSpline
 70
8
 71
3
 72
8
 73
4
 74
0
 40
0
 40
0
 40
0
 40
0
 40
1
 40
1
 40
1
 40
1
 10
6.905958
 20
16.000367
 30
0.0
 10
6.897789
 20
16.146034
 30
0.0
 10
6.923591
 20
16.261247
 30
0.0
 10
6.989346
 20
16.372431
 30
0.0
  0
SPLINE
  5
1db
100
AcDbEntity
  8
Layer_1
 62
3
100
AcDbSpline
 70
8
 71
3
 72
8
 73
4
 74
0
 40
0
 40
0
 40
0
 40
0
 40
1
 40
1
 40
1
 40
1
 10
6.989346
 20
16.372431
 30
0.0
 10
7.003595
 20
16.396531
 30
0.0
 10
7.040286
 20
16.446284
 30
0.0
 10
7.057294
 20
16.464589
 30
0.0
  0
SPLINE
  5
1dc
100
AcDbEntity
  8
Layer_1
 62
3
100
AcDbSpline
 70
8
 71
3
 72
8
 73
4
 74
0
 40
0
 40
0
 40
0
 40
0
 40
1
 40
1
 40
1
 40
1
 10
7.057294
 20
16.464589
 30
0.0
 10
7.126181
 20
16.538725
 30
0.0
 10
7.215804
 20
16.586025
 30
0.0
 10
7.314582
 20
16.600305
 30
0.0
  0
SPLINE
  5
1dd
100
AcDbEntity
  8
Layer_1
 62
3
100
AcDbSpline
 70
8
 71
3
 72
8
 73
4
 74
0
 40
0
 40
0
 40
0
 40
0
 40
1
 40
1
 40
1
 40
1
 10
7.314582
 20
16.600305
 30
0.0
 10
7.340592
 20
16.604069
 30
0.0
 10
7.365801
 20
16.605667
 30
0.0
 10
7.390536
 20
16.605087
 30
0.0
  0
LINE
  5
1de
100
AcDbEntity
  8
Layer_1
 62
3
100
AcDbLine
 10
7.390536
 20
16.605087
 30
0.0
 11
7.390520
 21
16.605101
 31
0.0
  0
SPLINE
  5
1df
100
AcDbEntity
  8
Layer_1
 62
3
100
AcDbSpline
 70
8
 71
3
 72
8
 73
4
 74
0
 40
0
 40
0
 40
0
 40
0
 40
1
 40
1
 40
1
 40
1
 10
5.768033
 20
14.657770
 30
0.0
 10
5.837612
 20
14.658373
 30
0.0
 10
5.907286
 20
14.632843
 30
0.0
 10
5.956073
 20
14.584064
 30
0.0
  0
SPLINE
  5
1e0
100
AcDbEntity
  8
Layer_1
 62
3
100
AcDbSpline
 70
8
 71
3
 72
8
 73
4
 74
0
 40
0
 40
0
 40
0
 40
0
 40
1
 40
1
 40
1
 40
1
 10
5.956073
 20
14.584064
 30
0.0
 10
6.018182
 20
14.521986
 30
0.0
 10
6.026915
 20
14.494617
 30
0.0
 10
6.017680
 20
14.391120
 30
0.0
  0
SPLINE
  5
1e1
100
AcDbEntity
  8
Layer_1
 62
3
100
AcDbSpline
 70
8
 71
3
 72
8
 73
4
 74
0
 40
0
 40
0
 40
0
 40
0
 40
1
 40
1
 40
1
 40
1
 10
6.017680
 20
14.391120
 30
0.0
 10
6.011754
 20
14.324786
 30
0.0
 10
5.997987
 20
14.250852
 30
0.0
 10
5.987110
 20
14.226815
 30
0.0
  0
SPLINE
  5
1e2
100
AcDbEntity
  8
Layer_1
 62
3
100
AcDbSpline
 70
8
 71
3
 72
8
 73
4
 74
0
 40
0
 40
0
 40
0
 40
0
 40
1
 40
1
 40
1
 40
1
 10
5.987110
 20
14.226815
 30
0.0
 10
5.971398
 20
14.192094
 30
0.0
 10
5.993670
 20
14.173852
 30
0.0
 10
6.095504
 20
14.137983
 30
0.0
  0
SPLINE
  5
1e3
100
AcDbEntity
  8
Layer_1
 62
3
100
AcDbSpline
 70
8
 71
3
 72
8
 73
4
 74
0
 40
0
 40
0
 40
0
 40
0
 40
1
 40
1
 40
1
 40
1
 10
6.095504
 20
14.137983
 30
0.0
 10
6.166006
 20
14.113151
 30
0.0
 10
6.333719
 20
14.038984
 30
0.0
 10
6.468153
 20
13.973211
 30
0.0
  0
SPLINE
  5
1e4
100
AcDbEntity
  8
Layer_1
 62
3
100
AcDbSpline
 70
8
 71
3
 72
8
 73
4
 74
0
 40
0
 40
0
 40
0
 40
0
 40
1
 40
1
 40
1
 40
1
 10
6.468153
 20
13.973211
 30
0.0
 10
6.950920
 20
13.737010
 30
0.0
 10
7.195254
 20
13.340796
 30
0.0
 10
7.195254
 20
12.794229
 30
0.0
  0
SPLINE
  5
1e5
100
AcDbEntity
  8
Layer_1
 62
3
100
AcDbSpline
 70
8
 71
3
 72
8
 73
4
 74
0
 40
0
 40
0
 40
0
 40
0
 40
1
 40
1
 40
1
 40
1
 10
7.195254
 20
12.794229
 30
0.0
 10
7.195254
 20
11.854247
 30
0.0
 10
6.402185
 20
11.032160
 30
0.0
 10
5.305395
 20
10.835204
 30
0.0
  0
SPLINE
  5
1e6
100
AcDbEntity
  8
Layer_1
 62
3
100
AcDbSpline
 70
8
 71
3
 72
8
 73
4
 74
0
 40
0
 40
0
 40
0
 40
0
 40
1
 40
1
 40
1
 40
1
 10
5.305395
 20
10.835204
 30
0.0
 10
5.074973
 20
10.793825
 30
0.0
 10
4.993729
 20
10.789449
 30
0.0
 10
4.977663
 20
10.817479
 30
0.0
  0
SPLINE
  5
1e7
100
AcDbEntity
  8
Layer_1
 62
3
100
AcDbSpline
 70
8
 71
3
 72
8
 73
4
 74
0
 40
0
 40
0
 40
0
 40
0
 40
1
 40
1
 40
1
 40
1
 10
4.977663
 20
10.817479
 30
0.0
 10
4.971375
 20
10.828457
 30
0.0
 10
4.958091
 20
10.923089
 30
0.0
 10
4.948134
 20
11.027785
 30
0.0
  0
LINE
  5
1e8
100
AcDbEntity
  8
Layer_1
 62
3
100
AcDbLine
 10
4.948134
 20
11.027785
 30
0.0
 11
4.930043
 21
11.218131
 31
0.0
  0
LINE
  5
1e9
100
AcDbEntity
  8
Layer_1
 62
3
100
AcDbLine
 10
4.930043
 20
11.218131
 30
0.0
 11
5.058660
 21
11.260857
 31
0.0
  0
SPLINE
  5
1ea
100
AcDbEntity
  8
Layer_1
 62
3
100
AcDbSpline
 70
8
 71
3
 72
8
 73
4
 74
0
 40
0
 40
0
 40
0
 40
0
 40
1
 40
1
 40
1
 40
1
 10
5.058660
 20
11.260857
 30
0.0
 10
5.226239
 20
11.316508
 30
0.0
 10
5.366752
 20
11.434456
 30
0.0
 10
5.436091
 20
11.577668
 30
0.0
  0
SPLINE
  5
1eb
100
AcDbEntity
  8
Layer_1
 62
3
100
AcDbSpline
 70
8
 71
3
 72
8
 73
4
 74
0
 40
0
 40
0
 40
0
 40
0
 40
1
 40
1
 40
1
 40
1
 10
5.436091
 20
11.577668
 30
0.0
 10
5.495728
 20
11.700840
 30
0.0
 10
5.510003
 20
11.874220
 30
0.0
 10
5.462917
 20
11.903314
 30
0.0
  0
SPLINE
  5
1ec
100
AcDbEntity
  8
Layer_1
 62
3
100
AcDbSpline
 70
8
 71
3
 72
8
 73
4
 74
0
 40
0
 40
0
 40
0
 40
0
 40
1
 40
1
 40
1
 40
1
 10
5.462917
 20
11.903314
 30
0.0
 10
5.447086
 20
11.913101
 30
0.0
 10
5.321160
 20
11.870054
 30
0.0
 10
5.183067
 20
11.807674
 30
0.0
  0
SPLINE
  5
1ed
100
AcDbEntity
  8
Layer_1
 62
3
100
AcDbSpline
 70
8
 71
3
 72
8
 73
4
 74
0
 40
0
 40
0
 40
0
 40
0
 40
1
 40
1
 40
1
 40
1
 10
5.183067
 20
11.807674
 30
0.0
 10
5.044973
 20
11.745292
 30
0.0
 10
4.923919
 20
11.702299
 30
0.0
 10
4.914082
 20
11.712136
 30
0.0
  0
SPLINE
  5
1ee
100
AcDbEntity
  8
Layer_1
 62
3
100
AcDbSpline
 70
8
 71
3
 72
8
 73
4
 74
0
 40
0
 40
0
 40
0
 40
0
 40
1
 40
1
 40
1
 40
1
 10
4.914082
 20
11.712136
 30
0.0
 10
4.904243
 20
11.721974
 30
0.0
 10
4.890979
 20
11.932057
 30
0.0
 10
4.884553
 20
12.179009
 30
0.0
  0
LINE
  5
1ef
100
AcDbEntity
  8
Layer_1
 62
3
100
AcDbLine
 10
4.884553
 20
12.179009
 30
0.0
 11
4.872856
 21
12.628002
 31
0.0
  0
LINE
  5
1f0
100
AcDbEntity
  8
Layer_1
 62
3
100
AcDbLine
 10
4.872856
 20
12.628002
 30
0.0
 11
4.983278
 21
12.646662
 31
0.0
  0
SPLINE
  5
1f1
100
AcDbEntity
  8
Layer_1
 62
3
100
AcDbSpline
 70
8
 71
3
 72
8
 73
4
 74
0
 40
0
 40
0
 40
0
 40
0
 40
1
 40
1
 40
1
 40
1
 10
4.983278
 20
12.646662
 30
0.0
 10
5.274643
 20
12.695879
 30
0.0
 10
5.602821
 20
12.958283
 30
0.0
 10
5.688908
 20
13.210891
 30
0.0
  0
SPLINE
  5
1f2
100
AcDbEntity
  8
Layer_1
 62
3
100
AcDbSpline
 70
8
 71
3
 72
8
 73
4
 74
0
 40
0
 40
0
 40
0
 40
0
 40
1
 40
1
 40
1
 40
1
 10
5.688908
 20
13.210891
 30
0.0
 10
5.832321
 20
13.631710
 30
0.0
 10
5.577271
 20
13.945662
 30
0.0
 10
5.042856
 20
14.006113
 30
0.0
  0
LINE
  5
1f3
100
AcDbEntity
  8
Layer_1
 62
3
100
AcDbLine
 10
5.042856
 20
14.006113
 30
0.0
 11
4.879510
 21
14.024566
 31
0.0
  0
LINE
  5
1f4
100
AcDbEntity
  8
Layer_1
 62
3
100
AcDbLine
 10
4.879510
 20
14.024566
 30
0.0
 11
4.879510
 21
14.156227
 31
0.0
  0
LINE
  5
1f5
100
AcDbEntity
  8
Layer_1
 62
3
100
AcDbLine
 10
4.879510
 20
14.156227
 30
0.0
 11
4.879510
 21
14.287890
 31
0.0
  0
LINE
  5
1f6
100
AcDbEntity
  8
Layer_1
 62
3
100
AcDbLine
 10
4.879510
 20
14.287890
 30
0.0
 11
5.215195
 21
14.268813
 31
0.0
  0
LINE
  5
1f7
100
AcDbEntity
  8
Layer_1
 62
3
100
AcDbLine
 10
5.215195
 20
14.268813
 30
0.0
 11
5.550828
 21
14.249685
 31
0.0
  0
LINE
  5
1f8
100
AcDbEntity
  8
Layer_1
 62
3
100
AcDbLine
 10
5.550828
 20
14.249685
 30
0.0
 11
5.533101
 21
14.330512
 31
0.0
  0
SPLINE
  5
1f9
100
AcDbEntity
  8
Layer_1
 62
3
100
AcDbSpline
 70
8
 71
3
 72
8
 73
4
 74
0
 40
0
 40
0
 40
0
 40
0
 40
1
 40
1
 40
1
 40
1
 10
5.533101
 20
14.330512
 30
0.0
 10
5.511347
 20
14.429538
 30
0.0
 10
5.572039
 20
14.587337
 30
0.0
 10
5.647422
 20
14.627675
 30
0.0
  0
SPLINE
  5
1fa
100
AcDbEntity
  8
Layer_1
 62
3
100
AcDbSpline
 70
8
 71
3
 72
8
 73
4
 74
0
 40
0
 40
0
 40
0
 40
0
 40
1
 40
1
 40
1
 40
1
 10
5.647422
 20
14.627675
 30
0.0
 10
5.684587
 20
14.647561
 30
0.0
 10
5.726285
 20
14.657368
 30
0.0
 10
5.768033
 20
14.657770
 30
0.0
  0
LINE
  5
1fb
100
AcDbEntity
  8
Layer_1
 62
3
100
AcDbLine
 10
5.768033
 20
14.657770
 30
0.0
 11
5.768033
 21
14.657770
 31
0.0
  0
SPLINE
  5
1fc
100
AcDbEntity
  8
Layer_1
 62
3
100
AcDbSpline
 70
8
 71
3
 72
8
 73
4
 74
0
 40
0
 40
0
 40
0
 40
0
 40
1
 40
1
 40
1
 40
1
 10
3.815321
 20
14.617123
 30
0.0
 10
3.841444
 20
14.616926
 30
0.0
 10
3.867901
 20
14.608312
 30
0.0
 10
3.908898
 20
14.591186
 30
0.0
  0
SPLINE
  5
1fd
100
AcDbEntity
  8
Layer_1
 62
3
100
AcDbSpline
 70
8
 71
3
 72
8
 73
4
 74
0
 40
0
 40
0
 40
0
 40
0
 40
1
 40
1
 40
1
 40
1
 10
3.908898
 20
14.591186
 30
0.0
 10
4.016693
 20
14.546153
 30
0.0
 10
4.095344
 20
14.397937
 30
0.0
 10
4.068397
 20
14.290592
 30
0.0
  0
SPLINE
  5
1fe
100
AcDbEntity
  8
Layer_1
 62
3
100
AcDbSpline
 70
8
 71
3
 72
8
 73
4
 74
0
 40
0
 40
0
 40
0
 40
0
 40
1
 40
1
 40
1
 40
1
 10
4.068397
 20
14.290592
 30
0.0
 10
4.051978
 20
14.225183
 30
0.0
 10
4.052203
 20
14.225125
 30
0.0
 10
4.212871
 20
14.241161
 30
0.0
  0
SPLINE
  5
1ff
100
AcDbEntity
  8
Layer_1
 62
3
100
AcDbSpline
 70
8
 71
3
 72
8
 73
4
 74
0
 40
0
 40
0
 40
0
 40
0
 40
1
 40
1
 40
1
 40
1
 10
4.212871
 20
14.241161
 30
0.0
 10
4.301369
 20
14.249992
 30
0.0
 10
4.445641
 20
14.264367
 30
0.0
 10
4.533480
 20
14.273128
 30
0.0
  0
LINE
  5
200
100
AcDbEntity
  8
Layer_1
 62
3
100
AcDbLine
 10
4.533480
 20
14.273128
 30
0.0
 11
4.693186
 21
14.289033
 31
0.0
  0
LINE
  5
201
100
AcDbEntity
  8
Layer_1
 62
3
100
AcDbLine
 10
4.693186
 20
14.289033
 30
0.0
 11
4.693186
 21
14.157059
 31
0.0
  0
LINE
  5
202
100
AcDbEntity
  8
Layer_1
 62
3
100
AcDbLine
 10
4.693186
 20
14.157059
 30
0.0
 11
4.693186
 21
14.025033
 31
0.0
  0
LINE
  5
203
100
AcDbEntity
  8
Layer_1
 62
3
100
AcDbLine
 10
4.693186
 20
14.025033
 30
0.0
 11
4.523030
 21
14.007620
 31
0.0
  0
SPLINE
  5
204
100
AcDbEntity
  8
Layer_1
 62
3
100
AcDbSpline
 70
8
 71
3
 72
8
 73
4
 74
0
 40
0
 40
0
 40
0
 40
0
 40
1
 40
1
 40
1
 40
1
 10
4.523030
 20
14.007620
 30
0.0
 10
3.944514
 20
13.948360
 30
0.0
 10
3.676000
 20
13.660307
 30
0.0
 10
3.800400
 20
13.232462
 30
0.0
  0
SPLINE
  5
205
100
AcDbEntity
  8
Layer_1
 62
3
100
AcDbSpline
 70
8
 71
3
 72
8
 73
4
 74
0
 40
0
 40
0
 40
0
 40
0
 40
1
 40
1
 40
1
 40
1
 10
3.800400
 20
13.232462
 30
0.0
 10
3.882229
 20
12.951026
 30
0.0
 10
4.217814
 20
12.689983
 30
0.0
 10
4.555419
 20
12.645206
 30
0.0
  0
LINE
  5
206
100
AcDbEntity
  8
Layer_1
 62
3
100
AcDbLine
 10
4.555419
 20
12.645206
 30
0.0
 11
4.687624
 21
12.627690
 31
0.0
  0
LINE
  5
207
100
AcDbEntity
  8
Layer_1
 62
3
100
AcDbLine
 10
4.687624
 20
12.627690
 30
0.0
 11
4.703271
 21
12.464424
 31
0.0
  0
SPLINE
  5
208
100
AcDbEntity
  8
Layer_1
 62
3
100
AcDbSpline
 70
8
 71
3
 72
8
 73
4
 74
0
 40
0
 40
0
 40
0
 40
0
 40
1
 40
1
 40
1
 40
1
 10
4.703271
 20
12.464424
 30
0.0
 10
4.711883
 20
12.374625
 30
0.0
 10
4.721205
 20
12.163435
 30
0.0
 10
4.723962
 20
11.995109
 30
0.0
  0
LINE
  5
209
100
AcDbEntity
  8
Layer_1
 62
3
100
AcDbLine
 10
4.723962
 20
11.995109
 30
0.0
 11
4.728952
 21
11.689058
 31
0.0
  0
LINE
  5
20a
100
AcDbEntity
  8
Layer_1
 62
3
100
AcDbLine
 10
4.728952
 20
11.689058
 30
0.0
 11
4.664488
 21
11.696024
 31
0.0
  0
SPLINE
  5
20b
100
AcDbEntity
  8
Layer_1
 62
3
100
AcDbSpline
 70
8
 71
3
 72
8
 73
4
 74
0
 40
0
 40
0
 40
0
 40
0
 40
1
 40
1
 40
1
 40
1
 10
4.664488
 20
11.696024
 30
0.0
 10
4.629023
 20
11.699866
 30
0.0
 10
4.500895
 20
11.745276
 30
0.0
 10
4.379751
 20
11.796966
 30
0.0
  0
SPLINE
  5
20c
100
AcDbEntity
  8
Layer_1
 62
3
100
AcDbSpline
 70
8
 71
3
 72
8
 73
4
 74
0
 40
0
 40
0
 40
0
 40
0
 40
1
 40
1
 40
1
 40
1
 10
4.379751
 20
11.796966
 30
0.0
 10
4.258608
 20
11.848657
 30
0.0
 10
4.147812
 20
11.883756
 30
0.0
 10
4.133536
 20
11.874934
 30
0.0
  0
SPLINE
  5
20d
100
AcDbEntity
  8
Layer_1
 62
3
100
AcDbSpline
 70
8
 71
3
 72
8
 73
4
 74
0
 40
0
 40
0
 40
0
 40
0
 40
1
 40
1
 40
1
 40
1
 10
4.133536
 20
11.874934
 30
0.0
 10
4.064069
 20
11.832009
 30
0.0
 10
4.135721
 20
11.561575
 30
0.0
 10
4.248586
 20
11.440704
 30
0.0
  0
SPLINE
  5
20e
100
AcDbEntity
  8
Layer_1
 62
3
100
AcDbSpline
 70
8
 71
3
 72
8
 73
4
 74
0
 40
0
 40
0
 40
0
 40
0
 40
1
 40
1
 40
1
 40
1
 10
4.248586
 20
11.440704
 30
0.0
 10
4.337507
 20
11.345476
 30
0.0
 10
4.506962
 20
11.254789
 30
0.0
 10
4.633867
 20
11.234504
 30
0.0
  0
SPLINE
  5
20f
100
AcDbEntity
  8
Layer_1
 62
3
100
AcDbSpline
 70
8
 71
3
 72
8
 73
4
 74
0
 40
0
 40
0
 40
0
 40
0
 40
1
 40
1
 40
1
 40
1
 10
4.633867
 20
11.234504
 30
0.0
 10
4.696410
 20
11.224506
 30
0.0
 10
4.751768
 20
11.208887
 30
0.0
 10
4.756871
 20
11.199834
 30
0.0
  0
SPLINE
  5
210
100
AcDbEntity
  8
Layer_1
 62
3
100
AcDbSpline
 70
8
 71
3
 72
8
 73
4
 74
0
 40
0
 40
0
 40
0
 40
0
 40
1
 40
1
 40
1
 40
1
 10
4.756871
 20
11.199834
 30
0.0
 10
4.761971
 20
11.190782
 30
0.0
 10
4.774428
 20
11.096584
 30
0.0
 10
4.784528
 20
10.990464
 30
0.0
  0
LINE
  5
211
100
AcDbEntity
  8
Layer_1
 62
3
100
AcDbLine
 10
4.784528
 20
10.990464
 30
0.0
 11
4.802879
 21
10.797519
 31
0.0
  0
LINE
  5
212
100
AcDbEntity
  8
Layer_1
 62
3
100
AcDbLine
 10
4.802879
 20
10.797519
 30
0.0
 11
4.674833
 21
10.800793
 31
0.0
  0
SPLINE
  5
213
100
AcDbEntity
  8
Layer_1
 62
3
100
AcDbSpline
 70
8
 71
3
 72
8
 73
4
 74
0
 40
0
 40
0
 40
0
 40
0
 40
1
 40
1
 40
1
 40
1
 10
4.674833
 20
10.800793
 30
0.0
 10
4.604419
 20
10.802603
 30
0.0
 10
4.471023
 20
10.814927
 30
0.0
 10
4.378399
 20
10.828186
 30
0.0
  0
LINE
  5
214
100
AcDbEntity
  8
Layer_1
 62
3
100
AcDbLine
 10
4.378399
 20
10.828186
 30
0.0
 11
4.378360
 21
10.828186
 31
0.0
  0
SPLINE
  5
215
100
AcDbEntity
  8
Layer_1
 62
3
100
AcDbSpline
 70
8
 71
3
 72
8
 73
4
 74
0
 40
0
 40
0
 40
0
 40
0
 40
1
 40
1
 40
1
 40
1
 10
4.378360
 20
10.828186
 30
0.0
 10
4.133943
 20
10.863193
 30
0.0
 10
3.721088
 20
11.008729
 30
0.0
 10
3.479802
 20
11.144944
 30
0.0
  0
SPLINE
  5
216
100
AcDbEntity
  8
Layer_1
 62
3
100
AcDbSpline
 70
8
 71
3
 72
8
 73
4
 74
0
 40
0
 40
0
 40
0
 40
0
 40
1
 40
1
 40
1
 40
1
 10
3.479802
 20
11.144944
 30
0.0
 10
3.337831
 20
11.225094
 30
0.0
 10
3.187653
 20
11.344761
 30
0.0
 10
3.013940
 20
11.516073
 30
0.0
  0
SPLINE
  5
217
100
AcDbEntity
  8
Layer_1
 62
3
100
AcDbSpline
 70
8
 71
3
 72
8
 73
4
 74
0
 40
0
 40
0
 40
0
 40
0
 40
1
 40
1
 40
1
 40
1
 10
3.013940
 20
11.516073
 30
0.0
 10
2.791055
 20
11.735875
 30
0.0
 10
2.741550
 20
11.801918
 30
0.0
 10
2.635001
 20
12.021722
 30
0.0
  0
SPLINE
  5
218
100
AcDbEntity
  8
Layer_1
 62
3
100
AcDbSpline
 70
8
 71
3
 72
8
 73
4
 74
0
 40
0
 40
0
 40
0
 40
0
 40
1
 40
1
 40
1
 40
1
 10
2.635001
 20
12.021722
 30
0.0
 10
2.467606
 20
12.367041
 30
0.0
 10
2.405485
 20
12.704152
 30
0.0
 10
2.454655
 20
13.000793
 30
0.0
  0
SPLINE
  5
219
100
AcDbEntity
  8
Layer_1
 62
3
100
AcDbSpline
 70
8
 71
3
 72
8
 73
4
 74
0
 40
0
 40
0
 40
0
 40
0
 40
1
 40
1
 40
1
 40
1
 10
2.454655
 20
13.000793
 30
0.0
 10
2.540623
 20
13.519445
 30
0.0
 10
2.870227
 20
13.875571
 30
0.0
 10
3.449129
 20
14.075349
 30
0.0
  0
SPLINE
  5
21a
100
AcDbEntity
  8
Layer_1
 62
3
100
AcDbSpline
 70
8
 71
3
 72
8
 73
4
 74
0
 40
0
 40
0
 40
0
 40
0
 40
1
 40
1
 40
1
 40
1
 10
3.449129
 20
14.075349
 30
0.0
 10
3.587684
 20
14.123164
 30
0.0
 10
3.624872
 20
14.146647
 30
0.0
 10
3.610915
 20
14.177383
 30
0.0
  0
SPLINE
  5
21b
100
AcDbEntity
  8
Layer_1
 62
3
100
AcDbSpline
 70
8
 71
3
 72
8
 73
4
 74
0
 40
0
 40
0
 40
0
 40
0
 40
1
 40
1
 40
1
 40
1
 10
3.610915
 20
14.177383
 30
0.0
 10
3.576017
 20
14.254237
 30
0.0
 10
3.570625
 20
14.438378
 30
0.0
 10
3.601559
 20
14.496168
 30
0.0
  0
SPLINE
  5
21c
100
AcDbEntity
  8
Layer_1
 62
3
100
AcDbSpline
 70
8
 71
3
 72
8
 73
4
 74
0
 40
0
 40
0
 40
0
 40
0
 40
1
 40
1
 40
1
 40
1
 10
3.601559
 20
14.496168
 30
0.0
 10
3.618728
 20
14.528242
 30
0.0
 10
3.673722
 20
14.571571
 30
0.0
 10
3.723783
 20
14.592485
 30
0.0
  0
SPLINE
  5
21d
100
AcDbEntity
  8
Layer_1
 62
3
100
AcDbSpline
 70
8
 71
3
 72
8
 73
4
 74
0
 40
0
 40
0
 40
0
 40
0
 40
1
 40
1
 40
1
 40
1
 10
3.723783
 20
14.592485
 30
0.0
 10
3.763432
 20
14.609046
 30
0.0
 10
3.789211
 20
14.617324
 30
0.0
 10
3.815334
 20
14.617123
 30
0.0
  0
LINE
  5
21e
100
AcDbEntity
  8
Layer_1
 62
3
100
AcDbLine
 10
3.815334
 20
14.617123
 30
0.0
 11
3.815321
 21
14.617123
 31
0.0
  0
LINE
  5
21f
100
AcDbEntity
  8
Layer_1
 62
3
100
AcDbLine
 10
2.560024
 20
10.959589
 30
0.0
 11
2.808161
 21
10.842221
 31
0.0
  0
SPLINE
  5
220
100
AcDbEntity
  8
Layer_1
 62
3
100
AcDbSpline
 70
8
 71
3
 72
8
 73
4
 74
0
 40
0
 40
0
 40
0
 40
0
 40
1
 40
1
 40
1
 40
1
 10
2.808161
 20
10.842221
 30
0.0
 10
3.114457
 20
10.697284
 30
0.0
 10
3.412484
 20
10.605260
 30
0.0
 10
3.828162
 20
10.527282
 30
0.0
  0
SPLINE
  5
221
100
AcDbEntity
  8
Layer_1
 62
3
100
AcDbSpline
 70
8
 71
3
 72
8
 73
4
 74
0
 40
0
 40
0
 40
0
 40
0
 40
1
 40
1
 40
1
 40
1
 10
3.828162
 20
10.527282
 30
0.0
 10
4.261002
 20
10.446083
 30
0.0
 10
5.317274
 20
10.439229
 30
0.0
 10
5.766474
 20
10.514703
 30
0.0
  0
SPLINE
  5
222
100
AcDbEntity
  8
Layer_1
 62
3
100
AcDbSpline
 70
8
 71
3
 72
8
 73
4
 74
0
 40
0
 40
0
 40
0
 40
0
 40
1
 40
1
 40
1
 40
1
 10
5.766474
 20
10.514703
 30
0.0
 10
5.924889
 20
10.541320
 30
0.0
 10
6.058095
 20
10.558954
 30
0.0
 10
6.062493
 20
10.553895
 30
0.0
  0
SPLINE
  5
223
100
AcDbEntity
  8
Layer_1
 62
3
100
AcDbSpline
 70
8
 71
3
 72
8
 73
4
 74
0
 40
0
 40
0
 40
0
 40
0
 40
1
 40
1
 40
1
 40
1
 10
6.062493
 20
10.553895
 30
0.0
 10
6.077069
 20
10.537100
 30
0.0
 10
5.994186
 20
9.799852
 30
0.0
 10
5.975725
 20
9.782115
 30
0.0
  0
SPLINE
  5
224
100
AcDbEntity
  8
Layer_1
 62
3
100
AcDbSpline
 70
8
 71
3
 72
8
 73
4
 74
0
 40
0
 40
0
 40
0
 40
0
 40
1
 40
1
 40
1
 40
1
 10
5.975725
 20
9.782115
 30
0.0
 10
5.965756
 20
9.772540
 30
0.0
 10
5.813845
 20
9.689428
 30
0.0
 10
5.638167
 20
9.597434
 30
0.0
  0
SPLINE
  5
225
100
AcDbEntity
  8
Layer_1
 62
3
100
AcDbSpline
 70
8
 71
3
 72
8
 73
4
 74
0
 40
0
 40
0
 40
0
 40
0
 40
1
 40
1
 40
1
 40
1
 10
5.638167
 20
9.597434
 30
0.0
 10
5.462490
 20
9.505440
 30
0.0
 10
5.285613
 20
9.410297
 30
0.0
 10
5.245088
 20
9.385985
 30
0.0
  0
LINE
  5
226
100
AcDbEntity
  8
Layer_1
 62
3
100
AcDbLine
 10
5.245088
 20
9.385985
 30
0.0
 11
5.171370
 21
9.341751
 31
0.0
  0
LINE
  5
227
100
AcDbEntity
  8
Layer_1
 62
3
100
AcDbLine
 10
5.171370
 20
9.341751
 30
0.0
 11
5.598033
 21
9.161697
 31
0.0
  0
SPLINE
  5
228
100
AcDbEntity
  8
Layer_1
 62
3
100
AcDbSpline
 70
8
 71
3
 72
8
 73
4
 74
0
 40
0
 40
0
 40
0
 40
0
 40
1
 40
1
 40
1
 40
1
 10
5.598033
 20
9.161697
 30
0.0
 10
5.973445
 20
9.003263
 30
0.0
 10
6.026543
 20
8.973270
 30
0.0
 10
6.040294
 20
8.911576
 30
0.0
  0
SPLINE
  5
229
100
AcDbEntity
  8
Layer_1
 62
3
100
AcDbSpline
 70
8
 71
3
 72
8
 73
4
 74
0
 40
0
 40
0
 40
0
 40
0
 40
1
 40
1
 40
1
 40
1
 10
6.040294
 20
8.911576
 30
0.0
 10
6.048885
 20
8.873015
 30
0.0
 10
6.065718
 20
8.802627
 30
0.0
 10
6.077725
 20
8.755171
 30
0.0
  0
SPLINE
  5
22a
100
AcDbEntity
  8
Layer_1
 62
3
100
AcDbSpline
 70
8
 71
3
 72
8
 73
4
 74
0
 40
0
 40
0
 40
0
 40
0
 40
1
 40
1
 40
1
 40
1
 10
6.077725
 20
8.755171
 30
0.0
 10
6.089709
 20
8.707715
 30
0.0
 10
6.089941
 20
8.662937
 30
0.0
 10
6.078229
 20
8.655684
 30
0.0
  0
SPLINE
  5
22b
100
AcDbEntity
  8
Layer_1
 62
3
100
AcDbSpline
 70
8
 71
3
 72
8
 73
4
 74
0
 40
0
 40
0
 40
0
 40
0
 40
1
 40
1
 40
1
 40
1
 10
6.078229
 20
8.655684
 30
0.0
 10
6.044664
 20
8.634945
 30
0.0
 10
5.510577
 20
8.508819
 30
0.0
 10
5.456142
 20
8.508792
 30
0.0
  0
SPLINE
  5
22c
100
AcDbEntity
  8
Layer_1
 62
3
100
AcDbSpline
 70
8
 71
3
 72
8
 73
4
 74
0
 40
0
 40
0
 40
0
 40
0
 40
1
 40
1
 40
1
 40
1
 10
5.456142
 20
8.508792
 30
0.0
 10
5.429242
 20
8.508773
 30
0.0
 10
5.285506
 20
8.622938
 30
0.0
 10
5.136729
 20
8.762448
 30
0.0
  0
LINE
  5
22d
100
AcDbEntity
  8
Layer_1
 62
3
100
AcDbLine
 10
5.136729
 20
8.762448
 30
0.0
 11
4.778846
 21
8.995936
 31
0.0
  0
LINE
  5
22e
100
AcDbEntity
  8
Layer_1
 62
3
100
AcDbLine
 10
4.778846
 20
8.995936
 30
0.0
 11
4.761638
 21
8.895306
 31
0.0
  0
SPLINE
  5
22f
100
AcDbEntity
  8
Layer_1
 62
3
100
AcDbSpline
 70
8
 71
3
 72
8
 73
4
 74
0
 40
0
 40
0
 40
0
 40
0
 40
1
 40
1
 40
1
 40
1
 10
4.761638
 20
8.895306
 30
0.0
 10
4.752171
 20
8.839960
 30
0.0
 10
4.736017
 20
8.679738
 30
0.0
 10
4.725766
 20
8.539251
 30
0.0
  0
SPLINE
  5
230
100
AcDbEntity
  8
Layer_1
 62
3
100
AcDbSpline
 70
8
 71
3
 72
8
 73
4
 74
0
 40
0
 40
0
 40
0
 40
0
 40
1
 40
1
 40
1
 40
1
 10
4.725766
 20
8.539251
 30
0.0
 10
4.715515
 20
8.398765
 30
0.0
 10
4.699299
 20
8.271732
 30
0.0
 10
4.689738
 20
8.256956
 30
0.0
  0
SPLINE
  5
231
100
AcDbEntity
  8
Layer_1
 62
3
100
AcDbSpline
 70
8
 71
3
 72
8
 73
4
 74
0
 40
0
 40
0
 40
0
 40
0
 40
1
 40
1
 40
1
 40
1
 10
4.689738
 20
8.256956
 30
0.0
 10
4.680181
 20
8.242180
 30
0.0
 10
4.529313
 20
8.145027
 30
0.0
 10
4.354469
 20
8.041088
 30
0.0
  0
LINE
  5
232
100
AcDbEntity
  8
Layer_1
 62
3
100
AcDbLine
 10
4.354469
 20
8.041088
 30
0.0
 11
4.036564
 21
7.852093
 31
0.0
  0
LINE
  5
233
100
AcDbEntity
  8
Layer_1
 62
3
100
AcDbLine
 10
4.036564
 20
7.852093
 30
0.0
 11
4.317818
 21
7.720795
 31
0.0
  0
SPLINE
  5
234
100
AcDbEntity
  8
Layer_1
 62
3
100
AcDbSpline
 70
8
 71
3
 72
8
 73
4
 74
0
 40
0
 40
0
 40
0
 40
0
 40
1
 40
1
 40
1
 40
1
 10
4.317818
 20
7.720795
 30
0.0
 10
4.472510
 20
7.648573
 30
0.0
 10
4.624312
 20
7.581497
 30
0.0
 10
4.655115
 20
7.571720
 30
0.0
  0
SPLINE
  5
235
100
AcDbEntity
  8
Layer_1
 62
3
100
AcDbSpline
 70
8
 71
3
 72
8
 73
4
 74
0
 40
0
 40
0
 40
0
 40
0
 40
1
 40
1
 40
1
 40
1
 10
4.655115
 20
7.571720
 30
0.0
 10
4.717334
 20
7.551976
 30
0.0
 10
4.738281
 20
7.489464
 30
0.0
 10
4.806399
 20
7.120545
 30
0.0
  0
SPLINE
  5
236
100
AcDbEntity
  8
Layer_1
 62
3
100
AcDbSpline
 70
8
 71
3
 72
8
 73
4
 74
0
 40
0
 40
0
 40
0
 40
0
 40
1
 40
1
 40
1
 40
1
 10
4.806399
 20
7.120545
 30
0.0
 10
4.875612
 20
6.745691
 30
0.0
 10
4.853134
 20
6.749303
 30
0.0
 10
5.134961
 20
7.068254
 30
0.0
  0
LINE
  5
237
100
AcDbEntity
  8
Layer_1
 62
3
100
AcDbLine
 10
5.134961
 20
7.068254
 30
0.0
 11
5.464512
 21
7.356632
 31
0.0
  0
LINE
  5
238
100
AcDbEntity
  8
Layer_1
 62
3
100
AcDbLine
 10
5.464512
 20
7.356632
 30
0.0
 11
5.674491
 21
7.351593
 31
0.0
  0
SPLINE
  5
239
100
AcDbEntity
  8
Layer_1
 62
3
100
AcDbSpline
 70
8
 71
3
 72
8
 73
4
 74
0
 40
0
 40
0
 40
0
 40
0
 40
1
 40
1
 40
1
 40
1
 10
5.674491
 20
7.351593
 30
0.0
 10
5.786270
 20
7.341407
 30
0.0
 10
6.021011
 20
7.247302
 30
0.0
 10
6.033467
 20
7.235420
 30
0.0
  0
SPLINE
  5
23a
100
AcDbEntity
  8
Layer_1
 62
3
100
AcDbSpline
 70
8
 71
3
 72
8
 73
4
 74
0
 40
0
 40
0
 40
0
 40
0
 40
1
 40
1
 40
1
 40
1
 10
6.033467
 20
7.235420
 30
0.0
 10
6.045922
 20
7.223539
 30
0.0
 10
5.980044
 20
7.177295
 30
0.0
 10
5.887069
 20
7.132657
 30
0.0
  0
SPLINE
  5
23b
100
AcDbEntity
  8
Layer_1
 62
3
100
AcDbSpline
 70
8
 71
3
 72
8
 73
4
 74
0
 40
0
 40
0
 40
0
 40
0
 40
1
 40
1
 40
1
 40
1
 10
5.887069
 20
7.132657
 30
0.0
 10
5.431117
 20
6.913746
 30
0.0
 10
5.079692
 20
6.530737
 30
0.0
 10
4.864053
 20
6.017611
 30
0.0
  0
SPLINE
  5
23c
100
AcDbEntity
  8
Layer_1
 62
3
100
AcDbSpline
 70
8
 71
3
 72
8
 73
4
 74
0
 40
0
 40
0
 40
0
 40
0
 40
1
 40
1
 40
1
 40
1
 10
4.864053
 20
6.017611
 30
0.0
 10
4.807156
 20
5.882216
 30
0.0
 10
4.753327
 20
5.771439
 30
0.0
 10
4.744430
 20
5.771439
 30
0.0
  0
SPLINE
  5
23d
100
AcDbEntity
  8
Layer_1
 62
3
100
AcDbSpline
 70
8
 71
3
 72
8
 73
4
 74
0
 40
0
 40
0
 40
0
 40
0
 40
1
 40
1
 40
1
 40
1
 10
4.744430
 20
5.771439
 30
0.0
 10
4.735537
 20
5.771439
 30
0.0
 10
4.499315
 20
5.790837
 30
0.0
 10
4.480696
 20
5.853046
 30
0.0
  0
SPLINE
  5
23e
100
AcDbEntity
  8
Layer_1
 62
3
100
AcDbSpline
 70
8
 71
3
 72
8
 73
4
 74
0
 40
0
 40
0
 40
0
 40
0
 40
1
 40
1
 40
1
 40
1
 10
4.480696
 20
5.853046
 30
0.0
 10
4.320224
 20
6.389190
 30
0.0
 10
3.828316
 20
6.890209
 30
0.0
 10
3.247962
 20
7.117948
 30
0.0
  0
SPLINE
  5
23f
100
AcDbEntity
  8
Layer_1
 62
3
100
AcDbSpline
 70
8
 71
3
 72
8
 73
4
 74
0
 40
0
 40
0
 40
0
 40
0
 40
1
 40
1
 40
1
 40
1
 10
3.247962
 20
7.117948
 30
0.0
 10
3.259645
 20
7.118752
 30
0.0
 10
3.272707
 20
7.123289
 30
0.0
 10
3.281182
 20
7.130735
 30
0.0
  0
SPLINE
  5
240
100
AcDbEntity
  8
Layer_1
 62
3
100
AcDbSpline
 70
8
 71
3
 72
8
 73
4
 74
0
 40
0
 40
0
 40
0
 40
0
 40
1
 40
1
 40
1
 40
1
 10
3.281182
 20
7.130735
 30
0.0
 10
3.290568
 20
7.139023
 30
0.0
 10
3.293310
 20
7.147259
 30
0.0
 10
3.306551
 20
7.207663
 30
0.0
  0
SPLINE
  5
241
100
AcDbEntity
  8
Layer_1
 62
3
100
AcDbSpline
 70
8
 71
3
 72
8
 73
4
 74
0
 40
0
 40
0
 40
0
 40
0
 40
1
 40
1
 40
1
 40
1
 10
3.306551
 20
7.207663
 30
0.0
 10
3.320584
 20
7.271669
 30
0.0
 10
3.343898
 20
7.337344
 30
0.0
 10
3.380946
 20
7.417033
 30
0.0
  0
SPLINE
  5
242
100
AcDbEntity
  8
Layer_1
 62
3
100
AcDbSpline
 70
8
 71
3
 72
8
 73
4
 74
0
 40
0
 40
0
 40
0
 40
0
 40
1
 40
1
 40
1
 40
1
 10
3.380946
 20
7.417033
 30
0.0
 10
3.450535
 20
7.566714
 30
0.0
 10
3.510934
 20
7.657600
 30
0.0
 10
3.744549
 20
7.964266
 30
0.0
  0
SPLINE
  5
243
100
AcDbEntity
  8
Layer_1
 62
3
100
AcDbSpline
 70
8
 71
3
 72
8
 73
4
 74
0
 40
0
 40
0
 40
0
 40
0
 40
1
 40
1
 40
1
 40
1
 10
3.744549
 20
7.964266
 30
0.0
 10
3.899549
 20
8.167733
 30
0.0
 10
3.975639
 20
8.285773
 30
0.0
 10
4.037760
 20
8.419183
 30
0.0
  0
SPLINE
  5
244
100
AcDbEntity
  8
Layer_1
 62
3
100
AcDbSpline
 70
8
 71
3
 72
8
 73
4
 74
0
 40
0
 40
0
 40
0
 40
0
 40
1
 40
1
 40
1
 40
1
 10
4.037760
 20
8.419183
 30
0.0
 10
4.136405
 20
8.631033
 30
0.0
 10
4.165704
 20
8.823994
 30
0.0
 10
4.134405
 20
9.055454
 30
0.0
  0
SPLINE
  5
245
100
AcDbEntity
  8
Layer_1
 62
3
100
AcDbSpline
 70
8
 71
3
 72
8
 73
4
 74
0
 40
0
 40
0
 40
0
 40
0
 40
1
 40
1
 40
1
 40
1
 10
4.134405
 20
9.055454
 30
0.0
 10
4.127223
 20
9.108555
 30
0.0
 10
4.085574
 20
9.266156
 30
0.0
 10
4.068276
 20
9.305628
 30
0.0
  0
SPLINE
  5
246
100
AcDbEntity
  8
Layer_1
 62
3
100
AcDbSpline
 70
8
 71
3
 72
8
 73
4
 74
0
 40
0
 40
0
 40
0
 40
0
 40
1
 40
1
 40
1
 40
1
 10
4.068276
 20
9.305628
 30
0.0
 10
4.018175
 20
9.419963
 30
0.0
 10
3.954704
 20
9.510498
 30
0.0
 10
3.867968
 20
9.591303
 30
0.0
  0
SPLINE
  5
247
100
AcDbEntity
  8
Layer_1
 62
3
100
AcDbSpline
 70
8
 71
3
 72
8
 73
4
 74
0
 40
0
 40
0
 40
0
 40
0
 40
1
 40
1
 40
1
 40
1
 10
3.867968
 20
9.591303
 30
0.0
 10
3.830106
 20
9.626576
 30
0.0
 10
3.741823
 20
9.687450
 30
0.0
 10
3.696356
 20
9.709659
 30
0.0
  0
SPLINE
  5
248
100
AcDbEntity
  8
Layer_1
 62
3
100
AcDbSpline
 70
8
 71
3
 72
8
 73
4
 74
0
 40
0
 40
0
 40
0
 40
0
 40
1
 40
1
 40
1
 40
1
 10
3.696356
 20
9.709659
 30
0.0
 10
3.594688
 20
9.759316
 30
0.0
 10
3.497283
 20
9.782772
 30
0.0
 10
3.388692
 20
9.783156
 30
0.0
  0
SPLINE
  5
249
100
AcDbEntity
  8
Layer_1
 62
3
100
AcDbSpline
 70
8
 71
3
 72
8
 73
4
 74
0
 40
0
 40
0
 40
0
 40
0
 40
1
 40
1
 40
1
 40
1
 10
3.388692
 20
9.783156
 30
0.0
 10
3.373191
 20
9.783211
 30
0.0
 10
3.357486
 20
9.782754
 30
0.0
 10
3.341488
 20
9.781909
 30
0.0
  0
SPLINE
  5
24a
100
AcDbEntity
  8
Layer_1
 62
3
100
AcDbSpline
 70
8
 71
3
 72
8
 73
4
 74
0
 40
0
 40
0
 40
0
 40
0
 40
1
 40
1
 40
1
 40
1
 10
3.341488
 20
9.781909
 30
0.0
 10
3.307121
 20
9.780018
 30
0.0
 10
3.291908
 20
9.777011
 30
0.0
 10
3.221707
 20
9.758050
 30
0.0
  0
SPLINE
  5
24b
100
AcDbEntity
  8
Layer_1
 62
3
100
AcDbSpline
 70
8
 71
3
 72
8
 73
4
 74
0
 40
0
 40
0
 40
0
 40
0
 40
1
 40
1
 40
1
 40
1
 10
3.221707
 20
9.758050
 30
0.0
 10
3.137296
 20
9.735263
 30
0.0
 10
3.118403
 20
9.727876
 30
0.0
 10
3.062106
 20
9.695624
 30
0.0
  0
SPLINE
  5
24c
100
AcDbEntity
  8
Layer_1
 62
3
100
AcDbSpline
 70
8
 71
3
 72
8
 73
4
 74
0
 40
0
 40
0
 40
0
 40
0
 40
1
 40
1
 40
1
 40
1
 10
3.062106
 20
9.695624
 30
0.0
 10
2.879655
 20
9.591100
 30
0.0
 10
2.748424
 20
9.392830
 30
0.0
 10
2.718622
 20
9.176617
 30
0.0
  0
SPLINE
  5
24d
100
AcDbEntity
  8
Layer_1
 62
3
100
AcDbSpline
 70
8
 71
3
 72
8
 73
4
 74
0
 40
0
 40
0
 40
0
 40
0
 40
1
 40
1
 40
1
 40
1
 10
2.718622
 20
9.176617
 30
0.0
 10
2.716099
 20
9.158298
 30
0.0
 10
2.713301
 20
9.143077
 30
0.0
 10
2.712486
 20
9.142986
 30
0.0
  0
SPLINE
  5
24e
100
AcDbEntity
  8
Layer_1
 62
3
100
AcDbSpline
 70
8
 71
3
 72
8
 73
4
 74
0
 40
0
 40
0
 40
0
 40
0
 40
1
 40
1
 40
1
 40
1
 10
2.712486
 20
9.142986
 30
0.0
 10
2.711682
 20
9.142786
 30
0.0
 10
2.703220
 20
9.152643
 30
0.0
 10
2.693769
 20
9.164817
 30
0.0
  0
SPLINE
  5
24f
100
AcDbEntity
  8
Layer_1
 62
3
100
AcDbSpline
 70
8
 71
3
 72
8
 73
4
 74
0
 40
0
 40
0
 40
0
 40
0
 40
1
 40
1
 40
1
 40
1
 10
2.693769
 20
9.164817
 30
0.0
 10
2.567305
 20
9.327835
 30
0.0
 10
2.368493
 20
9.433355
 30
0.0
 10
2.169473
 20
9.443112
 30
0.0
  0
SPLINE
  5
250
100
AcDbEntity
  8
Layer_1
 62
3
100
AcDbSpline
 70
8
 71
3
 72
8
 73
4
 74
0
 40
0
 40
0
 40
0
 40
0
 40
1
 40
1
 40
1
 40
1
 10
2.169473
 20
9.443112
 30
0.0
 10
2.089822
 20
9.447015
 30
0.0
 10
2.058563
 20
9.443167
 30
0.0
 10
1.965525
 20
9.418058
 30
0.0
  0
SPLINE
  5
251
100
AcDbEntity
  8
Layer_1
 62
3
100
AcDbSpline
 70
8
 71
3
 72
8
 73
4
 74
0
 40
0
 40
0
 40
0
 40
0
 40
1
 40
1
 40
1
 40
1
 10
1.965525
 20
9.418058
 30
0.0
 10
1.874248
 20
9.393431
 30
0.0
 10
1.848053
 20
9.382353
 30
0.0
 10
1.781800
 20
9.340350
 30
0.0
  0
SPLINE
  5
252
100
AcDbEntity
  8
Layer_1
 62
3
100
AcDbSpline
 70
8
 71
3
 72
8
 73
4
 74
0
 40
0
 40
0
 40
0
 40
0
 40
1
 40
1
 40
1
 40
1
 10
1.781800
 20
9.340350
 30
0.0
 10
1.713239
 20
9.296884
 30
0.0
 10
1.652453
 20
9.239035
 30
0.0
 10
1.602390
 20
9.171315
 30
0.0
  0
SPLINE
  5
253
100
AcDbEntity
  8
Layer_1
 62
3
100
AcDbSpline
 70
8
 71
3
 72
8
 73
4
 74
0
 40
0
 40
0
 40
0
 40
0
 40
1
 40
1
 40
1
 40
1
 10
1.602390
 20
9.171315
 30
0.0
 10
1.708344
 20
9.583604
 30
0.0
 10
1.880706
 20
9.975180
 30
0.0
 10
2.128090
 20
10.375038
 30
0.0
  0
SPLINE
  5
254
100
AcDbEntity
  8
Layer_1
 62
3
100
AcDbSpline
 70
8
 71
3
 72
8
 73
4
 74
0
 40
0
 40
0
 40
0
 40
0
 40
1
 40
1
 40
1
 40
1
 10
2.128090
 20
10.375038
 30
0.0
 10
2.206922
 20
10.502455
 30
0.0
 10
2.313622
 20
10.657196
 30
0.0
 10
2.365207
 20
10.718929
 30
0.0
  0
SPLINE
  5
255
100
AcDbEntity
  8
Layer_1
 62
3
100
AcDbSpline
 70
8
 71
3
 72
8
 73
4
 74
0
 40
0
 40
0
 40
0
 40
0
 40
1
 40
1
 40
1
 40
1
 10
2.365207
 20
10.718929
 30
0.0
 10
2.416793
 20
10.780662
 30
0.0
 10
2.481736
 20
10.860078
 30
0.0
 10
2.509525
 20
10.895397
 30
0.0
  0
LINE
  5
256
100
AcDbEntity
  8
Layer_1
 62
3
100
AcDbLine
 10
2.509525
 20
10.895397
 30
0.0
 11
2.560024
 21
10.959589
 31
0.0
  0
LINE
  5
257
100
AcDbEntity
  8
Layer_1
 62
3
100
AcDbLine
 10
7.066169
 20
10.939525
 30
0.0
 11
7.165361
 21
10.827771
 31
0.0
  0
SPLINE
  5
258
100
AcDbEntity
  8
Layer_1
 62
3
100
AcDbSpline
 70
8
 71
3
 72
8
 73
4
 74
0
 40
0
 40
0
 40
0
 40
0
 40
1
 40
1
 40
1
 40
1
 10
7.165361
 20
10.827771
 30
0.0
 10
7.317044
 20
10.656872
 30
0.0
 10
7.564350
 20
10.284108
 30
0.0
 10
7.541337
 20
10.261099
 30
0.0
  0
SPLINE
  5
259
100
AcDbEntity
  8
Layer_1
 62
3
100
AcDbSpline
 70
8
 71
3
 72
8
 73
4
 74
0
 40
0
 40
0
 40
0
 40
0
 40
1
 40
1
 40
1
 40
1
 10
7.541337
 20
10.261099
 30
0.0
 10
7.520512
 20
10.240278
 30
0.0
 10
6.929170
 20
10.105838
 30
0.0
 10
6.858426
 20
10.105838
 30
0.0
  0
SPLINE
  5
25a
100
AcDbEntity
  8
Layer_1
 62
3
100
AcDbSpline
 70
8
 71
3
 72
8
 73
4
 74
0
 40
0
 40
0
 40
0
 40
0
 40
1
 40
1
 40
1
 40
1
 10
6.858426
 20
10.105838
 30
0.0
 10
6.837110
 20
10.105838
 30
0.0
 10
6.762025
 20
10.155284
 30
0.0
 10
6.691596
 20
10.215721
 30
0.0
  0
SPLINE
  5
25b
100
AcDbEntity
  8
Layer_1
 62
3
100
AcDbSpline
 70
8
 71
3
 72
8
 73
4
 74
0
 40
0
 40
0
 40
0
 40
0
 40
1
 40
1
 40
1
 40
1
 10
6.691596
 20
10.215721
 30
0.0
 10
6.478793
 20
10.398333
 30
0.0
 10
6.284065
 20
10.586581
 30
0.0
 10
6.284065
 20
10.609668
 30
0.0
  0
SPLINE
  5
25c
100
AcDbEntity
  8
Layer_1
 62
3
100
AcDbSpline
 70
8
 71
3
 72
8
 73
4
 74
0
 40
0
 40
0
 40
0
 40
0
 40
1
 40
1
 40
1
 40
1
 10
6.284065
 20
10.609668
 30
0.0
 10
6.284065
 20
10.621642
 30
0.0
 10
6.394861
 20
10.669991
 30
0.0
 10
6.530278
 20
10.717160
 30
0.0
  0
SPLINE
  5
25d
100
AcDbEntity
  8
Layer_1
 62
3
100
AcDbSpline
 70
8
 71
3
 72
8
 73
4
 74
0
 40
0
 40
0
 40
0
 40
0
 40
1
 40
1
 40
1
 40
1
 10
6.530278
 20
10.717160
 30
0.0
 10
6.665696
 20
10.764329
 30
0.0
 10
6.841669
 20
10.833666
 30
0.0
 10
6.921330
 20
10.871225
 30
0.0
  0
LINE
  5
25e
100
AcDbEntity
  8
Layer_1
 62
3
100
AcDbLine
 10
6.921330
 20
10.871225
 30
0.0
 11
7.066169
 21
10.939525
 31
0.0
  0
SPLINE
  5
25f
100
AcDbEntity
  8
Layer_1
 62
3
100
AcDbSpline
 70
8
 71
3
 72
8
 73
4
 74
0
 40
0
 40
0
 40
0
 40
0
 40
1
 40
1
 40
1
 40
1
 10
7.634187
 20
10.099653
 30
0.0
 10
7.732568
 20
10.058293
 30
0.0
 10
7.858431
 20
9.522555
 30
0.0
 10
7.921835
 20
9.407712
 30
0.0
  0
SPLINE
  5
260
100
AcDbEntity
  8
Layer_1
 62
3
100
AcDbSpline
 70
8
 71
3
 72
8
 73
4
 74
0
 40
0
 40
0
 40
0
 40
0
 40
1
 40
1
 40
1
 40
1
 10
7.921835
 20
9.407712
 30
0.0
 10
8.019964
 20
9.082941
 30
0.0
 10
8.095327
 20
8.660948
 30
0.0
 10
8.057368
 20
8.648771
 30
0.0
  0
SPLINE
  5
261
100
AcDbEntity
  8
Layer_1
 62
3
100
AcDbSpline
 70
8
 71
3
 72
8
 73
4
 74
0
 40
0
 40
0
 40
0
 40
0
 40
1
 40
1
 40
1
 40
1
 10
8.057368
 20
8.648771
 30
0.0
 10
7.975251
 20
8.622434
 30
0.0
 10
7.600298
 20
8.556227
 30
0.0
 10
7.538633
 20
8.557132
 30
0.0
  0
SPLINE
  5
262
100
AcDbEntity
  8
Layer_1
 62
3
100
AcDbSpline
 70
8
 71
3
 72
8
 73
4
 74
0
 40
0
 40
0
 40
0
 40
0
 40
1
 40
1
 40
1
 40
1
 10
7.538633
 20
8.557132
 30
0.0
 10
7.498963
 20
8.557736
 30
0.0
 10
7.413709
 20
8.601263
 30
0.0
 10
7.343107
 20
8.656932
 30
0.0
  0
SPLINE
  5
263
100
AcDbEntity
  8
Layer_1
 62
3
100
AcDbSpline
 70
8
 71
3
 72
8
 73
4
 74
0
 40
0
 40
0
 40
0
 40
0
 40
1
 40
1
 40
1
 40
1
 10
7.343107
 20
8.656932
 30
0.0
 10
7.274244
 20
8.711230
 30
0.0
 10
7.217377
 20
8.766218
 30
0.0
 10
7.216673
 20
8.779082
 30
0.0
  0
SPLINE
  5
264
100
AcDbEntity
  8
Layer_1
 62
3
100
AcDbSpline
 70
8
 71
3
 72
8
 73
4
 74
0
 40
0
 40
0
 40
0
 40
0
 40
1
 40
1
 40
1
 40
1
 10
7.216673
 20
8.779082
 30
0.0
 10
7.215969
 20
8.791947
 30
0.0
 10
7.097537
 20
8.956705
 30
0.0
 10
7.167077
 20
8.948065
 30
0.0
  0
SPLINE
  5
265
100
AcDbEntity
  8
Layer_1
 62
3
100
AcDbSpline
 70
8
 71
3
 72
8
 73
4
 74
0
 40
0
 40
0
 40
0
 40
0
 40
1
 40
1
 40
1
 40
1
 10
7.167077
 20
8.948065
 30
0.0
 10
7.236615
 20
8.939425
 30
0.0
 10
7.369196
 20
8.924269
 30
0.0
 10
7.461691
 20
8.914382
 30
0.0
  0
LINE
  5
266
100
AcDbEntity
  8
Layer_1
 62
3
100
AcDbLine
 10
7.461691
 20
8.914382
 30
0.0
 11
7.629872
 21
8.896450
 31
0.0
  0
LINE
  5
267
100
AcDbEntity
  8
Layer_1
 62
3
100
AcDbLine
 10
7.629872
 20
8.896450
 30
0.0
 11
7.450670
 21
9.186179
 31
0.0
  0
SPLINE
  5
268
100
AcDbEntity
  8
Layer_1
 62
3
100
AcDbSpline
 70
8
 71
3
 72
8
 73
4
 74
0
 40
0
 40
0
 40
0
 40
0
 40
1
 40
1
 40
1
 40
1
 10
7.450670
 20
9.186179
 30
0.0
 10
7.352113
 20
9.345532
 30
0.0
 10
7.249528
 20
9.511837
 30
0.0
 10
7.222703
 20
9.555748
 30
0.0
  0
SPLINE
  5
269
100
AcDbEntity
  8
Layer_1
 62
3
100
AcDbSpline
 70
8
 71
3
 72
8
 73
4
 74
0
 40
0
 40
0
 40
0
 40
0
 40
1
 40
1
 40
1
 40
1
 10
7.222703
 20
9.555748
 30
0.0
 10
7.116297
 20
9.756653
 30
0.0
 10
7.469702
 20
10.039324
 30
0.0
 10
7.634187
 20
10.099653
 30
0.0
  0
LINE
  5
26a
100
AcDbEntity
  8
Layer_1
 62
3
100
AcDbLine
 10
7.634187
 20
10.099653
 30
0.0
 11
7.634187
 21
10.099653
 31
0.0
  0
SPLINE
  5
26b
100
AcDbEntity
  8
Layer_1
 62
3
100
AcDbSpline
 70
8
 71
3
 72
8
 73
4
 74
0
 40
0
 40
0
 40
0
 40
0
 40
1
 40
1
 40
1
 40
1
 10
6.329397
 20
9.970746
 30
0.0
 10
6.332878
 20
9.974226
 30
0.0
 10
6.401274
 20
9.919389
 30
0.0
 10
6.481409
 20
9.848855
 30
0.0
  0
SPLINE
  5
26c
100
AcDbEntity
  8
Layer_1
 62
3
100
AcDbSpline
 70
8
 71
3
 72
8
 73
4
 74
0
 40
0
 40
0
 40
0
 40
0
 40
1
 40
1
 40
1
 40
1
 10
6.481409
 20
9.848855
 30
0.0
 10
6.561545
 20
9.778320
 30
0.0
 10
6.635795
 20
9.720409
 30
0.0
 10
6.646368
 20
9.720208
 30
0.0
  0
SPLINE
  5
26d
100
AcDbEntity
  8
Layer_1
 62
3
100
AcDbSpline
 70
8
 71
3
 72
8
 73
4
 74
0
 40
0
 40
0
 40
0
 40
0
 40
1
 40
1
 40
1
 40
1
 10
6.646368
 20
9.720208
 30
0.0
 10
6.656941
 20
9.720007
 30
0.0
 10
6.745799
 20
9.735885
 30
0.0
 10
6.843869
 20
9.755501
 30
0.0
  0
SPLINE
  5
26e
100
AcDbEntity
  8
Layer_1
 62
3
100
AcDbSpline
 70
8
 71
3
 72
8
 73
4
 74
0
 40
0
 40
0
 40
0
 40
0
 40
1
 40
1
 40
1
 40
1
 10
6.843869
 20
9.755501
 30
0.0
 10
6.941939
 20
9.775109
 30
0.0
 10
7.026599
 20
9.786800
 30
0.0
 10
7.031961
 20
9.781439
 30
0.0
  0
SPLINE
  5
26f
100
AcDbEntity
  8
Layer_1
 62
3
100
AcDbSpline
 70
8
 71
3
 72
8
 73
4
 74
0
 40
0
 40
0
 40
0
 40
0
 40
1
 40
1
 40
1
 40
1
 10
7.031961
 20
9.781439
 30
0.0
 10
7.037323
 20
9.776078
 30
0.0
 10
7.005427
 20
9.699449
 30
0.0
 10
6.961102
 20
9.611157
 30
0.0
  0
SPLINE
  5
270
100
AcDbEntity
  8
Layer_1
 62
3
100
AcDbSpline
 70
8
 71
3
 72
8
 73
4
 74
0
 40
0
 40
0
 40
0
 40
0
 40
1
 40
1
 40
1
 40
1
 10
6.961102
 20
9.611157
 30
0.0
 10
6.916777
 20
9.522867
 30
0.0
 10
6.880520
 20
9.442229
 30
0.0
 10
6.880520
 20
9.432038
 30
0.0
  0
SPLINE
  5
271
100
AcDbEntity
  8
Layer_1
 62
3
100
AcDbSpline
 70
8
 71
3
 72
8
 73
4
 74
0
 40
0
 40
0
 40
0
 40
0
 40
1
 40
1
 40
1
 40
1
 10
6.880520
 20
9.432038
 30
0.0
 10
6.880520
 20
9.421849
 30
0.0
 10
6.924358
 20
9.342656
 30
0.0
 10
6.977945
 20
9.255987
 30
0.0
  0
SPLINE
  5
272
100
AcDbEntity
  8
Layer_1
 62
3
100
AcDbSpline
 70
8
 71
3
 72
8
 73
4
 74
0
 40
0
 40
0
 40
0
 40
0
 40
1
 40
1
 40
1
 40
1
 10
6.977945
 20
9.255987
 30
0.0
 10
7.031533
 20
9.169319
 30
0.0
 10
7.071619
 20
9.094678
 30
0.0
 10
7.067052
 20
9.090122
 30
0.0
  0
SPLINE
  5
273
100
AcDbEntity
  8
Layer_1
 62
3
100
AcDbSpline
 70
8
 71
3
 72
8
 73
4
 74
0
 40
0
 40
0
 40
0
 40
0
 40
1
 40
1
 40
1
 40
1
 10
7.067052
 20
9.090122
 30
0.0
 10
7.062495
 20
9.085565
 30
0.0
 10
6.970619
 20
9.091641
 30
0.0
 10
6.862844
 20
9.103637
 30
0.0
  0
LINE
  5
274
100
AcDbEntity
  8
Layer_1
 62
3
100
AcDbLine
 10
6.862844
 20
9.103637
 30
0.0
 11
6.666902
 21
9.125468
 31
0.0
  0
LINE
  5
275
100
AcDbEntity
  8
Layer_1
 62
3
100
AcDbLine
 10
6.666902
 20
9.125468
 30
0.0
 11
6.618449
 21
9.074736
 31
0.0
  0
SPLINE
  5
276
100
AcDbEntity
  8
Layer_1
 62
3
100
AcDbSpline
 70
8
 71
3
 72
8
 73
4
 74
0
 40
0
 40
0
 40
0
 40
0
 40
1
 40
1
 40
1
 40
1
 10
6.618449
 20
9.074736
 30
0.0
 10
6.591822
 20
9.046837
 30
0.0
 10
6.531675
 20
8.983809
 30
0.0
 10
6.484789
 20
8.934654
 30
0.0
  0
SPLINE
  5
277
100
AcDbEntity
  8
Layer_1
 62
3
100
AcDbSpline
 70
8
 71
3
 72
8
 73
4
 74
0
 40
0
 40
0
 40
0
 40
0
 40
1
 40
1
 40
1
 40
1
 10
6.484789
 20
8.934654
 30
0.0
 10
6.437906
 20
8.885503
 30
0.0
 10
6.394279
 20
8.845250
 30
0.0
 10
6.387780
 20
8.845250
 30
0.0
  0
SPLINE
  5
278
100
AcDbEntity
  8
Layer_1
 62
3
100
AcDbSpline
 70
8
 71
3
 72
8
 73
4
 74
0
 40
0
 40
0
 40
0
 40
0
 40
1
 40
1
 40
1
 40
1
 10
6.387780
 20
8.845250
 30
0.0
 10
6.381281
 20
8.845250
 30
0.0
 10
6.359531
 20
8.923415
 30
0.0
 10
6.339483
 20
9.018912
 30
0.0
  0
SPLINE
  5
279
100
AcDbEntity
  8
Layer_1
 62
3
100
AcDbSpline
 70
8
 71
3
 72
8
 73
4
 74
0
 40
0
 40
0
 40
0
 40
0
 40
1
 40
1
 40
1
 40
1
 10
6.339483
 20
9.018912
 30
0.0
 10
6.319435
 20
9.114406
 30
0.0
 10
6.298648
 20
9.199631
 30
0.0
 10
6.293266
 20
9.208321
 30
0.0
  0
SPLINE
  5
27a
100
AcDbEntity
  8
Layer_1
 62
3
100
AcDbSpline
 70
8
 71
3
 72
8
 73
4
 74
0
 40
0
 40
0
 40
0
 40
0
 40
1
 40
1
 40
1
 40
1
 10
6.293266
 20
9.208321
 30
0.0
 10
6.282792
 20
9.225228
 30
0.0
 10
6.145505
 20
9.289284
 30
0.0
 10
6.008789
 20
9.341075
 30
0.0
  0
SPLINE
  5
27b
100
AcDbEntity
  8
Layer_1
 62
3
100
AcDbSpline
 70
8
 71
3
 72
8
 73
4
 74
0
 40
0
 40
0
 40
0
 40
0
 40
1
 40
1
 40
1
 40
1
 10
6.008789
 20
9.341075
 30
0.0
 10
5.962816
 20
9.358492
 30
0.0
 10
5.925245
 20
9.378084
 30
0.0
 10
5.925245
 20
9.384581
 30
0.0
  0
SPLINE
  5
27c
100
AcDbEntity
  8
Layer_1
 62
3
100
AcDbSpline
 70
8
 71
3
 72
8
 73
4
 74
0
 40
0
 40
0
 40
0
 40
0
 40
1
 40
1
 40
1
 40
1
 10
5.925245
 20
9.384581
 30
0.0
 10
5.925245
 20
9.391089
 30
0.0
 10
5.948513
 20
9.408183
 30
0.0
 10
5.976972
 20
9.422578
 30
0.0
  0
SPLINE
  5
27d
100
AcDbEntity
  8
Layer_1
 62
3
100
AcDbSpline
 70
8
 71
3
 72
8
 73
4
 74
0
 40
0
 40
0
 40
0
 40
0
 40
1
 40
1
 40
1
 40
1
 10
5.976972
 20
9.422578
 30
0.0
 10
6.043406
 20
9.456184
 30
0.0
 10
6.265454
 20
9.577944
 30
0.0
 10
6.271691
 20
9.584180
 30
0.0
  0
SPLINE
  5
27e
100
AcDbEntity
  8
Layer_1
 62
3
100
AcDbSpline
 70
8
 71
3
 72
8
 73
4
 74
0
 40
0
 40
0
 40
0
 40
0
 40
1
 40
1
 40
1
 40
1
 10
6.271691
 20
9.584180
 30
0.0
 10
6.274305
 20
9.586796
 30
0.0
 10
6.286950
 20
9.673400
 30
0.0
 10
6.299765
 20
9.776657
 30
0.0
  0
SPLINE
  5
27f
100
AcDbEntity
  8
Layer_1
 62
3
100
AcDbSpline
 70
8
 71
3
 72
8
 73
4
 74
0
 40
0
 40
0
 40
0
 40
0
 40
1
 40
1
 40
1
 40
1
 10
6.299765
 20
9.776657
 30
0.0
 10
6.312578
 20
9.879917
 30
0.0
 10
6.325917
 20
9.967265
 30
0.0
 10
6.329397
 20
9.970746
 30
0.0
  0
LINE
  5
280
100
AcDbEntity
  8
Layer_1
 62
3
100
AcDbLine
 10
6.329397
 20
9.970746
 30
0.0
 11
6.329397
 21
9.970746
 31
0.0
  0
SPLINE
  5
281
100
AcDbEntity
  8
Layer_1
 62
3
100
AcDbSpline
 70
8
 71
3
 72
8
 73
4
 74
0
 40
0
 40
0
 40
0
 40
0
 40
1
 40
1
 40
1
 40
1
 10
3.061602
 20
9.030243
 30
0.0
 10
3.111249
 20
9.029539
 30
0.0
 10
3.159180
 20
9.017161
 30
0.0
 10
3.203684
 20
8.993545
 30
0.0
  0
SPLINE
  5
282
100
AcDbEntity
  8
Layer_1
 62
3
100
AcDbSpline
 70
8
 71
3
 72
8
 73
4
 74
0
 40
0
 40
0
 40
0
 40
0
 40
1
 40
1
 40
1
 40
1
 10
3.203684
 20
8.993545
 30
0.0
 10
3.262563
 20
8.962304
 30
0.0
 10
3.308891
 20
8.914222
 30
0.0
 10
3.338904
 20
8.853151
 30
0.0
  0
SPLINE
  5
283
100
AcDbEntity
  8
Layer_1
 62
3
100
AcDbSpline
 70
8
 71
3
 72
8
 73
4
 74
0
 40
0
 40
0
 40
0
 40
0
 40
1
 40
1
 40
1
 40
1
 10
3.338904
 20
8.853151
 30
0.0
 10
3.344981
 20
8.840785
 30
0.0
 10
3.346953
 20
8.835321
 30
0.0
 10
3.355280
 20
8.808086
 30
0.0
  0
SPLINE
  5
284
100
AcDbEntity
  8
Layer_1
 62
3
100
AcDbSpline
 70
8
 71
3
 72
8
 73
4
 74
0
 40
0
 40
0
 40
0
 40
0
 40
1
 40
1
 40
1
 40
1
 10
3.355280
 20
8.808086
 30
0.0
 10
3.362494
 20
8.784482
 30
0.0
 10
3.365399
 20
8.773461
 30
0.0
 10
3.367394
 20
8.761825
 30
0.0
  0
SPLINE
  5
285
100
AcDbEntity
  8
Layer_1
 62
3
100
AcDbSpline
 70
8
 71
3
 72
8
 73
4
 74
0
 40
0
 40
0
 40
0
 40
0
 40
1
 40
1
 40
1
 40
1
 10
3.367394
 20
8.761825
 30
0.0
 10
3.375734
 20
8.713026
 30
0.0
 10
3.375734
 20
8.670999
 30
0.0
 10
3.367709
 20
8.623457
 30
0.0
  0
SPLINE
  5
286
100
AcDbEntity
  8
Layer_1
 62
3
100
AcDbSpline
 70
8
 71
3
 72
8
 73
4
 74
0
 40
0
 40
0
 40
0
 40
0
 40
1
 40
1
 40
1
 40
1
 10
3.367709
 20
8.623457
 30
0.0
 10
3.357634
 20
8.564327
 30
0.0
 10
3.337450
 20
8.510074
 30
0.0
 10
3.297734
 20
8.435398
 30
0.0
  0
SPLINE
  5
287
100
AcDbEntity
  8
Layer_1
 62
3
100
AcDbSpline
 70
8
 71
3
 72
8
 73
4
 74
0
 40
0
 40
0
 40
0
 40
0
 40
1
 40
1
 40
1
 40
1
 10
3.297734
 20
8.435398
 30
0.0
 10
3.278085
 20
8.398454
 30
0.0
 10
3.265883
 20
8.377479
 30
0.0
 10
3.221987
 20
8.305399
 30
0.0
  0
SPLINE
  5
288
100
AcDbEntity
  8
Layer_1
 62
3
100
AcDbSpline
 70
8
 71
3
 72
8
 73
4
 74
0
 40
0
 40
0
 40
0
 40
0
 40
1
 40
1
 40
1
 40
1
 10
3.221987
 20
8.305399
 30
0.0
 10
3.170828
 20
8.221390
 30
0.0
 10
3.158579
 20
8.200284
 30
0.0
 10
3.131320
 20
8.149047
 30
0.0
  0
SPLINE
  5
289
100
AcDbEntity
  8
Layer_1
 62
3
100
AcDbSpline
 70
8
 71
3
 72
8
 73
4
 74
0
 40
0
 40
0
 40
0
 40
0
 40
1
 40
1
 40
1
 40
1
 10
3.131320
 20
8.149047
 30
0.0
 10
3.088347
 20
8.068274
 30
0.0
 10
3.067036
 20
8.018034
 30
0.0
 10
3.043981
 20
7.943056
 30
0.0
  0
SPLINE
  5
28a
100
AcDbEntity
  8
Layer_1
 62
3
100
AcDbSpline
 70
8
 71
3
 72
8
 73
4
 74
0
 40
0
 40
0
 40
0
 40
0
 40
1
 40
1
 40
1
 40
1
 10
3.043981
 20
7.943056
 30
0.0
 10
3.038508
 20
7.925269
 30
0.0
 10
3.033826
 20
7.910288
 30
0.0
 10
3.033584
 20
7.909790
 30
0.0
  0
SPLINE
  5
28b
100
AcDbEntity
  8
Layer_1
 62
3
100
AcDbSpline
 70
8
 71
3
 72
8
 73
4
 74
0
 40
0
 40
0
 40
0
 40
0
 40
1
 40
1
 40
1
 40
1
 10
3.033584
 20
7.909790
 30
0.0
 10
3.033387
 20
7.909287
 30
0.0
 10
3.024610
 20
7.915644
 30
0.0
 10
3.014191
 20
7.923876
 30
0.0
  0
SPLINE
  5
28c
100
AcDbEntity
  8
Layer_1
 62
3
100
AcDbSpline
 70
8
 71
3
 72
8
 73
4
 74
0
 40
0
 40
0
 40
0
 40
0
 40
1
 40
1
 40
1
 40
1
 10
3.014191
 20
7.923876
 30
0.0
 10
2.961677
 20
7.965386
 30
0.0
 10
2.918078
 20
7.994597
 30
0.0
 10
2.857864
 20
8.028560
 30
0.0
  0
SPLINE
  5
28d
100
AcDbEntity
  8
Layer_1
 62
3
100
AcDbSpline
 70
8
 71
3
 72
8
 73
4
 74
0
 40
0
 40
0
 40
0
 40
0
 40
1
 40
1
 40
1
 40
1
 10
2.857864
 20
8.028560
 30
0.0
 10
2.811585
 20
8.054667
 30
0.0
 10
2.761937
 20
8.078880
 30
0.0
 10
2.666965
 20
8.121707
 30
0.0
  0
SPLINE
  5
28e
100
AcDbEntity
  8
Layer_1
 62
3
100
AcDbSpline
 70
8
 71
3
 72
8
 73
4
 74
0
 40
0
 40
0
 40
0
 40
0
 40
1
 40
1
 40
1
 40
1
 10
2.666965
 20
8.121707
 30
0.0
 10
2.554105
 20
8.172600
 30
0.0
 10
2.509674
 20
8.194969
 30
0.0
 10
2.463173
 20
8.224261
 30
0.0
  0
SPLINE
  5
28f
100
AcDbEntity
  8
Layer_1
 62
3
100
AcDbSpline
 70
8
 71
3
 72
8
 73
4
 74
0
 40
0
 40
0
 40
0
 40
0
 40
1
 40
1
 40
1
 40
1
 10
2.463173
 20
8.224261
 30
0.0
 10
2.375323
 20
8.279599
 30
0.0
 10
2.319145
 20
8.342116
 30
0.0
 10
2.281788
 20
8.426094
 30
0.0
  0
SPLINE
  5
290
100
AcDbEntity
  8
Layer_1
 62
3
100
AcDbSpline
 70
8
 71
3
 72
8
 73
4
 74
0
 40
0
 40
0
 40
0
 40
0
 40
1
 40
1
 40
1
 40
1
 10
2.281788
 20
8.426094
 30
0.0
 10
2.273690
 20
8.444298
 30
0.0
 10
2.259968
 20
8.486082
 30
0.0
 10
2.256366
 20
8.503490
 30
0.0
  0
SPLINE
  5
291
100
AcDbEntity
  8
Layer_1
 62
3
100
AcDbSpline
 70
8
 71
3
 72
8
 73
4
 74
0
 40
0
 40
0
 40
0
 40
0
 40
1
 40
1
 40
1
 40
1
 10
2.256366
 20
8.503490
 30
0.0
 10
2.241787
 20
8.574004
 30
0.0
 10
2.251345
 20
8.645444
 30
0.0
 10
2.283816
 20
8.708598
 30
0.0
  0
SPLINE
  5
292
100
AcDbEntity
  8
Layer_1
 62
3
100
AcDbSpline
 70
8
 71
3
 72
8
 73
4
 74
0
 40
0
 40
0
 40
0
 40
0
 40
1
 40
1
 40
1
 40
1
 10
2.283816
 20
8.708598
 30
0.0
 10
2.300912
 20
8.741856
 30
0.0
 10
2.321699
 20
8.769640
 30
0.0
 10
2.347345
 20
8.793583
 30
0.0
  0
SPLINE
  5
293
100
AcDbEntity
  8
Layer_1
 62
3
100
AcDbSpline
 70
8
 71
3
 72
8
 73
4
 74
0
 40
0
 40
0
 40
0
 40
0
 40
1
 40
1
 40
1
 40
1
 10
2.347345
 20
8.793583
 30
0.0
 10
2.373498
 20
8.818001
 30
0.0
 10
2.399462
 20
8.835504
 30
0.0
 10
2.432709
 20
8.851020
 30
0.0
  0
SPLINE
  5
294
100
AcDbEntity
  8
Layer_1
 62
3
100
AcDbSpline
 70
8
 71
3
 72
8
 73
4
 74
0
 40
0
 40
0
 40
0
 40
0
 40
1
 40
1
 40
1
 40
1
 10
2.432709
 20
8.851020
 30
0.0
 10
2.445382
 20
8.856945
 30
0.0
 10
2.494460
 20
8.871968
 30
0.0
 10
2.507831
 20
8.874046
 30
0.0
  0
SPLINE
  5
295
100
AcDbEntity
  8
Layer_1
 62
3
100
AcDbSpline
 70
8
 71
3
 72
8
 73
4
 74
0
 40
0
 40
0
 40
0
 40
0
 40
1
 40
1
 40
1
 40
1
 10
2.507831
 20
8.874046
 30
0.0
 10
2.564562
 20
8.882837
 30
0.0
 10
2.614900
 20
8.878301
 30
0.0
 10
2.666186
 20
8.859752
 30
0.0
  0
SPLINE
  5
296
100
AcDbEntity
  8
Layer_1
 62
3
100
AcDbSpline
 70
8
 71
3
 72
8
 73
4
 74
0
 40
0
 40
0
 40
0
 40
0
 40
1
 40
1
 40
1
 40
1
 10
2.666186
 20
8.859752
 30
0.0
 10
2.692989
 20
8.850056
 30
0.0
 10
2.727286
 20
8.831060
 30
0.0
 10
2.749574
 20
8.813596
 30
0.0
  0
SPLINE
  5
297
100
AcDbEntity
  8
Layer_1
 62
3
100
AcDbSpline
 70
8
 71
3
 72
8
 73
4
 74
0
 40
0
 40
0
 40
0
 40
0
 40
1
 40
1
 40
1
 40
1
 10
2.749574
 20
8.813596
 30
0.0
 10
2.753809
 20
8.810266
 30
0.0
 10
2.757572
 20
8.807661
 30
0.0
 10
2.757944
 20
8.807772
 30
0.0
  0
SPLINE
  5
298
100
AcDbEntity
  8
Layer_1
 62
3
100
AcDbSpline
 70
8
 71
3
 72
8
 73
4
 74
0
 40
0
 40
0
 40
0
 40
0
 40
1
 40
1
 40
1
 40
1
 10
2.757944
 20
8.807772
 30
0.0
 10
2.758345
 20
8.807973
 30
0.0
 10
2.759967
 20
8.812157
 30
0.0
 10
2.761637
 20
8.817287
 30
0.0
  0
SPLINE
  5
299
100
AcDbEntity
  8
Layer_1
 62
3
100
AcDbSpline
 70
8
 71
3
 72
8
 73
4
 74
0
 40
0
 40
0
 40
0
 40
0
 40
1
 40
1
 40
1
 40
1
 10
2.761637
 20
8.817287
 30
0.0
 10
2.769031
 20
8.840149
 30
0.0
 10
2.785295
 20
8.873302
 30
0.0
 10
2.798964
 20
8.893280
 30
0.0
  0
SPLINE
  5
29a
100
AcDbEntity
  8
Layer_1
 62
3
100
AcDbSpline
 70
8
 71
3
 72
8
 73
4
 74
0
 40
0
 40
0
 40
0
 40
0
 40
1
 40
1
 40
1
 40
1
 10
2.798964
 20
8.893280
 30
0.0
 10
2.810649
 20
8.910352
 30
0.0
 10
2.827748
 20
8.930200
 30
0.0
 10
2.843466
 20
8.944947
 30
0.0
  0
SPLINE
  5
29b
100
AcDbEntity
  8
Layer_1
 62
3
100
AcDbSpline
 70
8
 71
3
 72
8
 73
4
 74
0
 40
0
 40
0
 40
0
 40
0
 40
1
 40
1
 40
1
 40
1
 10
2.843466
 20
8.944947
 30
0.0
 10
2.865841
 20
8.965942
 30
0.0
 10
2.883486
 20
8.978760
 30
0.0
 10
2.908814
 20
8.992404
 30
0.0
  0
SPLINE
  5
29c
100
AcDbEntity
  8
Layer_1
 62
3
100
AcDbSpline
 70
8
 71
3
 72
8
 73
4
 74
0
 40
0
 40
0
 40
0
 40
0
 40
1
 40
1
 40
1
 40
1
 10
2.908814
 20
8.992404
 30
0.0
 10
2.931024
 20
9.004366
 30
0.0
 10
2.937952
 20
9.007151
 30
0.0
 10
2.967612
 20
9.016209
 30
0.0
  0
SPLINE
  5
29d
100
AcDbEntity
  8
Layer_1
 62
3
100
AcDbSpline
 70
8
 71
3
 72
8
 73
4
 74
0
 40
0
 40
0
 40
0
 40
0
 40
1
 40
1
 40
1
 40
1
 10
2.967612
 20
9.016209
 30
0.0
 10
2.991917
 20
9.023632
 30
0.0
 10
2.998200
 20
9.025181
 30
0.0
 10
3.011490
 20
9.027073
 30
0.0
  0
SPLINE
  5
29e
100
AcDbEntity
  8
Layer_1
 62
3
100
AcDbSpline
 70
8
 71
3
 72
8
 73
4
 74
0
 40
0
 40
0
 40
0
 40
0
 40
1
 40
1
 40
1
 40
1
 10
3.011490
 20
9.027073
 30
0.0
 10
3.028350
 20
9.029417
 30
0.0
 10
3.045108
 20
9.030483
 30
0.0
 10
3.061659
 20
9.030242
 30
0.0
  0
LINE
  5
29f
100
AcDbEntity
  8
Layer_1
 62
3
100
AcDbLine
 10
3.061659
 20
9.030242
 30
0.0
 11
3.061602
 21
9.030243
 31
0.0
  0
SPLINE
  5
2a0
100
AcDbEntity
  8
Layer_1
 62
3
100
AcDbSpline
 70
8
 71
3
 72
8
 73
4
 74
0
 40
0
 40
0
 40
0
 40
0
 40
1
 40
1
 40
1
 40
1
 10
6.729548
 20
8.531299
 30
0.0
 10
6.734628
 20
8.531500
 30
0.0
 10
6.739376
 20
8.530796
 30
0.0
 10
6.744156
 20
8.529479
 30
0.0
  0
SPLINE
  5
2a1
100
AcDbEntity
  8
Layer_1
 62
3
100
AcDbSpline
 70
8
 71
3
 72
8
 73
4
 74
0
 40
0
 40
0
 40
0
 40
0
 40
1
 40
1
 40
1
 40
1
 10
6.744156
 20
8.529479
 30
0.0
 10
6.785247
 20
8.517725
 30
0.0
 10
6.787601
 20
8.509713
 30
0.0
 10
6.776700
 20
8.419076
 30
0.0
  0
SPLINE
  5
2a2
100
AcDbEntity
  8
Layer_1
 62
3
100
AcDbSpline
 70
8
 71
3
 72
8
 73
4
 74
0
 40
0
 40
0
 40
0
 40
0
 40
1
 40
1
 40
1
 40
1
 10
6.776700
 20
8.419076
 30
0.0
 10
6.746305
 20
8.166363
 30
0.0
 10
6.766791
 20
8.196409
 30
0.0
 10
6.545043
 20
8.079239
 30
0.0
  0
LINE
  5
2a3
100
AcDbEntity
  8
Layer_1
 62
3
100
AcDbLine
 10
6.545043
 20
8.079239
 30
0.0
 11
6.344734
 21
7.973411
 31
0.0
  0
LINE
  5
2a4
100
AcDbEntity
  8
Layer_1
 62
3
100
AcDbLine
 10
6.344734
 20
7.973411
 30
0.0
 11
6.531838
 21
7.900641
 31
0.0
  0
SPLINE
  5
2a5
100
AcDbEntity
  8
Layer_1
 62
3
100
AcDbSpline
 70
8
 71
3
 72
8
 73
4
 74
0
 40
0
 40
0
 40
0
 40
0
 40
1
 40
1
 40
1
 40
1
 10
6.531838
 20
7.900641
 30
0.0
 10
6.634732
 20
7.860600
 30
0.0
 10
6.730088
 20
7.817683
 30
0.0
 10
6.743741
 20
7.805364
 30
0.0
  0
SPLINE
  5
2a6
100
AcDbEntity
  8
Layer_1
 62
3
100
AcDbSpline
 70
8
 71
3
 72
8
 73
4
 74
0
 40
0
 40
0
 40
0
 40
0
 40
1
 40
1
 40
1
 40
1
 10
6.743741
 20
7.805364
 30
0.0
 10
6.771997
 20
7.779862
 30
0.0
 10
6.830154
 20
7.573459
 30
0.0
 10
6.815692
 20
7.549992
 30
0.0
  0
SPLINE
  5
2a7
100
AcDbEntity
  8
Layer_1
 62
3
100
AcDbSpline
 70
8
 71
3
 72
8
 73
4
 74
0
 40
0
 40
0
 40
0
 40
0
 40
1
 40
1
 40
1
 40
1
 10
6.815692
 20
7.549992
 30
0.0
 10
6.810460
 20
7.541503
 30
0.0
 10
6.752259
 20
7.542378
 30
0.0
 10
6.686346
 20
7.551964
 30
0.0
  0
SPLINE
  5
2a8
100
AcDbEntity
  8
Layer_1
 62
3
100
AcDbSpline
 70
8
 71
3
 72
8
 73
4
 74
0
 40
0
 40
0
 40
0
 40
0
 40
1
 40
1
 40
1
 40
1
 10
6.686346
 20
7.551964
 30
0.0
 10
6.572649
 20
7.568493
 30
0.0
 10
6.303767
 20
7.558874
 30
0.0
 10
6.244761
 20
7.536163
 30
0.0
  0
SPLINE
  5
2a9
100
AcDbEntity
  8
Layer_1
 62
3
100
AcDbSpline
 70
8
 71
3
 72
8
 73
4
 74
0
 40
0
 40
0
 40
0
 40
0
 40
1
 40
1
 40
1
 40
1
 10
6.244761
 20
7.536163
 30
0.0
 10
6.225847
 20
7.528881
 30
0.0
 10
6.192380
 20
7.569038
 30
0.0
 10
6.136939
 20
7.665537
 30
0.0
  0
SPLINE
  5
2aa
100
AcDbEntity
  8
Layer_1
 62
3
100
AcDbSpline
 70
8
 71
3
 72
8
 73
4
 74
0
 40
0
 40
0
 40
0
 40
0
 40
1
 40
1
 40
1
 40
1
 10
6.136939
 20
7.665537
 30
0.0
 10
6.092723
 20
7.742502
 30
0.0
 10
6.040525
 20
7.832265
 30
0.0
 10
6.020954
 20
7.865032
 30
0.0
  0
SPLINE
  5
2ab
100
AcDbEntity
  8
Layer_1
 62
3
100
AcDbSpline
 70
8
 71
3
 72
8
 73
4
 74
0
 40
0
 40
0
 40
0
 40
0
 40
1
 40
1
 40
1
 40
1
 10
6.020954
 20
7.865032
 30
0.0
 10
6.001383
 20
7.897799
 30
0.0
 10
5.985395
 20
7.937916
 30
0.0
 10
5.985395
 20
7.954124
 30
0.0
  0
SPLINE
  5
2ac
100
AcDbEntity
  8
Layer_1
 62
3
100
AcDbSpline
 70
8
 71
3
 72
8
 73
4
 74
0
 40
0
 40
0
 40
0
 40
0
 40
1
 40
1
 40
1
 40
1
 10
5.985395
 20
7.954124
 30
0.0
 10
5.985395
 20
7.992967
 30
0.0
 10
6.140482
 20
8.330969
 30
0.0
 10
6.158306
 20
8.330969
 30
0.0
  0
SPLINE
  5
2ad
100
AcDbEntity
  8
Layer_1
 62
3
100
AcDbSpline
 70
8
 71
3
 72
8
 73
4
 74
0
 40
0
 40
0
 40
0
 40
0
 40
1
 40
1
 40
1
 40
1
 10
6.158306
 20
8.330969
 30
0.0
 10
6.165901
 20
8.330969
 30
0.0
 10
6.182309
 20
8.285823
 30
0.0
 10
6.194749
 20
8.230651
 30
0.0
  0
SPLINE
  5
2ae
100
AcDbEntity
  8
Layer_1
 62
3
100
AcDbSpline
 70
8
 71
3
 72
8
 73
4
 74
0
 40
0
 40
0
 40
0
 40
0
 40
1
 40
1
 40
1
 40
1
 10
6.194749
 20
8.230651
 30
0.0
 10
6.207188
 20
8.175479
 30
0.0
 10
6.221908
 20
8.113766
 30
0.0
 10
6.227502
 20
8.093583
 30
0.0
  0
SPLINE
  5
2af
100
AcDbEntity
  8
Layer_1
 62
3
100
AcDbSpline
 70
8
 71
3
 72
8
 73
4
 74
0
 40
0
 40
0
 40
0
 40
0
 40
1
 40
1
 40
1
 40
1
 10
6.227502
 20
8.093583
 30
0.0
 10
6.235792
 20
8.063717
 30
0.0
 10
6.280721
 20
8.102082
 30
0.0
 10
6.468777
 20
8.299522
 30
0.0
  0
SPLINE
  5
2b0
100
AcDbEntity
  8
Layer_1
 62
3
100
AcDbSpline
 70
8
 71
3
 72
8
 73
4
 74
0
 40
0
 40
0
 40
0
 40
0
 40
1
 40
1
 40
1
 40
1
 10
6.468777
 20
8.299522
 30
0.0
 10
6.643327
 20
8.482779
 30
0.0
 10
6.693993
 20
8.529746
 30
0.0
 10
6.729548
 20
8.531295
 30
0.0
  0
LINE
  5
2b1
100
AcDbEntity
  8
Layer_1
 62
3
100
AcDbLine
 10
6.729548
 20
8.531295
 30
0.0
 11
6.729548
 21
8.531299
 31
0.0
  0
LINE
  5
2b2
100
AcDbEntity
  8
Layer_1
 62
3
100
AcDbLine
 10
5.044312
 20
8.500944
 30
0.0
 11
5.044312
 21
8.500892
 31
0.0
  0
SPLINE
  5
2b3
100
AcDbEntity
  8
Layer_1
 62
3
100
AcDbSpline
 70
8
 71
3
 72
8
 73
4
 74
0
 40
0
 40
0
 40
0
 40
0
 40
1
 40
1
 40
1
 40
1
 10
5.044312
 20
8.500892
 30
0.0
 10
5.056786
 20
8.499223
 30
0.0
 10
5.120095
 20
8.444909
 30
0.0
 10
5.191281
 20
8.374324
 30
0.0
  0
LINE
  5
2b4
100
AcDbEntity
  8
Layer_1
 62
3
100
AcDbLine
 10
5.191281
 20
8.374324
 30
0.0
 11
5.329309
 21
8.237412
 31
0.0
  0
LINE
  5
2b5
100
AcDbEntity
  8
Layer_1
 62
3
100
AcDbLine
 10
5.329309
 20
8.237412
 30
0.0
 11
5.516205
 21
8.274577
 31
0.0
  0
SPLINE
  5
2b6
100
AcDbEntity
  8
Layer_1
 62
3
100
AcDbSpline
 70
8
 71
3
 72
8
 73
4
 74
0
 40
0
 40
0
 40
0
 40
0
 40
1
 40
1
 40
1
 40
1
 10
5.516205
 20
8.274577
 30
0.0
 10
5.619005
 20
8.294999
 30
0.0
 10
5.708683
 20
8.306161
 30
0.0
 10
5.715474
 20
8.299371
 30
0.0
  0
SPLINE
  5
2b7
100
AcDbEntity
  8
Layer_1
 62
3
100
AcDbSpline
 70
8
 71
3
 72
8
 73
4
 74
0
 40
0
 40
0
 40
0
 40
0
 40
1
 40
1
 40
1
 40
1
 10
5.715474
 20
8.299371
 30
0.0
 10
5.722264
 20
8.292582
 30
0.0
 10
5.692924
 20
8.209306
 30
0.0
 10
5.650230
 20
8.114327
 30
0.0
  0
LINE
  5
2b8
100
AcDbEntity
  8
Layer_1
 62
3
100
AcDbLine
 10
5.650230
 20
8.114327
 30
0.0
 11
5.572560
 21
7.941602
 31
0.0
  0
LINE
  5
2b9
100
AcDbEntity
  8
Layer_1
 62
3
100
AcDbLine
 10
5.572560
 20
7.941602
 30
0.0
 11
5.667489
 21
7.775010
 31
0.0
  0
SPLINE
  5
2ba
100
AcDbEntity
  8
Layer_1
 62
3
100
AcDbSpline
 70
8
 71
3
 72
8
 73
4
 74
0
 40
0
 40
0
 40
0
 40
0
 40
1
 40
1
 40
1
 40
1
 10
5.667489
 20
7.775010
 30
0.0
 10
5.719698
 20
7.683367
 30
0.0
 10
5.755426
 20
7.601580
 30
0.0
 10
5.746874
 20
7.593292
 30
0.0
  0
SPLINE
  5
2bb
100
AcDbEntity
  8
Layer_1
 62
3
100
AcDbSpline
 70
8
 71
3
 72
8
 73
4
 74
0
 40
0
 40
0
 40
0
 40
0
 40
1
 40
1
 40
1
 40
1
 10
5.746874
 20
7.593292
 30
0.0
 10
5.738323
 20
7.584994
 30
0.0
 10
5.648841
 20
7.587659
 30
0.0
 10
5.548021
 20
7.599166
 30
0.0
  0
LINE
  5
2bc
100
AcDbEntity
  8
Layer_1
 62
3
100
AcDbLine
 10
5.548021
 20
7.599166
 30
0.0
 11
5.364713
 21
7.620062
 31
0.0
  0
LINE
  5
2bd
100
AcDbEntity
  8
Layer_1
 62
3
100
AcDbLine
 10
5.364713
 20
7.620062
 30
0.0
 11
5.313608
 21
7.559818
 31
0.0
  0
SPLINE
  5
2be
100
AcDbEntity
  8
Layer_1
 62
3
100
AcDbSpline
 70
8
 71
3
 72
8
 73
4
 74
0
 40
0
 40
0
 40
0
 40
0
 40
1
 40
1
 40
1
 40
1
 10
5.313608
 20
7.559818
 30
0.0
 10
5.201173
 20
7.427335
 30
0.0
 10
5.114061
 20
7.337816
 30
0.0
 10
5.097703
 20
7.337816
 30
0.0
  0
SPLINE
  5
2bf
100
AcDbEntity
  8
Layer_1
 62
3
100
AcDbSpline
 70
8
 71
3
 72
8
 73
4
 74
0
 40
0
 40
0
 40
0
 40
0
 40
1
 40
1
 40
1
 40
1
 10
5.097703
 20
7.337816
 30
0.0
 10
5.088216
 20
7.337816
 30
0.0
 10
5.067961
 20
7.408191
 30
0.0
 10
5.052682
 20
7.494221
 30
0.0
  0
SPLINE
  5
2c0
100
AcDbEntity
  8
Layer_1
 62
3
100
AcDbSpline
 70
8
 71
3
 72
8
 73
4
 74
0
 40
0
 40
0
 40
0
 40
0
 40
1
 40
1
 40
1
 40
1
 10
5.052682
 20
7.494221
 30
0.0
 10
5.010790
 20
7.730088
 30
0.0
 10
5.011328
 20
7.729409
 30
0.0
 10
4.817125
 20
7.808848
 30
0.0
  0
SPLINE
  5
2c1
100
AcDbEntity
  8
Layer_1
 62
3
100
AcDbSpline
 70
8
 71
3
 72
8
 73
4
 74
0
 40
0
 40
0
 40
0
 40
0
 40
1
 40
1
 40
1
 40
1
 10
4.817125
 20
7.808848
 30
0.0
 10
4.720715
 20
7.848281
 30
0.0
 10
4.646621
 20
7.888299
 30
0.0
 10
4.652479
 20
7.897784
 30
0.0
  0
SPLINE
  5
2c2
100
AcDbEntity
  8
Layer_1
 62
3
100
AcDbSpline
 70
8
 71
3
 72
8
 73
4
 74
0
 40
0
 40
0
 40
0
 40
0
 40
1
 40
1
 40
1
 40
1
 10
4.652479
 20
7.897784
 30
0.0
 10
4.658345
 20
7.907269
 30
0.0
 10
4.735978
 20
7.956724
 30
0.0
 10
4.824975
 20
8.007667
 30
0.0
  0
SPLINE
  5
2c3
100
AcDbEntity
  8
Layer_1
 62
3
100
AcDbSpline
 70
8
 71
3
 72
8
 73
4
 74
0
 40
0
 40
0
 40
0
 40
0
 40
1
 40
1
 40
1
 40
1
 10
4.824975
 20
8.007667
 30
0.0
 10
5.001722
 20
8.108838
 30
0.0
 10
4.992848
 20
8.092734
 30
0.0
 10
5.019254
 20
8.361538
 30
0.0
  0
SPLINE
  5
2c4
100
AcDbEntity
  8
Layer_1
 62
3
100
AcDbSpline
 70
8
 71
3
 72
8
 73
4
 74
0
 40
0
 40
0
 40
0
 40
0
 40
1
 40
1
 40
1
 40
1
 10
5.019254
 20
8.361538
 30
0.0
 10
5.026186
 20
8.432126
 30
0.0
 10
5.036618
 20
8.494664
 30
0.0
 10
5.042492
 20
8.500528
 30
0.0
  0
SPLINE
  5
2c5
100
AcDbEntity
  8
Layer_1
 62
3
100
AcDbSpline
 70
8
 71
3
 72
8
 73
4
 74
0
 40
0
 40
0
 40
0
 40
0
 40
1
 40
1
 40
1
 40
1
 10
5.042492
 20
8.500528
 30
0.0
 10
5.042894
 20
8.500931
 30
0.0
 10
5.043500
 20
8.501031
 30
0.0
 10
5.044311
 20
8.500931
 30
0.0
  0
LINE
  5
2c6
100
AcDbEntity
  8
Layer_1
 62
3
100
AcDbLine
 10
5.044311
 20
8.500931
 30
0.0
 11
5.044312
 21
8.500944
 31
0.0
  0
SPLINE
  5
2c7
100
AcDbEntity
  8
Layer_1
 62
3
100
AcDbSpline
 70
8
 71
3
 72
8
 73
4
 74
0
 40
0
 40
0
 40
0
 40
0
 40
1
 40
1
 40
1
 40
1
 10
1.488035
 20
8.479372
 30
0.0
 10
1.502134
 20
8.428206
 30
0.0
 10
1.518171
 20
8.375878
 30
0.0
 10
1.528378
 20
8.351089
 30
0.0
  0
SPLINE
  5
2c8
100
AcDbEntity
  8
Layer_1
 62
3
100
AcDbSpline
 70
8
 71
3
 72
8
 73
4
 74
0
 40
0
 40
0
 40
0
 40
0
 40
1
 40
1
 40
1
 40
1
 10
1.528378
 20
8.351089
 30
0.0
 10
1.616494
 20
8.137087
 30
0.0
 10
1.742546
 20
7.981332
 30
0.0
 10
1.935130
 20
7.848403
 30
0.0
  0
SPLINE
  5
2c9
100
AcDbEntity
  8
Layer_1
 62
3
100
AcDbSpline
 70
8
 71
3
 72
8
 73
4
 74
0
 40
0
 40
0
 40
0
 40
0
 40
1
 40
1
 40
1
 40
1
 10
1.935130
 20
7.848403
 30
0.0
 10
2.067852
 20
7.756796
 30
0.0
 10
2.179004
 20
7.702095
 30
0.0
 10
2.506528
 20
7.567146
 30
0.0
  0
SPLINE
  5
2ca
100
AcDbEntity
  8
Layer_1
 62
3
100
AcDbSpline
 70
8
 71
3
 72
8
 73
4
 74
0
 40
0
 40
0
 40
0
 40
0
 40
1
 40
1
 40
1
 40
1
 10
2.506528
 20
7.567146
 30
0.0
 10
2.694364
 20
7.489752
 30
0.0
 10
2.791314
 20
7.444850
 30
0.0
 10
2.890042
 20
7.389586
 30
0.0
  0
SPLINE
  5
2cb
100
AcDbEntity
  8
Layer_1
 62
3
100
AcDbSpline
 70
8
 71
3
 72
8
 73
4
 74
0
 40
0
 40
0
 40
0
 40
0
 40
1
 40
1
 40
1
 40
1
 10
2.890042
 20
7.389586
 30
0.0
 10
2.950681
 20
7.355641
 30
0.0
 10
3.057842
 20
7.281717
 30
0.0
 10
3.102360
 20
7.243058
 30
0.0
  0
SPLINE
  5
2cc
100
AcDbEntity
  8
Layer_1
 62
3
100
AcDbSpline
 70
8
 71
3
 72
8
 73
4
 74
0
 40
0
 40
0
 40
0
 40
0
 40
1
 40
1
 40
1
 40
1
 10
3.102360
 20
7.243058
 30
0.0
 10
3.139723
 20
7.210616
 30
0.0
 10
3.196884
 20
7.153044
 30
0.0
 10
3.198797
 20
7.145963
 30
0.0
  0
SPLINE
  5
2cd
100
AcDbEntity
  8
Layer_1
 62
3
100
AcDbSpline
 70
8
 71
3
 72
8
 73
4
 74
0
 40
0
 40
0
 40
0
 40
0
 40
1
 40
1
 40
1
 40
1
 10
3.198797
 20
7.145963
 30
0.0
 10
3.199703
 20
7.142694
 30
0.0
 10
3.205497
 20
7.136991
 30
0.0
 10
3.212574
 20
7.131564
 30
0.0
  0
SPLINE
  5
2ce
100
AcDbEntity
  8
Layer_1
 62
3
100
AcDbSpline
 70
8
 71
3
 72
8
 73
4
 74
0
 40
0
 40
0
 40
0
 40
0
 40
1
 40
1
 40
1
 40
1
 10
3.212574
 20
7.131564
 30
0.0
 10
3.195031
 20
7.138072
 30
0.0
 10
3.177442
 20
7.144435
 30
0.0
 10
3.159754
 20
7.150433
 30
0.0
  0
SPLINE
  5
2cf
100
AcDbEntity
  8
Layer_1
 62
3
100
AcDbSpline
 70
8
 71
3
 72
8
 73
4
 74
0
 40
0
 40
0
 40
0
 40
0
 40
1
 40
1
 40
1
 40
1
 10
3.159754
 20
7.150433
 30
0.0
 10
2.917473
 20
7.232587
 30
0.0
 10
2.868410
 20
7.240051
 30
0.0
 10
2.563039
 20
7.241499
 30
0.0
  0
SPLINE
  5
2d0
100
AcDbEntity
  8
Layer_1
 62
3
100
AcDbSpline
 70
8
 71
3
 72
8
 73
4
 74
0
 40
0
 40
0
 40
0
 40
0
 40
1
 40
1
 40
1
 40
1
 10
2.563039
 20
7.241499
 30
0.0
 10
2.195389
 20
7.243239
 30
0.0
 10
1.984188
 20
7.195124
 30
0.0
 10
1.675659
 20
7.039406
 30
0.0
  0
SPLINE
  5
2d1
100
AcDbEntity
  8
Layer_1
 62
3
100
AcDbSpline
 70
8
 71
3
 72
8
 73
4
 74
0
 40
0
 40
0
 40
0
 40
0
 40
1
 40
1
 40
1
 40
1
 10
1.675659
 20
7.039406
 30
0.0
 10
1.586464
 20
6.994388
 30
0.0
 10
1.508345
 20
6.970084
 30
0.0
 10
1.495210
 20
6.983217
 30
0.0
  0
SPLINE
  5
2d2
100
AcDbEntity
  8
Layer_1
 62
3
100
AcDbSpline
 70
8
 71
3
 72
8
 73
4
 74
0
 40
0
 40
0
 40
0
 40
0
 40
1
 40
1
 40
1
 40
1
 10
1.495210
 20
6.983217
 30
0.0
 10
1.445957
 20
7.032462
 30
0.0
 10
1.471394
 20
7.656604
 30
0.0
 10
1.471244
 20
8.069677
 30
0.0
  0
SPLINE
  5
2d3
100
AcDbEntity
  8
Layer_1
 62
3
100
AcDbSpline
 70
8
 71
3
 72
8
 73
4
 74
0
 40
0
 40
0
 40
0
 40
0
 40
1
 40
1
 40
1
 40
1
 10
1.471244
 20
8.069677
 30
0.0
 10
1.471204
 20
8.210178
 30
0.0
 10
1.477107
 20
8.346244
 30
0.0
 10
1.488035
 20
8.479372
 30
0.0
  0
LINE
  5
2d4
100
AcDbEntity
  8
Layer_1
 62
3
100
AcDbLine
 10
1.488035
 20
8.479372
 30
0.0
 11
1.488035
 21
8.479372
 31
0.0
  0
SPLINE
  5
2d5
100
AcDbEntity
  8
Layer_1
 62
3
100
AcDbSpline
 70
8
 71
3
 72
8
 73
4
 74
0
 40
0
 40
0
 40
0
 40
0
 40
1
 40
1
 40
1
 40
1
 10
8.050713
 20
8.415023
 30
0.0
 10
8.058470
 20
8.414218
 30
0.0
 10
8.064972
 20
8.403500
 30
0.0
 10
8.074679
 20
8.388150
 30
0.0
  0
SPLINE
  5
2d6
100
AcDbEntity
  8
Layer_1
 62
3
100
AcDbSpline
 70
8
 71
3
 72
8
 73
4
 74
0
 40
0
 40
0
 40
0
 40
0
 40
1
 40
1
 40
1
 40
1
 10
8.074679
 20
8.388150
 30
0.0
 10
8.105576
 20
8.339302
 30
0.0
 10
8.108429
 20
7.731791
 30
0.0
 10
8.077849
 20
7.712895
 30
0.0
  0
SPLINE
  5
2d7
100
AcDbEntity
  8
Layer_1
 62
3
100
AcDbSpline
 70
8
 71
3
 72
8
 73
4
 74
0
 40
0
 40
0
 40
0
 40
0
 40
1
 40
1
 40
1
 40
1
 10
8.077849
 20
7.712895
 30
0.0
 10
8.065533
 20
7.705280
 30
0.0
 10
8.007454
 20
7.774348
 30
0.0
 10
7.948763
 20
7.866387
 30
0.0
  0
LINE
  5
2d8
100
AcDbEntity
  8
Layer_1
 62
3
100
AcDbLine
 10
7.948763
 20
7.866387
 30
0.0
 11
7.842033
 21
8.033759
 31
0.0
  0
LINE
  5
2d9
100
AcDbEntity
  8
Layer_1
 62
3
100
AcDbLine
 10
7.842033
 20
8.033759
 30
0.0
 11
7.934363
 21
8.217971
 31
0.0
  0
SPLINE
  5
2da
100
AcDbEntity
  8
Layer_1
 62
3
100
AcDbSpline
 70
8
 71
3
 72
8
 73
4
 74
0
 40
0
 40
0
 40
0
 40
0
 40
1
 40
1
 40
1
 40
1
 10
7.934363
 20
8.217971
 30
0.0
 10
8.010583
 20
8.370086
 30
0.0
 10
8.033653
 20
8.416713
 30
0.0
 10
8.050711
 20
8.415023
 30
0.0
  0
LINE
  5
2db
100
AcDbEntity
  8
Layer_1
 62
3
100
AcDbLine
 10
8.050711
 20
8.415023
 30
0.0
 11
8.050713
 21
8.415023
 31
0.0
  0
SPLINE
  5
2dc
100
AcDbEntity
  8
Layer_1
 62
3
100
AcDbSpline
 70
8
 71
3
 72
8
 73
4
 74
0
 40
0
 40
0
 40
0
 40
0
 40
1
 40
1
 40
1
 40
1
 10
7.173575
 20
8.390593
 30
0.0
 10
7.179169
 20
8.390593
 30
0.0
 10
7.225268
 20
8.355594
 30
0.0
 10
7.276044
 20
8.312833
 30
0.0
  0
SPLINE
  5
2dd
100
AcDbEntity
  8
Layer_1
 62
3
100
AcDbSpline
 70
8
 71
3
 72
8
 73
4
 74
0
 40
0
 40
0
 40
0
 40
0
 40
1
 40
1
 40
1
 40
1
 10
7.276044
 20
8.312833
 30
0.0
 10
7.361771
 20
8.240640
 30
0.0
 10
7.373167
 20
8.236476
 30
0.0
 10
7.435594
 20
8.254357
 30
0.0
  0
SPLINE
  5
2de
100
AcDbEntity
  8
Layer_1
 62
3
100
AcDbSpline
 70
8
 71
3
 72
8
 73
4
 74
0
 40
0
 40
0
 40
0
 40
0
 40
1
 40
1
 40
1
 40
1
 10
7.435594
 20
8.254357
 30
0.0
 10
7.507794
 20
8.275036
 30
0.0
 10
7.610428
 20
8.280264
 30
0.0
 10
7.610428
 20
8.263248
 30
0.0
  0
SPLINE
  5
2df
100
AcDbEntity
  8
Layer_1
 62
3
100
AcDbSpline
 70
8
 71
3
 72
8
 73
4
 74
0
 40
0
 40
0
 40
0
 40
0
 40
1
 40
1
 40
1
 40
1
 10
7.610428
 20
8.263248
 30
0.0
 10
7.610428
 20
8.257525
 30
0.0
 10
7.589091
 20
8.210679
 30
0.0
 10
7.562964
 20
8.159187
 30
0.0
  0
LINE
  5
2e0
100
AcDbEntity
  8
Layer_1
 62
3
100
AcDbLine
 10
7.562964
 20
8.159187
 30
0.0
 11
7.515447
 21
8.065626
 31
0.0
  0
LINE
  5
2e1
100
AcDbEntity
  8
Layer_1
 62
3
100
AcDbLine
 10
7.515447
 20
8.065626
 30
0.0
 11
7.572633
 21
7.979497
 31
0.0
  0
SPLINE
  5
2e2
100
AcDbEntity
  8
Layer_1
 62
3
100
AcDbSpline
 70
8
 71
3
 72
8
 73
4
 74
0
 40
0
 40
0
 40
0
 40
0
 40
1
 40
1
 40
1
 40
1
 10
7.572633
 20
7.979497
 30
0.0
 10
7.604082
 20
7.932156
 30
0.0
 10
7.629832
 20
7.885625
 30
0.0
 10
7.629872
 20
7.876060
 30
0.0
  0
SPLINE
  5
2e3
100
AcDbEntity
  8
Layer_1
 62
3
100
AcDbSpline
 70
8
 71
3
 72
8
 73
4
 74
0
 40
0
 40
0
 40
0
 40
0
 40
1
 40
1
 40
1
 40
1
 10
7.629872
 20
7.876060
 30
0.0
 10
7.629899
 20
7.866363
 30
0.0
 10
7.576276
 20
7.864233
 30
0.0
 10
7.508740
 20
7.871282
 30
0.0
  0
LINE
  5
2e4
100
AcDbEntity
  8
Layer_1
 62
3
100
AcDbLine
 10
7.508740
 20
7.871282
 30
0.0
 11
7.387556
 21
7.883965
 31
0.0
  0
LINE
  5
2e5
100
AcDbEntity
  8
Layer_1
 62
3
100
AcDbLine
 10
7.387556
 20
7.883965
 30
0.0
 11
7.296059
 21
7.793886
 31
0.0
  0
SPLINE
  5
2e6
100
AcDbEntity
  8
Layer_1
 62
3
100
AcDbSpline
 70
8
 71
3
 72
8
 73
4
 74
0
 40
0
 40
0
 40
0
 40
0
 40
1
 40
1
 40
1
 40
1
 10
7.296059
 20
7.793886
 30
0.0
 10
7.217601
 20
7.716706
 30
0.0
 10
7.203048
 20
7.709084
 30
0.0
 10
7.194215
 20
7.740191
 30
0.0
  0
SPLINE
  5
2e7
100
AcDbEntity
  8
Layer_1
 62
3
100
AcDbSpline
 70
8
 71
3
 72
8
 73
4
 74
0
 40
0
 40
0
 40
0
 40
0
 40
1
 40
1
 40
1
 40
1
 10
7.194215
 20
7.740191
 30
0.0
 10
7.188551
 20
7.760151
 30
0.0
 10
7.177819
 20
7.807189
 30
0.0
 10
7.170404
 20
7.844720
 30
0.0
  0
SPLINE
  5
2e8
100
AcDbEntity
  8
Layer_1
 62
3
100
AcDbSpline
 70
8
 71
3
 72
8
 73
4
 74
0
 40
0
 40
0
 40
0
 40
0
 40
1
 40
1
 40
1
 40
1
 10
7.170404
 20
7.844720
 30
0.0
 10
7.152267
 20
7.936582
 30
0.0
 10
7.136225
 20
7.952809
 30
0.0
 10
7.023694
 20
7.993224
 30
0.0
  0
SPLINE
  5
2e9
100
AcDbEntity
  8
Layer_1
 62
3
100
AcDbSpline
 70
8
 71
3
 72
8
 73
4
 74
0
 40
0
 40
0
 40
0
 40
0
 40
1
 40
1
 40
1
 40
1
 10
7.023694
 20
7.993224
 30
0.0
 10
6.970608
 20
8.012290
 30
0.0
 10
6.927206
 20
8.034637
 30
0.0
 10
6.927206
 20
8.042915
 30
0.0
  0
SPLINE
  5
2ea
100
AcDbEntity
  8
Layer_1
 62
3
100
AcDbSpline
 70
8
 71
3
 72
8
 73
4
 74
0
 40
0
 40
0
 40
0
 40
0
 40
1
 40
1
 40
1
 40
1
 10
6.927206
 20
8.042915
 30
0.0
 10
6.927206
 20
8.051193
 30
0.0
 10
6.974479
 20
8.081081
 30
0.0
 10
7.032273
 20
8.109344
 30
0.0
  0
LINE
  5
2eb
100
AcDbEntity
  8
Layer_1
 62
3
100
AcDbLine
 10
7.032273
 20
8.109344
 30
0.0
 11
7.137340
 21
8.160751
 31
0.0
  0
LINE
  5
2ec
100
AcDbEntity
  8
Layer_1
 62
3
100
AcDbLine
 10
7.137340
 20
8.160751
 30
0.0
 11
7.150337
 21
8.275676
 31
0.0
  0
SPLINE
  5
2ed
100
AcDbEntity
  8
Layer_1
 62
3
100
AcDbSpline
 70
8
 71
3
 72
8
 73
4
 74
0
 40
0
 40
0
 40
0
 40
0
 40
1
 40
1
 40
1
 40
1
 10
7.150337
 20
8.275676
 30
0.0
 10
7.157500
 20
8.338891
 30
0.0
 10
7.167981
 20
8.390601
 30
0.0
 10
7.173575
 20
8.390601
 30
0.0
  0
LINE
  5
2ee
100
AcDbEntity
  8
Layer_1
 62
3
100
AcDbLine
 10
7.173575
 20
8.390601
 30
0.0
 11
7.173575
 21
8.390593
 31
0.0
  0
LINE
  5
2ef
100
AcDbEntity
  8
Layer_1
 62
3
100
AcDbLine
 10
7.501358
 20
7.561221
 30
0.0
 11
7.687682
 21
7.547290
 31
0.0
  0
SPLINE
  5
2f0
100
AcDbEntity
  8
Layer_1
 62
3
100
AcDbSpline
 70
8
 71
3
 72
8
 73
4
 74
0
 40
0
 40
0
 40
0
 40
0
 40
1
 40
1
 40
1
 40
1
 10
7.687682
 20
7.547290
 30
0.0
 10
7.790162
 20
7.539625
 30
0.0
 10
7.915930
 20
7.524665
 30
0.0
 10
7.967169
 20
7.514023
 30
0.0
  0
SPLINE
  5
2f1
100
AcDbEntity
  8
Layer_1
 62
3
100
AcDbSpline
 70
8
 71
3
 72
8
 73
4
 74
0
 40
0
 40
0
 40
0
 40
0
 40
1
 40
1
 40
1
 40
1
 10
7.967169
 20
7.514023
 30
0.0
 10
8.050872
 20
7.496641
 30
0.0
 10
8.059543
 20
7.486688
 30
0.0
 10
8.052481
 20
7.416043
 30
0.0
  0
SPLINE
  5
2f2
100
AcDbEntity
  8
Layer_1
 62
3
100
AcDbSpline
 70
8
 71
3
 72
8
 73
4
 74
0
 40
0
 40
0
 40
0
 40
0
 40
1
 40
1
 40
1
 40
1
 10
8.052481
 20
7.416043
 30
0.0
 10
8.040395
 20
7.295222
 30
0.0
 10
7.963696
 20
6.915391
 30
0.0
 10
7.944398
 20
6.880767
 30
0.0
  0
SPLINE
  5
2f3
100
AcDbEntity
  8
Layer_1
 62
3
100
AcDbSpline
 70
8
 71
3
 72
8
 73
4
 74
0
 40
0
 40
0
 40
0
 40
0
 40
1
 40
1
 40
1
 40
1
 10
7.944398
 20
6.880767
 30
0.0
 10
7.933067
 20
6.860439
 30
0.0
 10
7.891045
 20
6.880819
 30
0.0
 10
7.820771
 20
6.940647
 30
0.0
  0
SPLINE
  5
2f4
100
AcDbEntity
  8
Layer_1
 62
3
100
AcDbSpline
 70
8
 71
3
 72
8
 73
4
 74
0
 40
0
 40
0
 40
0
 40
0
 40
1
 40
1
 40
1
 40
1
 10
7.820771
 20
6.940647
 30
0.0
 10
7.762210
 20
6.990503
 30
0.0
 10
7.608663
 20
7.086180
 30
0.0
 10
7.479523
 20
7.153291
 30
0.0
  0
LINE
  5
2f5
100
AcDbEntity
  8
Layer_1
 62
3
100
AcDbLine
 10
7.479523
 20
7.153291
 30
0.0
 11
7.244695
 21
7.275337
 31
0.0
  0
LINE
  5
2f6
100
AcDbEntity
  8
Layer_1
 62
3
100
AcDbLine
 10
7.244695
 20
7.275337
 30
0.0
 11
7.373053
 21
7.418278
 31
0.0
  0
LINE
  5
2f7
100
AcDbEntity
  8
Layer_1
 62
3
100
AcDbLine
 10
7.373053
 20
7.418278
 30
0.0
 11
7.501358
 21
7.561221
 31
0.0
  0
SPLINE
  5
2f8
100
AcDbEntity
  8
Layer_1
 62
3
100
AcDbSpline
 70
8
 71
3
 72
8
 73
4
 74
0
 40
0
 40
0
 40
0
 40
0
 40
1
 40
1
 40
1
 40
1
 10
6.928453
 20
6.901038
 30
0.0
 10
7.036904
 20
6.900960
 30
0.0
 10
7.147386
 20
6.863249
 30
0.0
 10
7.242095
 20
6.783567
 30
0.0
  0
SPLINE
  5
2f9
100
AcDbEntity
  8
Layer_1
 62
3
100
AcDbSpline
 70
8
 71
3
 72
8
 73
4
 74
0
 40
0
 40
0
 40
0
 40
0
 40
1
 40
1
 40
1
 40
1
 10
7.242095
 20
6.783567
 30
0.0
 10
7.353817
 20
6.689570
 30
0.0
 10
7.393067
 20
6.595259
 30
0.0
 10
7.393067
 20
6.420547
 30
0.0
  0
SPLINE
  5
2fa
100
AcDbEntity
  8
Layer_1
 62
3
100
AcDbSpline
 70
8
 71
3
 72
8
 73
4
 74
0
 40
0
 40
0
 40
0
 40
0
 40
1
 40
1
 40
1
 40
1
 10
7.393067
 20
6.420547
 30
0.0
 10
7.393067
 20
6.226597
 30
0.0
 10
7.328120
 20
6.091485
 30
0.0
 10
7.185221
 20
5.987980
 30
0.0
  0
SPLINE
  5
2fb
100
AcDbEntity
  8
Layer_1
 62
3
100
AcDbSpline
 70
8
 71
3
 72
8
 73
4
 74
0
 40
0
 40
0
 40
0
 40
0
 40
1
 40
1
 40
1
 40
1
 10
7.185221
 20
5.987980
 30
0.0
 10
7.094035
 20
5.921935
 30
0.0
 10
7.058651
 20
5.912143
 30
0.0
 10
6.912285
 20
5.912143
 30
0.0
  0
SPLINE
  5
2fc
100
AcDbEntity
  8
Layer_1
 62
3
100
AcDbSpline
 70
8
 71
3
 72
8
 73
4
 74
0
 40
0
 40
0
 40
0
 40
0
 40
1
 40
1
 40
1
 40
1
 10
6.912285
 20
5.912143
 30
0.0
 10
6.774169
 20
5.912143
 30
0.0
 10
6.727157
 20
5.923614
 30
0.0
 10
6.649330
 20
5.976494
 30
0.0
  0
SPLINE
  5
2fd
100
AcDbEntity
  8
Layer_1
 62
3
100
AcDbSpline
 70
8
 71
3
 72
8
 73
4
 74
0
 40
0
 40
0
 40
0
 40
0
 40
1
 40
1
 40
1
 40
1
 10
6.649330
 20
5.976494
 30
0.0
 10
6.539378
 20
6.051202
 30
0.0
 10
6.458283
 20
6.195032
 30
0.0
 10
6.436493
 20
6.354015
 30
0.0
  0
SPLINE
  5
2fe
100
AcDbEntity
  8
Layer_1
 62
3
100
AcDbSpline
 70
8
 71
3
 72
8
 73
4
 74
0
 40
0
 40
0
 40
0
 40
0
 40
1
 40
1
 40
1
 40
1
 10
6.436493
 20
6.354015
 30
0.0
 10
6.424436
 20
6.441968
 30
0.0
 10
6.434914
 20
6.495732
 30
0.0
 10
6.485569
 20
6.606372
 30
0.0
  0
SPLINE
  5
2ff
100
AcDbEntity
  8
Layer_1
 62
3
100
AcDbSpline
 70
8
 71
3
 72
8
 73
4
 74
0
 40
0
 40
0
 40
0
 40
0
 40
1
 40
1
 40
1
 40
1
 10
6.485569
 20
6.606372
 30
0.0
 10
6.572638
 20
6.796537
 30
0.0
 10
6.747706
 20
6.901135
 30
0.0
 10
6.928453
 20
6.901038
 30
0.0
  0
LINE
  5
300
100
AcDbEntity
  8
Layer_1
 62
3
100
AcDbLine
 10
6.928453
 20
6.901038
 30
0.0
 11
6.928453
 21
6.901038
 31
0.0
  0
SPLINE
  5
301
100
AcDbEntity
  8
Layer_1
 62
3
100
AcDbSpline
 70
8
 71
3
 72
8
 73
4
 74
0
 40
0
 40
0
 40
0
 40
0
 40
1
 40
1
 40
1
 40
1
 10
2.332057
 20
6.782163
 30
0.0
 10
2.403727
 20
6.780614
 30
0.0
 10
2.438651
 20
6.763909
 30
0.0
 10
2.514066
 20
6.712927
 30
0.0
  0
SPLINE
  5
302
100
AcDbEntity
  8
Layer_1
 62
3
100
AcDbSpline
 70
8
 71
3
 72
8
 73
4
 74
0
 40
0
 40
0
 40
0
 40
0
 40
1
 40
1
 40
1
 40
1
 10
2.514066
 20
6.712927
 30
0.0
 10
2.678733
 20
6.601612
 30
0.0
 10
2.745458
 20
6.476792
 30
0.0
 10
2.745620
 20
6.279841
 30
0.0
  0
SPLINE
  5
303
100
AcDbEntity
  8
Layer_1
 62
3
100
AcDbSpline
 70
8
 71
3
 72
8
 73
4
 74
0
 40
0
 40
0
 40
0
 40
0
 40
1
 40
1
 40
1
 40
1
 10
2.745620
 20
6.279841
 30
0.0
 10
2.745699
 20
6.190882
 30
0.0
 10
2.729724
 20
6.088538
 30
0.0
 10
2.709801
 20
6.050407
 30
0.0
  0
SPLINE
  5
304
100
AcDbEntity
  8
Layer_1
 62
3
100
AcDbSpline
 70
8
 71
3
 72
8
 73
4
 74
0
 40
0
 40
0
 40
0
 40
0
 40
1
 40
1
 40
1
 40
1
 10
2.709801
 20
6.050407
 30
0.0
 10
2.668853
 20
5.972041
 30
0.0
 10
2.555685
 20
5.861285
 30
0.0
 10
2.473360
 20
5.818998
 30
0.0
  0
SPLINE
  5
305
100
AcDbEntity
  8
Layer_1
 62
3
100
AcDbSpline
 70
8
 71
3
 72
8
 73
4
 74
0
 40
0
 40
0
 40
0
 40
0
 40
1
 40
1
 40
1
 40
1
 10
2.473360
 20
5.818998
 30
0.0
 10
2.383268
 20
5.772720
 30
0.0
 10
2.132315
 20
5.783783
 30
0.0
 10
2.043525
 20
5.837918
 30
0.0
  0
SPLINE
  5
306
100
AcDbEntity
  8
Layer_1
 62
3
100
AcDbSpline
 70
8
 71
3
 72
8
 73
4
 74
0
 40
0
 40
0
 40
0
 40
0
 40
1
 40
1
 40
1
 40
1
 10
2.043525
 20
5.837918
 30
0.0
 10
1.718179
 20
6.036283
 30
0.0
 10
1.693597
 20
6.468242
 30
0.0
 10
1.994552
 20
6.697750
 30
0.0
  0
SPLINE
  5
307
100
AcDbEntity
  8
Layer_1
 62
3
100
AcDbSpline
 70
8
 71
3
 72
8
 73
4
 74
0
 40
0
 40
0
 40
0
 40
0
 40
1
 40
1
 40
1
 40
1
 10
1.994552
 20
6.697750
 30
0.0
 10
2.068959
 20
6.754491
 30
0.0
 10
2.122190
 20
6.771845
 30
0.0
 10
2.245290
 20
6.779408
 30
0.0
  0
SPLINE
  5
308
100
AcDbEntity
  8
Layer_1
 62
3
100
AcDbSpline
 70
8
 71
3
 72
8
 73
4
 74
0
 40
0
 40
0
 40
0
 40
0
 40
1
 40
1
 40
1
 40
1
 10
2.245290
 20
6.779408
 30
0.0
 10
2.280215
 20
6.781490
 30
0.0
 10
2.308167
 20
6.782667
 30
0.0
 10
2.332057
 20
6.782164
 30
0.0
  0
LINE
  5
309
100
AcDbEntity
  8
Layer_1
 62
3
100
AcDbLine
 10
2.332057
 20
6.782164
 30
0.0
 11
2.332057
 21
6.782163
 31
0.0
  0
SPLINE
  5
30a
100
AcDbEntity
  8
Layer_1
 62
3
100
AcDbSpline
 70
8
 71
3
 72
8
 73
4
 74
0
 40
0
 40
0
 40
0
 40
0
 40
1
 40
1
 40
1
 40
1
 10
5.841752
 20
6.617494
 30
0.0
 10
5.986750
 20
6.617416
 30
0.0
 10
6.074279
 20
6.574374
 30
0.0
 10
6.159553
 20
6.461403
 30
0.0
  0
SPLINE
  5
30b
100
AcDbEntity
  8
Layer_1
 62
3
100
AcDbSpline
 70
8
 71
3
 72
8
 73
4
 74
0
 40
0
 40
0
 40
0
 40
0
 40
1
 40
1
 40
1
 40
1
 10
6.159553
 20
6.461403
 30
0.0
 10
6.284174
 20
6.296300
 30
0.0
 10
6.277167
 20
6.083469
 30
0.0
 10
6.141877
 20
5.925398
 30
0.0
  0
SPLINE
  5
30c
100
AcDbEntity
  8
Layer_1
 62
3
100
AcDbSpline
 70
8
 71
3
 72
8
 73
4
 74
0
 40
0
 40
0
 40
0
 40
0
 40
1
 40
1
 40
1
 40
1
 10
6.141877
 20
5.925398
 30
0.0
 10
6.004803
 20
5.765248
 30
0.0
 10
5.816376
 20
5.724018
 30
0.0
 10
5.633957
 20
5.814319
 30
0.0
  0
SPLINE
  5
30d
100
AcDbEntity
  8
Layer_1
 62
3
100
AcDbSpline
 70
8
 71
3
 72
8
 73
4
 74
0
 40
0
 40
0
 40
0
 40
0
 40
1
 40
1
 40
1
 40
1
 10
5.633957
 20
5.814319
 30
0.0
 10
5.393632
 20
5.933287
 30
0.0
 10
5.340007
 20
6.266086
 30
0.0
 10
5.526862
 20
6.478919
 30
0.0
  0
SPLINE
  5
30e
100
AcDbEntity
  8
Layer_1
 62
3
100
AcDbSpline
 70
8
 71
3
 72
8
 73
4
 74
0
 40
0
 40
0
 40
0
 40
0
 40
1
 40
1
 40
1
 40
1
 10
5.526862
 20
6.478919
 30
0.0
 10
5.619310
 20
6.584220
 30
0.0
 10
5.695235
 20
6.617577
 30
0.0
 10
5.841752
 20
6.617494
 30
0.0
  0
LINE
  5
30f
100
AcDbEntity
  8
Layer_1
 62
3
100
AcDbLine
 10
5.841752
 20
6.617494
 30
0.0
 11
5.841752
 21
6.617494
 31
0.0
  0
SPLINE
  5
310
100
AcDbEntity
  8
Layer_1
 62
3
100
AcDbSpline
 70
8
 71
3
 72
8
 73
4
 74
0
 40
0
 40
0
 40
0
 40
0
 40
1
 40
1
 40
1
 40
1
 10
3.366510
 20
6.477828
 30
0.0
 10
3.571133
 20
6.480534
 30
0.0
 10
3.775855
 20
6.331110
 30
0.0
 10
3.794681
 20
6.070731
 30
0.0
  0
SPLINE
  5
311
100
AcDbEntity
  8
Layer_1
 62
3
100
AcDbSpline
 70
8
 71
3
 72
8
 73
4
 74
0
 40
0
 40
0
 40
0
 40
0
 40
1
 40
1
 40
1
 40
1
 10
3.794681
 20
6.070731
 30
0.0
 10
3.813046
 20
5.816729
 30
0.0
 10
3.653038
 20
5.629152
 30
0.0
 10
3.406801
 20
5.616177
 30
0.0
  0
SPLINE
  5
312
100
AcDbEntity
  8
Layer_1
 62
3
100
AcDbSpline
 70
8
 71
3
 72
8
 73
4
 74
0
 40
0
 40
0
 40
0
 40
0
 40
1
 40
1
 40
1
 40
1
 10
3.406801
 20
5.616177
 30
0.0
 10
3.338229
 20
5.612556
 30
0.0
 10
3.257370
 20
5.620030
 30
0.0
 10
3.227131
 20
5.632706
 30
0.0
  0
SPLINE
  5
313
100
AcDbEntity
  8
Layer_1
 62
3
100
AcDbSpline
 70
8
 71
3
 72
8
 73
4
 74
0
 40
0
 40
0
 40
0
 40
0
 40
1
 40
1
 40
1
 40
1
 10
3.227131
 20
5.632706
 30
0.0
 10
3.008371
 20
5.724444
 30
0.0
 10
2.897456
 20
6.032067
 30
0.0
 10
3.006235
 20
6.245379
 30
0.0
  0
SPLINE
  5
314
100
AcDbEntity
  8
Layer_1
 62
3
100
AcDbSpline
 70
8
 71
3
 72
8
 73
4
 74
0
 40
0
 40
0
 40
0
 40
0
 40
1
 40
1
 40
1
 40
1
 10
3.006235
 20
6.245379
 30
0.0
 10
3.086555
 20
6.402886
 30
0.0
 10
3.226504
 20
6.475977
 30
0.0
 10
3.366510
 20
6.477828
 30
0.0
  0
LINE
  5
315
100
AcDbEntity
  8
Layer_1
 62
3
100
AcDbLine
 10
3.366510
 20
6.477828
 30
0.0
 11
3.366510
 21
6.477828
 31
0.0
  0
SPLINE
  5
316
100
AcDbEntity
  8
Layer_1
 62
3
100
AcDbSpline
 70
8
 71
3
 72
8
 73
4
 74
0
 40
0
 40
0
 40
0
 40
0
 40
1
 40
1
 40
1
 40
1
 10
7.796285
 20
6.050096
 30
0.0
 10
7.880757
 20
6.048245
 30
0.0
 10
7.965557
 20
6.023268
 30
0.0
 10
8.025915
 20
5.977221
 30
0.0
  0
SPLINE
  5
317
100
AcDbEntity
  8
Layer_1
 62
3
100
AcDbSpline
 70
8
 71
3
 72
8
 73
4
 74
0
 40
0
 40
0
 40
0
 40
0
 40
1
 40
1
 40
1
 40
1
 10
8.025915
 20
5.977221
 30
0.0
 10
8.229883
 20
5.821608
 30
0.0
 10
8.251127
 20
5.502725
 30
0.0
 10
8.069533
 20
5.322757
 30
0.0
  0
SPLINE
  5
318
100
AcDbEntity
  8
Layer_1
 62
3
100
AcDbSpline
 70
8
 71
3
 72
8
 73
4
 74
0
 40
0
 40
0
 40
0
 40
0
 40
1
 40
1
 40
1
 40
1
 10
8.069533
 20
5.322757
 30
0.0
 10
7.957794
 20
5.212018
 30
0.0
 10
7.833231
 20
5.171792
 30
0.0
 10
7.685967
 20
5.198891
 30
0.0
  0
SPLINE
  5
319
100
AcDbEntity
  8
Layer_1
 62
3
100
AcDbSpline
 70
8
 71
3
 72
8
 73
4
 74
0
 40
0
 40
0
 40
0
 40
0
 40
1
 40
1
 40
1
 40
1
 10
7.685967
 20
5.198891
 30
0.0
 10
7.573487
 20
5.219589
 30
0.0
 10
7.500494
 20
5.273501
 30
0.0
 10
7.426287
 20
5.390537
 30
0.0
  0
SPLINE
  5
31a
100
AcDbEntity
  8
Layer_1
 62
3
100
AcDbSpline
 70
8
 71
3
 72
8
 73
4
 74
0
 40
0
 40
0
 40
0
 40
0
 40
1
 40
1
 40
1
 40
1
 10
7.426287
 20
5.390537
 30
0.0
 10
7.288922
 20
5.607194
 30
0.0
 10
7.372984
 20
5.889258
 30
0.0
 10
7.611416
 20
6.011527
 30
0.0
  0
SPLINE
  5
31b
100
AcDbEntity
  8
Layer_1
 62
3
100
AcDbSpline
 70
8
 71
3
 72
8
 73
4
 74
0
 40
0
 40
0
 40
0
 40
0
 40
1
 40
1
 40
1
 40
1
 10
7.611416
 20
6.011527
 30
0.0
 10
7.665039
 20
6.039025
 30
0.0
 10
7.730587
 20
6.051543
 30
0.0
 10
7.796285
 20
6.050096
 30
0.0
  0
LINE
  5
31c
100
AcDbEntity
  8
Layer_1
 62
3
100
AcDbLine
 10
7.796285
 20
6.050096
 30
0.0
 11
7.796285
 21
6.050096
 31
0.0
  0
SPLINE
  5
31d
100
AcDbEntity
  8
Layer_1
 62
3
100
AcDbSpline
 70
8
 71
3
 72
8
 73
4
 74
0
 40
0
 40
0
 40
0
 40
0
 40
1
 40
1
 40
1
 40
1
 10
1.459182
 20
5.972231
 30
0.0
 10
1.613395
 20
5.972231
 30
0.0
 10
1.794851
 20
5.843598
 30
0.0
 10
1.854289
 20
5.692118
 30
0.0
  0
SPLINE
  5
31e
100
AcDbEntity
  8
Layer_1
 62
3
100
AcDbSpline
 70
8
 71
3
 72
8
 73
4
 74
0
 40
0
 40
0
 40
0
 40
0
 40
1
 40
1
 40
1
 40
1
 10
1.854289
 20
5.692118
 30
0.0
 10
1.921378
 20
5.521140
 30
0.0
 10
1.849488
 20
5.284493
 30
0.0
 10
1.699573
 20
5.182830
 30
0.0
  0
SPLINE
  5
31f
100
AcDbEntity
  8
Layer_1
 62
3
100
AcDbSpline
 70
8
 71
3
 72
8
 73
4
 74
0
 40
0
 40
0
 40
0
 40
0
 40
1
 40
1
 40
1
 40
1
 10
1.699573
 20
5.182830
 30
0.0
 10
1.611834
 20
5.123331
 30
0.0
 10
1.439225
 20
5.096664
 30
0.0
 10
1.339766
 20
5.127213
 30
0.0
  0
SPLINE
  5
320
100
AcDbEntity
  8
Layer_1
 62
3
100
AcDbSpline
 70
8
 71
3
 72
8
 73
4
 74
0
 40
0
 40
0
 40
0
 40
0
 40
1
 40
1
 40
1
 40
1
 10
1.339766
 20
5.127213
 30
0.0
 10
1.200505
 20
5.169986
 30
0.0
 10
1.048097
 20
5.378821
 30
0.0
 10
1.047283
 20
5.528021
 30
0.0
  0
SPLINE
  5
321
100
AcDbEntity
  8
Layer_1
 62
3
100
AcDbSpline
 70
8
 71
3
 72
8
 73
4
 74
0
 40
0
 40
0
 40
0
 40
0
 40
1
 40
1
 40
1
 40
1
 10
1.047283
 20
5.528021
 30
0.0
 10
1.045972
 20
5.767857
 30
0.0
 10
1.235507
 20
5.972231
 30
0.0
 10
1.459182
 20
5.972231
 30
0.0
  0
LINE
  5
322
100
AcDbEntity
  8
Layer_1
 62
3
100
AcDbLine
 10
1.459182
 20
5.972231
 30
0.0
 11
1.459182
 21
5.972231
 31
0.0
  0
SPLINE
  5
323
100
AcDbEntity
  8
Layer_1
 62
3
100
AcDbSpline
 70
8
 71
3
 72
8
 73
4
 74
0
 40
0
 40
0
 40
0
 40
0
 40
1
 40
1
 40
1
 40
1
 10
6.419129
 20
5.621115
 30
0.0
 10
6.739550
 20
5.617635
 30
0.0
 10
7.026919
 20
5.426522
 30
0.0
 10
7.175551
 20
5.100756
 30
0.0
  0
SPLINE
  5
324
100
AcDbEntity
  8
Layer_1
 62
3
100
AcDbSpline
 70
8
 71
3
 72
8
 73
4
 74
0
 40
0
 40
0
 40
0
 40
0
 40
1
 40
1
 40
1
 40
1
 10
7.175551
 20
5.100756
 30
0.0
 10
7.222392
 20
4.998090
 30
0.0
 10
7.233423
 20
4.927592
 30
0.0
 10
7.233725
 20
4.729368
 30
0.0
  0
SPLINE
  5
325
100
AcDbEntity
  8
Layer_1
 62
3
100
AcDbSpline
 70
8
 71
3
 72
8
 73
4
 74
0
 40
0
 40
0
 40
0
 40
0
 40
1
 40
1
 40
1
 40
1
 10
7.233725
 20
4.729368
 30
0.0
 10
7.234127
 20
4.494062
 30
0.0
 10
7.230253
 20
4.477463
 30
0.0
 10
7.133752
 20
4.296385
 30
0.0
  0
SPLINE
  5
326
100
AcDbEntity
  8
Layer_1
 62
3
100
AcDbSpline
 70
8
 71
3
 72
8
 73
4
 74
0
 40
0
 40
0
 40
0
 40
0
 40
1
 40
1
 40
1
 40
1
 10
7.133752
 20
4.296385
 30
0.0
 10
6.961821
 20
3.973785
 30
0.0
 10
6.685589
 20
3.801268
 30
0.0
 10
6.345930
 20
3.804407
 30
0.0
  0
SPLINE
  5
327
100
AcDbEntity
  8
Layer_1
 62
3
100
AcDbSpline
 70
8
 71
3
 72
8
 73
4
 74
0
 40
0
 40
0
 40
0
 40
0
 40
1
 40
1
 40
1
 40
1
 10
6.345930
 20
3.804407
 30
0.0
 10
6.239675
 20
3.805411
 30
0.0
 10
6.100614
 20
3.824586
 30
0.0
 10
6.036862
 20
3.847030
 30
0.0
  0
SPLINE
  5
328
100
AcDbEntity
  8
Layer_1
 62
3
100
AcDbSpline
 70
8
 71
3
 72
8
 73
4
 74
0
 40
0
 40
0
 40
0
 40
0
 40
1
 40
1
 40
1
 40
1
 10
6.036862
 20
3.847030
 30
0.0
 10
5.870220
 20
3.905696
 30
0.0
 10
5.626667
 20
4.159048
 30
0.0
 10
5.560083
 20
4.343010
 30
0.0
  0
SPLINE
  5
329
100
AcDbEntity
  8
Layer_1
 62
3
100
AcDbSpline
 70
8
 71
3
 72
8
 73
4
 74
0
 40
0
 40
0
 40
0
 40
0
 40
1
 40
1
 40
1
 40
1
 10
5.560083
 20
4.343010
 30
0.0
 10
5.483382
 20
4.554920
 30
0.0
 10
5.491223
 20
4.876241
 30
0.0
 10
5.577758
 20
5.065566
 30
0.0
  0
SPLINE
  5
32a
100
AcDbEntity
  8
Layer_1
 62
3
100
AcDbSpline
 70
8
 71
3
 72
8
 73
4
 74
0
 40
0
 40
0
 40
0
 40
0
 40
1
 40
1
 40
1
 40
1
 10
5.577758
 20
5.065566
 30
0.0
 10
5.702190
 20
5.337804
 30
0.0
 10
5.915526
 20
5.520563
 30
0.0
 10
6.193293
 20
5.592891
 30
0.0
  0
SPLINE
  5
32b
100
AcDbEntity
  8
Layer_1
 62
3
100
AcDbSpline
 70
8
 71
3
 72
8
 73
4
 74
0
 40
0
 40
0
 40
0
 40
0
 40
1
 40
1
 40
1
 40
1
 10
6.193293
 20
5.592891
 30
0.0
 10
6.269457
 20
5.612723
 30
0.0
 10
6.345186
 20
5.621920
 30
0.0
 10
6.419129
 20
5.621115
 30
0.0
  0
LINE
  5
32c
100
AcDbEntity
  8
Layer_1
 62
3
100
AcDbLine
 10
6.419129
 20
5.621115
 30
0.0
 11
6.419129
 21
5.621115
 31
0.0
  0
LINE
  5
32d
100
AcDbEntity
  8
Layer_1
 62
3
100
AcDbLine
 10
2.720042
 20
5.497614
 30
0.0
 11
2.720082
 21
5.497614
 31
0.0
  0
SPLINE
  5
32e
100
AcDbEntity
  8
Layer_1
 62
3
100
AcDbSpline
 70
8
 71
3
 72
8
 73
4
 74
0
 40
0
 40
0
 40
0
 40
0
 40
1
 40
1
 40
1
 40
1
 10
2.720082
 20
5.497614
 30
0.0
 10
2.823186
 20
5.496709
 30
0.0
 10
2.926806
 20
5.479421
 30
0.0
 10
3.017347
 20
5.445426
 30
0.0
  0
SPLINE
  5
32f
100
AcDbEntity
  8
Layer_1
 62
3
100
AcDbSpline
 70
8
 71
3
 72
8
 73
4
 74
0
 40
0
 40
0
 40
0
 40
0
 40
1
 40
1
 40
1
 40
1
 10
3.017347
 20
5.445426
 30
0.0
 10
3.200296
 20
5.376738
 30
0.0
 10
3.425184
 20
5.166406
 30
0.0
 10
3.514766
 20
4.980113
 30
0.0
  0
SPLINE
  5
330
100
AcDbEntity
  8
Layer_1
 62
3
100
AcDbSpline
 70
8
 71
3
 72
8
 73
4
 74
0
 40
0
 40
0
 40
0
 40
0
 40
1
 40
1
 40
1
 40
1
 10
3.514766
 20
4.980113
 30
0.0
 10
3.632732
 20
4.734817
 30
0.0
 10
3.632373
 20
4.388493
 30
0.0
 10
3.513861
 20
4.156199
 30
0.0
  0
SPLINE
  5
331
100
AcDbEntity
  8
Layer_1
 62
3
100
AcDbSpline
 70
8
 71
3
 72
8
 73
4
 74
0
 40
0
 40
0
 40
0
 40
0
 40
1
 40
1
 40
1
 40
1
 10
3.513861
 20
4.156199
 30
0.0
 10
3.437827
 20
4.007174
 30
0.0
 10
3.266690
 20
3.834297
 30
0.0
 10
3.123173
 20
3.761577
 30
0.0
  0
SPLINE
  5
332
100
AcDbEntity
  8
Layer_1
 62
3
100
AcDbSpline
 70
8
 71
3
 72
8
 73
4
 74
0
 40
0
 40
0
 40
0
 40
0
 40
1
 40
1
 40
1
 40
1
 10
3.123173
 20
3.761577
 30
0.0
 10
2.966461
 20
3.682173
 30
0.0
 10
2.658432
 20
3.656354
 30
0.0
 10
2.514188
 20
3.710533
 30
0.0
  0
SPLINE
  5
333
100
AcDbEntity
  8
Layer_1
 62
3
100
AcDbSpline
 70
8
 71
3
 72
8
 73
4
 74
0
 40
0
 40
0
 40
0
 40
0
 40
1
 40
1
 40
1
 40
1
 10
2.514188
 20
3.710533
 30
0.0
 10
2.286161
 20
3.796180
 30
0.0
 10
2.041717
 20
4.022150
 30
0.0
 10
1.946065
 20
4.235778
 30
0.0
  0
SPLINE
  5
334
100
AcDbEntity
  8
Layer_1
 62
3
100
AcDbSpline
 70
8
 71
3
 72
8
 73
4
 74
0
 40
0
 40
0
 40
0
 40
0
 40
1
 40
1
 40
1
 40
1
 10
1.946065
 20
4.235778
 30
0.0
 10
1.863407
 20
4.420384
 30
0.0
 10
1.854216
 20
4.749293
 30
0.0
 10
1.926310
 20
4.940506
 30
0.0
  0
SPLINE
  5
335
100
AcDbEntity
  8
Layer_1
 62
3
100
AcDbSpline
 70
8
 71
3
 72
8
 73
4
 74
0
 40
0
 40
0
 40
0
 40
0
 40
1
 40
1
 40
1
 40
1
 10
1.926310
 20
4.940506
 30
0.0
 10
1.995021
 20
5.122746
 30
0.0
 10
2.184321
 20
5.335763
 30
0.0
 10
2.353857
 20
5.421568
 30
0.0
  0
SPLINE
  5
336
100
AcDbEntity
  8
Layer_1
 62
3
100
AcDbSpline
 70
8
 71
3
 72
8
 73
4
 74
0
 40
0
 40
0
 40
0
 40
0
 40
1
 40
1
 40
1
 40
1
 10
2.353857
 20
5.421568
 30
0.0
 10
2.455750
 20
5.473136
 30
0.0
 10
2.587440
 20
5.498824
 30
0.0
 10
2.720007
 20
5.497614
 30
0.0
  0
LINE
  5
337
100
AcDbEntity
  8
Layer_1
 62
3
100
AcDbLine
 10
2.720007
 20
5.497614
 30
0.0
 11
2.720042
 21
5.497614
 31
0.0
  0
SPLINE
  5
338
100
AcDbEntity
  8
Layer_1
 62
3
100
AcDbSpline
 70
8
 71
3
 72
8
 73
4
 74
0
 40
0
 40
0
 40
0
 40
0
 40
1
 40
1
 40
1
 40
1
 10
4.575018
 20
5.280135
 30
0.0
 10
4.596690
 20
5.280135
 30
0.0
 10
4.860773
 20
4.743757
 30
0.0
 10
4.967786
 20
4.482313
 30
0.0
  0
SPLINE
  5
339
100
AcDbEntity
  8
Layer_1
 62
3
100
AcDbSpline
 70
8
 71
3
 72
8
 73
4
 74
0
 40
0
 40
0
 40
0
 40
0
 40
1
 40
1
 40
1
 40
1
 10
4.967786
 20
4.482313
 30
0.0
 10
4.986550
 20
4.436371
 30
0.0
 10
4.352940
 20
4.436162
 30
0.0
 10
4.280351
 20
4.482010
 30
0.0
  0
LINE
  5
33a
100
AcDbEntity
  8
Layer_1
 62
3
100
AcDbLine
 10
4.280351
 20
4.482010
 30
0.0
 11
4.280351
 21
4.481908
 31
0.0
  0
SPLINE
  5
33b
100
AcDbEntity
  8
Layer_1
 62
3
100
AcDbSpline
 70
8
 71
3
 72
8
 73
4
 74
0
 40
0
 40
0
 40
0
 40
0
 40
1
 40
1
 40
1
 40
1
 10
4.280351
 20
4.481908
 30
0.0
 10
4.239723
 20
4.507551
 30
0.0
 10
4.266438
 20
4.612484
 30
0.0
 10
4.386354
 20
4.898205
 30
0.0
  0
SPLINE
  5
33c
100
AcDbEntity
  8
Layer_1
 62
3
100
AcDbSpline
 70
8
 71
3
 72
8
 73
4
 74
0
 40
0
 40
0
 40
0
 40
0
 40
1
 40
1
 40
1
 40
1
 10
4.386354
 20
4.898205
 30
0.0
 10
4.474523
 20
5.108269
 30
0.0
 10
4.559410
 20
5.280145
 30
0.0
 10
4.575018
 20
5.280145
 30
0.0
  0
LINE
  5
33d
100
AcDbEntity
  8
Layer_1
 62
3
100
AcDbLine
 10
4.575018
 20
5.280145
 30
0.0
 11
4.575018
 21
5.280135
 31
0.0
  0
LINE
  5
33e
100
AcDbEntity
  8
Layer_1
 62
3
100
AcDbLine
 10
4.265586
 20
4.055724
 30
0.0
 11
4.666569
 21
3.983941
 31
0.0
  0
LINE
  5
33f
100
AcDbEntity
  8
Layer_1
 62
3
100
AcDbLine
 10
4.666569
 20
3.983941
 30
0.0
 11
5.025908
 21
3.969855
 31
0.0
  0
LINE
  5
340
100
AcDbEntity
  8
Layer_1
 62
3
100
AcDbLine
 10
5.025908
 20
3.969855
 30
0.0
 11
5.172306
 21
3.829305
 31
0.0
  0
SPLINE
  5
341
100
AcDbEntity
  8
Layer_1
 62
3
100
AcDbSpline
 70
8
 71
3
 72
8
 73
4
 74
0
 40
0
 40
0
 40
0
 40
0
 40
1
 40
1
 40
1
 40
1
 10
5.172306
 20
3.829305
 30
0.0
 10
5.312074
 20
3.637665
 30
0.0
 10
5.885472
 20
3.399403
 30
0.0
 10
5.913339
 20
3.341640
 30
0.0
  0
SPLINE
  5
342
100
AcDbEntity
  8
Layer_1
 62
3
100
AcDbSpline
 70
8
 71
3
 72
8
 73
4
 74
0
 40
0
 40
0
 40
0
 40
0
 40
1
 40
1
 40
1
 40
1
 10
5.913339
 20
3.341640
 30
0.0
 10
5.943803
 20
3.070021
 30
0.0
 10
5.947560
 20
2.754294
 30
0.0
 10
5.952330
 20
2.429622
 30
0.0
  0
SPLINE
  5
343
100
AcDbEntity
  8
Layer_1
 62
3
100
AcDbSpline
 70
8
 71
3
 72
8
 73
4
 74
0
 40
0
 40
0
 40
0
 40
0
 40
1
 40
1
 40
1
 40
1
 10
5.952330
 20
2.429622
 30
0.0
 10
5.920101
 20
2.567689
 30
0.0
 10
5.860621
 20
2.695158
 30
0.0
 10
5.774895
 20
2.806103
 30
0.0
  0
SPLINE
  5
344
100
AcDbEntity
  8
Layer_1
 62
3
100
AcDbSpline
 70
8
 71
3
 72
8
 73
4
 74
0
 40
0
 40
0
 40
0
 40
0
 40
1
 40
1
 40
1
 40
1
 10
5.774895
 20
2.806103
 30
0.0
 10
5.653816
 20
2.962823
 30
0.0
 10
5.495517
 20
3.071039
 30
0.0
 10
5.310074
 20
3.123901
 30
0.0
  0
SPLINE
  5
345
100
AcDbEntity
  8
Layer_1
 62
3
100
AcDbSpline
 70
8
 71
3
 72
8
 73
4
 74
0
 40
0
 40
0
 40
0
 40
0
 40
1
 40
1
 40
1
 40
1
 10
5.310074
 20
3.123901
 30
0.0
 10
5.273480
 20
3.134210
 30
0.0
 10
5.255483
 20
3.137375
 30
0.0
 10
5.184367
 20
3.145212
 30
0.0
  0
SPLINE
  5
346
100
AcDbEntity
  8
Layer_1
 62
3
100
AcDbSpline
 70
8
 71
3
 72
8
 73
4
 74
0
 40
0
 40
0
 40
0
 40
0
 40
1
 40
1
 40
1
 40
1
 10
5.184367
 20
3.145212
 30
0.0
 10
5.097596
 20
3.154788
 30
0.0
 10
5.076668
 20
3.155110
 30
0.0
 10
5.006205
 20
3.147968
 30
0.0
  0
SPLINE
  5
347
100
AcDbEntity
  8
Layer_1
 62
3
100
AcDbSpline
 70
8
 71
3
 72
8
 73
4
 74
0
 40
0
 40
0
 40
0
 40
0
 40
1
 40
1
 40
1
 40
1
 10
5.006205
 20
3.147968
 30
0.0
 10
4.925830
 20
3.139840
 30
0.0
 10
4.866437
 20
3.124910
 30
0.0
 10
4.785985
 20
3.092870
 30
0.0
  0
SPLINE
  5
348
100
AcDbEntity
  8
Layer_1
 62
3
100
AcDbSpline
 70
8
 71
3
 72
8
 73
4
 74
0
 40
0
 40
0
 40
0
 40
0
 40
1
 40
1
 40
1
 40
1
 10
4.785985
 20
3.092870
 30
0.0
 10
4.729473
 20
3.070383
 30
0.0
 10
4.663954
 20
3.035352
 30
0.0
 10
4.615465
 20
3.001700
 30
0.0
  0
SPLINE
  5
349
100
AcDbEntity
  8
Layer_1
 62
3
100
AcDbSpline
 70
8
 71
3
 72
8
 73
4
 74
0
 40
0
 40
0
 40
0
 40
0
 40
1
 40
1
 40
1
 40
1
 10
4.615465
 20
3.001700
 30
0.0
 10
4.538643
 20
2.946431
 30
0.0
 10
4.478845
 20
2.878765
 30
0.0
 10
4.418119
 20
2.812654
 30
0.0
  0
SPLINE
  5
34a
100
AcDbEntity
  8
Layer_1
 62
3
100
AcDbSpline
 70
8
 71
3
 72
8
 73
4
 74
0
 40
0
 40
0
 40
0
 40
0
 40
1
 40
1
 40
1
 40
1
 10
4.418119
 20
2.812654
 30
0.0
 10
4.362601
 20
2.887947
 30
0.0
 10
4.351054
 20
2.997242
 30
0.0
 10
4.298443
 20
3.051235
 30
0.0
  0
SPLINE
  5
34b
100
AcDbEntity
  8
Layer_1
 62
3
100
AcDbSpline
 70
8
 71
3
 72
8
 73
4
 74
0
 40
0
 40
0
 40
0
 40
0
 40
1
 40
1
 40
1
 40
1
 10
4.298443
 20
3.051235
 30
0.0
 10
4.184613
 20
3.162632
 30
0.0
 10
4.058357
 20
3.234187
 30
0.0
 10
3.901412
 20
3.276200
 30
0.0
  0
SPLINE
  5
34c
100
AcDbEntity
  8
Layer_1
 62
3
100
AcDbSpline
 70
8
 71
3
 72
8
 73
4
 74
0
 40
0
 40
0
 40
0
 40
0
 40
1
 40
1
 40
1
 40
1
 10
3.901412
 20
3.276200
 30
0.0
 10
3.864421
 20
3.286077
 30
0.0
 10
3.720867
 20
3.301869
 30
0.0
 10
3.681608
 20
3.300213
 30
0.0
  0
SPLINE
  5
34d
100
AcDbEntity
  8
Layer_1
 62
3
100
AcDbSpline
 70
8
 71
3
 72
8
 73
4
 74
0
 40
0
 40
0
 40
0
 40
0
 40
1
 40
1
 40
1
 40
1
 10
3.681608
 20
3.300213
 30
0.0
 10
3.578681
 20
3.296069
 30
0.0
 10
3.492605
 20
3.278092
 30
0.0
 10
3.398690
 20
3.241010
 30
0.0
  0
SPLINE
  5
34e
100
AcDbEntity
  8
Layer_1
 62
3
100
AcDbSpline
 70
8
 71
3
 72
8
 73
4
 74
0
 40
0
 40
0
 40
0
 40
0
 40
1
 40
1
 40
1
 40
1
 10
3.398690
 20
3.241010
 30
0.0
 10
3.306609
 20
3.204646
 30
0.0
 10
3.223027
 20
3.151853
 30
0.0
 10
3.143326
 20
3.079668
 30
0.0
  0
SPLINE
  5
34f
100
AcDbEntity
  8
Layer_1
 62
3
100
AcDbSpline
 70
8
 71
3
 72
8
 73
4
 74
0
 40
0
 40
0
 40
0
 40
0
 40
1
 40
1
 40
1
 40
1
 10
3.143326
 20
3.079668
 30
0.0
 10
3.078349
 20
3.020807
 30
0.0
 10
2.869112
 20
2.616398
 30
0.0
 10
2.913592
 20
2.890206
 30
0.0
  0
SPLINE
  5
350
100
AcDbEntity
  8
Layer_1
 62
3
100
AcDbSpline
 70
8
 71
3
 72
8
 73
4
 74
0
 40
0
 40
0
 40
0
 40
0
 40
1
 40
1
 40
1
 40
1
 10
2.913592
 20
2.890206
 30
0.0
 10
2.954476
 20
3.022405
 30
0.0
 10
2.953857
 20
3.204333
 30
0.0
 10
2.996773
 20
3.328490
 30
0.0
  0
SPLINE
  5
351
100
AcDbEntity
  8
Layer_1
 62
3
100
AcDbSpline
 70
8
 71
3
 72
8
 73
4
 74
0
 40
0
 40
0
 40
0
 40
0
 40
1
 40
1
 40
1
 40
1
 10
2.996773
 20
3.328490
 30
0.0
 10
3.444438
 20
3.410324
 30
0.0
 10
3.837195
 20
3.634635
 30
0.0
 10
4.098602
 20
3.890120
 30
0.0
  0
LINE
  5
352
100
AcDbEntity
  8
Layer_1
 62
3
100
AcDbLine
 10
4.098602
 20
3.890120
 30
0.0
 11
4.265586
 21
4.055724
 31
0.0
  0
SPLINE
  5
353
100
AcDbEntity
  8
Layer_1
 62
3
100
AcDbSpline
 70
8
 71
3
 72
8
 73
4
 74
0
 40
0
 40
0
 40
0
 40
0
 40
1
 40
1
 40
1
 40
1
 10
7.080569
 20
3.360612
 30
0.0
 10
7.227221
 20
2.212333
 30
0.0
 10
7.217115
 20
1.626266
 30
0.0
 10
7.222391
 20
1.256410
 30
0.0
  0
SPLINE
  5
354
100
AcDbEntity
  8
Layer_1
 62
3
100
AcDbSpline
 70
8
 71
3
 72
8
 73
4
 74
0
 40
0
 40
0
 40
0
 40
0
 40
1
 40
1
 40
1
 40
1
 10
7.222391
 20
1.256410
 30
0.0
 10
7.074794
 20
0.874921
 30
0.0
 10
6.683642
 20
0.807948
 30
0.0
 10
6.594067
 20
1.256725
 30
0.0
  0
SPLINE
  5
355
100
AcDbEntity
  8
Layer_1
 62
3
100
AcDbSpline
 70
8
 71
3
 72
8
 73
4
 74
0
 40
0
 40
0
 40
0
 40
0
 40
1
 40
1
 40
1
 40
1
 10
6.594067
 20
1.256725
 30
0.0
 10
6.459468
 20
1.945076
 30
0.0
 10
6.528835
 20
2.571434
 30
0.0
 10
6.476107
 20
3.293407
 30
0.0
  0
SPLINE
  5
356
100
AcDbEntity
  8
Layer_1
 62
3
100
AcDbSpline
 70
8
 71
3
 72
8
 73
4
 74
0
 40
0
 40
0
 40
0
 40
0
 40
1
 40
1
 40
1
 40
1
 10
6.476107
 20
3.293407
 30
0.0
 10
6.604829
 20
3.293722
 30
0.0
 10
6.749070
 20
3.289001
 30
0.0
 10
6.880624
 20
3.316174
 30
0.0
  0
SPLINE
  5
357
100
AcDbEntity
  8
Layer_1
 62
3
100
AcDbSpline
 70
8
 71
3
 72
8
 73
4
 74
0
 40
0
 40
0
 40
0
 40
0
 40
1
 40
1
 40
1
 40
1
 10
6.880624
 20
3.316174
 30
0.0
 10
6.947884
 20
3.325186
 30
0.0
 10
7.023385
 20
3.341455
 30
0.0
 10
7.080569
 20
3.360615
 30
0.0
  0
LINE
  5
358
100
AcDbEntity
  8
Layer_1
 62
3
100
AcDbLine
 10
7.080569
 20
3.360615
 30
0.0
 11
7.080569
 21
3.360612
 31
0.0
  0
SPLINE
  5
359
100
AcDbEntity
  8
Layer_1
 62
3
100
AcDbSpline
 70
8
 71
3
 72
8
 73
4
 74
0
 40
0
 40
0
 40
0
 40
0
 40
1
 40
1
 40
1
 40
1
 10
4.022803
 20
2.462680
 30
0.0
 10
4.040152
 20
2.462483
 30
0.0
 10
4.103030
 20
2.452843
 30
0.0
 10
4.119085
 20
2.447970
 30
0.0
  0
SPLINE
  5
35a
100
AcDbEntity
  8
Layer_1
 62
3
100
AcDbSpline
 70
8
 71
3
 72
8
 73
4
 74
0
 40
0
 40
0
 40
0
 40
0
 40
1
 40
1
 40
1
 40
1
 10
4.119085
 20
2.447970
 30
0.0
 10
4.187195
 20
2.427257
 30
0.0
 10
4.240998
 20
2.395096
 30
0.0
 10
4.288305
 20
2.346768
 30
0.0
  0
SPLINE
  5
35b
100
AcDbEntity
  8
Layer_1
 62
3
100
AcDbSpline
 70
8
 71
3
 72
8
 73
4
 74
0
 40
0
 40
0
 40
0
 40
0
 40
1
 40
1
 40
1
 40
1
 10
4.288305
 20
2.346768
 30
0.0
 10
4.313028
 20
2.321507
 30
0.0
 10
4.341122
 20
2.281855
 30
0.0
 10
4.356617
 20
2.250347
 30
0.0
  0
SPLINE
  5
35c
100
AcDbEntity
  8
Layer_1
 62
3
100
AcDbSpline
 70
8
 71
3
 72
8
 73
4
 74
0
 40
0
 40
0
 40
0
 40
0
 40
1
 40
1
 40
1
 40
1
 10
4.356617
 20
2.250347
 30
0.0
 10
4.359547
 20
2.244352
 30
0.0
 10
4.362342
 20
2.239405
 30
0.0
 10
4.362804
 20
2.239328
 30
0.0
  0
SPLINE
  5
35d
100
AcDbEntity
  8
Layer_1
 62
3
100
AcDbSpline
 70
8
 71
3
 72
8
 73
4
 74
0
 40
0
 40
0
 40
0
 40
0
 40
1
 40
1
 40
1
 40
1
 10
4.362804
 20
2.239328
 30
0.0
 10
4.363308
 20
2.239333
 30
0.0
 10
4.367432
 20
2.243119
 30
0.0
 10
4.372060
 20
2.247958
 30
0.0
  0
SPLINE
  5
35e
100
AcDbEntity
  8
Layer_1
 62
3
100
AcDbSpline
 70
8
 71
3
 72
8
 73
4
 74
0
 40
0
 40
0
 40
0
 40
0
 40
1
 40
1
 40
1
 40
1
 10
4.372060
 20
2.247958
 30
0.0
 10
4.392628
 20
2.269522
 30
0.0
 10
4.428642
 20
2.297811
 30
0.0
 10
4.454669
 20
2.312775
 30
0.0
  0
SPLINE
  5
35f
100
AcDbEntity
  8
Layer_1
 62
3
100
AcDbSpline
 70
8
 71
3
 72
8
 73
4
 74
0
 40
0
 40
0
 40
0
 40
0
 40
1
 40
1
 40
1
 40
1
 10
4.454669
 20
2.312775
 30
0.0
 10
4.476914
 20
2.325557
 30
0.0
 10
4.506736
 20
2.338546
 30
0.0
 10
4.532234
 20
2.346562
 30
0.0
  0
SPLINE
  5
360
100
AcDbEntity
  8
Layer_1
 62
3
100
AcDbSpline
 70
8
 71
3
 72
8
 73
4
 74
0
 40
0
 40
0
 40
0
 40
0
 40
1
 40
1
 40
1
 40
1
 10
4.532234
 20
2.346562
 30
0.0
 10
4.568532
 20
2.357981
 30
0.0
 10
4.595112
 20
2.362775
 30
0.0
 10
4.630751
 20
2.364390
 30
0.0
  0
SPLINE
  5
361
100
AcDbEntity
  8
Layer_1
 62
3
100
AcDbSpline
 70
8
 71
3
 72
8
 73
4
 74
0
 40
0
 40
0
 40
0
 40
0
 40
1
 40
1
 40
1
 40
1
 10
4.630751
 20
2.364390
 30
0.0
 10
4.662003
 20
2.365800
 30
0.0
 10
4.671241
 20
2.365194
 30
0.0
 10
4.709252
 20
2.359351
 30
0.0
  0
SPLINE
  5
362
100
AcDbEntity
  8
Layer_1
 62
3
100
AcDbSpline
 70
8
 71
3
 72
8
 73
4
 74
0
 40
0
 40
0
 40
0
 40
0
 40
1
 40
1
 40
1
 40
1
 10
4.709252
 20
2.359351
 30
0.0
 10
4.740399
 20
2.354573
 30
0.0
 10
4.748286
 20
2.352903
 30
0.0
 10
4.764151
 20
2.347863
 30
0.0
  0
SPLINE
  5
363
100
AcDbEntity
  8
Layer_1
 62
3
100
AcDbSpline
 70
8
 71
3
 72
8
 73
4
 74
0
 40
0
 40
0
 40
0
 40
0
 40
1
 40
1
 40
1
 40
1
 10
4.764151
 20
2.347863
 30
0.0
 10
4.784247
 20
2.341416
 30
0.0
 10
4.803499
 20
2.333600
 30
0.0
 10
4.821858
 20
2.324421
 30
0.0
  0
SPLINE
  5
364
100
AcDbEntity
  8
Layer_1
 62
3
100
AcDbSpline
 70
8
 71
3
 72
8
 73
4
 74
0
 40
0
 40
0
 40
0
 40
0
 40
1
 40
1
 40
1
 40
1
 10
4.821858
 20
2.324421
 30
0.0
 10
4.876941
 20
2.296912
 30
0.0
 10
4.923817
 20
2.257287
 30
0.0
 10
4.960821
 20
2.206949
 30
0.0
  0
SPLINE
  5
365
100
AcDbEntity
  8
Layer_1
 62
3
100
AcDbSpline
 70
8
 71
3
 72
8
 73
4
 74
0
 40
0
 40
0
 40
0
 40
0
 40
1
 40
1
 40
1
 40
1
 10
4.960821
 20
2.206949
 30
0.0
 10
5.009776
 20
2.140352
 30
0.0
 10
5.035606
 20
2.061695
 30
0.0
 10
5.036256
 20
1.977307
 30
0.0
  0
SPLINE
  5
366
100
AcDbEntity
  8
Layer_1
 62
3
100
AcDbSpline
 70
8
 71
3
 72
8
 73
4
 74
0
 40
0
 40
0
 40
0
 40
0
 40
1
 40
1
 40
1
 40
1
 10
5.036256
 20
1.977307
 30
0.0
 10
5.036374
 20
1.960222
 30
0.0
 10
5.035653
 20
1.953067
 30
0.0
 10
5.030330
 20
1.918155
 30
0.0
  0
SPLINE
  5
367
100
AcDbEntity
  8
Layer_1
 62
3
100
AcDbSpline
 70
8
 71
3
 72
8
 73
4
 74
0
 40
0
 40
0
 40
0
 40
0
 40
1
 40
1
 40
1
 40
1
 10
5.030330
 20
1.918155
 30
0.0
 10
5.025682
 20
1.887902
 30
0.0
 10
5.022976
 20
1.874014
 30
0.0
 10
5.018945
 20
1.859939
 30
0.0
  0
SPLINE
  5
368
100
AcDbEntity
  8
Layer_1
 62
3
100
AcDbSpline
 70
8
 71
3
 72
8
 73
4
 74
0
 40
0
 40
0
 40
0
 40
0
 40
1
 40
1
 40
1
 40
1
 10
5.018945
 20
1.859939
 30
0.0
 10
5.001989
 20
1.800929
 30
0.0
 10
4.979343
 20
1.753981
 30
0.0
 10
4.944758
 20
1.705199
 30
0.0
  0
SPLINE
  5
369
100
AcDbEntity
  8
Layer_1
 62
3
100
AcDbSpline
 70
8
 71
3
 72
8
 73
4
 74
0
 40
0
 40
0
 40
0
 40
0
 40
1
 40
1
 40
1
 40
1
 10
4.944758
 20
1.705199
 30
0.0
 10
4.901675
 20
1.644555
 30
0.0
 10
4.849917
 20
1.594785
 30
0.0
 10
4.765348
 20
1.532733
 30
0.0
  0
SPLINE
  5
36a
100
AcDbEntity
  8
Layer_1
 62
3
100
AcDbSpline
 70
8
 71
3
 72
8
 73
4
 74
0
 40
0
 40
0
 40
0
 40
0
 40
1
 40
1
 40
1
 40
1
 10
4.765348
 20
1.532733
 30
0.0
 10
4.723508
 20
1.502033
 30
0.0
 10
4.698631
 20
1.485211
 30
0.0
 10
4.610789
 20
1.428307
 30
0.0
  0
SPLINE
  5
36b
100
AcDbEntity
  8
Layer_1
 62
3
100
AcDbSpline
 70
8
 71
3
 72
8
 73
4
 74
0
 40
0
 40
0
 40
0
 40
0
 40
1
 40
1
 40
1
 40
1
 10
4.610789
 20
1.428307
 30
0.0
 10
4.508408
 20
1.361986
 30
0.0
 10
4.483331
 20
1.344988
 30
0.0
 10
4.425296
 20
1.302415
 30
0.0
  0
SPLINE
  5
36c
100
AcDbEntity
  8
Layer_1
 62
3
100
AcDbSpline
 70
8
 71
3
 72
8
 73
4
 74
0
 40
0
 40
0
 40
0
 40
0
 40
1
 40
1
 40
1
 40
1
 10
4.425296
 20
1.302415
 30
0.0
 10
4.333804
 20
1.235301
 30
0.0
 10
4.282947
 20
1.190655
 30
0.0
 10
4.216825
 20
1.119294
 30
0.0
  0
SPLINE
  5
36d
100
AcDbEntity
  8
Layer_1
 62
3
100
AcDbSpline
 70
8
 71
3
 72
8
 73
4
 74
0
 40
0
 40
0
 40
0
 40
0
 40
1
 40
1
 40
1
 40
1
 10
4.216825
 20
1.119294
 30
0.0
 10
4.201137
 20
1.102369
 30
0.0
 10
4.187837
 20
1.088115
 30
0.0
 10
4.187296
 20
1.087691
 30
0.0
  0
SPLINE
  5
36e
100
AcDbEntity
  8
Layer_1
 62
3
100
AcDbSpline
 70
8
 71
3
 72
8
 73
4
 74
0
 40
0
 40
0
 40
0
 40
0
 40
1
 40
1
 40
1
 40
1
 10
4.187296
 20
1.087691
 30
0.0
 10
4.186792
 20
1.087289
 30
0.0
 10
4.180415
 20
1.099086
 30
0.0
 10
4.173207
 20
1.113888
 30
0.0
  0
SPLINE
  5
36f
100
AcDbEntity
  8
Layer_1
 62
3
100
AcDbSpline
 70
8
 71
3
 72
8
 73
4
 74
0
 40
0
 40
0
 40
0
 40
0
 40
1
 40
1
 40
1
 40
1
 10
4.173207
 20
1.113888
 30
0.0
 10
4.136888
 20
1.188531
 30
0.0
 10
4.103916
 20
1.244637
 30
0.0
 10
4.054936
 20
1.314994
 30
0.0
  0
SPLINE
  5
370
100
AcDbEntity
  8
Layer_1
 62
3
100
AcDbSpline
 70
8
 71
3
 72
8
 73
4
 74
0
 40
0
 40
0
 40
0
 40
0
 40
1
 40
1
 40
1
 40
1
 10
4.054936
 20
1.314994
 30
0.0
 10
4.017290
 20
1.369072
 30
0.0
 10
3.974889
 20
1.422851
 30
0.0
 10
3.891849
 20
1.521817
 30
0.0
  0
SPLINE
  5
371
100
AcDbEntity
  8
Layer_1
 62
3
100
AcDbSpline
 70
8
 71
3
 72
8
 73
4
 74
0
 40
0
 40
0
 40
0
 40
0
 40
1
 40
1
 40
1
 40
1
 10
3.891849
 20
1.521817
 30
0.0
 10
3.793168
 20
1.639424
 30
0.0
 10
3.755583
 20
1.688301
 30
0.0
 10
3.719406
 20
1.746054
 30
0.0
  0
SPLINE
  5
372
100
AcDbEntity
  8
Layer_1
 62
3
100
AcDbSpline
 70
8
 71
3
 72
8
 73
4
 74
0
 40
0
 40
0
 40
0
 40
0
 40
1
 40
1
 40
1
 40
1
 10
3.719406
 20
1.746054
 30
0.0
 10
3.651059
 20
1.855167
 30
0.0
 10
3.621934
 20
1.955272
 30
0.0
 10
3.625412
 20
2.069206
 30
0.0
  0
SPLINE
  5
373
100
AcDbEntity
  8
Layer_1
 62
3
100
AcDbSpline
 70
8
 71
3
 72
8
 73
4
 74
0
 40
0
 40
0
 40
0
 40
0
 40
1
 40
1
 40
1
 40
1
 10
3.625412
 20
2.069206
 30
0.0
 10
3.626215
 20
2.093902
 30
0.0
 10
3.633320
 20
2.147980
 30
0.0
 10
3.638669
 20
2.169368
 30
0.0
  0
SPLINE
  5
374
100
AcDbEntity
  8
Layer_1
 62
3
100
AcDbSpline
 70
8
 71
3
 72
8
 73
4
 74
0
 40
0
 40
0
 40
0
 40
0
 40
1
 40
1
 40
1
 40
1
 10
3.638669
 20
2.169368
 30
0.0
 10
3.660345
 20
2.255997
 30
0.0
 10
3.709491
 20
2.330647
 30
0.0
 10
3.779764
 20
2.383729
 30
0.0
  0
SPLINE
  5
375
100
AcDbEntity
  8
Layer_1
 62
3
100
AcDbSpline
 70
8
 71
3
 72
8
 73
4
 74
0
 40
0
 40
0
 40
0
 40
0
 40
1
 40
1
 40
1
 40
1
 10
3.779764
 20
2.383729
 30
0.0
 10
3.816766
 20
2.411683
 30
0.0
 10
3.854935
 20
2.431545
 30
0.0
 10
3.896477
 20
2.444492
 30
0.0
  0
SPLINE
  5
376
100
AcDbEntity
  8
Layer_1
 62
3
100
AcDbSpline
 70
8
 71
3
 72
8
 73
4
 74
0
 40
0
 40
0
 40
0
 40
0
 40
1
 40
1
 40
1
 40
1
 10
3.896477
 20
2.444492
 30
0.0
 10
3.938839
 20
2.457696
 30
0.0
 10
3.977312
 20
2.463249
 30
0.0
 10
4.022806
 20
2.462684
 30
0.0
  0
LINE
  5
377
100
AcDbEntity
  8
Layer_1
 62
3
100
AcDbLine
 10
4.022806
 20
2.462684
 30
0.0
 11
4.022803
 21
2.462680
 31
0.0
  0
ENDSEC
  0
SECTION
  2
OBJECTS
  0
DICTIONARY
  5
C
330
0
100
AcDbDictionary
  3
ACAD_GROUP
350
D
  3
ACAD_MLINESTYLE
350
17
  0
DICTIONARY
  5
D
330
C
100
AcDbDictionary
  0
DICTIONARY
  5
1A
330
C
100
AcDbDictionary
  0
DICTIONARY
  5
17
330
C
100
AcDbDictionary
  3
STANDARD
350
18
  0
DICTIONARY
  5
19
330
C
100
AcDbDictionary
  0
ENDSEC
  0
EOF
