0
SECTION
2
HEADER
9
$INSUNITS
70
1
9
$ACADVER
1
AC1014
9
$HANDSEED
5
FFFF
0
ENDSEC
0
SECTION
2
TABLES
0
TABLE
2
VPORT
5
8
100
AcDbSymbolTable
0
ENDTAB
0
TABLE
2
LTYPE
5
5
100
AcDbSymbolTable
0
LTYPE
5
14
100
AcDbSymbolTableRecord
100
AcDbLinetypeTableRecord
2
BYBLOCK
70
0
0
LTYPE
5
15
100
AcDbSymbolTableRecord
100
AcDbLinetypeTableRecord
2
BYLAYER
70
0
0
ENDTAB
0
TABLE
2
LAYER
5
2
100
AcDbSymbolTable
70
2
0
LAYER
5
50
100
AcDbSymbolTableRecord
100
AcDbLayerTableRecord
2
0
70
0
6
CONTINUOUS
0
ENDTAB
0
TABLE
2
STYLE
5
3
100
AcDbSymbolTable
70
1
0
STYLE
5
11
100
AcDbSymbolTableRecord
100
AcDbTextStyleTableRecord
2
STANDARD
70
0
0
ENDTAB
0
TABLE
2
VIEW
5
6
100
AcDbSymbolTable
70
0
0
ENDTAB
0
TABLE
2
UCS
5
7
100
AcDbSymbolTable
70
0
0
ENDTAB
0
TABLE
2
APPID
5
9
100
AcDbSymbolTable
70
2
0
APPID
5
12
100
AcDbSymbolTableRecord
100
AcDbRegAppTableRecord
2
ACAD
70
0
0
ENDTAB
0
TABLE
2
DIMSTYLE
5
A
100
AcDbSymbolTable
70
1
0
ENDTAB
0
TABLE
2
BLOCK_RECORD
5
1
100
AcDbSymbolTable
70
1
0
BLOCK_RECORD
5
1F
100
AcDbSymbolTableRecord
100
AcDbBlockTableRecord
2
*MODEL_SPACE
0
BLOCK_RECORD
5
1B
100
AcDbSymbolTableRecord
100
AcDbBlockTableRecord
2
*PAPER_SPACE
0
ENDTAB
0
ENDSEC
0
SECTION
2
BLOCKS
0
BLOCK
5
20
100
AcDbEntity
100
AcDbBlockBegin
2
*MODEL_SPACE
0
ENDBLK
5
21
100
AcDbEntity
100
AcDbBlockEnd
0
BLOCK
5
1C
100
AcDbEntity
100
AcDbBlockBegin
2
*PAPER_SPACE
0
ENDBLK
5
1D
100
AcDbEntity
100
AcDbBlockEnd
0
ENDSEC
0
SECTION
2
ENTITIES
0
LWPOLYLINE
5
100
100
AcDbEntity
8
0
100
AcDbPolyline
90
16
70
1
43
0.0
10
8.0249291458713135
20
5.026203582523376
10
1.9786962532657379
20
5.026203582523376
42
0.41421356237309509
10
-0.021303746734261549
20
3.0262035825233768
10
-0.021303746734261202
20
-0.065956550650910953
42
0.4142135623730952
10
0.97869625326573806
20
-1.0659565506509101
10
3.0592344857809448
20
-1.0659565506509114
10
3.0822235770683712
20
-1.341774704093889
10
-0.0021935332270146264
20
-1.341774704093889
42
0.37424841053906727
10
1.9786962532657384
20
-3.0659565506509097
10
8.0249291458713135
20
-3.0659565506509097
42
0.37424841053906777
10
10.005818932364066
20
-1.341774704093889
10
7.013358187218377
20
-1.341774704093889
10
6.9673800046435241
20
-1.0659565506509134
10
9.0249291458713135
20
-1.0659565506509119
42
0.41421356237309559
10
10.024929145871312
20
-0.065956550650911827
10
10.024929145871312
20
3.0262035825233768
42
0.41421356237309592
0
LWPOLYLINE
5
101
100
AcDbEntity
8
0
100
AcDbPolyline
90
4
70
1
43
0.0
10
5.864634229042033
20
-1.069650824036728
10
4.0317261918111029
20
-1.069650824036728
10
4.0317261918111029
20
-1.2683998883147807
10
5.864634229042033
20
-1.2683998883147807
0
LWPOLYLINE
5
102
100
AcDbEntity
8
0
100
AcDbPolyline
90
4
70
1
43
0.0
10
8.8542923990059919
20
2.3857899309607631
10
0.97429178144555395
20
2.3857899309607631
10
0.97429178144555395
20
4.3857899309607626
10
8.8542923990059919
20
4.3857899309607626
0
LWPOLYLINE
5
103
100
AcDbEntity
8
0
100
AcDbPolyline
90
4
70
1
43
0.0
10
9.5782106289847011
20
0.33849889287260454
10
0.42221104733984782
20
0.33849889287260454
10
0.42221104733984782
20
2.3384988928726043
10
9.5782106289847011
20
2.3384988928726043
0
CIRCLE
5
104
100
AcDbEntity
8
0
100
AcDbCircle
10
1.1619992310414871
20
-2.0685731078282572
30
0
40
0.25395713768862238
0
CIRCLE
5
105
100
AcDbEntity
8
0
100
AcDbCircle
10
2.7740749746301367
20
-2.0685731078282572
30
0
40
0.25395713768862377
0
CIRCLE
5
106
100
AcDbEntity
8
0
100
AcDbCircle
10
4.0990687364838241
20
-2.0685731078282572
30
0
40
0.25395713768862516
0
CIRCLE
5
107
100
AcDbEntity
8
0
100
AcDbCircle
10
5.75531093880093
20
-2.0685731078282572
30
0
40
0.25395713768862377
0
CIRCLE
5
108
100
AcDbEntity
8
0
100
AcDbCircle
10
7.3011369942968978
20
-2.0685731078282572
30
0
40
0.25395713768862094
0
CIRCLE
5
109
100
AcDbEntity
8
0
100
AcDbCircle
10
8.6923804442432697
20
-2.0685731078282572
30
0
40
0.25395713768862377
0
ENDSEC
0
SECTION
2
OBJECTS
0
DICTIONARY
5
C
100
AcDbDictionary
3
ACAD_GROUP
350
D
3
ACAD_MLINESTYLE
350
17
0
DICTIONARY
5
D
100
AcDbDictionary
0
DICTIONARY
5
1A
330
C
100
AcDbDictionary
0
DICTIONARY
5
17
100
AcDbDictionary
0
ENDSEC
0
EOF
