  0
SECTION
  2
HEADER
  9
$ACADVER
  1
AC1027
  9
$ACADMAINTVER
 70
     8
  9
$DWGCODEPAGE
  3
ANSI_1252
  9
$REQUIREDVERSIONS
160
                 0
  9
$COMMENTS
  1
File was created by Mastercam X8
  9
$INSBASE
 10
0.0
 20
0.0
 30
0.0
  9
$EXTMIN
 10
0.7165083259620273
 20
3.310316033181077
 30
0.0
  9
$EXTMAX
 10
3.202970866951881
 20
8.310316014554648
 30
0.0
  9
$LIMMIN
 10
0.0
 20
0.0
  9
$LIMMAX
 10
12.0
 20
9.0
  9
$ORTHOMODE
 70
     0
  9
$REGENMODE
 70
     1
  9
$FILLMODE
 70
     1
  9
$QTEXTMODE
 70
     0
  9
$MIRRTEXT
 70
     1
  9
$LTSCALE
 40
1.0
  9
$ATTMODE
 70
     1
  9
$TEXTSIZE
 40
0.2
  9
$TRACEWID
 40
0.05
  9
$TEXTSTYLE
  7
Standard
  9
$CLAYER
  8
0
  9
$CELTYPE
  6
ByLayer
  9
$CECOLOR
 62
   256
  9
$CELTSCALE
 40
1.0
  9
$DISPSILH
 70
     0
  9
$DIMSCALE
 40
1.0
  9
$DIMASZ
 40
0.18
  9
$DIMEXO
 40
0.0625
  9
$DIMDLI
 40
0.38
  9
$DIMRND
 40
0.0
  9
$DIMDLE
 40
0.0
  9
$DIMEXE
 40
0.18
  9
$DIMTP
 40
0.0
  9
$DIMTM
 40
0.0
  9
$DIMTXT
 40
0.18
  9
$DIMCEN
 40
0.09
  9
$DIMTSZ
 40
0.0
  9
$DIMTOL
 70
     0
  9
$DIMLIM
 70
     0
  9
$DIMTIH
 70
     1
  9
$DIMTOH
 70
     1
  9
$DIMSE1
 70
     0
  9
$DIMSE2
 70
     0
  9
$DIMTAD
 70
     0
  9
$DIMZIN
 70
     0
  9
$DIMBLK
  1

  9
$DIMASO
 70
     1
  9
$DIMSHO
 70
     1
  9
$DIMPOST
  1

  9
$DIMAPOST
  1

  9
$DIMALT
 70
     0
  9
$DIMALTD
 70
     2
  9
$DIMALTF
 40
25.4
  9
$DIMLFAC
 40
1.0
  9
$DIMTOFL
 70
     0
  9
$DIMTVP
 40
0.0
  9
$DIMTIX
 70
     0
  9
$DIMSOXD
 70
     0
  9
$DIMSAH
 70
     0
  9
$DIMBLK1
  1

  9
$DIMBLK2
  1

  9
$DIMSTYLE
  2
Standard
  9
$DIMCLRD
 70
     0
  9
$DIMCLRE
 70
     0
  9
$DIMCLRT
 70
     0
  9
$DIMTFAC
 40
1.0
  9
$DIMGAP
 40
0.09
  9
$DIMJUST
 70
     0
  9
$DIMSD1
 70
     0
  9
$DIMSD2
 70
     0
  9
$DIMTOLJ
 70
     1
  9
$DIMTZIN
 70
     0
  9
$DIMALTZ
 70
     0
  9
$DIMALTTZ
 70
     0
  9
$DIMUPT
 70
     0
  9
$DIMDEC
 70
     4
  9
$DIMTDEC
 70
     4
  9
$DIMALTU
 70
     2
  9
$DIMALTTD
 70
     2
  9
$DIMTXSTY
  7
Standard
  9
$DIMAUNIT
 70
     0
  9
$DIMADEC
 70
     0
  9
$DIMALTRND
 40
0.0
  9
$DIMAZIN
 70
     0
  9
$DIMDSEP
 70
    46
  9
$DIMATFIT
 70
     3
  9
$DIMFRAC
 70
     0
  9
$DIMLDRBLK
  1

  9
$DIMLUNIT
 70
     2
  9
$DIMLWD
 70
    -2
  9
$DIMLWE
 70
    -2
  9
$DIMTMOVE
 70
     0
  9
$DIMFXL
 40
1.0
  9
$DIMFXLON
 70
     0
  9
$DIMJOGANG
 40
0.7853981633974483
  9
$DIMTFILL
 70
     0
  9
$DIMTFILLCLR
 70
     0
  9
$DIMARCSYM
 70
     0
  9
$DIMLTYPE
  6

  9
$DIMLTEX1
  6

  9
$DIMLTEX2
  6

  9
$DIMTXTDIRECTION
 70
     0
  9
$LUNITS
 70
     2
  9
$LUPREC
 70
     4
  9
$SKETCHINC
 40
0.1
  9
$FILLETRAD
 40
0.5
  9
$AUNITS
 70
     0
  9
$AUPREC
 70
     0
  9
$MENU
  1
.
  9
$ELEVATION
 40
0.0
  9
$PELEVATION
 40
0.0
  9
$THICKNESS
 40
0.0
  9
$LIMCHECK
 70
     0
  9
$CHAMFERA
 40
0.0
  9
$CHAMFERB
 40
0.0
  9
$CHAMFERC
 40
0.0
  9
$CHAMFERD
 40
0.0
  9
$SKPOLY
 70
     0
  9
$TDCREATE
 40
2453737.5
  9
$TDUCREATE
 40
2453737.708333333
  9
$TDUPDATE
 40
2458438.85490669
  9
$TDUUPDATE
 40
2458439.063240023
  9
$TDINDWG
 40
0.0000000116
  9
$TDUSRTIMER
 40
0.0000000116
  9
$USRTIMER
 70
     1
  9
$ANGBASE
 50
0.0
  9
$ANGDIR
 70
     0
  9
$PDMODE
 70
     2
  9
$PDSIZE
 40
0.1
  9
$PLINEWID
 40
0.0
  9
$SPLFRAME
 70
     0
  9
$SPLINETYPE
 70
     6
  9
$SPLINESEGS
 70
     8
  9
$HANDSEED
  5
D8
  9
$SURFTAB1
 70
     6
  9
$SURFTAB2
 70
     6
  9
$SURFTYPE
 70
     6
  9
$SURFU
 70
     6
  9
$SURFV
 70
     6
  9
$UCSBASE
  2

  9
$UCSNAME
  2

  9
$UCSORG
 10
0.0
 20
0.0
 30
0.0
  9
$UCSXDIR
 10
1.0
 20
0.0
 30
0.0
  9
$UCSYDIR
 10
0.0
 20
1.0
 30
0.0
  9
$UCSORTHOREF
  2

  9
$UCSORTHOVIEW
 70
     0
  9
$UCSORGTOP
 10
0.0
 20
0.0
 30
0.0
  9
$UCSORGBOTTOM
 10
0.0
 20
0.0
 30
0.0
  9
$UCSORGLEFT
 10
0.0
 20
0.0
 30
0.0
  9
$UCSORGRIGHT
 10
0.0
 20
0.0
 30
0.0
  9
$UCSORGFRONT
 10
0.0
 20
0.0
 30
0.0
  9
$UCSORGBACK
 10
0.0
 20
0.0
 30
0.0
  9
$PUCSBASE
  2

  9
$PUCSNAME
  2

  9
$PUCSORG
 10
0.0
 20
0.0
 30
0.0
  9
$PUCSXDIR
 10
1.0
 20
0.0
 30
0.0
  9
$PUCSYDIR
 10
0.0
 20
1.0
 30
0.0
  9
$PUCSORTHOREF
  2

  9
$PUCSORTHOVIEW
 70
     0
  9
$PUCSORGTOP
 10
0.0
 20
0.0
 30
0.0
  9
$PUCSORGBOTTOM
 10
0.0
 20
0.0
 30
0.0
  9
$PUCSORGLEFT
 10
0.0
 20
0.0
 30
0.0
  9
$PUCSORGRIGHT
 10
0.0
 20
0.0
 30
0.0
  9
$PUCSORGFRONT
 10
0.0
 20
0.0
 30
0.0
  9
$PUCSORGBACK
 10
0.0
 20
0.0
 30
0.0
  9
$USERI1
 70
     0
  9
$USERI2
 70
     0
  9
$USERI3
 70
     0
  9
$USERI4
 70
     0
  9
$USERI5
 70
     0
  9
$USERR1
 40
0.0
  9
$USERR2
 40
0.0
  9
$USERR3
 40
0.0
  9
$USERR4
 40
0.0
  9
$USERR5
 40
0.0
  9
$WORLDVIEW
 70
     1
  9
$SHADEDGE
 70
     3
  9
$SHADEDIF
 70
    70
  9
$TILEMODE
 70
     1
  9
$MAXACTVP
 70
    64
  9
$PINSBASE
 10
0.0
 20
0.0
 30
0.0
  9
$PLIMCHECK
 70
     0
  9
$PEXTMIN
 10
0.0
 20
0.0
 30
0.0
  9
$PEXTMAX
 10
0.0
 20
0.0
 30
0.0
  9
$PLIMMIN
 10
-0.25
 20
-0.25
  9
$PLIMMAX
 10
10.75
 20
8.25
  9
$UNITMODE
 70
     0
  9
$VISRETAIN
 70
     1
  9
$PLINEGEN
 70
     0
  9
$PSLTSCALE
 70
     1
  9
$TREEDEPTH
 70
  3020
  9
$CMLSTYLE
  2
Standard
  9
$CMLJUST
 70
     0
  9
$CMLSCALE
 40
1.0
  9
$PROXYGRAPHICS
 70
     1
  9
$MEASUREMENT
 70
     0
  9
$CELWEIGHT
370
    -1
  9
$ENDCAPS
280
     0
  9
$JOINSTYLE
280
     0
  9
$LWDISPLAY
290
     0
  9
$INSUNITS
 70
     1
  9
$HYPERLINKBASE
  1

  9
$STYLESHEET
  1

  9
$XEDIT
290
     1
  9
$CEPSNTYPE
380
     0
  9
$PSTYLEMODE
290
     1
  9
$FINGERPRINTGUID
  2
{86E0EF66-A969-48E8-98C2-6BA18E7A4B62}
  9
$VERSIONGUID
  2
{FAEB1C32-E019-11D5-929B-00C0DF256EC4}
  9
$EXTNAMES
290
     1
  9
$PSVPSCALE
 40
0.0
  9
$OLESTARTUP
290
     0
  9
$SORTENTS
280
   127
  9
$INDEXCTL
280
     0
  9
$HIDETEXT
280
     1
  9
$XCLIPFRAME
280
     2
  9
$HALOGAP
280
     0
  9
$OBSCOLOR
 70
   257
  9
$OBSLTYPE
280
     0
  9
$INTERSECTIONDISPLAY
280
     0
  9
$INTERSECTIONCOLOR
 70
   257
  9
$DIMASSOC
280
     2
  9
$PROJECTNAME
  1

  9
$CAMERADISPLAY
290
     0
  9
$LENSLENGTH
 40
50.0
  9
$CAMERAHEIGHT
 40
0.0
  9
$STEPSPERSEC
 40
2.0
  9
$STEPSIZE
 40
6.0
  9
$3DDWFPREC
 40
2.0
  9
$PSOLWIDTH
 40
0.25
  9
$PSOLHEIGHT
 40
4.0
  9
$LOFTANG1
 40
1.570796326794897
  9
$LOFTANG2
 40
1.570796326794897
  9
$LOFTMAG1
 40
0.0
  9
$LOFTMAG2
 40
0.0
  9
$LOFTPARAM
 70
     7
  9
$LOFTNORMALS
280
     1
  9
$LATITUDE
 40
37.795
  9
$LONGITUDE
 40
-122.394
  9
$NORTHDIRECTION
 40
0.0
  9
$TIMEZONE
 70
 -8000
  9
$LIGHTGLYPHDISPLAY
280
     1
  9
$TILEMODELIGHTSYNCH
280
     1
  9
$CMATERIAL
347
44
  9
$SOLIDHIST
280
     0
  9
$SHOWHIST
280
     1
  9
$DWFFRAME
280
     2
  9
$DGNFRAME
280
     2
  9
$REALWORLDSCALE
290
     1
  9
$INTERFERECOLOR
 62
   256
  9
$CSHADOW
280
     0
  9
$SHADOWPLANELOCATION
 40
0.0
  0
ENDSEC
  0
SECTION
  2
CLASSES
  0
CLASS
  1
ACDBDICTIONARYWDFLT
  2
AcDbDictionaryWithDefault
  3
ObjectDBX Classes
 90
        0
 91
        4
280
     0
281
     0
  0
CLASS
  1
VISUALSTYLE
  2
AcDbVisualStyle
  3
ObjectDBX Classes
 90
     4095
 91
        4
280
     0
281
     0
  0
CLASS
  1
MATERIAL
  2
AcDbMaterial
  3
ObjectDBX Classes
 90
     1153
 91
        4
280
     0
281
     0
  0
CLASS
  1
SCALE
  2
AcDbScale
  3
ObjectDBX Classes
 90
     1153
 91
        4
280
     0
281
     0
  0
CLASS
  1
TABLESTYLE
  2
AcDbTableStyle
  3
ObjectDBX Classes
 90
     4095
 91
        4
280
     0
281
     0
  0
CLASS
  1
MLEADERSTYLE
  2
AcDbMLeaderStyle
  3
ACDB_MLEADERSTYLE_CLASS
 90
     4095
 91
        4
280
     0
281
     0
  0
CLASS
  1
SUN
  2
AcDbSun
  3
SCENEOE
 90
     1153
 91
        4
280
     0
281
     0
  0
CLASS
  1
DICTIONARYVAR
  2
AcDbDictionaryVar
  3
ObjectDBX Classes
 90
        0
 91
        4
280
     0
281
     0
  0
CLASS
  1
CELLSTYLEMAP
  2
AcDbCellStyleMap
  3
ObjectDBX Classes
 90
     1152
 91
        4
280
     0
281
     0
  0
ENDSEC
  0
SECTION
  2
TABLES
  0
TABLE
  2
VPORT
  5
8
330
0
100
AcDbSymbolTable
 70
     1
  0
VPORT
  5
29
330
8
100
AcDbSymbolTableRecord
100
AcDbViewportTableRecord
  2
*Active
 70
     0
 10
0.0
 20
0.0
 11
1.0
 21
1.0
 12
10.42990654205607
 22
4.5
 13
0.0
 23
0.0
 14
0.5
 24
0.5
 15
0.5
 25
0.5
 16
0.0
 26
0.0
 36
1.0
 17
0.0
 27
0.0
 37
0.0
 40
9.0
 41
1.972972972850329
 42
50.0
 43
0.0
 44
0.0
 50
0.0
 51
0.0
 71
     0
 72
   100
 73
     1
 74
     3
 75
     0
 76
     0
 77
     0
 78
     0
281
     0
 65
     1
110
0.0
120
0.0
130
0.0
111
1.0
121
0.0
131
0.0
112
0.0
122
1.0
132
0.0
 79
     0
146
0.0
 60
     3
 61
     5
292
     1
282
     1
141
0.0
142
0.0
 63
   250
361
6D
  0
ENDTAB
  0
TABLE
  2
LTYPE
  5
5
330
0
100
AcDbSymbolTable
 70
     5
  0
LTYPE
  5
14
330
5
100
AcDbSymbolTableRecord
100
AcDbLinetypeTableRecord
  2
ByBlock
 70
     0
  3

 72
    65
 73
     0
 40
0.0
  0
LTYPE
  5
15
330
5
100
AcDbSymbolTableRecord
100
AcDbLinetypeTableRecord
  2
ByLayer
 70
     0
  3

 72
    65
 73
     0
 40
0.0
  0
LTYPE
  5
16
330
5
100
AcDbSymbolTableRecord
100
AcDbLinetypeTableRecord
  2
Continuous
 70
     0
  3
Solid line
 72
    65
 73
     0
 40
0.0
  0
LTYPE
  5
6F
330
5
100
AcDbSymbolTableRecord
100
AcDbLinetypeTableRecord
  2
Continuous2
 70
     0
  3
Solid Line
 72
    65
 73
     0
 40
0.0
  0
LTYPE
  5
70
330
5
100
AcDbSymbolTableRecord
100
AcDbLinetypeTableRecord
  2
DASHED
 70
     0
  3
__ __ __ __ __ __ __ __ __ __ __ __ __ __ __ __
 72
    83
 73
     2
 40
0.5
 49
0.375
 74
     0
 49
-0.125
 74
     0
  0
LTYPE
  5
71
330
5
100
AcDbSymbolTableRecord
100
AcDbLinetypeTableRecord
  2
CENTER
 70
     0
  3
____ _ ____ _ ____ _ ____ _ ____ _ ____ _ ____ _
 72
    83
 73
     4
 40
1.0
 49
0.625
 74
     0
 49
-0.125
 74
     0
 49
0.125
 74
     0
 49
-0.125
 74
     0
  0
LTYPE
  5
72
330
5
100
AcDbSymbolTableRecord
100
AcDbLinetypeTableRecord
  2
PHANTOM
 70
     0
  3
___ _ _ ___ _ _ ___ _ _ ___ _ _ ___ _ _ ___ _ _ 
 72
    83
 73
     6
 40
1.0
 49
0.5
 74
     0
 49
-0.1
 74
     0
 49
0.1
 74
     0
 49
-0.1
 74
     0
 49
0.1
 74
     0
 49
-0.1
 74
     0
  0
ENDTAB
  0
TABLE
  2
LAYER
  5
2
330
0
100
AcDbSymbolTable
 70
     1
  0
LAYER
  5
10
330
2
100
AcDbSymbolTableRecord
100
AcDbLayerTableRecord
  2
0
 70
     0
 62
     7
  6
Continuous
370
    -3
390
F
347
46
348
0
  0
ENDTAB
  0
TABLE
  2
STYLE
  5
3
330
0
100
AcDbSymbolTable
 70
     1
  0
STYLE
  5
11
330
3
100
AcDbSymbolTableRecord
100
AcDbTextStyleTableRecord
  2
Standard
 70
     0
 40
0.0
 41
1.0
 50
0.0
 71
     0
 42
0.2
  3
txt
  4

  0
ENDTAB
  0
TABLE
  2
VIEW
  5
6
330
0
100
AcDbSymbolTable
 70
     0
  0
ENDTAB
  0
TABLE
  2
UCS
  5
7
330
0
100
AcDbSymbolTable
 70
     0
  0
ENDTAB
  0
TABLE
  2
APPID
  5
9
330
0
100
AcDbSymbolTable
 70
     2
  0
APPID
  5
12
330
9
100
AcDbSymbolTableRecord
100
AcDbRegAppTableRecord
  2
ACAD
 70
     0
  0
APPID
  5
6E
330
9
100
AcDbSymbolTableRecord
100
AcDbRegAppTableRecord
  2
Mastercam X8
 70
     0
  0
ENDTAB
  0
TABLE
  2
DIMSTYLE
  5
A
330
0
100
AcDbSymbolTable
 70
     1
100
AcDbDimStyleTable
  0
DIMSTYLE
105
27
330
A
100
AcDbSymbolTableRecord
100
AcDbDimStyleTableRecord
  2
Standard
 70
     0
178
     0
340
11
  0
ENDTAB
  0
TABLE
  2
BLOCK_RECORD
  5
1
330
0
100
AcDbSymbolTable
 70
     1
  0
BLOCK_RECORD
  5
1F
330
1
100
AcDbSymbolTableRecord
100
AcDbBlockTableRecord
  2
*Model_Space
340
22
 70
     0
280
     1
281
     0
  0
BLOCK_RECORD
  5
23
330
1
100
AcDbSymbolTableRecord
100
AcDbBlockTableRecord
  2
*Paper_Space
340
26
 70
     0
280
     1
281
     0
  0
ENDTAB
  0
ENDSEC
  0
SECTION
  2
BLOCKS
  0
BLOCK
  5
20
330
1F
100
AcDbEntity
  8
0
100
AcDbBlockBegin
  2
*Model_Space
 70
     0
 10
0.0
 20
0.0
 30
0.0
  3
*Model_Space
  1
*Model_Space
  0
ENDBLK
  5
21
330
1F
100
AcDbEntity
  8
0
100
AcDbBlockEnd
  0
BLOCK
  5
24
330
23
100
AcDbEntity
 67
     1
  8
0
100
AcDbBlockBegin
  2
*Paper_Space
 70
     0
 10
0.0
 20
0.0
 30
0.0
  3
*Paper_Space
  1
*Paper_Space
  0
ENDBLK
  5
25
330
23
100
AcDbEntity
 67
     1
  8
0
100
AcDbBlockEnd
  0
ENDSEC
  0
SECTION
  2
ENTITIES
  0
SPLINE
  5
73
330
1F
100
AcDbEntity
  8
0
  6
Continuous2
 62
   132
420
    49344
370
    -3
100
AcDbSpline
210
0.0
220
0.0
230
1.0
 70
    11
 71
     3
 72
   191
 73
   187
 74
     0
 42
0.000000001
 43
0.000001
 40
0.0
 40
0.0
 40
0.0
 40
0.0
 40
0.4025286672102307
 40
0.4025286672102307
 40
0.4025286672102307
 40
0.7962286096699852
 40
0.7962286096699852
 40
0.7962286096699852
 40
1.235676838219427
 40
1.235676838219427
 40
1.235676838219427
 40
1.390274719936684
 40
1.390274719936684
 40
1.390274719936684
 40
2.281529235667818
 40
2.281529235667818
 40
2.281529235667818
 40
2.78126216460308
 40
2.78126216460308
 40
2.78126216460308
 40
3.598171008272359
 40
3.598171008272359
 40
3.598171008272359
 40
4.156843498293054
 40
4.156843498293054
 40
4.156843498293054
 40
4.658543419600548
 40
4.658543419600548
 40
4.658543419600548
 40
4.949107232114564
 40
4.949107232114564
 40
4.949107232114564
 40
5.268396451737443
 40
5.268396451737443
 40
5.268396451737443
 40
5.346374485835713
 40
5.346374485835713
 40
5.346374485835713
 40
5.813758190774243
 40
5.813758190774243
 40
5.813758190774243
 40
6.383798022179097
 40
6.383798022179097
 40
6.383798022179097
 40
7.1873203465533
 40
7.1873203465533
 40
7.1873203465533
 40
7.73269895447807
 40
7.73269895447807
 40
7.73269895447807
 40
7.850688916513344
 40
7.850688916513344
 40
7.850688916513344
 40
8.112149254533545
 40
8.112149254533545
 40
8.112149254533545
 40
8.32242267593351
 40
8.32242267593351
 40
8.32242267593351
 40
8.563977332269344
 40
8.563977332269344
 40
8.563977332269344
 40
8.798885760558395
 40
8.798885760558395
 40
8.798885760558395
 40
9.03353139138019
 40
9.03353139138019
 40
9.03353139138019
 40
9.281751900674461
 40
9.281751900674461
 40
9.281751900674461
 40
9.528452121668753
 40
9.528452121668753
 40
9.528452121668753
 40
9.787041414057963
 40
9.787041414057963
 40
9.787041414057963
 40
10.08893038150466
 40
10.08893038150466
 40
10.08893038150466
 40
10.3941191035187
 40
10.3941191035187
 40
10.3941191035187
 40
10.71858972583984
 40
10.71858972583984
 40
10.71858972583984
 40
10.99290954455937
 40
10.99290954455937
 40
10.99290954455937
 40
11.29358549218764
 40
11.29358549218764
 40
11.29358549218764
 40
12.01799498071709
 40
12.01799498071709
 40
12.01799498071709
 40
12.13388215017066
 40
12.13388215017066
 40
12.13388215017066
 40
13.61221500480827
 40
13.61221500480827
 40
13.61221500480827
 40
13.71186076627238
 40
13.71186076627238
 40
13.71186076627238
 40
14.2227365119626
 40
14.2227365119626
 40
14.2227365119626
 40
14.26788576676134
 40
14.26788576676134
 40
14.26788576676134
 40
14.55317112358903
 40
14.55317112358903
 40
14.55317112358903
 40
14.86838180329031
 40
14.86838180329031
 40
14.86838180329031
 40
15.21772396201395
 40
15.21772396201395
 40
15.21772396201395
 40
15.56959862551676
 40
15.56959862551676
 40
15.56959862551676
 40
15.91096114389167
 40
15.91096114389167
 40
15.91096114389167
 40
16.23641005193985
 40
16.23641005193985
 40
16.23641005193985
 40
16.57156590121898
 40
16.57156590121898
 40
16.57156590121898
 40
16.82365004153386
 40
16.82365004153386
 40
16.82365004153386
 40
17.56156568332371
 40
17.56156568332371
 40
17.56156568332371
 40
17.8120512165454
 40
17.8120512165454
 40
17.8120512165454
 40
17.93313756740016
 40
17.93313756740016
 40
17.93313756740016
 40
18.24505039800182
 40
18.24505039800182
 40
18.24505039800182
 40
18.53150560846607
 40
18.53150560846607
 40
18.53150560846607
 40
18.67236080595304
 40
18.67236080595304
 40
18.67236080595304
 40
18.94027595427016
 40
18.94027595427016
 40
18.94027595427016
 40
18.99884292267082
 40
18.99884292267082
 40
18.99884292267082
 40
19.10124596247659
 40
19.10124596247659
 40
19.10124596247659
 40
19.38363911291306
 40
19.38363911291306
 40
19.38363911291306
 40
19.44363028846798
 40
19.44363028846798
 40
19.44363028846798
 40
19.55419078403338
 40
19.55419078403338
 40
19.55419078403338
 40
20.50533382119099
 40
20.50533382119099
 40
20.50533382119099
 40
20.65418271604912
 40
20.65418271604912
 40
20.65418271604912
 40
20.73529602345289
 40
20.73529602345289
 40
20.73529602345289
 40
21.07016073965458
 40
21.07016073965458
 40
21.07016073965458
 40
21.4496590383876
 40
21.4496590383876
 40
21.4496590383876
 40
21.82618420751407
 40
21.82618420751407
 40
21.82618420751407
 40
21.82618420751407
 10
2.678035194067903
 20
6.608028955984015
 30
0.0
 10
2.595543703273448
 20
6.431799843893611
 30
0.0
 10
2.734277927930204
 20
6.289317982967898
 30
0.0
 10
2.850512642771066
 20
6.244324601301681
 30
0.0
 10
2.753024163511538
 20
6.139336822385961
 30
0.0
 10
2.775521257056458
 20
5.955611632333987
 30
0.0
 10
2.850512642771066
 20
5.850624658841927
 30
0.0
 10
2.685535299147744
 20
5.813128965984623
 30
0.0
 10
2.648037190019473
 20
5.603152602729527
 30
0.0
 10
2.663037400179179
 20
5.453173052994931
 30
0.0
 10
2.61054149716218
 20
5.460673963498434
 30
0.0
 10
2.55805123211077
 20
5.49816724008477
 30
0.0
 10
2.543052632798383
 20
5.550662337678116
 30
0.0
 10
2.430566359650127
 20
5.273195499211916
 30
0.0
 10
2.320321580535076
 20
4.99934662380614
 30
0.0
 10
2.20559461877727
 20
4.725764343630328
 30
0.0
 10
2.181222498962388
 20
4.667647388921721
 30
0.0
 10
2.079984772586592
 20
4.446424895165132
 30
0.0
 10
2.079984772586593
 20
4.24207522156723
 30
0.0
 10
2.079984772586593
 20
3.966485020218303
 30
0.0
 10
2.158724599993813
 20
3.608404133498575
 30
0.0
 10
2.595543703273443
 20
3.608404133498577
 30
0.0
 10
2.799894182294997
 20
3.608404133498577
 30
0.0
 10
2.972374047269133
 20
3.82962582183151
 30
0.0
 10
2.972374047269143
 20
4.020852727810652
 30
0.0
 10
2.972374047269143
 20
4.262698094265855
 30
0.0
 10
2.805066613010511
 20
4.409041961619604
 30
0.0
 10
2.668660868141747
 20
4.420178554503938
 30
0.0
 10
2.576797467692105
 20
4.427676243312819
 30
0.0
 10
2.454938479465005
 20
4.36205998894802
 30
0.0
 10
2.454938479465004
 20
4.223328180562238
 30
0.0
 10
2.454938479465004
 20
4.048974094741795
 30
0.0
 10
2.531804086025918
 20
4.002103270534683
 30
0.0
 10
2.616167381395717
 20
3.947736368366005
 30
0.0
 10
2.652923695337288
 20
3.924048858658282
 30
0.0
 10
2.627415928168177
 20
3.872744177227741
 30
0.0
 10
2.580545909384719
 20
3.878370061461279
 30
0.0
 10
2.396268198705084
 20
3.900482967922534
 30
0.0
 10
2.269337457719415
 20
4.081470522969525
 30
0.0
 10
2.269337457719421
 20
4.227077427678505
 30
0.0
 10
2.269337457719421
 20
4.343310531672063
 30
0.0
 10
2.320577705257523
 20
4.63202672233438
 30
0.0
 10
2.670537505259024
 20
4.632026722334384
 30
0.0
 10
2.981745956924327
 20
4.632026722334384
 30
0.0
 10
3.202970866951883
 20
4.343310531672068
 30
0.0
 10
3.202970866951881
 20
4.030227053736798
 30
0.0
 10
3.202970866951881
 20
3.724639653763103
 30
0.0
 10
3.013149425251564
 20
3.590536615125368
 30
0.0
 10
2.977996709808058
 20
3.533412747783973
 30
0.0
 10
2.948001927454257
 20
3.48467011900152
 30
0.0
 10
2.934878354411834
 20
3.458423778340332
 30
0.0
 10
2.942376043220716
 20
3.420928085483023
 30
0.0
 10
2.859886968697227
 20
3.443423568180632
 30
0.0
 10
2.753024163511546
 20
3.419053864636716
 30
0.0
 10
2.700532287612824
 20
3.321564579953541
 30
0.0
 10
2.6405395012106
 20
3.372183040429611
 30
0.0
 10
2.53367830687223
 20
3.362808714503458
 30
0.0
 10
2.490559951476002
 20
3.310316033181077
 30
0.0
 10
2.415567760337739
 20
3.398430186514452
 30
0.0
 10
2.314330033961943
 20
3.398430186514451
 30
0.0
 10
2.2580881055233
 20
3.375932287545875
 30
0.0
 10
2.213092307586149
 20
3.450923673260483
 30
0.0
 10
2.141850168987809
 20
3.495919471197634
 30
0.0
 10
2.051863405655443
 20
3.488419366117792
 30
0.0
 10
2.051863405655443
 20
3.570908440641281
 30
0.0
 10
1.967497694014682
 20
3.653399126012081
 30
0.0
 10
1.885009424914853
 20
3.653399126012079
 30
0.0
 10
1.89771498308008
 20
3.729638112969028
 30
0.0
 10
1.85043178196136
 20
3.865247293842514
 30
0.0
 10
1.755650331607904
 20
3.865247293842511
 30
0.0
 10
1.800646129545055
 20
3.962735773102039
 30
0.0
 10
1.736904096026563
 20
4.075220435402985
 30
0.0
 10
1.654412605232104
 20
4.090218229291718
 30
0.0
 10
1.691908298089408
 20
4.172707303815207
 30
0.0
 10
1.688156634702173
 20
4.292693682043311
 30
0.0
 10
1.61129344441223
 20
4.345187168789341
 30
0.0
 10
1.708782729095414
 20
4.4782947037889
 30
0.0
 10
1.643163253035993
 20
4.617028123022
 30
0.0
 10
1.605667560178689
 20
4.647023710799456
 30
0.0
 10
1.729403990946716
 20
4.753884905137826
 30
0.0
 10
1.667535372850875
 20
4.91324119706954
 30
0.0
 10
1.635666369650765
 20
4.950734473655867
 30
0.0
 10
1.697530960628329
 20
5.005104597519172
 30
0.0
 10
1.752672680353585
 20
5.163591837326621
 30
0.0
 10
1.645038279305951
 20
5.275069720058223
 30
0.0
 10
1.748150226528054
 20
5.297567619026799
 30
0.0
 10
1.790907752126621
 20
5.477348649437878
 30
0.0
 10
1.703156844861874
 20
5.543162232598274
 30
0.0
 10
1.817518144280092
 20
5.575032041222037
 30
0.0
 10
1.898132192533619
 20
5.786881819899783
 30
0.0
 10
1.74252675856548
 20
5.841249527492121
 30
0.0
 10
1.508559240884545
 20
5.922997612252566
 30
0.0
 10
1.370839044610041
 20
5.413762868108552
 30
0.0
 10
1.307582278843978
 20
5.261946147015795
 30
0.0
 10
1.288833224279843
 20
5.216953570773266
 30
0.0
 10
1.229187575473131
 20
5.22318674444304
 30
0.0
 10
1.193221382137591
 20
5.243199911434456
 30
0.0
 10
0.9607503416085423
 20
5.372558199317747
 30
0.0
 10
0.4620630229448919
 20
6.353060016486357
 30
0.0
 10
0.8745100064096443
 20
6.686768783391241
 30
0.0
 10
0.8955295502585829
 20
6.703775303876741
 30
0.0
 10
0.9495009894124243
 20
6.703640798126275
 30
0.0
 10
0.9738731092273065
 20
6.679268678311384
 30
0.0
 10
1.101357981687947
 20
6.551787027545366
 30
0.0
 10
1.199782765946972
 20
6.445861735494665
 30
0.0
 10
1.350701439663855
 20
6.334312975481392
 30
0.0
 10
1.35922886261627
 20
6.328009729953591
 30
0.0
 10
1.393820197771906
 20
6.305254095415261
 30
0.0
 10
1.395694821330044
 20
6.330564533788763
 30
0.0
 10
1.403471186723721
 20
6.43552976084213
 30
0.0
 10
1.336641964333767
 20
6.526476589171834
 30
0.0
 10
1.231655393553525
 20
6.563971476605492
 30
0.0
 10
1.250402031846694
 20
6.674581918060131
 30
0.0
 10
1.155725689280281
 20
6.818002902968135
 30
0.0
 10
1.07698545916124
 20
6.838625775666753
 30
0.0
 10
1.087296090086892
 20
6.870495584290516
 30
0.0
 10
1.140727492679733
 20
7.072033523907127
 30
0.0
 10
0.9884017438367154
 20
7.176550129984388
 30
0.0
 10
1.061988067984335
 20
7.258572058787697
 30
0.0
 10
1.126666003790497
 20
7.376681799898528
 30
0.0
 10
1.023553653856571
 20
7.526664571327746
 30
0.0
 10
1.087378646011578
 20
7.517546370124036
 30
0.0
 10
1.235634186411613
 20
7.632019623430366
 30
0.0
 10
1.193221382137591
 20
7.822876034527976
 30
0.0
 10
1.276647969796061
 20
7.830375334184168
 30
0.0
 10
1.421941161991233
 20
7.869746053311434
 30
0.0
 10
1.423816188261196
 20
8.052534535652075
 30
0.0
 10
1.543802163777472
 20
8.000041048906043
 30
0.0
 10
1.710656949941723
 20
8.077844168601938
 30
0.0
 10
1.718155444174255
 20
8.212827535295116
 30
0.0
 10
1.767838002362655
 20
8.13408690246424
 30
0.0
 10
2.049989990232794
 20
8.1125273220543
 30
0.0
 10
1.950625679279651
 20
8.310316014554648
 30
0.0
 10
2.174349013486511
 20
8.177832682888086
 30
0.0
 10
2.328077810337373
 20
7.990354218601567
 30
0.0
 10
2.446814171052162
 20
7.764132460215411
 30
0.0
 10
2.448062577718158
 20
7.832876980058101
 30
0.0
 10
2.453063453195046
 20
7.937861537279199
 30
0.0
 10
2.514304646263267
 20
8.005354428761255
 30
0.0
 10
2.550550321607263
 20
7.992854253628176
 30
0.0
 10
2.579297502718723
 20
7.991605846962178
 30
0.0
 10
2.633039396130749
 20
7.981606512279388
 30
0.0
 10
2.546801879914647
 20
7.93036384847032
 30
0.0
 10
2.493057570231652
 20
7.79413126968749
 30
0.0
 10
2.528052422638688
 20
7.687893473258452
 30
0.0
 10
2.555495622851923
 20
7.604593337113893
 30
0.0
 10
2.641789518723908
 20
7.486668038020167
 30
0.0
 10
2.713030046474935
 20
7.469170209104828
 30
0.0
 10
2.705531552242399
 20
7.469170209104828
 30
0.0
 10
2.66803666480875
 20
7.382932692888726
 30
0.0
 10
2.775521257056465
 20
7.342936159581146
 30
0.0
 10
2.864424725572212
 20
7.30985821547416
 30
0.0
 10
2.992995309120442
 20
7.277944913973001
 30
0.0
 10
3.03799110705759
 20
7.289195071592783
 30
0.0
 10
3.052540279970215
 20
7.292830753973628
 30
0.0
 10
3.072366588673557
 20
7.31370894597103
 30
0.0
 10
3.082984488723782
 20
7.326687542755462
 30
0.0
 10
3.094233035496242
 20
7.340437735401848
 30
0.0
 10
3.179222145046347
 20
7.301691219607581
 30
0.0
 10
3.17922214504634
 20
7.291691884924777
 30
0.0
 10
3.17922214504634
 20
7.267979407083735
 30
0.0
 10
3.125478640787
 20
7.112964348655068
 30
0.0
 10
3.04548799044282
 20
7.042973032993689
 30
0.0
 10
3.032869418032385
 20
7.031933090947999
 30
0.0
 10
2.997996990020985
 20
7.032974503734538
 30
0.0
 10
2.985496814887903
 20
7.042973032993689
 30
0.0
 10
2.956216443316515
 20
7.066397974589725
 30
0.0
 10
2.934252540231523
 20
7.110466729899416
 30
0.0
 10
2.904256952454067
 20
7.117964418708301
 30
0.0
 10
2.65678811803629
 20
7.192955804422908
 30
0.0
 10
2.220592412665995
 20
7.290442672835126
 30
0.0
 10
1.95812336808853
 20
7.215454508815132
 30
0.0
 10
1.95812336808853
 20
7.267944773866541
 30
0.0
 10
1.890632087453769
 20
7.320439871459885
 30
0.0
 10
1.84563951121124
 20
7.312939766380037
 30
0.0
 10
1.815643923433783
 20
7.305440466723845
 30
0.0
 10
1.800646129545055
 20
7.269164990704596
 30
0.0
 10
1.800646129545055
 20
7.245449291168942
 30
0.0
 10
1.800646129545055
 20
7.19295580442291
 30
0.0
 10
1.894383750841004
 20
6.98673110455505
 30
0.0
 10
2.078110551740285
 20
7.057971632306067
 30
0.0
 10
2.108106139517742
 20
6.907990471724163
 30
0.0
 10
2.250588000443454
 20
6.840499996513058
 30
0.0
 10
2.408067655257896
 20
6.870495584290527
 30
0.0
 10
2.385572172560287
 20
6.769257857914731
 30
0.0
 10
2.501805276553845
 20
6.600528850904174
 30
0.0
 10
2.678035194067904
 20
6.608028955984022
 30
0.0
  0
SPLINE
  5
74
330
1F
100
AcDbEntity
  8
0
  6
Continuous2
 62
   132
420
    49344
370
    -3
100
AcDbSpline
210
0.0
220
0.0
230
1.0
 70
    11
 71
     3
 72
    11
 73
     7
 74
     5
 42
0.000000001
 43
0.0000000001
 44
0.0
 12
1.0
 22
0.0
 32
0.0
 13
1.0
 23
1.316314099638874E-16
 33
0.0
 40
0.0
 40
0.0
 40
0.0
 40
0.0
 40
0.0899870911249108
 40
0.1799764603175111
 40
0.2699663990288411
 40
0.3599540596868972
 40
0.3599540596868972
 40
0.3599540596868972
 40
0.3599540596868972
 10
2.393070666792821
 20
7.657785126169227
 30
0.0
 10
2.423066363834458
 20
7.657785126169227
 30
0.0
 10
2.489298115073899
 20
7.594155794454373
 30
0.0
 10
2.393070665146852
 20
7.4987067053801
 30
0.0
 10
2.296841804087708
 20
7.594155909532162
 30
0.0
 10
2.3630747799068
 20
7.657785126169226
 30
0.0
 10
2.393070666792819
 20
7.657785126169226
 30
0.0
 11
2.393070666792821
 21
7.657785126169227
 31
0.0
 11
2.456702357270509
 21
7.594155851962501
 31
0.0
 11
2.393070666792821
 21
7.530523356061163
 31
0.0
 11
2.329438170891472
 21
7.594155851962501
 31
0.0
 11
2.393070666792819
 21
7.657785126169226
 31
0.0
  0
SPLINE
  5
75
330
1F
100
AcDbEntity
  8
0
  6
Continuous2
 62
   132
420
    49344
370
    -3
100
AcDbSpline
210
0.0
220
0.0
230
1.0
 70
     8
 71
     3
 72
    11
 73
     7
 74
     5
 42
0.000000001
 43
0.0000000001
 44
0.0
 12
-0.8859356593794745
 22
0.4638081580134786
 32
0.0
 13
0.6071900880323571
 23
0.7945566040221792
 33
0.0
 40
0.0
 40
0.0
 40
0.0
 40
0.0
 40
0.3425416602586492
 40
0.5538637982023409
 40
0.8209533124594375
 40
1.069233423764686
 40
1.069233423764686
 40
1.069233423764686
 40
1.069233423764686
 10
1.763685237994989
 20
7.719604613422096
 30
0.0
 10
1.662528614112927
 20
7.772562485584577
 30
0.0
 10
1.385731804431303
 20
7.870356033631719
 30
0.0
 10
1.381210879382356
 20
7.536327451188027
 30
0.0
 10
1.513510412103045
 20
7.249747064684453
 30
0.0
 10
1.708463088979983
 20
7.394997608724029
 30
0.0
 10
1.758714163193355
 20
7.460755142752344
 30
0.0
 11
1.763685237994989
 21
7.719604613422096
 31
0.0
 11
1.424859614606867
 21
7.769923456298326
 31
0.0
 11
1.399026053569114
 21
7.560186303868907
 31
0.0
 11
1.544095337988062
 21
7.335928168354794
 31
0.0
 11
1.758714163193355
 21
7.460755142752344
 31
0.0
  0
SPLINE
  5
76
330
1F
100
AcDbEntity
  8
0
  6
Continuous2
 62
   132
420
    49344
370
    -3
100
AcDbSpline
210
0.0
220
0.0
230
1.0
 70
     8
 71
     3
 72
     9
 73
     5
 74
     3
 42
0.000000001
 43
0.0000000001
 44
0.0
 12
0.6051991361036251
 22
0.7960741207070015
 32
0.0
 13
-0.6054481783781879
 23
-0.7958847299066201
 33
0.0
 40
0.0
 40
0.0
 40
0.0
 40
0.0
 40
0.0212114529462437
 40
0.0424209839009333
 40
0.0424209839009333
 40
0.0424209839009333
 40
0.0424209839009333
 10
1.758709330651421
 20
7.460750310210418
 30
0.0
 10
1.762988381650945
 20
7.466378939794785
 30
0.0
 10
1.784525179776259
 20
7.469923892843362
 30
0.0
 10
1.786866538878443
 20
7.448222841620967
 30
0.0
 10
1.782586114918186
 20
7.442596061015861
 30
0.0
 11
1.758709330651421
 21
7.460750310210418
 31
0.0
 11
1.779726860941225
 21
7.463611980458349
 31
0.0
 11
1.782586114918186
 21
7.442596061015861
 31
0.0
  0
SPLINE
  5
77
330
1F
100
AcDbEntity
  8
0
  6
Continuous2
 62
   132
420
    49344
370
    -3
100
AcDbSpline
210
0.0
220
0.0
230
1.0
 70
     8
 71
     3
 72
    11
 73
     7
 74
     5
 42
0.000000001
 43
0.0000000001
 44
0.0
 12
-0.6051497944036588
 22
-0.7961116293166489
 32
0.0
 13
0.8855175739705025
 23
-0.4646058826461367
 33
0.0
 40
0.0
 40
0.0
 40
0.0
 40
0.0
 40
0.2798775181526996
 40
0.5783162183085342
 40
0.821528169627556
 40
1.195736953810042
 40
1.195736953810042
 40
1.195736953810042
 40
1.195736953810042
 10
1.782586114918186
 20
7.442596061015852
 30
0.0
 10
1.726130174062082
 20
7.368324812020637
 30
0.0
 10
1.505828559646579
 20
7.213465131676378
 30
0.0
 10
1.345087635734099
 20
7.527970817249876
 30
0.0
 10
1.364108105745369
 20
7.900988442969178
 30
0.0
 10
1.667158888540639
 20
7.804123102673866
 30
0.0
 10
1.777615040116548
 20
7.746169901850852
 30
0.0
 11
1.782586114918186
 21
7.442596061015852
 31
0.0
 11
1.537994253797788
 21
7.306558394757662
 31
0.0
 11
1.369870119952496
 21
7.553134819765152
 31
0.0
 11
1.406422258997403
 21
7.793584387025415
 31
0.0
 11
1.777615040116548
 21
7.746169901850852
 31
0.0
  0
SPLINE
  5
78
330
1F
100
AcDbEntity
  8
0
  6
Continuous2
 62
   132
420
    49344
370
    -3
100
AcDbSpline
210
0.0
220
0.0
230
1.0
 70
     8
 71
     3
 72
     9
 73
     5
 74
     3
 42
0.000000001
 43
0.0000000001
 44
0.0
 12
0.8855859100148235
 22
-0.4644756139812046
 32
0.0
 13
-0.8856887905086892
 23
0.4642794054954998
 33
0.0
 40
0.0
 40
0.0
 40
0.0
 40
0.0
 40
0.0212105924795182
 40
0.0424232518247981
 40
0.0424232518247981
 40
0.0424232518247981
 40
0.0424232518247981
 10
1.777615040116548
 20
7.746169901850845
 30
0.0
 10
1.783876307397524
 20
7.742885967529235
 30
0.0
 10
1.790952007188701
 20
7.72223714573212
 30
0.0
 10
1.76994301031939
 20
7.716323357312809
 30
0.0
 10
1.763680405453059
 20
7.719606224269411
 30
0.0
 11
1.777615040116548
 21
7.746169901850845
 31
0.0
 11
1.78393117242284
 21
7.725921551152044
 31
0.0
 11
1.763680405453059
 21
7.719606224269411
 31
0.0
  0
LINE
  5
79
330
1F
100
AcDbEntity
  8
0
  6
Continuous2
 62
   132
420
    49344
370
    -3
100
AcDbLine
 10
2.406860325198324
 20
7.626712686964392
 30
0.0
 11
2.395569090972132
 21
7.59915511659209
 31
0.0
  0
SPLINE
  5
7A
330
1F
100
AcDbEntity
  8
0
  6
Continuous2
 62
   132
420
    49344
370
    -3
100
AcDbSpline
210
0.0
220
0.0
230
1.0
 70
     8
 71
     3
 72
     8
 73
     4
 74
     2
 42
0.000000001
 43
0.0000000001
 44
0.0
 12
1.0
 22
0.0
 32
0.0
 13
0.9206941935852386
 23
-0.3902847702619547
 33
0.0
 40
0.0
 40
0.0
 40
0.0
 40
0.0
 40
0.0140700283668999
 40
0.0140700283668999
 40
0.0140700283668999
 40
0.0140700283668999
 10
2.393070666792821
 20
7.629507507048924
 30
0.0
 10
2.397760676248454
 20
7.629507507048924
 30
0.0
 10
2.402542260724664
 20
7.628543126227321
 30
0.0
 10
2.406860325198326
 20
7.626712686964402
 30
0.0
 11
2.393070666792821
 21
7.629507507048924
 31
0.0
 11
2.406860325198326
 21
7.626712686964402
 31
0.0
  0
LINE
  5
7B
330
1F
100
AcDbEntity
  8
0
  6
Continuous2
 62
   132
420
    49344
370
    -3
100
AcDbLine
 10
2.395569090972132
 20
7.59915511659209
 30
0.0
 11
2.424660993408133
 21
7.609728718341241
 31
0.0
  0
SPLINE
  5
7C
330
1F
100
AcDbEntity
  8
0
  6
Continuous2
 62
   132
420
    49344
370
    -3
100
AcDbSpline
210
0.0
220
0.0
230
1.0
 70
     8
 71
     3
 72
    11
 73
     7
 74
     5
 42
0.000000001
 43
0.0000000001
 44
0.0
 12
0.4432285303395627
 22
-0.8964086511703419
 32
0.0
 13
1.0
 23
0.0
 33
0.0
 40
0.0
 40
0.0
 40
0.0
 40
0.0
 40
0.0160222324515638
 40
0.0660175920508894
 40
0.11601295165021
 40
0.1660088807797806
 40
0.1660088807797806
 40
0.1660088807797806
 40
0.1660088807797806
 10
2.424660993408133
 20
7.609728718341241
 30
0.0
 10
2.427028163588888
 20
7.604941229081026
 30
0.0
 10
2.433440620566301
 20
7.582960987963041
 30
0.0
 10
2.39344142436996
 20
7.540816433939705
 30
0.0
 10
2.339504149699343
 20
7.594242589945491
 30
0.0
 10
2.376405357082966
 20
7.629507507048924
 30
0.0
 10
2.393070666792823
 20
7.629507507048924
 30
0.0
 11
2.424660993408133
 21
7.609728718341241
 31
0.0
 11
2.428422321879236
 21
7.594154241115202
 31
0.0
 11
2.393070666792821
 21
7.558801780605119
 31
0.0
 11
2.357719011706412
 21
7.594154241115202
 31
0.0
 11
2.393070666792823
 21
7.629507507048924
 31
0.0
  0
SPLINE
  5
7D
330
1F
100
AcDbEntity
  8
0
  6
Continuous2
 62
   132
420
    49344
370
    -3
100
AcDbSpline
210
0.0
220
0.0
230
1.0
 70
    11
 71
     3
 72
   191
 73
   187
 74
     0
 42
0.000000001
 43
0.000001
 40
0.0
 40
0.0
 40
0.0
 40
0.0
 40
0.4025286672102307
 40
0.4025286672102307
 40
0.4025286672102307
 40
0.7962286096699852
 40
0.7962286096699852
 40
0.7962286096699852
 40
1.235676838219427
 40
1.235676838219427
 40
1.235676838219427
 40
1.390274719936684
 40
1.390274719936684
 40
1.390274719936684
 40
2.281529235667818
 40
2.281529235667818
 40
2.281529235667818
 40
2.78126216460308
 40
2.78126216460308
 40
2.78126216460308
 40
3.598171008272359
 40
3.598171008272359
 40
3.598171008272359
 40
4.156843498293054
 40
4.156843498293054
 40
4.156843498293054
 40
4.658543419600548
 40
4.658543419600548
 40
4.658543419600548
 40
4.949107232114564
 40
4.949107232114564
 40
4.949107232114564
 40
5.268396451737443
 40
5.268396451737443
 40
5.268396451737443
 40
5.346374485835713
 40
5.346374485835713
 40
5.346374485835713
 40
5.813758190774243
 40
5.813758190774243
 40
5.813758190774243
 40
6.383798022179097
 40
6.383798022179097
 40
6.383798022179097
 40
7.1873203465533
 40
7.1873203465533
 40
7.1873203465533
 40
7.73269895447807
 40
7.73269895447807
 40
7.73269895447807
 40
7.850688916513344
 40
7.850688916513344
 40
7.850688916513344
 40
8.112149254533545
 40
8.112149254533545
 40
8.112149254533545
 40
8.32242267593351
 40
8.32242267593351
 40
8.32242267593351
 40
8.563977332269344
 40
8.563977332269344
 40
8.563977332269344
 40
8.798885760558395
 40
8.798885760558395
 40
8.798885760558395
 40
9.03353139138019
 40
9.03353139138019
 40
9.03353139138019
 40
9.281751900674461
 40
9.281751900674461
 40
9.281751900674461
 40
9.528452121668753
 40
9.528452121668753
 40
9.528452121668753
 40
9.787041414057963
 40
9.787041414057963
 40
9.787041414057963
 40
10.08893038150466
 40
10.08893038150466
 40
10.08893038150466
 40
10.3941191035187
 40
10.3941191035187
 40
10.3941191035187
 40
10.71858972583984
 40
10.71858972583984
 40
10.71858972583984
 40
10.99290954455937
 40
10.99290954455937
 40
10.99290954455937
 40
11.29358549218764
 40
11.29358549218764
 40
11.29358549218764
 40
12.01799498071709
 40
12.01799498071709
 40
12.01799498071709
 40
12.13388215017066
 40
12.13388215017066
 40
12.13388215017066
 40
13.61221500480827
 40
13.61221500480827
 40
13.61221500480827
 40
13.71186076627238
 40
13.71186076627238
 40
13.71186076627238
 40
14.2227365119626
 40
14.2227365119626
 40
14.2227365119626
 40
14.26788576676134
 40
14.26788576676134
 40
14.26788576676134
 40
14.55317112358903
 40
14.55317112358903
 40
14.55317112358903
 40
14.86838180329031
 40
14.86838180329031
 40
14.86838180329031
 40
15.21772396201395
 40
15.21772396201395
 40
15.21772396201395
 40
15.56959862551676
 40
15.56959862551676
 40
15.56959862551676
 40
15.91096114389167
 40
15.91096114389167
 40
15.91096114389167
 40
16.23641005193985
 40
16.23641005193985
 40
16.23641005193985
 40
16.57156590121898
 40
16.57156590121898
 40
16.57156590121898
 40
16.82365004153386
 40
16.82365004153386
 40
16.82365004153386
 40
17.56156568332371
 40
17.56156568332371
 40
17.56156568332371
 40
17.8120512165454
 40
17.8120512165454
 40
17.8120512165454
 40
17.93313756740016
 40
17.93313756740016
 40
17.93313756740016
 40
18.24505039800182
 40
18.24505039800182
 40
18.24505039800182
 40
18.53150560846607
 40
18.53150560846607
 40
18.53150560846607
 40
18.67236080595304
 40
18.67236080595304
 40
18.67236080595304
 40
18.94027595427016
 40
18.94027595427016
 40
18.94027595427016
 40
18.99884292267082
 40
18.99884292267082
 40
18.99884292267082
 40
19.10124596247659
 40
19.10124596247659
 40
19.10124596247659
 40
19.38363911291306
 40
19.38363911291306
 40
19.38363911291306
 40
19.44363028846798
 40
19.44363028846798
 40
19.44363028846798
 40
19.55419078403338
 40
19.55419078403338
 40
19.55419078403338
 40
20.50533382119099
 40
20.50533382119099
 40
20.50533382119099
 40
20.65418271604912
 40
20.65418271604912
 40
20.65418271604912
 40
20.73529602345289
 40
20.73529602345289
 40
20.73529602345289
 40
21.07016073965458
 40
21.07016073965458
 40
21.07016073965458
 40
21.4496590383876
 40
21.4496590383876
 40
21.4496590383876
 40
21.82618420751407
 40
21.82618420751407
 40
21.82618420751407
 40
21.82618420751407
 10
2.678035194067903
 20
6.608028955984015
 30
0.0
 10
2.595543703273448
 20
6.431799843893611
 30
0.0
 10
2.734277927930204
 20
6.289317982967898
 30
0.0
 10
2.850512642771066
 20
6.244324601301681
 30
0.0
 10
2.753024163511538
 20
6.139336822385961
 30
0.0
 10
2.775521257056458
 20
5.955611632333987
 30
0.0
 10
2.850512642771066
 20
5.850624658841927
 30
0.0
 10
2.685535299147744
 20
5.813128965984623
 30
0.0
 10
2.648037190019473
 20
5.603152602729527
 30
0.0
 10
2.663037400179179
 20
5.453173052994931
 30
0.0
 10
2.61054149716218
 20
5.460673963498434
 30
0.0
 10
2.55805123211077
 20
5.49816724008477
 30
0.0
 10
2.543052632798383
 20
5.550662337678116
 30
0.0
 10
2.430566359650127
 20
5.273195499211916
 30
0.0
 10
2.320321580535076
 20
4.99934662380614
 30
0.0
 10
2.20559461877727
 20
4.725764343630328
 30
0.0
 10
2.181222498962388
 20
4.667647388921721
 30
0.0
 10
2.079984772586592
 20
4.446424895165132
 30
0.0
 10
2.079984772586593
 20
4.24207522156723
 30
0.0
 10
2.079984772586593
 20
3.966485020218303
 30
0.0
 10
2.158724599993813
 20
3.608404133498575
 30
0.0
 10
2.595543703273443
 20
3.608404133498577
 30
0.0
 10
2.799894182294997
 20
3.608404133498577
 30
0.0
 10
2.972374047269133
 20
3.82962582183151
 30
0.0
 10
2.972374047269143
 20
4.020852727810652
 30
0.0
 10
2.972374047269143
 20
4.262698094265855
 30
0.0
 10
2.805066613010511
 20
4.409041961619604
 30
0.0
 10
2.668660868141747
 20
4.420178554503938
 30
0.0
 10
2.576797467692105
 20
4.427676243312819
 30
0.0
 10
2.454938479465005
 20
4.36205998894802
 30
0.0
 10
2.454938479465004
 20
4.223328180562238
 30
0.0
 10
2.454938479465004
 20
4.048974094741795
 30
0.0
 10
2.531804086025918
 20
4.002103270534683
 30
0.0
 10
2.616167381395717
 20
3.947736368366005
 30
0.0
 10
2.652923695337288
 20
3.924048858658282
 30
0.0
 10
2.627415928168177
 20
3.872744177227741
 30
0.0
 10
2.580545909384719
 20
3.878370061461279
 30
0.0
 10
2.396268198705084
 20
3.900482967922534
 30
0.0
 10
2.269337457719415
 20
4.081470522969525
 30
0.0
 10
2.269337457719421
 20
4.227077427678505
 30
0.0
 10
2.269337457719421
 20
4.343310531672063
 30
0.0
 10
2.320577705257523
 20
4.63202672233438
 30
0.0
 10
2.670537505259024
 20
4.632026722334384
 30
0.0
 10
2.981745956924327
 20
4.632026722334384
 30
0.0
 10
3.202970866951883
 20
4.343310531672068
 30
0.0
 10
3.202970866951881
 20
4.030227053736798
 30
0.0
 10
3.202970866951881
 20
3.724639653763103
 30
0.0
 10
3.013149425251564
 20
3.590536615125368
 30
0.0
 10
2.977996709808058
 20
3.533412747783973
 30
0.0
 10
2.948001927454257
 20
3.48467011900152
 30
0.0
 10
2.934878354411834
 20
3.458423778340332
 30
0.0
 10
2.942376043220716
 20
3.420928085483023
 30
0.0
 10
2.859886968697227
 20
3.443423568180632
 30
0.0
 10
2.753024163511546
 20
3.419053864636716
 30
0.0
 10
2.700532287612824
 20
3.321564579953541
 30
0.0
 10
2.6405395012106
 20
3.372183040429611
 30
0.0
 10
2.53367830687223
 20
3.362808714503458
 30
0.0
 10
2.490559951476002
 20
3.310316033181077
 30
0.0
 10
2.415567760337739
 20
3.398430186514452
 30
0.0
 10
2.314330033961943
 20
3.398430186514451
 30
0.0
 10
2.2580881055233
 20
3.375932287545875
 30
0.0
 10
2.213092307586149
 20
3.450923673260483
 30
0.0
 10
2.141850168987809
 20
3.495919471197634
 30
0.0
 10
2.051863405655443
 20
3.488419366117792
 30
0.0
 10
2.051863405655443
 20
3.570908440641281
 30
0.0
 10
1.967497694014682
 20
3.653399126012081
 30
0.0
 10
1.885009424914853
 20
3.653399126012079
 30
0.0
 10
1.89771498308008
 20
3.729638112969028
 30
0.0
 10
1.85043178196136
 20
3.865247293842514
 30
0.0
 10
1.755650331607904
 20
3.865247293842511
 30
0.0
 10
1.800646129545055
 20
3.962735773102039
 30
0.0
 10
1.736904096026563
 20
4.075220435402985
 30
0.0
 10
1.654412605232104
 20
4.090218229291718
 30
0.0
 10
1.691908298089408
 20
4.172707303815207
 30
0.0
 10
1.688156634702173
 20
4.292693682043311
 30
0.0
 10
1.61129344441223
 20
4.345187168789341
 30
0.0
 10
1.708782729095414
 20
4.4782947037889
 30
0.0
 10
1.643163253035993
 20
4.617028123022
 30
0.0
 10
1.605667560178689
 20
4.647023710799456
 30
0.0
 10
1.729403990946716
 20
4.753884905137826
 30
0.0
 10
1.667535372850875
 20
4.91324119706954
 30
0.0
 10
1.635666369650765
 20
4.950734473655867
 30
0.0
 10
1.697530960628329
 20
5.005104597519172
 30
0.0
 10
1.752672680353585
 20
5.163591837326621
 30
0.0
 10
1.645038279305951
 20
5.275069720058223
 30
0.0
 10
1.748150226528054
 20
5.297567619026799
 30
0.0
 10
1.790907752126621
 20
5.477348649437878
 30
0.0
 10
1.703156844861874
 20
5.543162232598274
 30
0.0
 10
1.817518144280092
 20
5.575032041222037
 30
0.0
 10
1.898132192533619
 20
5.786881819899783
 30
0.0
 10
1.74252675856548
 20
5.841249527492121
 30
0.0
 10
1.508559240884545
 20
5.922997612252566
 30
0.0
 10
1.370839044610041
 20
5.413762868108552
 30
0.0
 10
1.307582278843978
 20
5.261946147015795
 30
0.0
 10
1.288833224279843
 20
5.216953570773266
 30
0.0
 10
1.229187575473131
 20
5.22318674444304
 30
0.0
 10
1.193221382137591
 20
5.243199911434456
 30
0.0
 10
0.9607503416085423
 20
5.372558199317747
 30
0.0
 10
0.4620630229448919
 20
6.353060016486357
 30
0.0
 10
0.8745100064096443
 20
6.686768783391241
 30
0.0
 10
0.8955295502585829
 20
6.703775303876741
 30
0.0
 10
0.9495009894124243
 20
6.703640798126275
 30
0.0
 10
0.9738731092273065
 20
6.679268678311384
 30
0.0
 10
1.101357981687947
 20
6.551787027545366
 30
0.0
 10
1.199782765946972
 20
6.445861735494665
 30
0.0
 10
1.350701439663855
 20
6.334312975481392
 30
0.0
 10
1.35922886261627
 20
6.328009729953591
 30
0.0
 10
1.393820197771906
 20
6.305254095415261
 30
0.0
 10
1.395694821330044
 20
6.330564533788763
 30
0.0
 10
1.403471186723721
 20
6.43552976084213
 30
0.0
 10
1.336641964333767
 20
6.526476589171834
 30
0.0
 10
1.231655393553525
 20
6.563971476605492
 30
0.0
 10
1.250402031846694
 20
6.674581918060131
 30
0.0
 10
1.155725689280281
 20
6.818002902968135
 30
0.0
 10
1.07698545916124
 20
6.838625775666753
 30
0.0
 10
1.087296090086892
 20
6.870495584290516
 30
0.0
 10
1.140727492679733
 20
7.072033523907127
 30
0.0
 10
0.9884017438367154
 20
7.176550129984388
 30
0.0
 10
1.061988067984335
 20
7.258572058787697
 30
0.0
 10
1.126666003790497
 20
7.376681799898528
 30
0.0
 10
1.023553653856571
 20
7.526664571327746
 30
0.0
 10
1.087378646011578
 20
7.517546370124036
 30
0.0
 10
1.235634186411613
 20
7.632019623430366
 30
0.0
 10
1.193221382137591
 20
7.822876034527976
 30
0.0
 10
1.276647969796061
 20
7.830375334184168
 30
0.0
 10
1.421941161991233
 20
7.869746053311434
 30
0.0
 10
1.423816188261196
 20
8.052534535652075
 30
0.0
 10
1.543802163777472
 20
8.000041048906043
 30
0.0
 10
1.710656949941723
 20
8.077844168601938
 30
0.0
 10
1.718155444174255
 20
8.212827535295116
 30
0.0
 10
1.767838002362655
 20
8.13408690246424
 30
0.0
 10
2.049989990232794
 20
8.1125273220543
 30
0.0
 10
1.950625679279651
 20
8.310316014554648
 30
0.0
 10
2.174349013486511
 20
8.177832682888086
 30
0.0
 10
2.328077810337373
 20
7.990354218601567
 30
0.0
 10
2.446814171052162
 20
7.764132460215411
 30
0.0
 10
2.448062577718158
 20
7.832876980058101
 30
0.0
 10
2.453063453195046
 20
7.937861537279199
 30
0.0
 10
2.514304646263267
 20
8.005354428761255
 30
0.0
 10
2.550550321607263
 20
7.992854253628176
 30
0.0
 10
2.579297502718723
 20
7.991605846962178
 30
0.0
 10
2.633039396130749
 20
7.981606512279388
 30
0.0
 10
2.546801879914647
 20
7.93036384847032
 30
0.0
 10
2.493057570231652
 20
7.79413126968749
 30
0.0
 10
2.528052422638688
 20
7.687893473258452
 30
0.0
 10
2.555495622851923
 20
7.604593337113893
 30
0.0
 10
2.641789518723908
 20
7.486668038020167
 30
0.0
 10
2.713030046474935
 20
7.469170209104828
 30
0.0
 10
2.705531552242399
 20
7.469170209104828
 30
0.0
 10
2.66803666480875
 20
7.382932692888726
 30
0.0
 10
2.775521257056465
 20
7.342936159581146
 30
0.0
 10
2.864424725572212
 20
7.30985821547416
 30
0.0
 10
2.992995309120442
 20
7.277944913973001
 30
0.0
 10
3.03799110705759
 20
7.289195071592783
 30
0.0
 10
3.052540279970215
 20
7.292830753973628
 30
0.0
 10
3.072366588673557
 20
7.31370894597103
 30
0.0
 10
3.082984488723782
 20
7.326687542755462
 30
0.0
 10
3.094233035496242
 20
7.340437735401848
 30
0.0
 10
3.179222145046347
 20
7.301691219607581
 30
0.0
 10
3.17922214504634
 20
7.291691884924777
 30
0.0
 10
3.17922214504634
 20
7.267979407083735
 30
0.0
 10
3.125478640787
 20
7.112964348655068
 30
0.0
 10
3.04548799044282
 20
7.042973032993689
 30
0.0
 10
3.032869418032385
 20
7.031933090947999
 30
0.0
 10
2.997996990020985
 20
7.032974503734538
 30
0.0
 10
2.985496814887903
 20
7.042973032993689
 30
0.0
 10
2.956216443316515
 20
7.066397974589725
 30
0.0
 10
2.934252540231523
 20
7.110466729899416
 30
0.0
 10
2.904256952454067
 20
7.117964418708301
 30
0.0
 10
2.65678811803629
 20
7.192955804422908
 30
0.0
 10
2.220592412665995
 20
7.290442672835126
 30
0.0
 10
1.95812336808853
 20
7.215454508815132
 30
0.0
 10
1.95812336808853
 20
7.267944773866541
 30
0.0
 10
1.890632087453769
 20
7.320439871459885
 30
0.0
 10
1.84563951121124
 20
7.312939766380037
 30
0.0
 10
1.815643923433783
 20
7.305440466723845
 30
0.0
 10
1.800646129545055
 20
7.269164990704596
 30
0.0
 10
1.800646129545055
 20
7.245449291168942
 30
0.0
 10
1.800646129545055
 20
7.19295580442291
 30
0.0
 10
1.894383750841004
 20
6.98673110455505
 30
0.0
 10
2.078110551740285
 20
7.057971632306067
 30
0.0
 10
2.108106139517742
 20
6.907990471724163
 30
0.0
 10
2.250588000443454
 20
6.840499996513058
 30
0.0
 10
2.408067655257896
 20
6.870495584290527
 30
0.0
 10
2.385572172560287
 20
6.769257857914731
 30
0.0
 10
2.501805276553845
 20
6.600528850904174
 30
0.0
 10
2.678035194067904
 20
6.608028955984022
 30
0.0
  0
SPLINE
  5
7E
330
1F
100
AcDbEntity
  8
0
  6
Continuous2
 62
   132
420
    49344
370
    -3
100
AcDbSpline
210
0.0
220
0.0
230
1.0
 70
    11
 71
     3
 72
    11
 73
     7
 74
     5
 42
0.000000001
 43
0.0000000001
 44
0.0
 12
1.0
 22
0.0
 32
0.0
 13
1.0
 23
1.316314099638874E-16
 33
0.0
 40
0.0
 40
0.0
 40
0.0
 40
0.0
 40
0.0899870911249108
 40
0.1799764603175111
 40
0.2699663990288411
 40
0.3599540596868972
 40
0.3599540596868972
 40
0.3599540596868972
 40
0.3599540596868972
 10
2.393070666792821
 20
7.657785126169227
 30
0.0
 10
2.423066363834458
 20
7.657785126169227
 30
0.0
 10
2.489298115073899
 20
7.594155794454373
 30
0.0
 10
2.393070665146852
 20
7.4987067053801
 30
0.0
 10
2.296841804087708
 20
7.594155909532162
 30
0.0
 10
2.3630747799068
 20
7.657785126169226
 30
0.0
 10
2.393070666792819
 20
7.657785126169226
 30
0.0
 11
2.393070666792821
 21
7.657785126169227
 31
0.0
 11
2.456702357270509
 21
7.594155851962501
 31
0.0
 11
2.393070666792821
 21
7.530523356061163
 31
0.0
 11
2.329438170891472
 21
7.594155851962501
 31
0.0
 11
2.393070666792819
 21
7.657785126169226
 31
0.0
  0
SPLINE
  5
7F
330
1F
100
AcDbEntity
  8
0
  6
Continuous2
 62
   132
420
    49344
370
    -3
100
AcDbSpline
210
0.0
220
0.0
230
1.0
 70
     8
 71
     3
 72
    11
 73
     7
 74
     5
 42
0.000000001
 43
0.0000000001
 44
0.0
 12
-0.8859356593794745
 22
0.4638081580134786
 32
0.0
 13
0.6071900880323571
 23
0.7945566040221792
 33
0.0
 40
0.0
 40
0.0
 40
0.0
 40
0.0
 40
0.3425416602586492
 40
0.5538637982023409
 40
0.8209533124594375
 40
1.069233423764686
 40
1.069233423764686
 40
1.069233423764686
 40
1.069233423764686
 10
1.763685237994989
 20
7.719604613422096
 30
0.0
 10
1.662528614112927
 20
7.772562485584577
 30
0.0
 10
1.385731804431303
 20
7.870356033631719
 30
0.0
 10
1.381210879382356
 20
7.536327451188027
 30
0.0
 10
1.513510412103045
 20
7.249747064684453
 30
0.0
 10
1.708463088979983
 20
7.394997608724029
 30
0.0
 10
1.758714163193355
 20
7.460755142752344
 30
0.0
 11
1.763685237994989
 21
7.719604613422096
 31
0.0
 11
1.424859614606867
 21
7.769923456298326
 31
0.0
 11
1.399026053569114
 21
7.560186303868907
 31
0.0
 11
1.544095337988062
 21
7.335928168354794
 31
0.0
 11
1.758714163193355
 21
7.460755142752344
 31
0.0
  0
SPLINE
  5
80
330
1F
100
AcDbEntity
  8
0
  6
Continuous2
 62
   132
420
    49344
370
    -3
100
AcDbSpline
210
0.0
220
0.0
230
1.0
 70
     8
 71
     3
 72
     9
 73
     5
 74
     3
 42
0.000000001
 43
0.0000000001
 44
0.0
 12
0.6051991361036251
 22
0.7960741207070015
 32
0.0
 13
-0.6054481783781879
 23
-0.7958847299066201
 33
0.0
 40
0.0
 40
0.0
 40
0.0
 40
0.0
 40
0.0212114529462437
 40
0.0424209839009333
 40
0.0424209839009333
 40
0.0424209839009333
 40
0.0424209839009333
 10
1.758709330651421
 20
7.460750310210418
 30
0.0
 10
1.762988381650945
 20
7.466378939794785
 30
0.0
 10
1.784525179776259
 20
7.469923892843362
 30
0.0
 10
1.786866538878443
 20
7.448222841620967
 30
0.0
 10
1.782586114918186
 20
7.442596061015861
 30
0.0
 11
1.758709330651421
 21
7.460750310210418
 31
0.0
 11
1.779726860941225
 21
7.463611980458349
 31
0.0
 11
1.782586114918186
 21
7.442596061015861
 31
0.0
  0
SPLINE
  5
81
330
1F
100
AcDbEntity
  8
0
  6
Continuous2
 62
   132
420
    49344
370
    -3
100
AcDbSpline
210
0.0
220
0.0
230
1.0
 70
     8
 71
     3
 72
    11
 73
     7
 74
     5
 42
0.000000001
 43
0.0000000001
 44
0.0
 12
-0.6051497944036588
 22
-0.7961116293166489
 32
0.0
 13
0.8855175739705025
 23
-0.4646058826461367
 33
0.0
 40
0.0
 40
0.0
 40
0.0
 40
0.0
 40
0.2798775181526996
 40
0.5783162183085342
 40
0.821528169627556
 40
1.195736953810042
 40
1.195736953810042
 40
1.195736953810042
 40
1.195736953810042
 10
1.782586114918186
 20
7.442596061015852
 30
0.0
 10
1.726130174062082
 20
7.368324812020637
 30
0.0
 10
1.505828559646579
 20
7.213465131676378
 30
0.0
 10
1.345087635734099
 20
7.527970817249876
 30
0.0
 10
1.364108105745369
 20
7.900988442969178
 30
0.0
 10
1.667158888540639
 20
7.804123102673866
 30
0.0
 10
1.777615040116548
 20
7.746169901850852
 30
0.0
 11
1.782586114918186
 21
7.442596061015852
 31
0.0
 11
1.537994253797788
 21
7.306558394757662
 31
0.0
 11
1.369870119952496
 21
7.553134819765152
 31
0.0
 11
1.406422258997403
 21
7.793584387025415
 31
0.0
 11
1.777615040116548
 21
7.746169901850852
 31
0.0
  0
SPLINE
  5
82
330
1F
100
AcDbEntity
  8
0
  6
Continuous2
 62
   132
420
    49344
370
    -3
100
AcDbSpline
210
0.0
220
0.0
230
1.0
 70
     8
 71
     3
 72
     9
 73
     5
 74
     3
 42
0.000000001
 43
0.0000000001
 44
0.0
 12
0.8855859100148235
 22
-0.4644756139812046
 32
0.0
 13
-0.8856887905086892
 23
0.4642794054954998
 33
0.0
 40
0.0
 40
0.0
 40
0.0
 40
0.0
 40
0.0212105924795182
 40
0.0424232518247981
 40
0.0424232518247981
 40
0.0424232518247981
 40
0.0424232518247981
 10
1.777615040116548
 20
7.746169901850845
 30
0.0
 10
1.783876307397524
 20
7.742885967529235
 30
0.0
 10
1.790952007188701
 20
7.72223714573212
 30
0.0
 10
1.76994301031939
 20
7.716323357312809
 30
0.0
 10
1.763680405453059
 20
7.719606224269411
 30
0.0
 11
1.777615040116548
 21
7.746169901850845
 31
0.0
 11
1.78393117242284
 21
7.725921551152044
 31
0.0
 11
1.763680405453059
 21
7.719606224269411
 31
0.0
  0
LINE
  5
83
330
1F
100
AcDbEntity
  8
0
  6
Continuous2
 62
   132
420
    49344
370
    -3
100
AcDbLine
 10
2.406860325198324
 20
7.626712686964392
 30
0.0
 11
2.395569090972132
 21
7.59915511659209
 31
0.0
  0
SPLINE
  5
84
330
1F
100
AcDbEntity
  8
0
  6
Continuous2
 62
   132
420
    49344
370
    -3
100
AcDbSpline
210
0.0
220
0.0
230
1.0
 70
     8
 71
     3
 72
     8
 73
     4
 74
     2
 42
0.000000001
 43
0.0000000001
 44
0.0
 12
1.0
 22
0.0
 32
0.0
 13
0.9206941935852386
 23
-0.3902847702619547
 33
0.0
 40
0.0
 40
0.0
 40
0.0
 40
0.0
 40
0.0140700283668999
 40
0.0140700283668999
 40
0.0140700283668999
 40
0.0140700283668999
 10
2.393070666792821
 20
7.629507507048924
 30
0.0
 10
2.397760676248454
 20
7.629507507048924
 30
0.0
 10
2.402542260724664
 20
7.628543126227321
 30
0.0
 10
2.406860325198326
 20
7.626712686964402
 30
0.0
 11
2.393070666792821
 21
7.629507507048924
 31
0.0
 11
2.406860325198326
 21
7.626712686964402
 31
0.0
  0
LINE
  5
85
330
1F
100
AcDbEntity
  8
0
  6
Continuous2
 62
   132
420
    49344
370
    -3
100
AcDbLine
 10
2.395569090972132
 20
7.59915511659209
 30
0.0
 11
2.424660993408133
 21
7.609728718341241
 31
0.0
  0
SPLINE
  5
86
330
1F
100
AcDbEntity
  8
0
  6
Continuous2
 62
   132
420
    49344
370
    -3
100
AcDbSpline
210
0.0
220
0.0
230
1.0
 70
     8
 71
     3
 72
    11
 73
     7
 74
     5
 42
0.000000001
 43
0.0000000001
 44
0.0
 12
0.4432285303395627
 22
-0.8964086511703419
 32
0.0
 13
1.0
 23
0.0
 33
0.0
 40
0.0
 40
0.0
 40
0.0
 40
0.0
 40
0.0160222324515638
 40
0.0660175920508894
 40
0.11601295165021
 40
0.1660088807797806
 40
0.1660088807797806
 40
0.1660088807797806
 40
0.1660088807797806
 10
2.424660993408133
 20
7.609728718341241
 30
0.0
 10
2.427028163588888
 20
7.604941229081026
 30
0.0
 10
2.433440620566301
 20
7.582960987963041
 30
0.0
 10
2.39344142436996
 20
7.540816433939705
 30
0.0
 10
2.339504149699343
 20
7.594242589945491
 30
0.0
 10
2.376405357082966
 20
7.629507507048924
 30
0.0
 10
2.393070666792823
 20
7.629507507048924
 30
0.0
 11
2.424660993408133
 21
7.609728718341241
 31
0.0
 11
2.428422321879236
 21
7.594154241115202
 31
0.0
 11
2.393070666792821
 21
7.558801780605119
 31
0.0
 11
2.357719011706412
 21
7.594154241115202
 31
0.0
 11
2.393070666792823
 21
7.629507507048924
 31
0.0
  0
SPLINE
  5
87
330
1F
100
AcDbEntity
  8
0
  6
Continuous2
 62
   132
420
    49344
370
    -3
100
AcDbSpline
210
0.0
220
0.0
230
1.0
 70
    11
 71
     3
 72
   191
 73
   187
 74
     0
 42
0.000000001
 43
0.000001
 40
0.0
 40
0.0
 40
0.0
 40
0.0
 40
0.4025286672102307
 40
0.4025286672102307
 40
0.4025286672102307
 40
0.7962286096699852
 40
0.7962286096699852
 40
0.7962286096699852
 40
1.235676838219427
 40
1.235676838219427
 40
1.235676838219427
 40
1.390274719936684
 40
1.390274719936684
 40
1.390274719936684
 40
2.281529235667818
 40
2.281529235667818
 40
2.281529235667818
 40
2.78126216460308
 40
2.78126216460308
 40
2.78126216460308
 40
3.598171008272359
 40
3.598171008272359
 40
3.598171008272359
 40
4.156843498293054
 40
4.156843498293054
 40
4.156843498293054
 40
4.658543419600548
 40
4.658543419600548
 40
4.658543419600548
 40
4.949107232114564
 40
4.949107232114564
 40
4.949107232114564
 40
5.268396451737443
 40
5.268396451737443
 40
5.268396451737443
 40
5.346374485835713
 40
5.346374485835713
 40
5.346374485835713
 40
5.813758190774243
 40
5.813758190774243
 40
5.813758190774243
 40
6.383798022179097
 40
6.383798022179097
 40
6.383798022179097
 40
7.1873203465533
 40
7.1873203465533
 40
7.1873203465533
 40
7.73269895447807
 40
7.73269895447807
 40
7.73269895447807
 40
7.850688916513344
 40
7.850688916513344
 40
7.850688916513344
 40
8.112149254533545
 40
8.112149254533545
 40
8.112149254533545
 40
8.32242267593351
 40
8.32242267593351
 40
8.32242267593351
 40
8.563977332269344
 40
8.563977332269344
 40
8.563977332269344
 40
8.798885760558395
 40
8.798885760558395
 40
8.798885760558395
 40
9.03353139138019
 40
9.03353139138019
 40
9.03353139138019
 40
9.281751900674461
 40
9.281751900674461
 40
9.281751900674461
 40
9.528452121668753
 40
9.528452121668753
 40
9.528452121668753
 40
9.787041414057963
 40
9.787041414057963
 40
9.787041414057963
 40
10.08893038150466
 40
10.08893038150466
 40
10.08893038150466
 40
10.3941191035187
 40
10.3941191035187
 40
10.3941191035187
 40
10.71858972583984
 40
10.71858972583984
 40
10.71858972583984
 40
10.99290954455937
 40
10.99290954455937
 40
10.99290954455937
 40
11.29358549218764
 40
11.29358549218764
 40
11.29358549218764
 40
12.01799498071709
 40
12.01799498071709
 40
12.01799498071709
 40
12.13388215017066
 40
12.13388215017066
 40
12.13388215017066
 40
13.61221500480827
 40
13.61221500480827
 40
13.61221500480827
 40
13.71186076627238
 40
13.71186076627238
 40
13.71186076627238
 40
14.2227365119626
 40
14.2227365119626
 40
14.2227365119626
 40
14.26788576676134
 40
14.26788576676134
 40
14.26788576676134
 40
14.55317112358903
 40
14.55317112358903
 40
14.55317112358903
 40
14.86838180329031
 40
14.86838180329031
 40
14.86838180329031
 40
15.21772396201395
 40
15.21772396201395
 40
15.21772396201395
 40
15.56959862551676
 40
15.56959862551676
 40
15.56959862551676
 40
15.91096114389167
 40
15.91096114389167
 40
15.91096114389167
 40
16.23641005193985
 40
16.23641005193985
 40
16.23641005193985
 40
16.57156590121898
 40
16.57156590121898
 40
16.57156590121898
 40
16.82365004153386
 40
16.82365004153386
 40
16.82365004153386
 40
17.56156568332371
 40
17.56156568332371
 40
17.56156568332371
 40
17.8120512165454
 40
17.8120512165454
 40
17.8120512165454
 40
17.93313756740016
 40
17.93313756740016
 40
17.93313756740016
 40
18.24505039800182
 40
18.24505039800182
 40
18.24505039800182
 40
18.53150560846607
 40
18.53150560846607
 40
18.53150560846607
 40
18.67236080595304
 40
18.67236080595304
 40
18.67236080595304
 40
18.94027595427016
 40
18.94027595427016
 40
18.94027595427016
 40
18.99884292267082
 40
18.99884292267082
 40
18.99884292267082
 40
19.10124596247659
 40
19.10124596247659
 40
19.10124596247659
 40
19.38363911291306
 40
19.38363911291306
 40
19.38363911291306
 40
19.44363028846798
 40
19.44363028846798
 40
19.44363028846798
 40
19.55419078403338
 40
19.55419078403338
 40
19.55419078403338
 40
20.50533382119099
 40
20.50533382119099
 40
20.50533382119099
 40
20.65418271604912
 40
20.65418271604912
 40
20.65418271604912
 40
20.73529602345289
 40
20.73529602345289
 40
20.73529602345289
 40
21.07016073965458
 40
21.07016073965458
 40
21.07016073965458
 40
21.4496590383876
 40
21.4496590383876
 40
21.4496590383876
 40
21.82618420751407
 40
21.82618420751407
 40
21.82618420751407
 40
21.82618420751407
 10
2.678035194067903
 20
6.608028955984015
 30
0.0
 10
2.595543703273448
 20
6.431799843893611
 30
0.0
 10
2.734277927930204
 20
6.289317982967898
 30
0.0
 10
2.850512642771066
 20
6.244324601301681
 30
0.0
 10
2.753024163511538
 20
6.139336822385961
 30
0.0
 10
2.775521257056458
 20
5.955611632333987
 30
0.0
 10
2.850512642771066
 20
5.850624658841927
 30
0.0
 10
2.685535299147744
 20
5.813128965984623
 30
0.0
 10
2.648037190019473
 20
5.603152602729527
 30
0.0
 10
2.663037400179179
 20
5.453173052994931
 30
0.0
 10
2.61054149716218
 20
5.460673963498434
 30
0.0
 10
2.55805123211077
 20
5.49816724008477
 30
0.0
 10
2.543052632798383
 20
5.550662337678116
 30
0.0
 10
2.430566359650127
 20
5.273195499211916
 30
0.0
 10
2.320321580535076
 20
4.99934662380614
 30
0.0
 10
2.20559461877727
 20
4.725764343630328
 30
0.0
 10
2.181222498962388
 20
4.667647388921721
 30
0.0
 10
2.079984772586592
 20
4.446424895165132
 30
0.0
 10
2.079984772586593
 20
4.24207522156723
 30
0.0
 10
2.079984772586593
 20
3.966485020218303
 30
0.0
 10
2.158724599993813
 20
3.608404133498575
 30
0.0
 10
2.595543703273443
 20
3.608404133498577
 30
0.0
 10
2.799894182294997
 20
3.608404133498577
 30
0.0
 10
2.972374047269133
 20
3.82962582183151
 30
0.0
 10
2.972374047269143
 20
4.020852727810652
 30
0.0
 10
2.972374047269143
 20
4.262698094265855
 30
0.0
 10
2.805066613010511
 20
4.409041961619604
 30
0.0
 10
2.668660868141747
 20
4.420178554503938
 30
0.0
 10
2.576797467692105
 20
4.427676243312819
 30
0.0
 10
2.454938479465005
 20
4.36205998894802
 30
0.0
 10
2.454938479465004
 20
4.223328180562238
 30
0.0
 10
2.454938479465004
 20
4.048974094741795
 30
0.0
 10
2.531804086025918
 20
4.002103270534683
 30
0.0
 10
2.616167381395717
 20
3.947736368366005
 30
0.0
 10
2.652923695337288
 20
3.924048858658282
 30
0.0
 10
2.627415928168177
 20
3.872744177227741
 30
0.0
 10
2.580545909384719
 20
3.878370061461279
 30
0.0
 10
2.396268198705084
 20
3.900482967922534
 30
0.0
 10
2.269337457719415
 20
4.081470522969525
 30
0.0
 10
2.269337457719421
 20
4.227077427678505
 30
0.0
 10
2.269337457719421
 20
4.343310531672063
 30
0.0
 10
2.320577705257523
 20
4.63202672233438
 30
0.0
 10
2.670537505259024
 20
4.632026722334384
 30
0.0
 10
2.981745956924327
 20
4.632026722334384
 30
0.0
 10
3.202970866951883
 20
4.343310531672068
 30
0.0
 10
3.202970866951881
 20
4.030227053736798
 30
0.0
 10
3.202970866951881
 20
3.724639653763103
 30
0.0
 10
3.013149425251564
 20
3.590536615125368
 30
0.0
 10
2.977996709808058
 20
3.533412747783973
 30
0.0
 10
2.948001927454257
 20
3.48467011900152
 30
0.0
 10
2.934878354411834
 20
3.458423778340332
 30
0.0
 10
2.942376043220716
 20
3.420928085483023
 30
0.0
 10
2.859886968697227
 20
3.443423568180632
 30
0.0
 10
2.753024163511546
 20
3.419053864636716
 30
0.0
 10
2.700532287612824
 20
3.321564579953541
 30
0.0
 10
2.6405395012106
 20
3.372183040429611
 30
0.0
 10
2.53367830687223
 20
3.362808714503458
 30
0.0
 10
2.490559951476002
 20
3.310316033181077
 30
0.0
 10
2.415567760337739
 20
3.398430186514452
 30
0.0
 10
2.314330033961943
 20
3.398430186514451
 30
0.0
 10
2.2580881055233
 20
3.375932287545875
 30
0.0
 10
2.213092307586149
 20
3.450923673260483
 30
0.0
 10
2.141850168987809
 20
3.495919471197634
 30
0.0
 10
2.051863405655443
 20
3.488419366117792
 30
0.0
 10
2.051863405655443
 20
3.570908440641281
 30
0.0
 10
1.967497694014682
 20
3.653399126012081
 30
0.0
 10
1.885009424914853
 20
3.653399126012079
 30
0.0
 10
1.89771498308008
 20
3.729638112969028
 30
0.0
 10
1.85043178196136
 20
3.865247293842514
 30
0.0
 10
1.755650331607904
 20
3.865247293842511
 30
0.0
 10
1.800646129545055
 20
3.962735773102039
 30
0.0
 10
1.736904096026563
 20
4.075220435402985
 30
0.0
 10
1.654412605232104
 20
4.090218229291718
 30
0.0
 10
1.691908298089408
 20
4.172707303815207
 30
0.0
 10
1.688156634702173
 20
4.292693682043311
 30
0.0
 10
1.61129344441223
 20
4.345187168789341
 30
0.0
 10
1.708782729095414
 20
4.4782947037889
 30
0.0
 10
1.643163253035993
 20
4.617028123022
 30
0.0
 10
1.605667560178689
 20
4.647023710799456
 30
0.0
 10
1.729403990946716
 20
4.753884905137826
 30
0.0
 10
1.667535372850875
 20
4.91324119706954
 30
0.0
 10
1.635666369650765
 20
4.950734473655867
 30
0.0
 10
1.697530960628329
 20
5.005104597519172
 30
0.0
 10
1.752672680353585
 20
5.163591837326621
 30
0.0
 10
1.645038279305951
 20
5.275069720058223
 30
0.0
 10
1.748150226528054
 20
5.297567619026799
 30
0.0
 10
1.790907752126621
 20
5.477348649437878
 30
0.0
 10
1.703156844861874
 20
5.543162232598274
 30
0.0
 10
1.817518144280092
 20
5.575032041222037
 30
0.0
 10
1.898132192533619
 20
5.786881819899783
 30
0.0
 10
1.74252675856548
 20
5.841249527492121
 30
0.0
 10
1.508559240884545
 20
5.922997612252566
 30
0.0
 10
1.370839044610041
 20
5.413762868108552
 30
0.0
 10
1.307582278843978
 20
5.261946147015795
 30
0.0
 10
1.288833224279843
 20
5.216953570773266
 30
0.0
 10
1.229187575473131
 20
5.22318674444304
 30
0.0
 10
1.193221382137591
 20
5.243199911434456
 30
0.0
 10
0.9607503416085423
 20
5.372558199317747
 30
0.0
 10
0.4620630229448919
 20
6.353060016486357
 30
0.0
 10
0.8745100064096443
 20
6.686768783391241
 30
0.0
 10
0.8955295502585829
 20
6.703775303876741
 30
0.0
 10
0.9495009894124243
 20
6.703640798126275
 30
0.0
 10
0.9738731092273065
 20
6.679268678311384
 30
0.0
 10
1.101357981687947
 20
6.551787027545366
 30
0.0
 10
1.199782765946972
 20
6.445861735494665
 30
0.0
 10
1.350701439663855
 20
6.334312975481392
 30
0.0
 10
1.35922886261627
 20
6.328009729953591
 30
0.0
 10
1.393820197771906
 20
6.305254095415261
 30
0.0
 10
1.395694821330044
 20
6.330564533788763
 30
0.0
 10
1.403471186723721
 20
6.43552976084213
 30
0.0
 10
1.336641964333767
 20
6.526476589171834
 30
0.0
 10
1.231655393553525
 20
6.563971476605492
 30
0.0
 10
1.250402031846694
 20
6.674581918060131
 30
0.0
 10
1.155725689280281
 20
6.818002902968135
 30
0.0
 10
1.07698545916124
 20
6.838625775666753
 30
0.0
 10
1.087296090086892
 20
6.870495584290516
 30
0.0
 10
1.140727492679733
 20
7.072033523907127
 30
0.0
 10
0.9884017438367154
 20
7.176550129984388
 30
0.0
 10
1.061988067984335
 20
7.258572058787697
 30
0.0
 10
1.126666003790497
 20
7.376681799898528
 30
0.0
 10
1.023553653856571
 20
7.526664571327746
 30
0.0
 10
1.087378646011578
 20
7.517546370124036
 30
0.0
 10
1.235634186411613
 20
7.632019623430366
 30
0.0
 10
1.193221382137591
 20
7.822876034527976
 30
0.0
 10
1.276647969796061
 20
7.830375334184168
 30
0.0
 10
1.421941161991233
 20
7.869746053311434
 30
0.0
 10
1.423816188261196
 20
8.052534535652075
 30
0.0
 10
1.543802163777472
 20
8.000041048906043
 30
0.0
 10
1.710656949941723
 20
8.077844168601938
 30
0.0
 10
1.718155444174255
 20
8.212827535295116
 30
0.0
 10
1.767838002362655
 20
8.13408690246424
 30
0.0
 10
2.049989990232794
 20
8.1125273220543
 30
0.0
 10
1.950625679279651
 20
8.310316014554648
 30
0.0
 10
2.174349013486511
 20
8.177832682888086
 30
0.0
 10
2.328077810337373
 20
7.990354218601567
 30
0.0
 10
2.446814171052162
 20
7.764132460215411
 30
0.0
 10
2.448062577718158
 20
7.832876980058101
 30
0.0
 10
2.453063453195046
 20
7.937861537279199
 30
0.0
 10
2.514304646263267
 20
8.005354428761255
 30
0.0
 10
2.550550321607263
 20
7.992854253628176
 30
0.0
 10
2.579297502718723
 20
7.991605846962178
 30
0.0
 10
2.633039396130749
 20
7.981606512279388
 30
0.0
 10
2.546801879914647
 20
7.93036384847032
 30
0.0
 10
2.493057570231652
 20
7.79413126968749
 30
0.0
 10
2.528052422638688
 20
7.687893473258452
 30
0.0
 10
2.555495622851923
 20
7.604593337113893
 30
0.0
 10
2.641789518723908
 20
7.486668038020167
 30
0.0
 10
2.713030046474935
 20
7.469170209104828
 30
0.0
 10
2.705531552242399
 20
7.469170209104828
 30
0.0
 10
2.66803666480875
 20
7.382932692888726
 30
0.0
 10
2.775521257056465
 20
7.342936159581146
 30
0.0
 10
2.864424725572212
 20
7.30985821547416
 30
0.0
 10
2.992995309120442
 20
7.277944913973001
 30
0.0
 10
3.03799110705759
 20
7.289195071592783
 30
0.0
 10
3.052540279970215
 20
7.292830753973628
 30
0.0
 10
3.072366588673557
 20
7.31370894597103
 30
0.0
 10
3.082984488723782
 20
7.326687542755462
 30
0.0
 10
3.094233035496242
 20
7.340437735401848
 30
0.0
 10
3.179222145046347
 20
7.301691219607581
 30
0.0
 10
3.17922214504634
 20
7.291691884924777
 30
0.0
 10
3.17922214504634
 20
7.267979407083735
 30
0.0
 10
3.125478640787
 20
7.112964348655068
 30
0.0
 10
3.04548799044282
 20
7.042973032993689
 30
0.0
 10
3.032869418032385
 20
7.031933090947999
 30
0.0
 10
2.997996990020985
 20
7.032974503734538
 30
0.0
 10
2.985496814887903
 20
7.042973032993689
 30
0.0
 10
2.956216443316515
 20
7.066397974589725
 30
0.0
 10
2.934252540231523
 20
7.110466729899416
 30
0.0
 10
2.904256952454067
 20
7.117964418708301
 30
0.0
 10
2.65678811803629
 20
7.192955804422908
 30
0.0
 10
2.220592412665995
 20
7.290442672835126
 30
0.0
 10
1.95812336808853
 20
7.215454508815132
 30
0.0
 10
1.95812336808853
 20
7.267944773866541
 30
0.0
 10
1.890632087453769
 20
7.320439871459885
 30
0.0
 10
1.84563951121124
 20
7.312939766380037
 30
0.0
 10
1.815643923433783
 20
7.305440466723845
 30
0.0
 10
1.800646129545055
 20
7.269164990704596
 30
0.0
 10
1.800646129545055
 20
7.245449291168942
 30
0.0
 10
1.800646129545055
 20
7.19295580442291
 30
0.0
 10
1.894383750841004
 20
6.98673110455505
 30
0.0
 10
2.078110551740285
 20
7.057971632306067
 30
0.0
 10
2.108106139517742
 20
6.907990471724163
 30
0.0
 10
2.250588000443454
 20
6.840499996513058
 30
0.0
 10
2.408067655257896
 20
6.870495584290527
 30
0.0
 10
2.385572172560287
 20
6.769257857914731
 30
0.0
 10
2.501805276553845
 20
6.600528850904174
 30
0.0
 10
2.678035194067904
 20
6.608028955984022
 30
0.0
  0
SPLINE
  5
88
330
1F
100
AcDbEntity
  8
0
  6
Continuous2
 62
   132
420
    49344
370
    -3
100
AcDbSpline
210
0.0
220
0.0
230
1.0
 70
    11
 71
     3
 72
    11
 73
     7
 74
     5
 42
0.000000001
 43
0.0000000001
 44
0.0
 12
1.0
 22
0.0
 32
0.0
 13
1.0
 23
1.316314099638874E-16
 33
0.0
 40
0.0
 40
0.0
 40
0.0
 40
0.0
 40
0.0899870911249108
 40
0.1799764603175111
 40
0.2699663990288411
 40
0.3599540596868972
 40
0.3599540596868972
 40
0.3599540596868972
 40
0.3599540596868972
 10
2.393070666792821
 20
7.657785126169227
 30
0.0
 10
2.423066363834458
 20
7.657785126169227
 30
0.0
 10
2.489298115073899
 20
7.594155794454373
 30
0.0
 10
2.393070665146852
 20
7.4987067053801
 30
0.0
 10
2.296841804087708
 20
7.594155909532162
 30
0.0
 10
2.3630747799068
 20
7.657785126169226
 30
0.0
 10
2.393070666792819
 20
7.657785126169226
 30
0.0
 11
2.393070666792821
 21
7.657785126169227
 31
0.0
 11
2.456702357270509
 21
7.594155851962501
 31
0.0
 11
2.393070666792821
 21
7.530523356061163
 31
0.0
 11
2.329438170891472
 21
7.594155851962501
 31
0.0
 11
2.393070666792819
 21
7.657785126169226
 31
0.0
  0
SPLINE
  5
89
330
1F
100
AcDbEntity
  8
0
  6
Continuous2
 62
   132
420
    49344
370
    -3
100
AcDbSpline
210
0.0
220
0.0
230
1.0
 70
     8
 71
     3
 72
    11
 73
     7
 74
     5
 42
0.000000001
 43
0.0000000001
 44
0.0
 12
-0.8859356593794745
 22
0.4638081580134786
 32
0.0
 13
0.6071900880323571
 23
0.7945566040221792
 33
0.0
 40
0.0
 40
0.0
 40
0.0
 40
0.0
 40
0.3425416602586492
 40
0.5538637982023409
 40
0.8209533124594375
 40
1.069233423764686
 40
1.069233423764686
 40
1.069233423764686
 40
1.069233423764686
 10
1.763685237994989
 20
7.719604613422096
 30
0.0
 10
1.662528614112927
 20
7.772562485584577
 30
0.0
 10
1.385731804431303
 20
7.870356033631719
 30
0.0
 10
1.381210879382356
 20
7.536327451188027
 30
0.0
 10
1.513510412103045
 20
7.249747064684453
 30
0.0
 10
1.708463088979983
 20
7.394997608724029
 30
0.0
 10
1.758714163193355
 20
7.460755142752344
 30
0.0
 11
1.763685237994989
 21
7.719604613422096
 31
0.0
 11
1.424859614606867
 21
7.769923456298326
 31
0.0
 11
1.399026053569114
 21
7.560186303868907
 31
0.0
 11
1.544095337988062
 21
7.335928168354794
 31
0.0
 11
1.758714163193355
 21
7.460755142752344
 31
0.0
  0
SPLINE
  5
8A
330
1F
100
AcDbEntity
  8
0
  6
Continuous2
 62
   132
420
    49344
370
    -3
100
AcDbSpline
210
0.0
220
0.0
230
1.0
 70
     8
 71
     3
 72
     9
 73
     5
 74
     3
 42
0.000000001
 43
0.0000000001
 44
0.0
 12
0.6051991361036251
 22
0.7960741207070015
 32
0.0
 13
-0.6054481783781879
 23
-0.7958847299066201
 33
0.0
 40
0.0
 40
0.0
 40
0.0
 40
0.0
 40
0.0212114529462437
 40
0.0424209839009333
 40
0.0424209839009333
 40
0.0424209839009333
 40
0.0424209839009333
 10
1.758709330651421
 20
7.460750310210418
 30
0.0
 10
1.762988381650945
 20
7.466378939794785
 30
0.0
 10
1.784525179776259
 20
7.469923892843362
 30
0.0
 10
1.786866538878443
 20
7.448222841620967
 30
0.0
 10
1.782586114918186
 20
7.442596061015861
 30
0.0
 11
1.758709330651421
 21
7.460750310210418
 31
0.0
 11
1.779726860941225
 21
7.463611980458349
 31
0.0
 11
1.782586114918186
 21
7.442596061015861
 31
0.0
  0
SPLINE
  5
8B
330
1F
100
AcDbEntity
  8
0
  6
Continuous2
 62
   132
420
    49344
370
    -3
100
AcDbSpline
210
0.0
220
0.0
230
1.0
 70
     8
 71
     3
 72
    11
 73
     7
 74
     5
 42
0.000000001
 43
0.0000000001
 44
0.0
 12
-0.6051497944036588
 22
-0.7961116293166489
 32
0.0
 13
0.8855175739705025
 23
-0.4646058826461367
 33
0.0
 40
0.0
 40
0.0
 40
0.0
 40
0.0
 40
0.2798775181526996
 40
0.5783162183085342
 40
0.821528169627556
 40
1.195736953810042
 40
1.195736953810042
 40
1.195736953810042
 40
1.195736953810042
 10
1.782586114918186
 20
7.442596061015852
 30
0.0
 10
1.726130174062082
 20
7.368324812020637
 30
0.0
 10
1.505828559646579
 20
7.213465131676378
 30
0.0
 10
1.345087635734099
 20
7.527970817249876
 30
0.0
 10
1.364108105745369
 20
7.900988442969178
 30
0.0
 10
1.667158888540639
 20
7.804123102673866
 30
0.0
 10
1.777615040116548
 20
7.746169901850852
 30
0.0
 11
1.782586114918186
 21
7.442596061015852
 31
0.0
 11
1.537994253797788
 21
7.306558394757662
 31
0.0
 11
1.369870119952496
 21
7.553134819765152
 31
0.0
 11
1.406422258997403
 21
7.793584387025415
 31
0.0
 11
1.777615040116548
 21
7.746169901850852
 31
0.0
  0
SPLINE
  5
8C
330
1F
100
AcDbEntity
  8
0
  6
Continuous2
 62
   132
420
    49344
370
    -3
100
AcDbSpline
210
0.0
220
0.0
230
1.0
 70
     8
 71
     3
 72
     9
 73
     5
 74
     3
 42
0.000000001
 43
0.0000000001
 44
0.0
 12
0.8855859100148235
 22
-0.4644756139812046
 32
0.0
 13
-0.8856887905086892
 23
0.4642794054954998
 33
0.0
 40
0.0
 40
0.0
 40
0.0
 40
0.0
 40
0.0212105924795182
 40
0.0424232518247981
 40
0.0424232518247981
 40
0.0424232518247981
 40
0.0424232518247981
 10
1.777615040116548
 20
7.746169901850845
 30
0.0
 10
1.783876307397524
 20
7.742885967529235
 30
0.0
 10
1.790952007188701
 20
7.72223714573212
 30
0.0
 10
1.76994301031939
 20
7.716323357312809
 30
0.0
 10
1.763680405453059
 20
7.719606224269411
 30
0.0
 11
1.777615040116548
 21
7.746169901850845
 31
0.0
 11
1.78393117242284
 21
7.725921551152044
 31
0.0
 11
1.763680405453059
 21
7.719606224269411
 31
0.0
  0
LINE
  5
8D
330
1F
100
AcDbEntity
  8
0
  6
Continuous2
 62
   132
420
    49344
370
    -3
100
AcDbLine
 10
2.406860325198324
 20
7.626712686964392
 30
0.0
 11
2.395569090972132
 21
7.59915511659209
 31
0.0
  0
SPLINE
  5
8E
330
1F
100
AcDbEntity
  8
0
  6
Continuous2
 62
   132
420
    49344
370
    -3
100
AcDbSpline
210
0.0
220
0.0
230
1.0
 70
     8
 71
     3
 72
     8
 73
     4
 74
     2
 42
0.000000001
 43
0.0000000001
 44
0.0
 12
1.0
 22
0.0
 32
0.0
 13
0.9206941935852386
 23
-0.3902847702619547
 33
0.0
 40
0.0
 40
0.0
 40
0.0
 40
0.0
 40
0.0140700283668999
 40
0.0140700283668999
 40
0.0140700283668999
 40
0.0140700283668999
 10
2.393070666792821
 20
7.629507507048924
 30
0.0
 10
2.397760676248454
 20
7.629507507048924
 30
0.0
 10
2.402542260724664
 20
7.628543126227321
 30
0.0
 10
2.406860325198326
 20
7.626712686964402
 30
0.0
 11
2.393070666792821
 21
7.629507507048924
 31
0.0
 11
2.406860325198326
 21
7.626712686964402
 31
0.0
  0
LINE
  5
8F
330
1F
100
AcDbEntity
  8
0
  6
Continuous2
 62
   132
420
    49344
370
    -3
100
AcDbLine
 10
2.395569090972132
 20
7.59915511659209
 30
0.0
 11
2.424660993408133
 21
7.609728718341241
 31
0.0
  0
SPLINE
  5
90
330
1F
100
AcDbEntity
  8
0
  6
Continuous2
 62
   132
420
    49344
370
    -3
100
AcDbSpline
210
0.0
220
0.0
230
1.0
 70
     8
 71
     3
 72
    11
 73
     7
 74
     5
 42
0.000000001
 43
0.0000000001
 44
0.0
 12
0.4432285303395627
 22
-0.8964086511703419
 32
0.0
 13
1.0
 23
0.0
 33
0.0
 40
0.0
 40
0.0
 40
0.0
 40
0.0
 40
0.0160222324515638
 40
0.0660175920508894
 40
0.11601295165021
 40
0.1660088807797806
 40
0.1660088807797806
 40
0.1660088807797806
 40
0.1660088807797806
 10
2.424660993408133
 20
7.609728718341241
 30
0.0
 10
2.427028163588888
 20
7.604941229081026
 30
0.0
 10
2.433440620566301
 20
7.582960987963041
 30
0.0
 10
2.39344142436996
 20
7.540816433939705
 30
0.0
 10
2.339504149699343
 20
7.594242589945491
 30
0.0
 10
2.376405357082966
 20
7.629507507048924
 30
0.0
 10
2.393070666792823
 20
7.629507507048924
 30
0.0
 11
2.424660993408133
 21
7.609728718341241
 31
0.0
 11
2.428422321879236
 21
7.594154241115202
 31
0.0
 11
2.393070666792821
 21
7.558801780605119
 31
0.0
 11
2.357719011706412
 21
7.594154241115202
 31
0.0
 11
2.393070666792823
 21
7.629507507048924
 31
0.0
  0
SPLINE
  5
91
330
1F
100
AcDbEntity
  8
0
  6
Continuous2
 62
   132
420
    49344
370
    -3
100
AcDbSpline
210
0.0
220
0.0
230
1.0
 70
    11
 71
     3
 72
   191
 73
   187
 74
     0
 42
0.000000001
 43
0.000001
 40
0.0
 40
0.0
 40
0.0
 40
0.0
 40
0.4025286672102307
 40
0.4025286672102307
 40
0.4025286672102307
 40
0.7962286096699852
 40
0.7962286096699852
 40
0.7962286096699852
 40
1.235676838219427
 40
1.235676838219427
 40
1.235676838219427
 40
1.390274719936684
 40
1.390274719936684
 40
1.390274719936684
 40
2.281529235667818
 40
2.281529235667818
 40
2.281529235667818
 40
2.78126216460308
 40
2.78126216460308
 40
2.78126216460308
 40
3.598171008272359
 40
3.598171008272359
 40
3.598171008272359
 40
4.156843498293054
 40
4.156843498293054
 40
4.156843498293054
 40
4.658543419600548
 40
4.658543419600548
 40
4.658543419600548
 40
4.949107232114564
 40
4.949107232114564
 40
4.949107232114564
 40
5.268396451737443
 40
5.268396451737443
 40
5.268396451737443
 40
5.346374485835713
 40
5.346374485835713
 40
5.346374485835713
 40
5.813758190774243
 40
5.813758190774243
 40
5.813758190774243
 40
6.383798022179097
 40
6.383798022179097
 40
6.383798022179097
 40
7.1873203465533
 40
7.1873203465533
 40
7.1873203465533
 40
7.73269895447807
 40
7.73269895447807
 40
7.73269895447807
 40
7.850688916513344
 40
7.850688916513344
 40
7.850688916513344
 40
8.112149254533545
 40
8.112149254533545
 40
8.112149254533545
 40
8.32242267593351
 40
8.32242267593351
 40
8.32242267593351
 40
8.563977332269344
 40
8.563977332269344
 40
8.563977332269344
 40
8.798885760558395
 40
8.798885760558395
 40
8.798885760558395
 40
9.03353139138019
 40
9.03353139138019
 40
9.03353139138019
 40
9.281751900674461
 40
9.281751900674461
 40
9.281751900674461
 40
9.528452121668753
 40
9.528452121668753
 40
9.528452121668753
 40
9.787041414057963
 40
9.787041414057963
 40
9.787041414057963
 40
10.08893038150466
 40
10.08893038150466
 40
10.08893038150466
 40
10.3941191035187
 40
10.3941191035187
 40
10.3941191035187
 40
10.71858972583984
 40
10.71858972583984
 40
10.71858972583984
 40
10.99290954455937
 40
10.99290954455937
 40
10.99290954455937
 40
11.29358549218764
 40
11.29358549218764
 40
11.29358549218764
 40
12.01799498071709
 40
12.01799498071709
 40
12.01799498071709
 40
12.13388215017066
 40
12.13388215017066
 40
12.13388215017066
 40
13.61221500480827
 40
13.61221500480827
 40
13.61221500480827
 40
13.71186076627238
 40
13.71186076627238
 40
13.71186076627238
 40
14.2227365119626
 40
14.2227365119626
 40
14.2227365119626
 40
14.26788576676134
 40
14.26788576676134
 40
14.26788576676134
 40
14.55317112358903
 40
14.55317112358903
 40
14.55317112358903
 40
14.86838180329031
 40
14.86838180329031
 40
14.86838180329031
 40
15.21772396201395
 40
15.21772396201395
 40
15.21772396201395
 40
15.56959862551676
 40
15.56959862551676
 40
15.56959862551676
 40
15.91096114389167
 40
15.91096114389167
 40
15.91096114389167
 40
16.23641005193985
 40
16.23641005193985
 40
16.23641005193985
 40
16.57156590121898
 40
16.57156590121898
 40
16.57156590121898
 40
16.82365004153386
 40
16.82365004153386
 40
16.82365004153386
 40
17.56156568332371
 40
17.56156568332371
 40
17.56156568332371
 40
17.8120512165454
 40
17.8120512165454
 40
17.8120512165454
 40
17.93313756740016
 40
17.93313756740016
 40
17.93313756740016
 40
18.24505039800182
 40
18.24505039800182
 40
18.24505039800182
 40
18.53150560846607
 40
18.53150560846607
 40
18.53150560846607
 40
18.67236080595304
 40
18.67236080595304
 40
18.67236080595304
 40
18.94027595427016
 40
18.94027595427016
 40
18.94027595427016
 40
18.99884292267082
 40
18.99884292267082
 40
18.99884292267082
 40
19.10124596247659
 40
19.10124596247659
 40
19.10124596247659
 40
19.38363911291306
 40
19.38363911291306
 40
19.38363911291306
 40
19.44363028846798
 40
19.44363028846798
 40
19.44363028846798
 40
19.55419078403338
 40
19.55419078403338
 40
19.55419078403338
 40
20.50533382119099
 40
20.50533382119099
 40
20.50533382119099
 40
20.65418271604912
 40
20.65418271604912
 40
20.65418271604912
 40
20.73529602345289
 40
20.73529602345289
 40
20.73529602345289
 40
21.07016073965458
 40
21.07016073965458
 40
21.07016073965458
 40
21.4496590383876
 40
21.4496590383876
 40
21.4496590383876
 40
21.82618420751407
 40
21.82618420751407
 40
21.82618420751407
 40
21.82618420751407
 10
2.678035194067903
 20
6.608028955984015
 30
0.0
 10
2.595543703273448
 20
6.431799843893611
 30
0.0
 10
2.734277927930204
 20
6.289317982967898
 30
0.0
 10
2.850512642771066
 20
6.244324601301681
 30
0.0
 10
2.753024163511538
 20
6.139336822385961
 30
0.0
 10
2.775521257056458
 20
5.955611632333987
 30
0.0
 10
2.850512642771066
 20
5.850624658841927
 30
0.0
 10
2.685535299147744
 20
5.813128965984623
 30
0.0
 10
2.648037190019473
 20
5.603152602729527
 30
0.0
 10
2.663037400179179
 20
5.453173052994931
 30
0.0
 10
2.61054149716218
 20
5.460673963498434
 30
0.0
 10
2.55805123211077
 20
5.49816724008477
 30
0.0
 10
2.543052632798383
 20
5.550662337678116
 30
0.0
 10
2.430566359650127
 20
5.273195499211916
 30
0.0
 10
2.320321580535076
 20
4.99934662380614
 30
0.0
 10
2.20559461877727
 20
4.725764343630328
 30
0.0
 10
2.181222498962388
 20
4.667647388921721
 30
0.0
 10
2.079984772586592
 20
4.446424895165132
 30
0.0
 10
2.079984772586593
 20
4.24207522156723
 30
0.0
 10
2.079984772586593
 20
3.966485020218303
 30
0.0
 10
2.158724599993813
 20
3.608404133498575
 30
0.0
 10
2.595543703273443
 20
3.608404133498577
 30
0.0
 10
2.799894182294997
 20
3.608404133498577
 30
0.0
 10
2.972374047269133
 20
3.82962582183151
 30
0.0
 10
2.972374047269143
 20
4.020852727810652
 30
0.0
 10
2.972374047269143
 20
4.262698094265855
 30
0.0
 10
2.805066613010511
 20
4.409041961619604
 30
0.0
 10
2.668660868141747
 20
4.420178554503938
 30
0.0
 10
2.576797467692105
 20
4.427676243312819
 30
0.0
 10
2.454938479465005
 20
4.36205998894802
 30
0.0
 10
2.454938479465004
 20
4.223328180562238
 30
0.0
 10
2.454938479465004
 20
4.048974094741795
 30
0.0
 10
2.531804086025918
 20
4.002103270534683
 30
0.0
 10
2.616167381395717
 20
3.947736368366005
 30
0.0
 10
2.652923695337288
 20
3.924048858658282
 30
0.0
 10
2.627415928168177
 20
3.872744177227741
 30
0.0
 10
2.580545909384719
 20
3.878370061461279
 30
0.0
 10
2.396268198705084
 20
3.900482967922534
 30
0.0
 10
2.269337457719415
 20
4.081470522969525
 30
0.0
 10
2.269337457719421
 20
4.227077427678505
 30
0.0
 10
2.269337457719421
 20
4.343310531672063
 30
0.0
 10
2.320577705257523
 20
4.63202672233438
 30
0.0
 10
2.670537505259024
 20
4.632026722334384
 30
0.0
 10
2.981745956924327
 20
4.632026722334384
 30
0.0
 10
3.202970866951883
 20
4.343310531672068
 30
0.0
 10
3.202970866951881
 20
4.030227053736798
 30
0.0
 10
3.202970866951881
 20
3.724639653763103
 30
0.0
 10
3.013149425251564
 20
3.590536615125368
 30
0.0
 10
2.977996709808058
 20
3.533412747783973
 30
0.0
 10
2.948001927454257
 20
3.48467011900152
 30
0.0
 10
2.934878354411834
 20
3.458423778340332
 30
0.0
 10
2.942376043220716
 20
3.420928085483023
 30
0.0
 10
2.859886968697227
 20
3.443423568180632
 30
0.0
 10
2.753024163511546
 20
3.419053864636716
 30
0.0
 10
2.700532287612824
 20
3.321564579953541
 30
0.0
 10
2.6405395012106
 20
3.372183040429611
 30
0.0
 10
2.53367830687223
 20
3.362808714503458
 30
0.0
 10
2.490559951476002
 20
3.310316033181077
 30
0.0
 10
2.415567760337739
 20
3.398430186514452
 30
0.0
 10
2.314330033961943
 20
3.398430186514451
 30
0.0
 10
2.2580881055233
 20
3.375932287545875
 30
0.0
 10
2.213092307586149
 20
3.450923673260483
 30
0.0
 10
2.141850168987809
 20
3.495919471197634
 30
0.0
 10
2.051863405655443
 20
3.488419366117792
 30
0.0
 10
2.051863405655443
 20
3.570908440641281
 30
0.0
 10
1.967497694014682
 20
3.653399126012081
 30
0.0
 10
1.885009424914853
 20
3.653399126012079
 30
0.0
 10
1.89771498308008
 20
3.729638112969028
 30
0.0
 10
1.85043178196136
 20
3.865247293842514
 30
0.0
 10
1.755650331607904
 20
3.865247293842511
 30
0.0
 10
1.800646129545055
 20
3.962735773102039
 30
0.0
 10
1.736904096026563
 20
4.075220435402985
 30
0.0
 10
1.654412605232104
 20
4.090218229291718
 30
0.0
 10
1.691908298089408
 20
4.172707303815207
 30
0.0
 10
1.688156634702173
 20
4.292693682043311
 30
0.0
 10
1.61129344441223
 20
4.345187168789341
 30
0.0
 10
1.708782729095414
 20
4.4782947037889
 30
0.0
 10
1.643163253035993
 20
4.617028123022
 30
0.0
 10
1.605667560178689
 20
4.647023710799456
 30
0.0
 10
1.729403990946716
 20
4.753884905137826
 30
0.0
 10
1.667535372850875
 20
4.91324119706954
 30
0.0
 10
1.635666369650765
 20
4.950734473655867
 30
0.0
 10
1.697530960628329
 20
5.005104597519172
 30
0.0
 10
1.752672680353585
 20
5.163591837326621
 30
0.0
 10
1.645038279305951
 20
5.275069720058223
 30
0.0
 10
1.748150226528054
 20
5.297567619026799
 30
0.0
 10
1.790907752126621
 20
5.477348649437878
 30
0.0
 10
1.703156844861874
 20
5.543162232598274
 30
0.0
 10
1.817518144280092
 20
5.575032041222037
 30
0.0
 10
1.898132192533619
 20
5.786881819899783
 30
0.0
 10
1.74252675856548
 20
5.841249527492121
 30
0.0
 10
1.508559240884545
 20
5.922997612252566
 30
0.0
 10
1.370839044610041
 20
5.413762868108552
 30
0.0
 10
1.307582278843978
 20
5.261946147015795
 30
0.0
 10
1.288833224279843
 20
5.216953570773266
 30
0.0
 10
1.229187575473131
 20
5.22318674444304
 30
0.0
 10
1.193221382137591
 20
5.243199911434456
 30
0.0
 10
0.9607503416085423
 20
5.372558199317747
 30
0.0
 10
0.4620630229448919
 20
6.353060016486357
 30
0.0
 10
0.8745100064096443
 20
6.686768783391241
 30
0.0
 10
0.8955295502585829
 20
6.703775303876741
 30
0.0
 10
0.9495009894124243
 20
6.703640798126275
 30
0.0
 10
0.9738731092273065
 20
6.679268678311384
 30
0.0
 10
1.101357981687947
 20
6.551787027545366
 30
0.0
 10
1.199782765946972
 20
6.445861735494665
 30
0.0
 10
1.350701439663855
 20
6.334312975481392
 30
0.0
 10
1.35922886261627
 20
6.328009729953591
 30
0.0
 10
1.393820197771906
 20
6.305254095415261
 30
0.0
 10
1.395694821330044
 20
6.330564533788763
 30
0.0
 10
1.403471186723721
 20
6.43552976084213
 30
0.0
 10
1.336641964333767
 20
6.526476589171834
 30
0.0
 10
1.231655393553525
 20
6.563971476605492
 30
0.0
 10
1.250402031846694
 20
6.674581918060131
 30
0.0
 10
1.155725689280281
 20
6.818002902968135
 30
0.0
 10
1.07698545916124
 20
6.838625775666753
 30
0.0
 10
1.087296090086892
 20
6.870495584290516
 30
0.0
 10
1.140727492679733
 20
7.072033523907127
 30
0.0
 10
0.9884017438367154
 20
7.176550129984388
 30
0.0
 10
1.061988067984335
 20
7.258572058787697
 30
0.0
 10
1.126666003790497
 20
7.376681799898528
 30
0.0
 10
1.023553653856571
 20
7.526664571327746
 30
0.0
 10
1.087378646011578
 20
7.517546370124036
 30
0.0
 10
1.235634186411613
 20
7.632019623430366
 30
0.0
 10
1.193221382137591
 20
7.822876034527976
 30
0.0
 10
1.276647969796061
 20
7.830375334184168
 30
0.0
 10
1.421941161991233
 20
7.869746053311434
 30
0.0
 10
1.423816188261196
 20
8.052534535652075
 30
0.0
 10
1.543802163777472
 20
8.000041048906043
 30
0.0
 10
1.710656949941723
 20
8.077844168601938
 30
0.0
 10
1.718155444174255
 20
8.212827535295116
 30
0.0
 10
1.767838002362655
 20
8.13408690246424
 30
0.0
 10
2.049989990232794
 20
8.1125273220543
 30
0.0
 10
1.950625679279651
 20
8.310316014554648
 30
0.0
 10
2.174349013486511
 20
8.177832682888086
 30
0.0
 10
2.328077810337373
 20
7.990354218601567
 30
0.0
 10
2.446814171052162
 20
7.764132460215411
 30
0.0
 10
2.448062577718158
 20
7.832876980058101
 30
0.0
 10
2.453063453195046
 20
7.937861537279199
 30
0.0
 10
2.514304646263267
 20
8.005354428761255
 30
0.0
 10
2.550550321607263
 20
7.992854253628176
 30
0.0
 10
2.579297502718723
 20
7.991605846962178
 30
0.0
 10
2.633039396130749
 20
7.981606512279388
 30
0.0
 10
2.546801879914647
 20
7.93036384847032
 30
0.0
 10
2.493057570231652
 20
7.79413126968749
 30
0.0
 10
2.528052422638688
 20
7.687893473258452
 30
0.0
 10
2.555495622851923
 20
7.604593337113893
 30
0.0
 10
2.641789518723908
 20
7.486668038020167
 30
0.0
 10
2.713030046474935
 20
7.469170209104828
 30
0.0
 10
2.705531552242399
 20
7.469170209104828
 30
0.0
 10
2.66803666480875
 20
7.382932692888726
 30
0.0
 10
2.775521257056465
 20
7.342936159581146
 30
0.0
 10
2.864424725572212
 20
7.30985821547416
 30
0.0
 10
2.992995309120442
 20
7.277944913973001
 30
0.0
 10
3.03799110705759
 20
7.289195071592783
 30
0.0
 10
3.052540279970215
 20
7.292830753973628
 30
0.0
 10
3.072366588673557
 20
7.31370894597103
 30
0.0
 10
3.082984488723782
 20
7.326687542755462
 30
0.0
 10
3.094233035496242
 20
7.340437735401848
 30
0.0
 10
3.179222145046347
 20
7.301691219607581
 30
0.0
 10
3.17922214504634
 20
7.291691884924777
 30
0.0
 10
3.17922214504634
 20
7.267979407083735
 30
0.0
 10
3.125478640787
 20
7.112964348655068
 30
0.0
 10
3.04548799044282
 20
7.042973032993689
 30
0.0
 10
3.032869418032385
 20
7.031933090947999
 30
0.0
 10
2.997996990020985
 20
7.032974503734538
 30
0.0
 10
2.985496814887903
 20
7.042973032993689
 30
0.0
 10
2.956216443316515
 20
7.066397974589725
 30
0.0
 10
2.934252540231523
 20
7.110466729899416
 30
0.0
 10
2.904256952454067
 20
7.117964418708301
 30
0.0
 10
2.65678811803629
 20
7.192955804422908
 30
0.0
 10
2.220592412665995
 20
7.290442672835126
 30
0.0
 10
1.95812336808853
 20
7.215454508815132
 30
0.0
 10
1.95812336808853
 20
7.267944773866541
 30
0.0
 10
1.890632087453769
 20
7.320439871459885
 30
0.0
 10
1.84563951121124
 20
7.312939766380037
 30
0.0
 10
1.815643923433783
 20
7.305440466723845
 30
0.0
 10
1.800646129545055
 20
7.269164990704596
 30
0.0
 10
1.800646129545055
 20
7.245449291168942
 30
0.0
 10
1.800646129545055
 20
7.19295580442291
 30
0.0
 10
1.894383750841004
 20
6.98673110455505
 30
0.0
 10
2.078110551740285
 20
7.057971632306067
 30
0.0
 10
2.108106139517742
 20
6.907990471724163
 30
0.0
 10
2.250588000443454
 20
6.840499996513058
 30
0.0
 10
2.408067655257896
 20
6.870495584290527
 30
0.0
 10
2.385572172560287
 20
6.769257857914731
 30
0.0
 10
2.501805276553845
 20
6.600528850904174
 30
0.0
 10
2.678035194067904
 20
6.608028955984022
 30
0.0
  0
SPLINE
  5
92
330
1F
100
AcDbEntity
  8
0
  6
Continuous2
 62
   132
420
    49344
370
    -3
100
AcDbSpline
210
0.0
220
0.0
230
1.0
 70
    11
 71
     3
 72
    11
 73
     7
 74
     5
 42
0.000000001
 43
0.0000000001
 44
0.0
 12
1.0
 22
0.0
 32
0.0
 13
1.0
 23
1.316314099638874E-16
 33
0.0
 40
0.0
 40
0.0
 40
0.0
 40
0.0
 40
0.0899870911249108
 40
0.1799764603175111
 40
0.2699663990288411
 40
0.3599540596868972
 40
0.3599540596868972
 40
0.3599540596868972
 40
0.3599540596868972
 10
2.393070666792821
 20
7.657785126169227
 30
0.0
 10
2.423066363834458
 20
7.657785126169227
 30
0.0
 10
2.489298115073899
 20
7.594155794454373
 30
0.0
 10
2.393070665146852
 20
7.4987067053801
 30
0.0
 10
2.296841804087708
 20
7.594155909532162
 30
0.0
 10
2.3630747799068
 20
7.657785126169226
 30
0.0
 10
2.393070666792819
 20
7.657785126169226
 30
0.0
 11
2.393070666792821
 21
7.657785126169227
 31
0.0
 11
2.456702357270509
 21
7.594155851962501
 31
0.0
 11
2.393070666792821
 21
7.530523356061163
 31
0.0
 11
2.329438170891472
 21
7.594155851962501
 31
0.0
 11
2.393070666792819
 21
7.657785126169226
 31
0.0
  0
SPLINE
  5
93
330
1F
100
AcDbEntity
  8
0
  6
Continuous2
 62
   132
420
    49344
370
    -3
100
AcDbSpline
210
0.0
220
0.0
230
1.0
 70
     8
 71
     3
 72
    11
 73
     7
 74
     5
 42
0.000000001
 43
0.0000000001
 44
0.0
 12
-0.8859356593794745
 22
0.4638081580134786
 32
0.0
 13
0.6071900880323571
 23
0.7945566040221792
 33
0.0
 40
0.0
 40
0.0
 40
0.0
 40
0.0
 40
0.3425416602586492
 40
0.5538637982023409
 40
0.8209533124594375
 40
1.069233423764686
 40
1.069233423764686
 40
1.069233423764686
 40
1.069233423764686
 10
1.763685237994989
 20
7.719604613422096
 30
0.0
 10
1.662528614112927
 20
7.772562485584577
 30
0.0
 10
1.385731804431303
 20
7.870356033631719
 30
0.0
 10
1.381210879382356
 20
7.536327451188027
 30
0.0
 10
1.513510412103045
 20
7.249747064684453
 30
0.0
 10
1.708463088979983
 20
7.394997608724029
 30
0.0
 10
1.758714163193355
 20
7.460755142752344
 30
0.0
 11
1.763685237994989
 21
7.719604613422096
 31
0.0
 11
1.424859614606867
 21
7.769923456298326
 31
0.0
 11
1.399026053569114
 21
7.560186303868907
 31
0.0
 11
1.544095337988062
 21
7.335928168354794
 31
0.0
 11
1.758714163193355
 21
7.460755142752344
 31
0.0
  0
SPLINE
  5
94
330
1F
100
AcDbEntity
  8
0
  6
Continuous2
 62
   132
420
    49344
370
    -3
100
AcDbSpline
210
0.0
220
0.0
230
1.0
 70
     8
 71
     3
 72
     9
 73
     5
 74
     3
 42
0.000000001
 43
0.0000000001
 44
0.0
 12
0.6051991361036251
 22
0.7960741207070015
 32
0.0
 13
-0.6054481783781879
 23
-0.7958847299066201
 33
0.0
 40
0.0
 40
0.0
 40
0.0
 40
0.0
 40
0.0212114529462437
 40
0.0424209839009333
 40
0.0424209839009333
 40
0.0424209839009333
 40
0.0424209839009333
 10
1.758709330651421
 20
7.460750310210418
 30
0.0
 10
1.762988381650945
 20
7.466378939794785
 30
0.0
 10
1.784525179776259
 20
7.469923892843362
 30
0.0
 10
1.786866538878443
 20
7.448222841620967
 30
0.0
 10
1.782586114918186
 20
7.442596061015861
 30
0.0
 11
1.758709330651421
 21
7.460750310210418
 31
0.0
 11
1.779726860941225
 21
7.463611980458349
 31
0.0
 11
1.782586114918186
 21
7.442596061015861
 31
0.0
  0
SPLINE
  5
95
330
1F
100
AcDbEntity
  8
0
  6
Continuous2
 62
   132
420
    49344
370
    -3
100
AcDbSpline
210
0.0
220
0.0
230
1.0
 70
     8
 71
     3
 72
    11
 73
     7
 74
     5
 42
0.000000001
 43
0.0000000001
 44
0.0
 12
-0.6051497944036588
 22
-0.7961116293166489
 32
0.0
 13
0.8855175739705025
 23
-0.4646058826461367
 33
0.0
 40
0.0
 40
0.0
 40
0.0
 40
0.0
 40
0.2798775181526996
 40
0.5783162183085342
 40
0.821528169627556
 40
1.195736953810042
 40
1.195736953810042
 40
1.195736953810042
 40
1.195736953810042
 10
1.782586114918186
 20
7.442596061015852
 30
0.0
 10
1.726130174062082
 20
7.368324812020637
 30
0.0
 10
1.505828559646579
 20
7.213465131676378
 30
0.0
 10
1.345087635734099
 20
7.527970817249876
 30
0.0
 10
1.364108105745369
 20
7.900988442969178
 30
0.0
 10
1.667158888540639
 20
7.804123102673866
 30
0.0
 10
1.777615040116548
 20
7.746169901850852
 30
0.0
 11
1.782586114918186
 21
7.442596061015852
 31
0.0
 11
1.537994253797788
 21
7.306558394757662
 31
0.0
 11
1.369870119952496
 21
7.553134819765152
 31
0.0
 11
1.406422258997403
 21
7.793584387025415
 31
0.0
 11
1.777615040116548
 21
7.746169901850852
 31
0.0
  0
SPLINE
  5
96
330
1F
100
AcDbEntity
  8
0
  6
Continuous2
 62
   132
420
    49344
370
    -3
100
AcDbSpline
210
0.0
220
0.0
230
1.0
 70
     8
 71
     3
 72
     9
 73
     5
 74
     3
 42
0.000000001
 43
0.0000000001
 44
0.0
 12
0.8855859100148235
 22
-0.4644756139812046
 32
0.0
 13
-0.8856887905086892
 23
0.4642794054954998
 33
0.0
 40
0.0
 40
0.0
 40
0.0
 40
0.0
 40
0.0212105924795182
 40
0.0424232518247981
 40
0.0424232518247981
 40
0.0424232518247981
 40
0.0424232518247981
 10
1.777615040116548
 20
7.746169901850845
 30
0.0
 10
1.783876307397524
 20
7.742885967529235
 30
0.0
 10
1.790952007188701
 20
7.72223714573212
 30
0.0
 10
1.76994301031939
 20
7.716323357312809
 30
0.0
 10
1.763680405453059
 20
7.719606224269411
 30
0.0
 11
1.777615040116548
 21
7.746169901850845
 31
0.0
 11
1.78393117242284
 21
7.725921551152044
 31
0.0
 11
1.763680405453059
 21
7.719606224269411
 31
0.0
  0
LINE
  5
97
330
1F
100
AcDbEntity
  8
0
  6
Continuous2
 62
   132
420
    49344
370
    -3
100
AcDbLine
 10
2.406860325198324
 20
7.626712686964392
 30
0.0
 11
2.395569090972132
 21
7.59915511659209
 31
0.0
  0
SPLINE
  5
98
330
1F
100
AcDbEntity
  8
0
  6
Continuous2
 62
   132
420
    49344
370
    -3
100
AcDbSpline
210
0.0
220
0.0
230
1.0
 70
     8
 71
     3
 72
     8
 73
     4
 74
     2
 42
0.000000001
 43
0.0000000001
 44
0.0
 12
1.0
 22
0.0
 32
0.0
 13
0.9206941935852386
 23
-0.3902847702619547
 33
0.0
 40
0.0
 40
0.0
 40
0.0
 40
0.0
 40
0.0140700283668999
 40
0.0140700283668999
 40
0.0140700283668999
 40
0.0140700283668999
 10
2.393070666792821
 20
7.629507507048924
 30
0.0
 10
2.397760676248454
 20
7.629507507048924
 30
0.0
 10
2.402542260724664
 20
7.628543126227321
 30
0.0
 10
2.406860325198326
 20
7.626712686964402
 30
0.0
 11
2.393070666792821
 21
7.629507507048924
 31
0.0
 11
2.406860325198326
 21
7.626712686964402
 31
0.0
  0
LINE
  5
99
330
1F
100
AcDbEntity
  8
0
  6
Continuous2
 62
   132
420
    49344
370
    -3
100
AcDbLine
 10
2.395569090972132
 20
7.59915511659209
 30
0.0
 11
2.424660993408133
 21
7.609728718341241
 31
0.0
  0
SPLINE
  5
9A
330
1F
100
AcDbEntity
  8
0
  6
Continuous2
 62
   132
420
    49344
370
    -3
100
AcDbSpline
210
0.0
220
0.0
230
1.0
 70
     8
 71
     3
 72
    11
 73
     7
 74
     5
 42
0.000000001
 43
0.0000000001
 44
0.0
 12
0.4432285303395627
 22
-0.8964086511703419
 32
0.0
 13
1.0
 23
0.0
 33
0.0
 40
0.0
 40
0.0
 40
0.0
 40
0.0
 40
0.0160222324515638
 40
0.0660175920508894
 40
0.11601295165021
 40
0.1660088807797806
 40
0.1660088807797806
 40
0.1660088807797806
 40
0.1660088807797806
 10
2.424660993408133
 20
7.609728718341241
 30
0.0
 10
2.427028163588888
 20
7.604941229081026
 30
0.0
 10
2.433440620566301
 20
7.582960987963041
 30
0.0
 10
2.39344142436996
 20
7.540816433939705
 30
0.0
 10
2.339504149699343
 20
7.594242589945491
 30
0.0
 10
2.376405357082966
 20
7.629507507048924
 30
0.0
 10
2.393070666792823
 20
7.629507507048924
 30
0.0
 11
2.424660993408133
 21
7.609728718341241
 31
0.0
 11
2.428422321879236
 21
7.594154241115202
 31
0.0
 11
2.393070666792821
 21
7.558801780605119
 31
0.0
 11
2.357719011706412
 21
7.594154241115202
 31
0.0
 11
2.393070666792823
 21
7.629507507048924
 31
0.0
  0
SPLINE
  5
9B
330
1F
100
AcDbEntity
  8
0
  6
Continuous2
 62
   132
420
    49344
370
    -3
100
AcDbSpline
210
0.0
220
0.0
230
1.0
 70
    11
 71
     3
 72
   191
 73
   187
 74
     0
 42
0.000000001
 43
0.000001
 40
0.0
 40
0.0
 40
0.0
 40
0.0
 40
0.4025286672102307
 40
0.4025286672102307
 40
0.4025286672102307
 40
0.7962286096699852
 40
0.7962286096699852
 40
0.7962286096699852
 40
1.235676838219427
 40
1.235676838219427
 40
1.235676838219427
 40
1.390274719936684
 40
1.390274719936684
 40
1.390274719936684
 40
2.281529235667818
 40
2.281529235667818
 40
2.281529235667818
 40
2.78126216460308
 40
2.78126216460308
 40
2.78126216460308
 40
3.598171008272359
 40
3.598171008272359
 40
3.598171008272359
 40
4.156843498293054
 40
4.156843498293054
 40
4.156843498293054
 40
4.658543419600548
 40
4.658543419600548
 40
4.658543419600548
 40
4.949107232114564
 40
4.949107232114564
 40
4.949107232114564
 40
5.268396451737443
 40
5.268396451737443
 40
5.268396451737443
 40
5.346374485835713
 40
5.346374485835713
 40
5.346374485835713
 40
5.813758190774243
 40
5.813758190774243
 40
5.813758190774243
 40
6.383798022179097
 40
6.383798022179097
 40
6.383798022179097
 40
7.1873203465533
 40
7.1873203465533
 40
7.1873203465533
 40
7.73269895447807
 40
7.73269895447807
 40
7.73269895447807
 40
7.850688916513344
 40
7.850688916513344
 40
7.850688916513344
 40
8.112149254533545
 40
8.112149254533545
 40
8.112149254533545
 40
8.32242267593351
 40
8.32242267593351
 40
8.32242267593351
 40
8.563977332269344
 40
8.563977332269344
 40
8.563977332269344
 40
8.798885760558395
 40
8.798885760558395
 40
8.798885760558395
 40
9.03353139138019
 40
9.03353139138019
 40
9.03353139138019
 40
9.281751900674461
 40
9.281751900674461
 40
9.281751900674461
 40
9.528452121668753
 40
9.528452121668753
 40
9.528452121668753
 40
9.787041414057963
 40
9.787041414057963
 40
9.787041414057963
 40
10.08893038150466
 40
10.08893038150466
 40
10.08893038150466
 40
10.3941191035187
 40
10.3941191035187
 40
10.3941191035187
 40
10.71858972583984
 40
10.71858972583984
 40
10.71858972583984
 40
10.99290954455937
 40
10.99290954455937
 40
10.99290954455937
 40
11.29358549218764
 40
11.29358549218764
 40
11.29358549218764
 40
12.01799498071709
 40
12.01799498071709
 40
12.01799498071709
 40
12.13388215017066
 40
12.13388215017066
 40
12.13388215017066
 40
13.61221500480827
 40
13.61221500480827
 40
13.61221500480827
 40
13.71186076627238
 40
13.71186076627238
 40
13.71186076627238
 40
14.2227365119626
 40
14.2227365119626
 40
14.2227365119626
 40
14.26788576676134
 40
14.26788576676134
 40
14.26788576676134
 40
14.55317112358903
 40
14.55317112358903
 40
14.55317112358903
 40
14.86838180329031
 40
14.86838180329031
 40
14.86838180329031
 40
15.21772396201395
 40
15.21772396201395
 40
15.21772396201395
 40
15.56959862551676
 40
15.56959862551676
 40
15.56959862551676
 40
15.91096114389167
 40
15.91096114389167
 40
15.91096114389167
 40
16.23641005193985
 40
16.23641005193985
 40
16.23641005193985
 40
16.57156590121898
 40
16.57156590121898
 40
16.57156590121898
 40
16.82365004153386
 40
16.82365004153386
 40
16.82365004153386
 40
17.56156568332371
 40
17.56156568332371
 40
17.56156568332371
 40
17.8120512165454
 40
17.8120512165454
 40
17.8120512165454
 40
17.93313756740016
 40
17.93313756740016
 40
17.93313756740016
 40
18.24505039800182
 40
18.24505039800182
 40
18.24505039800182
 40
18.53150560846607
 40
18.53150560846607
 40
18.53150560846607
 40
18.67236080595304
 40
18.67236080595304
 40
18.67236080595304
 40
18.94027595427016
 40
18.94027595427016
 40
18.94027595427016
 40
18.99884292267082
 40
18.99884292267082
 40
18.99884292267082
 40
19.10124596247659
 40
19.10124596247659
 40
19.10124596247659
 40
19.38363911291306
 40
19.38363911291306
 40
19.38363911291306
 40
19.44363028846798
 40
19.44363028846798
 40
19.44363028846798
 40
19.55419078403338
 40
19.55419078403338
 40
19.55419078403338
 40
20.50533382119099
 40
20.50533382119099
 40
20.50533382119099
 40
20.65418271604912
 40
20.65418271604912
 40
20.65418271604912
 40
20.73529602345289
 40
20.73529602345289
 40
20.73529602345289
 40
21.07016073965458
 40
21.07016073965458
 40
21.07016073965458
 40
21.4496590383876
 40
21.4496590383876
 40
21.4496590383876
 40
21.82618420751407
 40
21.82618420751407
 40
21.82618420751407
 40
21.82618420751407
 10
2.678035194067903
 20
6.608028955984015
 30
0.0
 10
2.595543703273448
 20
6.431799843893611
 30
0.0
 10
2.734277927930204
 20
6.289317982967898
 30
0.0
 10
2.850512642771066
 20
6.244324601301681
 30
0.0
 10
2.753024163511538
 20
6.139336822385961
 30
0.0
 10
2.775521257056458
 20
5.955611632333987
 30
0.0
 10
2.850512642771066
 20
5.850624658841927
 30
0.0
 10
2.685535299147744
 20
5.813128965984623
 30
0.0
 10
2.648037190019473
 20
5.603152602729527
 30
0.0
 10
2.663037400179179
 20
5.453173052994931
 30
0.0
 10
2.61054149716218
 20
5.460673963498434
 30
0.0
 10
2.55805123211077
 20
5.49816724008477
 30
0.0
 10
2.543052632798383
 20
5.550662337678116
 30
0.0
 10
2.430566359650127
 20
5.273195499211916
 30
0.0
 10
2.320321580535076
 20
4.99934662380614
 30
0.0
 10
2.20559461877727
 20
4.725764343630328
 30
0.0
 10
2.181222498962388
 20
4.667647388921721
 30
0.0
 10
2.079984772586592
 20
4.446424895165132
 30
0.0
 10
2.079984772586593
 20
4.24207522156723
 30
0.0
 10
2.079984772586593
 20
3.966485020218303
 30
0.0
 10
2.158724599993813
 20
3.608404133498575
 30
0.0
 10
2.595543703273443
 20
3.608404133498577
 30
0.0
 10
2.799894182294997
 20
3.608404133498577
 30
0.0
 10
2.972374047269133
 20
3.82962582183151
 30
0.0
 10
2.972374047269143
 20
4.020852727810652
 30
0.0
 10
2.972374047269143
 20
4.262698094265855
 30
0.0
 10
2.805066613010511
 20
4.409041961619604
 30
0.0
 10
2.668660868141747
 20
4.420178554503938
 30
0.0
 10
2.576797467692105
 20
4.427676243312819
 30
0.0
 10
2.454938479465005
 20
4.36205998894802
 30
0.0
 10
2.454938479465004
 20
4.223328180562238
 30
0.0
 10
2.454938479465004
 20
4.048974094741795
 30
0.0
 10
2.531804086025918
 20
4.002103270534683
 30
0.0
 10
2.616167381395717
 20
3.947736368366005
 30
0.0
 10
2.652923695337288
 20
3.924048858658282
 30
0.0
 10
2.627415928168177
 20
3.872744177227741
 30
0.0
 10
2.580545909384719
 20
3.878370061461279
 30
0.0
 10
2.396268198705084
 20
3.900482967922534
 30
0.0
 10
2.269337457719415
 20
4.081470522969525
 30
0.0
 10
2.269337457719421
 20
4.227077427678505
 30
0.0
 10
2.269337457719421
 20
4.343310531672063
 30
0.0
 10
2.320577705257523
 20
4.63202672233438
 30
0.0
 10
2.670537505259024
 20
4.632026722334384
 30
0.0
 10
2.981745956924327
 20
4.632026722334384
 30
0.0
 10
3.202970866951883
 20
4.343310531672068
 30
0.0
 10
3.202970866951881
 20
4.030227053736798
 30
0.0
 10
3.202970866951881
 20
3.724639653763103
 30
0.0
 10
3.013149425251564
 20
3.590536615125368
 30
0.0
 10
2.977996709808058
 20
3.533412747783973
 30
0.0
 10
2.948001927454257
 20
3.48467011900152
 30
0.0
 10
2.934878354411834
 20
3.458423778340332
 30
0.0
 10
2.942376043220716
 20
3.420928085483023
 30
0.0
 10
2.859886968697227
 20
3.443423568180632
 30
0.0
 10
2.753024163511546
 20
3.419053864636716
 30
0.0
 10
2.700532287612824
 20
3.321564579953541
 30
0.0
 10
2.6405395012106
 20
3.372183040429611
 30
0.0
 10
2.53367830687223
 20
3.362808714503458
 30
0.0
 10
2.490559951476002
 20
3.310316033181077
 30
0.0
 10
2.415567760337739
 20
3.398430186514452
 30
0.0
 10
2.314330033961943
 20
3.398430186514451
 30
0.0
 10
2.2580881055233
 20
3.375932287545875
 30
0.0
 10
2.213092307586149
 20
3.450923673260483
 30
0.0
 10
2.141850168987809
 20
3.495919471197634
 30
0.0
 10
2.051863405655443
 20
3.488419366117792
 30
0.0
 10
2.051863405655443
 20
3.570908440641281
 30
0.0
 10
1.967497694014682
 20
3.653399126012081
 30
0.0
 10
1.885009424914853
 20
3.653399126012079
 30
0.0
 10
1.89771498308008
 20
3.729638112969028
 30
0.0
 10
1.85043178196136
 20
3.865247293842514
 30
0.0
 10
1.755650331607904
 20
3.865247293842511
 30
0.0
 10
1.800646129545055
 20
3.962735773102039
 30
0.0
 10
1.736904096026563
 20
4.075220435402985
 30
0.0
 10
1.654412605232104
 20
4.090218229291718
 30
0.0
 10
1.691908298089408
 20
4.172707303815207
 30
0.0
 10
1.688156634702173
 20
4.292693682043311
 30
0.0
 10
1.61129344441223
 20
4.345187168789341
 30
0.0
 10
1.708782729095414
 20
4.4782947037889
 30
0.0
 10
1.643163253035993
 20
4.617028123022
 30
0.0
 10
1.605667560178689
 20
4.647023710799456
 30
0.0
 10
1.729403990946716
 20
4.753884905137826
 30
0.0
 10
1.667535372850875
 20
4.91324119706954
 30
0.0
 10
1.635666369650765
 20
4.950734473655867
 30
0.0
 10
1.697530960628329
 20
5.005104597519172
 30
0.0
 10
1.752672680353585
 20
5.163591837326621
 30
0.0
 10
1.645038279305951
 20
5.275069720058223
 30
0.0
 10
1.748150226528054
 20
5.297567619026799
 30
0.0
 10
1.790907752126621
 20
5.477348649437878
 30
0.0
 10
1.703156844861874
 20
5.543162232598274
 30
0.0
 10
1.817518144280092
 20
5.575032041222037
 30
0.0
 10
1.898132192533619
 20
5.786881819899783
 30
0.0
 10
1.74252675856548
 20
5.841249527492121
 30
0.0
 10
1.508559240884545
 20
5.922997612252566
 30
0.0
 10
1.370839044610041
 20
5.413762868108552
 30
0.0
 10
1.307582278843978
 20
5.261946147015795
 30
0.0
 10
1.288833224279843
 20
5.216953570773266
 30
0.0
 10
1.229187575473131
 20
5.22318674444304
 30
0.0
 10
1.193221382137591
 20
5.243199911434456
 30
0.0
 10
0.9607503416085423
 20
5.372558199317747
 30
0.0
 10
0.4620630229448919
 20
6.353060016486357
 30
0.0
 10
0.8745100064096443
 20
6.686768783391241
 30
0.0
 10
0.8955295502585829
 20
6.703775303876741
 30
0.0
 10
0.9495009894124243
 20
6.703640798126275
 30
0.0
 10
0.9738731092273065
 20
6.679268678311384
 30
0.0
 10
1.101357981687947
 20
6.551787027545366
 30
0.0
 10
1.199782765946972
 20
6.445861735494665
 30
0.0
 10
1.350701439663855
 20
6.334312975481392
 30
0.0
 10
1.35922886261627
 20
6.328009729953591
 30
0.0
 10
1.393820197771906
 20
6.305254095415261
 30
0.0
 10
1.395694821330044
 20
6.330564533788763
 30
0.0
 10
1.403471186723721
 20
6.43552976084213
 30
0.0
 10
1.336641964333767
 20
6.526476589171834
 30
0.0
 10
1.231655393553525
 20
6.563971476605492
 30
0.0
 10
1.250402031846694
 20
6.674581918060131
 30
0.0
 10
1.155725689280281
 20
6.818002902968135
 30
0.0
 10
1.07698545916124
 20
6.838625775666753
 30
0.0
 10
1.087296090086892
 20
6.870495584290516
 30
0.0
 10
1.140727492679733
 20
7.072033523907127
 30
0.0
 10
0.9884017438367154
 20
7.176550129984388
 30
0.0
 10
1.061988067984335
 20
7.258572058787697
 30
0.0
 10
1.126666003790497
 20
7.376681799898528
 30
0.0
 10
1.023553653856571
 20
7.526664571327746
 30
0.0
 10
1.087378646011578
 20
7.517546370124036
 30
0.0
 10
1.235634186411613
 20
7.632019623430366
 30
0.0
 10
1.193221382137591
 20
7.822876034527976
 30
0.0
 10
1.276647969796061
 20
7.830375334184168
 30
0.0
 10
1.421941161991233
 20
7.869746053311434
 30
0.0
 10
1.423816188261196
 20
8.052534535652075
 30
0.0
 10
1.543802163777472
 20
8.000041048906043
 30
0.0
 10
1.710656949941723
 20
8.077844168601938
 30
0.0
 10
1.718155444174255
 20
8.212827535295116
 30
0.0
 10
1.767838002362655
 20
8.13408690246424
 30
0.0
 10
2.049989990232794
 20
8.1125273220543
 30
0.0
 10
1.950625679279651
 20
8.310316014554648
 30
0.0
 10
2.174349013486511
 20
8.177832682888086
 30
0.0
 10
2.328077810337373
 20
7.990354218601567
 30
0.0
 10
2.446814171052162
 20
7.764132460215411
 30
0.0
 10
2.448062577718158
 20
7.832876980058101
 30
0.0
 10
2.453063453195046
 20
7.937861537279199
 30
0.0
 10
2.514304646263267
 20
8.005354428761255
 30
0.0
 10
2.550550321607263
 20
7.992854253628176
 30
0.0
 10
2.579297502718723
 20
7.991605846962178
 30
0.0
 10
2.633039396130749
 20
7.981606512279388
 30
0.0
 10
2.546801879914647
 20
7.93036384847032
 30
0.0
 10
2.493057570231652
 20
7.79413126968749
 30
0.0
 10
2.528052422638688
 20
7.687893473258452
 30
0.0
 10
2.555495622851923
 20
7.604593337113893
 30
0.0
 10
2.641789518723908
 20
7.486668038020167
 30
0.0
 10
2.713030046474935
 20
7.469170209104828
 30
0.0
 10
2.705531552242399
 20
7.469170209104828
 30
0.0
 10
2.66803666480875
 20
7.382932692888726
 30
0.0
 10
2.775521257056465
 20
7.342936159581146
 30
0.0
 10
2.864424725572212
 20
7.30985821547416
 30
0.0
 10
2.992995309120442
 20
7.277944913973001
 30
0.0
 10
3.03799110705759
 20
7.289195071592783
 30
0.0
 10
3.052540279970215
 20
7.292830753973628
 30
0.0
 10
3.072366588673557
 20
7.31370894597103
 30
0.0
 10
3.082984488723782
 20
7.326687542755462
 30
0.0
 10
3.094233035496242
 20
7.340437735401848
 30
0.0
 10
3.179222145046347
 20
7.301691219607581
 30
0.0
 10
3.17922214504634
 20
7.291691884924777
 30
0.0
 10
3.17922214504634
 20
7.267979407083735
 30
0.0
 10
3.125478640787
 20
7.112964348655068
 30
0.0
 10
3.04548799044282
 20
7.042973032993689
 30
0.0
 10
3.032869418032385
 20
7.031933090947999
 30
0.0
 10
2.997996990020985
 20
7.032974503734538
 30
0.0
 10
2.985496814887903
 20
7.042973032993689
 30
0.0
 10
2.956216443316515
 20
7.066397974589725
 30
0.0
 10
2.934252540231523
 20
7.110466729899416
 30
0.0
 10
2.904256952454067
 20
7.117964418708301
 30
0.0
 10
2.65678811803629
 20
7.192955804422908
 30
0.0
 10
2.220592412665995
 20
7.290442672835126
 30
0.0
 10
1.95812336808853
 20
7.215454508815132
 30
0.0
 10
1.95812336808853
 20
7.267944773866541
 30
0.0
 10
1.890632087453769
 20
7.320439871459885
 30
0.0
 10
1.84563951121124
 20
7.312939766380037
 30
0.0
 10
1.815643923433783
 20
7.305440466723845
 30
0.0
 10
1.800646129545055
 20
7.269164990704596
 30
0.0
 10
1.800646129545055
 20
7.245449291168942
 30
0.0
 10
1.800646129545055
 20
7.19295580442291
 30
0.0
 10
1.894383750841004
 20
6.98673110455505
 30
0.0
 10
2.078110551740285
 20
7.057971632306067
 30
0.0
 10
2.108106139517742
 20
6.907990471724163
 30
0.0
 10
2.250588000443454
 20
6.840499996513058
 30
0.0
 10
2.408067655257896
 20
6.870495584290527
 30
0.0
 10
2.385572172560287
 20
6.769257857914731
 30
0.0
 10
2.501805276553845
 20
6.600528850904174
 30
0.0
 10
2.678035194067904
 20
6.608028955984022
 30
0.0
  0
SPLINE
  5
9C
330
1F
100
AcDbEntity
  8
0
  6
Continuous2
 62
   132
420
    49344
370
    -3
100
AcDbSpline
210
0.0
220
0.0
230
1.0
 70
    11
 71
     3
 72
    11
 73
     7
 74
     5
 42
0.000000001
 43
0.0000000001
 44
0.0
 12
1.0
 22
0.0
 32
0.0
 13
1.0
 23
1.316314099638874E-16
 33
0.0
 40
0.0
 40
0.0
 40
0.0
 40
0.0
 40
0.0899870911249108
 40
0.1799764603175111
 40
0.2699663990288411
 40
0.3599540596868972
 40
0.3599540596868972
 40
0.3599540596868972
 40
0.3599540596868972
 10
2.393070666792821
 20
7.657785126169227
 30
0.0
 10
2.423066363834458
 20
7.657785126169227
 30
0.0
 10
2.489298115073899
 20
7.594155794454373
 30
0.0
 10
2.393070665146852
 20
7.4987067053801
 30
0.0
 10
2.296841804087708
 20
7.594155909532162
 30
0.0
 10
2.3630747799068
 20
7.657785126169226
 30
0.0
 10
2.393070666792819
 20
7.657785126169226
 30
0.0
 11
2.393070666792821
 21
7.657785126169227
 31
0.0
 11
2.456702357270509
 21
7.594155851962501
 31
0.0
 11
2.393070666792821
 21
7.530523356061163
 31
0.0
 11
2.329438170891472
 21
7.594155851962501
 31
0.0
 11
2.393070666792819
 21
7.657785126169226
 31
0.0
  0
SPLINE
  5
9D
330
1F
100
AcDbEntity
  8
0
  6
Continuous2
 62
   132
420
    49344
370
    -3
100
AcDbSpline
210
0.0
220
0.0
230
1.0
 70
     8
 71
     3
 72
    11
 73
     7
 74
     5
 42
0.000000001
 43
0.0000000001
 44
0.0
 12
-0.8859356593794745
 22
0.4638081580134786
 32
0.0
 13
0.6071900880323571
 23
0.7945566040221792
 33
0.0
 40
0.0
 40
0.0
 40
0.0
 40
0.0
 40
0.3425416602586492
 40
0.5538637982023409
 40
0.8209533124594375
 40
1.069233423764686
 40
1.069233423764686
 40
1.069233423764686
 40
1.069233423764686
 10
1.763685237994989
 20
7.719604613422096
 30
0.0
 10
1.662528614112927
 20
7.772562485584577
 30
0.0
 10
1.385731804431303
 20
7.870356033631719
 30
0.0
 10
1.381210879382356
 20
7.536327451188027
 30
0.0
 10
1.513510412103045
 20
7.249747064684453
 30
0.0
 10
1.708463088979983
 20
7.394997608724029
 30
0.0
 10
1.758714163193355
 20
7.460755142752344
 30
0.0
 11
1.763685237994989
 21
7.719604613422096
 31
0.0
 11
1.424859614606867
 21
7.769923456298326
 31
0.0
 11
1.399026053569114
 21
7.560186303868907
 31
0.0
 11
1.544095337988062
 21
7.335928168354794
 31
0.0
 11
1.758714163193355
 21
7.460755142752344
 31
0.0
  0
SPLINE
  5
9E
330
1F
100
AcDbEntity
  8
0
  6
Continuous2
 62
   132
420
    49344
370
    -3
100
AcDbSpline
210
0.0
220
0.0
230
1.0
 70
     8
 71
     3
 72
     9
 73
     5
 74
     3
 42
0.000000001
 43
0.0000000001
 44
0.0
 12
0.6051991361036251
 22
0.7960741207070015
 32
0.0
 13
-0.6054481783781879
 23
-0.7958847299066201
 33
0.0
 40
0.0
 40
0.0
 40
0.0
 40
0.0
 40
0.0212114529462437
 40
0.0424209839009333
 40
0.0424209839009333
 40
0.0424209839009333
 40
0.0424209839009333
 10
1.758709330651421
 20
7.460750310210418
 30
0.0
 10
1.762988381650945
 20
7.466378939794785
 30
0.0
 10
1.784525179776259
 20
7.469923892843362
 30
0.0
 10
1.786866538878443
 20
7.448222841620967
 30
0.0
 10
1.782586114918186
 20
7.442596061015861
 30
0.0
 11
1.758709330651421
 21
7.460750310210418
 31
0.0
 11
1.779726860941225
 21
7.463611980458349
 31
0.0
 11
1.782586114918186
 21
7.442596061015861
 31
0.0
  0
SPLINE
  5
9F
330
1F
100
AcDbEntity
  8
0
  6
Continuous2
 62
   132
420
    49344
370
    -3
100
AcDbSpline
210
0.0
220
0.0
230
1.0
 70
     8
 71
     3
 72
    11
 73
     7
 74
     5
 42
0.000000001
 43
0.0000000001
 44
0.0
 12
-0.6051497944036588
 22
-0.7961116293166489
 32
0.0
 13
0.8855175739705025
 23
-0.4646058826461367
 33
0.0
 40
0.0
 40
0.0
 40
0.0
 40
0.0
 40
0.2798775181526996
 40
0.5783162183085342
 40
0.821528169627556
 40
1.195736953810042
 40
1.195736953810042
 40
1.195736953810042
 40
1.195736953810042
 10
1.782586114918186
 20
7.442596061015852
 30
0.0
 10
1.726130174062082
 20
7.368324812020637
 30
0.0
 10
1.505828559646579
 20
7.213465131676378
 30
0.0
 10
1.345087635734099
 20
7.527970817249876
 30
0.0
 10
1.364108105745369
 20
7.900988442969178
 30
0.0
 10
1.667158888540639
 20
7.804123102673866
 30
0.0
 10
1.777615040116548
 20
7.746169901850852
 30
0.0
 11
1.782586114918186
 21
7.442596061015852
 31
0.0
 11
1.537994253797788
 21
7.306558394757662
 31
0.0
 11
1.369870119952496
 21
7.553134819765152
 31
0.0
 11
1.406422258997403
 21
7.793584387025415
 31
0.0
 11
1.777615040116548
 21
7.746169901850852
 31
0.0
  0
SPLINE
  5
A0
330
1F
100
AcDbEntity
  8
0
  6
Continuous2
 62
   132
420
    49344
370
    -3
100
AcDbSpline
210
0.0
220
0.0
230
1.0
 70
     8
 71
     3
 72
     9
 73
     5
 74
     3
 42
0.000000001
 43
0.0000000001
 44
0.0
 12
0.8855859100148235
 22
-0.4644756139812046
 32
0.0
 13
-0.8856887905086892
 23
0.4642794054954998
 33
0.0
 40
0.0
 40
0.0
 40
0.0
 40
0.0
 40
0.0212105924795182
 40
0.0424232518247981
 40
0.0424232518247981
 40
0.0424232518247981
 40
0.0424232518247981
 10
1.777615040116548
 20
7.746169901850845
 30
0.0
 10
1.783876307397524
 20
7.742885967529235
 30
0.0
 10
1.790952007188701
 20
7.72223714573212
 30
0.0
 10
1.76994301031939
 20
7.716323357312809
 30
0.0
 10
1.763680405453059
 20
7.719606224269411
 30
0.0
 11
1.777615040116548
 21
7.746169901850845
 31
0.0
 11
1.78393117242284
 21
7.725921551152044
 31
0.0
 11
1.763680405453059
 21
7.719606224269411
 31
0.0
  0
LINE
  5
A1
330
1F
100
AcDbEntity
  8
0
  6
Continuous2
 62
   132
420
    49344
370
    -3
100
AcDbLine
 10
2.406860325198324
 20
7.626712686964392
 30
0.0
 11
2.395569090972132
 21
7.59915511659209
 31
0.0
  0
SPLINE
  5
A2
330
1F
100
AcDbEntity
  8
0
  6
Continuous2
 62
   132
420
    49344
370
    -3
100
AcDbSpline
210
0.0
220
0.0
230
1.0
 70
     8
 71
     3
 72
     8
 73
     4
 74
     2
 42
0.000000001
 43
0.0000000001
 44
0.0
 12
1.0
 22
0.0
 32
0.0
 13
0.9206941935852386
 23
-0.3902847702619547
 33
0.0
 40
0.0
 40
0.0
 40
0.0
 40
0.0
 40
0.0140700283668999
 40
0.0140700283668999
 40
0.0140700283668999
 40
0.0140700283668999
 10
2.393070666792821
 20
7.629507507048924
 30
0.0
 10
2.397760676248454
 20
7.629507507048924
 30
0.0
 10
2.402542260724664
 20
7.628543126227321
 30
0.0
 10
2.406860325198326
 20
7.626712686964402
 30
0.0
 11
2.393070666792821
 21
7.629507507048924
 31
0.0
 11
2.406860325198326
 21
7.626712686964402
 31
0.0
  0
LINE
  5
A3
330
1F
100
AcDbEntity
  8
0
  6
Continuous2
 62
   132
420
    49344
370
    -3
100
AcDbLine
 10
2.395569090972132
 20
7.59915511659209
 30
0.0
 11
2.424660993408133
 21
7.609728718341241
 31
0.0
  0
SPLINE
  5
A4
330
1F
100
AcDbEntity
  8
0
  6
Continuous2
 62
   132
420
    49344
370
    -3
100
AcDbSpline
210
0.0
220
0.0
230
1.0
 70
     8
 71
     3
 72
    11
 73
     7
 74
     5
 42
0.000000001
 43
0.0000000001
 44
0.0
 12
0.4432285303395627
 22
-0.8964086511703419
 32
0.0
 13
1.0
 23
0.0
 33
0.0
 40
0.0
 40
0.0
 40
0.0
 40
0.0
 40
0.0160222324515638
 40
0.0660175920508894
 40
0.11601295165021
 40
0.1660088807797806
 40
0.1660088807797806
 40
0.1660088807797806
 40
0.1660088807797806
 10
2.424660993408133
 20
7.609728718341241
 30
0.0
 10
2.427028163588888
 20
7.604941229081026
 30
0.0
 10
2.433440620566301
 20
7.582960987963041
 30
0.0
 10
2.39344142436996
 20
7.540816433939705
 30
0.0
 10
2.339504149699343
 20
7.594242589945491
 30
0.0
 10
2.376405357082966
 20
7.629507507048924
 30
0.0
 10
2.393070666792823
 20
7.629507507048924
 30
0.0
 11
2.424660993408133
 21
7.609728718341241
 31
0.0
 11
2.428422321879236
 21
7.594154241115202
 31
0.0
 11
2.393070666792821
 21
7.558801780605119
 31
0.0
 11
2.357719011706412
 21
7.594154241115202
 31
0.0
 11
2.393070666792823
 21
7.629507507048924
 31
0.0
  0
SPLINE
  5
A5
330
1F
100
AcDbEntity
  8
0
  6
Continuous2
 62
   132
420
    49344
370
    -3
100
AcDbSpline
210
0.0
220
0.0
230
1.0
 70
    11
 71
     3
 72
   191
 73
   187
 74
     0
 42
0.000000001
 43
0.000001
 40
0.0
 40
0.0
 40
0.0
 40
0.0
 40
0.4025286672102307
 40
0.4025286672102307
 40
0.4025286672102307
 40
0.7962286096699852
 40
0.7962286096699852
 40
0.7962286096699852
 40
1.235676838219427
 40
1.235676838219427
 40
1.235676838219427
 40
1.390274719936684
 40
1.390274719936684
 40
1.390274719936684
 40
2.281529235667818
 40
2.281529235667818
 40
2.281529235667818
 40
2.78126216460308
 40
2.78126216460308
 40
2.78126216460308
 40
3.598171008272359
 40
3.598171008272359
 40
3.598171008272359
 40
4.156843498293054
 40
4.156843498293054
 40
4.156843498293054
 40
4.658543419600548
 40
4.658543419600548
 40
4.658543419600548
 40
4.949107232114564
 40
4.949107232114564
 40
4.949107232114564
 40
5.268396451737443
 40
5.268396451737443
 40
5.268396451737443
 40
5.346374485835713
 40
5.346374485835713
 40
5.346374485835713
 40
5.813758190774243
 40
5.813758190774243
 40
5.813758190774243
 40
6.383798022179097
 40
6.383798022179097
 40
6.383798022179097
 40
7.1873203465533
 40
7.1873203465533
 40
7.1873203465533
 40
7.73269895447807
 40
7.73269895447807
 40
7.73269895447807
 40
7.850688916513344
 40
7.850688916513344
 40
7.850688916513344
 40
8.112149254533545
 40
8.112149254533545
 40
8.112149254533545
 40
8.32242267593351
 40
8.32242267593351
 40
8.32242267593351
 40
8.563977332269344
 40
8.563977332269344
 40
8.563977332269344
 40
8.798885760558395
 40
8.798885760558395
 40
8.798885760558395
 40
9.03353139138019
 40
9.03353139138019
 40
9.03353139138019
 40
9.281751900674461
 40
9.281751900674461
 40
9.281751900674461
 40
9.528452121668753
 40
9.528452121668753
 40
9.528452121668753
 40
9.787041414057963
 40
9.787041414057963
 40
9.787041414057963
 40
10.08893038150466
 40
10.08893038150466
 40
10.08893038150466
 40
10.3941191035187
 40
10.3941191035187
 40
10.3941191035187
 40
10.71858972583984
 40
10.71858972583984
 40
10.71858972583984
 40
10.99290954455937
 40
10.99290954455937
 40
10.99290954455937
 40
11.29358549218764
 40
11.29358549218764
 40
11.29358549218764
 40
12.01799498071709
 40
12.01799498071709
 40
12.01799498071709
 40
12.13388215017066
 40
12.13388215017066
 40
12.13388215017066
 40
13.61221500480827
 40
13.61221500480827
 40
13.61221500480827
 40
13.71186076627238
 40
13.71186076627238
 40
13.71186076627238
 40
14.2227365119626
 40
14.2227365119626
 40
14.2227365119626
 40
14.26788576676134
 40
14.26788576676134
 40
14.26788576676134
 40
14.55317112358903
 40
14.55317112358903
 40
14.55317112358903
 40
14.86838180329031
 40
14.86838180329031
 40
14.86838180329031
 40
15.21772396201395
 40
15.21772396201395
 40
15.21772396201395
 40
15.56959862551676
 40
15.56959862551676
 40
15.56959862551676
 40
15.91096114389167
 40
15.91096114389167
 40
15.91096114389167
 40
16.23641005193985
 40
16.23641005193985
 40
16.23641005193985
 40
16.57156590121898
 40
16.57156590121898
 40
16.57156590121898
 40
16.82365004153386
 40
16.82365004153386
 40
16.82365004153386
 40
17.56156568332371
 40
17.56156568332371
 40
17.56156568332371
 40
17.8120512165454
 40
17.8120512165454
 40
17.8120512165454
 40
17.93313756740016
 40
17.93313756740016
 40
17.93313756740016
 40
18.24505039800182
 40
18.24505039800182
 40
18.24505039800182
 40
18.53150560846607
 40
18.53150560846607
 40
18.53150560846607
 40
18.67236080595304
 40
18.67236080595304
 40
18.67236080595304
 40
18.94027595427016
 40
18.94027595427016
 40
18.94027595427016
 40
18.99884292267082
 40
18.99884292267082
 40
18.99884292267082
 40
19.10124596247659
 40
19.10124596247659
 40
19.10124596247659
 40
19.38363911291306
 40
19.38363911291306
 40
19.38363911291306
 40
19.44363028846798
 40
19.44363028846798
 40
19.44363028846798
 40
19.55419078403338
 40
19.55419078403338
 40
19.55419078403338
 40
20.50533382119099
 40
20.50533382119099
 40
20.50533382119099
 40
20.65418271604912
 40
20.65418271604912
 40
20.65418271604912
 40
20.73529602345289
 40
20.73529602345289
 40
20.73529602345289
 40
21.07016073965458
 40
21.07016073965458
 40
21.07016073965458
 40
21.4496590383876
 40
21.4496590383876
 40
21.4496590383876
 40
21.82618420751407
 40
21.82618420751407
 40
21.82618420751407
 40
21.82618420751407
 10
2.678035194067903
 20
6.608028955984015
 30
0.0
 10
2.595543703273448
 20
6.431799843893611
 30
0.0
 10
2.734277927930204
 20
6.289317982967898
 30
0.0
 10
2.850512642771066
 20
6.244324601301681
 30
0.0
 10
2.753024163511538
 20
6.139336822385961
 30
0.0
 10
2.775521257056458
 20
5.955611632333987
 30
0.0
 10
2.850512642771066
 20
5.850624658841927
 30
0.0
 10
2.685535299147744
 20
5.813128965984623
 30
0.0
 10
2.648037190019473
 20
5.603152602729527
 30
0.0
 10
2.663037400179179
 20
5.453173052994931
 30
0.0
 10
2.61054149716218
 20
5.460673963498434
 30
0.0
 10
2.55805123211077
 20
5.49816724008477
 30
0.0
 10
2.543052632798383
 20
5.550662337678116
 30
0.0
 10
2.430566359650127
 20
5.273195499211916
 30
0.0
 10
2.320321580535076
 20
4.99934662380614
 30
0.0
 10
2.20559461877727
 20
4.725764343630328
 30
0.0
 10
2.181222498962388
 20
4.667647388921721
 30
0.0
 10
2.079984772586592
 20
4.446424895165132
 30
0.0
 10
2.079984772586593
 20
4.24207522156723
 30
0.0
 10
2.079984772586593
 20
3.966485020218303
 30
0.0
 10
2.158724599993813
 20
3.608404133498575
 30
0.0
 10
2.595543703273443
 20
3.608404133498577
 30
0.0
 10
2.799894182294997
 20
3.608404133498577
 30
0.0
 10
2.972374047269133
 20
3.82962582183151
 30
0.0
 10
2.972374047269143
 20
4.020852727810652
 30
0.0
 10
2.972374047269143
 20
4.262698094265855
 30
0.0
 10
2.805066613010511
 20
4.409041961619604
 30
0.0
 10
2.668660868141747
 20
4.420178554503938
 30
0.0
 10
2.576797467692105
 20
4.427676243312819
 30
0.0
 10
2.454938479465005
 20
4.36205998894802
 30
0.0
 10
2.454938479465004
 20
4.223328180562238
 30
0.0
 10
2.454938479465004
 20
4.048974094741795
 30
0.0
 10
2.531804086025918
 20
4.002103270534683
 30
0.0
 10
2.616167381395717
 20
3.947736368366005
 30
0.0
 10
2.652923695337288
 20
3.924048858658282
 30
0.0
 10
2.627415928168177
 20
3.872744177227741
 30
0.0
 10
2.580545909384719
 20
3.878370061461279
 30
0.0
 10
2.396268198705084
 20
3.900482967922534
 30
0.0
 10
2.269337457719415
 20
4.081470522969525
 30
0.0
 10
2.269337457719421
 20
4.227077427678505
 30
0.0
 10
2.269337457719421
 20
4.343310531672063
 30
0.0
 10
2.320577705257523
 20
4.63202672233438
 30
0.0
 10
2.670537505259024
 20
4.632026722334384
 30
0.0
 10
2.981745956924327
 20
4.632026722334384
 30
0.0
 10
3.202970866951883
 20
4.343310531672068
 30
0.0
 10
3.202970866951881
 20
4.030227053736798
 30
0.0
 10
3.202970866951881
 20
3.724639653763103
 30
0.0
 10
3.013149425251564
 20
3.590536615125368
 30
0.0
 10
2.977996709808058
 20
3.533412747783973
 30
0.0
 10
2.948001927454257
 20
3.48467011900152
 30
0.0
 10
2.934878354411834
 20
3.458423778340332
 30
0.0
 10
2.942376043220716
 20
3.420928085483023
 30
0.0
 10
2.859886968697227
 20
3.443423568180632
 30
0.0
 10
2.753024163511546
 20
3.419053864636716
 30
0.0
 10
2.700532287612824
 20
3.321564579953541
 30
0.0
 10
2.6405395012106
 20
3.372183040429611
 30
0.0
 10
2.53367830687223
 20
3.362808714503458
 30
0.0
 10
2.490559951476002
 20
3.310316033181077
 30
0.0
 10
2.415567760337739
 20
3.398430186514452
 30
0.0
 10
2.314330033961943
 20
3.398430186514451
 30
0.0
 10
2.2580881055233
 20
3.375932287545875
 30
0.0
 10
2.213092307586149
 20
3.450923673260483
 30
0.0
 10
2.141850168987809
 20
3.495919471197634
 30
0.0
 10
2.051863405655443
 20
3.488419366117792
 30
0.0
 10
2.051863405655443
 20
3.570908440641281
 30
0.0
 10
1.967497694014682
 20
3.653399126012081
 30
0.0
 10
1.885009424914853
 20
3.653399126012079
 30
0.0
 10
1.89771498308008
 20
3.729638112969028
 30
0.0
 10
1.85043178196136
 20
3.865247293842514
 30
0.0
 10
1.755650331607904
 20
3.865247293842511
 30
0.0
 10
1.800646129545055
 20
3.962735773102039
 30
0.0
 10
1.736904096026563
 20
4.075220435402985
 30
0.0
 10
1.654412605232104
 20
4.090218229291718
 30
0.0
 10
1.691908298089408
 20
4.172707303815207
 30
0.0
 10
1.688156634702173
 20
4.292693682043311
 30
0.0
 10
1.61129344441223
 20
4.345187168789341
 30
0.0
 10
1.708782729095414
 20
4.4782947037889
 30
0.0
 10
1.643163253035993
 20
4.617028123022
 30
0.0
 10
1.605667560178689
 20
4.647023710799456
 30
0.0
 10
1.729403990946716
 20
4.753884905137826
 30
0.0
 10
1.667535372850875
 20
4.91324119706954
 30
0.0
 10
1.635666369650765
 20
4.950734473655867
 30
0.0
 10
1.697530960628329
 20
5.005104597519172
 30
0.0
 10
1.752672680353585
 20
5.163591837326621
 30
0.0
 10
1.645038279305951
 20
5.275069720058223
 30
0.0
 10
1.748150226528054
 20
5.297567619026799
 30
0.0
 10
1.790907752126621
 20
5.477348649437878
 30
0.0
 10
1.703156844861874
 20
5.543162232598274
 30
0.0
 10
1.817518144280092
 20
5.575032041222037
 30
0.0
 10
1.898132192533619
 20
5.786881819899783
 30
0.0
 10
1.74252675856548
 20
5.841249527492121
 30
0.0
 10
1.508559240884545
 20
5.922997612252566
 30
0.0
 10
1.370839044610041
 20
5.413762868108552
 30
0.0
 10
1.307582278843978
 20
5.261946147015795
 30
0.0
 10
1.288833224279843
 20
5.216953570773266
 30
0.0
 10
1.229187575473131
 20
5.22318674444304
 30
0.0
 10
1.193221382137591
 20
5.243199911434456
 30
0.0
 10
0.9607503416085423
 20
5.372558199317747
 30
0.0
 10
0.4620630229448919
 20
6.353060016486357
 30
0.0
 10
0.8745100064096443
 20
6.686768783391241
 30
0.0
 10
0.8955295502585829
 20
6.703775303876741
 30
0.0
 10
0.9495009894124243
 20
6.703640798126275
 30
0.0
 10
0.9738731092273065
 20
6.679268678311384
 30
0.0
 10
1.101357981687947
 20
6.551787027545366
 30
0.0
 10
1.199782765946972
 20
6.445861735494665
 30
0.0
 10
1.350701439663855
 20
6.334312975481392
 30
0.0
 10
1.35922886261627
 20
6.328009729953591
 30
0.0
 10
1.393820197771906
 20
6.305254095415261
 30
0.0
 10
1.395694821330044
 20
6.330564533788763
 30
0.0
 10
1.403471186723721
 20
6.43552976084213
 30
0.0
 10
1.336641964333767
 20
6.526476589171834
 30
0.0
 10
1.231655393553525
 20
6.563971476605492
 30
0.0
 10
1.250402031846694
 20
6.674581918060131
 30
0.0
 10
1.155725689280281
 20
6.818002902968135
 30
0.0
 10
1.07698545916124
 20
6.838625775666753
 30
0.0
 10
1.087296090086892
 20
6.870495584290516
 30
0.0
 10
1.140727492679733
 20
7.072033523907127
 30
0.0
 10
0.9884017438367154
 20
7.176550129984388
 30
0.0
 10
1.061988067984335
 20
7.258572058787697
 30
0.0
 10
1.126666003790497
 20
7.376681799898528
 30
0.0
 10
1.023553653856571
 20
7.526664571327746
 30
0.0
 10
1.087378646011578
 20
7.517546370124036
 30
0.0
 10
1.235634186411613
 20
7.632019623430366
 30
0.0
 10
1.193221382137591
 20
7.822876034527976
 30
0.0
 10
1.276647969796061
 20
7.830375334184168
 30
0.0
 10
1.421941161991233
 20
7.869746053311434
 30
0.0
 10
1.423816188261196
 20
8.052534535652075
 30
0.0
 10
1.543802163777472
 20
8.000041048906043
 30
0.0
 10
1.710656949941723
 20
8.077844168601938
 30
0.0
 10
1.718155444174255
 20
8.212827535295116
 30
0.0
 10
1.767838002362655
 20
8.13408690246424
 30
0.0
 10
2.049989990232794
 20
8.1125273220543
 30
0.0
 10
1.950625679279651
 20
8.310316014554648
 30
0.0
 10
2.174349013486511
 20
8.177832682888086
 30
0.0
 10
2.328077810337373
 20
7.990354218601567
 30
0.0
 10
2.446814171052162
 20
7.764132460215411
 30
0.0
 10
2.448062577718158
 20
7.832876980058101
 30
0.0
 10
2.453063453195046
 20
7.937861537279199
 30
0.0
 10
2.514304646263267
 20
8.005354428761255
 30
0.0
 10
2.550550321607263
 20
7.992854253628176
 30
0.0
 10
2.579297502718723
 20
7.991605846962178
 30
0.0
 10
2.633039396130749
 20
7.981606512279388
 30
0.0
 10
2.546801879914647
 20
7.93036384847032
 30
0.0
 10
2.493057570231652
 20
7.79413126968749
 30
0.0
 10
2.528052422638688
 20
7.687893473258452
 30
0.0
 10
2.555495622851923
 20
7.604593337113893
 30
0.0
 10
2.641789518723908
 20
7.486668038020167
 30
0.0
 10
2.713030046474935
 20
7.469170209104828
 30
0.0
 10
2.705531552242399
 20
7.469170209104828
 30
0.0
 10
2.66803666480875
 20
7.382932692888726
 30
0.0
 10
2.775521257056465
 20
7.342936159581146
 30
0.0
 10
2.864424725572212
 20
7.30985821547416
 30
0.0
 10
2.992995309120442
 20
7.277944913973001
 30
0.0
 10
3.03799110705759
 20
7.289195071592783
 30
0.0
 10
3.052540279970215
 20
7.292830753973628
 30
0.0
 10
3.072366588673557
 20
7.31370894597103
 30
0.0
 10
3.082984488723782
 20
7.326687542755462
 30
0.0
 10
3.094233035496242
 20
7.340437735401848
 30
0.0
 10
3.179222145046347
 20
7.301691219607581
 30
0.0
 10
3.17922214504634
 20
7.291691884924777
 30
0.0
 10
3.17922214504634
 20
7.267979407083735
 30
0.0
 10
3.125478640787
 20
7.112964348655068
 30
0.0
 10
3.04548799044282
 20
7.042973032993689
 30
0.0
 10
3.032869418032385
 20
7.031933090947999
 30
0.0
 10
2.997996990020985
 20
7.032974503734538
 30
0.0
 10
2.985496814887903
 20
7.042973032993689
 30
0.0
 10
2.956216443316515
 20
7.066397974589725
 30
0.0
 10
2.934252540231523
 20
7.110466729899416
 30
0.0
 10
2.904256952454067
 20
7.117964418708301
 30
0.0
 10
2.65678811803629
 20
7.192955804422908
 30
0.0
 10
2.220592412665995
 20
7.290442672835126
 30
0.0
 10
1.95812336808853
 20
7.215454508815132
 30
0.0
 10
1.95812336808853
 20
7.267944773866541
 30
0.0
 10
1.890632087453769
 20
7.320439871459885
 30
0.0
 10
1.84563951121124
 20
7.312939766380037
 30
0.0
 10
1.815643923433783
 20
7.305440466723845
 30
0.0
 10
1.800646129545055
 20
7.269164990704596
 30
0.0
 10
1.800646129545055
 20
7.245449291168942
 30
0.0
 10
1.800646129545055
 20
7.19295580442291
 30
0.0
 10
1.894383750841004
 20
6.98673110455505
 30
0.0
 10
2.078110551740285
 20
7.057971632306067
 30
0.0
 10
2.108106139517742
 20
6.907990471724163
 30
0.0
 10
2.250588000443454
 20
6.840499996513058
 30
0.0
 10
2.408067655257896
 20
6.870495584290527
 30
0.0
 10
2.385572172560287
 20
6.769257857914731
 30
0.0
 10
2.501805276553845
 20
6.600528850904174
 30
0.0
 10
2.678035194067904
 20
6.608028955984022
 30
0.0
  0
SPLINE
  5
A6
330
1F
100
AcDbEntity
  8
0
  6
Continuous2
 62
   132
420
    49344
370
    -3
100
AcDbSpline
210
0.0
220
0.0
230
1.0
 70
    11
 71
     3
 72
    11
 73
     7
 74
     5
 42
0.000000001
 43
0.0000000001
 44
0.0
 12
1.0
 22
0.0
 32
0.0
 13
1.0
 23
1.316314099638874E-16
 33
0.0
 40
0.0
 40
0.0
 40
0.0
 40
0.0
 40
0.0899870911249108
 40
0.1799764603175111
 40
0.2699663990288411
 40
0.3599540596868972
 40
0.3599540596868972
 40
0.3599540596868972
 40
0.3599540596868972
 10
2.393070666792821
 20
7.657785126169227
 30
0.0
 10
2.423066363834458
 20
7.657785126169227
 30
0.0
 10
2.489298115073899
 20
7.594155794454373
 30
0.0
 10
2.393070665146852
 20
7.4987067053801
 30
0.0
 10
2.296841804087708
 20
7.594155909532162
 30
0.0
 10
2.3630747799068
 20
7.657785126169226
 30
0.0
 10
2.393070666792819
 20
7.657785126169226
 30
0.0
 11
2.393070666792821
 21
7.657785126169227
 31
0.0
 11
2.456702357270509
 21
7.594155851962501
 31
0.0
 11
2.393070666792821
 21
7.530523356061163
 31
0.0
 11
2.329438170891472
 21
7.594155851962501
 31
0.0
 11
2.393070666792819
 21
7.657785126169226
 31
0.0
  0
SPLINE
  5
A7
330
1F
100
AcDbEntity
  8
0
  6
Continuous2
 62
   132
420
    49344
370
    -3
100
AcDbSpline
210
0.0
220
0.0
230
1.0
 70
     8
 71
     3
 72
    11
 73
     7
 74
     5
 42
0.000000001
 43
0.0000000001
 44
0.0
 12
-0.8859356593794745
 22
0.4638081580134786
 32
0.0
 13
0.6071900880323571
 23
0.7945566040221792
 33
0.0
 40
0.0
 40
0.0
 40
0.0
 40
0.0
 40
0.3425416602586492
 40
0.5538637982023409
 40
0.8209533124594375
 40
1.069233423764686
 40
1.069233423764686
 40
1.069233423764686
 40
1.069233423764686
 10
1.763685237994989
 20
7.719604613422096
 30
0.0
 10
1.662528614112927
 20
7.772562485584577
 30
0.0
 10
1.385731804431303
 20
7.870356033631719
 30
0.0
 10
1.381210879382356
 20
7.536327451188027
 30
0.0
 10
1.513510412103045
 20
7.249747064684453
 30
0.0
 10
1.708463088979983
 20
7.394997608724029
 30
0.0
 10
1.758714163193355
 20
7.460755142752344
 30
0.0
 11
1.763685237994989
 21
7.719604613422096
 31
0.0
 11
1.424859614606867
 21
7.769923456298326
 31
0.0
 11
1.399026053569114
 21
7.560186303868907
 31
0.0
 11
1.544095337988062
 21
7.335928168354794
 31
0.0
 11
1.758714163193355
 21
7.460755142752344
 31
0.0
  0
SPLINE
  5
A8
330
1F
100
AcDbEntity
  8
0
  6
Continuous2
 62
   132
420
    49344
370
    -3
100
AcDbSpline
210
0.0
220
0.0
230
1.0
 70
     8
 71
     3
 72
     9
 73
     5
 74
     3
 42
0.000000001
 43
0.0000000001
 44
0.0
 12
0.6051991361036251
 22
0.7960741207070015
 32
0.0
 13
-0.6054481783781879
 23
-0.7958847299066201
 33
0.0
 40
0.0
 40
0.0
 40
0.0
 40
0.0
 40
0.0212114529462437
 40
0.0424209839009333
 40
0.0424209839009333
 40
0.0424209839009333
 40
0.0424209839009333
 10
1.758709330651421
 20
7.460750310210418
 30
0.0
 10
1.762988381650945
 20
7.466378939794785
 30
0.0
 10
1.784525179776259
 20
7.469923892843362
 30
0.0
 10
1.786866538878443
 20
7.448222841620967
 30
0.0
 10
1.782586114918186
 20
7.442596061015861
 30
0.0
 11
1.758709330651421
 21
7.460750310210418
 31
0.0
 11
1.779726860941225
 21
7.463611980458349
 31
0.0
 11
1.782586114918186
 21
7.442596061015861
 31
0.0
  0
SPLINE
  5
A9
330
1F
100
AcDbEntity
  8
0
  6
Continuous2
 62
   132
420
    49344
370
    -3
100
AcDbSpline
210
0.0
220
0.0
230
1.0
 70
     8
 71
     3
 72
    11
 73
     7
 74
     5
 42
0.000000001
 43
0.0000000001
 44
0.0
 12
-0.6051497944036588
 22
-0.7961116293166489
 32
0.0
 13
0.8855175739705025
 23
-0.4646058826461367
 33
0.0
 40
0.0
 40
0.0
 40
0.0
 40
0.0
 40
0.2798775181526996
 40
0.5783162183085342
 40
0.821528169627556
 40
1.195736953810042
 40
1.195736953810042
 40
1.195736953810042
 40
1.195736953810042
 10
1.782586114918186
 20
7.442596061015852
 30
0.0
 10
1.726130174062082
 20
7.368324812020637
 30
0.0
 10
1.505828559646579
 20
7.213465131676378
 30
0.0
 10
1.345087635734099
 20
7.527970817249876
 30
0.0
 10
1.364108105745369
 20
7.900988442969178
 30
0.0
 10
1.667158888540639
 20
7.804123102673866
 30
0.0
 10
1.777615040116548
 20
7.746169901850852
 30
0.0
 11
1.782586114918186
 21
7.442596061015852
 31
0.0
 11
1.537994253797788
 21
7.306558394757662
 31
0.0
 11
1.369870119952496
 21
7.553134819765152
 31
0.0
 11
1.406422258997403
 21
7.793584387025415
 31
0.0
 11
1.777615040116548
 21
7.746169901850852
 31
0.0
  0
SPLINE
  5
AA
330
1F
100
AcDbEntity
  8
0
  6
Continuous2
 62
   132
420
    49344
370
    -3
100
AcDbSpline
210
0.0
220
0.0
230
1.0
 70
     8
 71
     3
 72
     9
 73
     5
 74
     3
 42
0.000000001
 43
0.0000000001
 44
0.0
 12
0.8855859100148235
 22
-0.4644756139812046
 32
0.0
 13
-0.8856887905086892
 23
0.4642794054954998
 33
0.0
 40
0.0
 40
0.0
 40
0.0
 40
0.0
 40
0.0212105924795182
 40
0.0424232518247981
 40
0.0424232518247981
 40
0.0424232518247981
 40
0.0424232518247981
 10
1.777615040116548
 20
7.746169901850845
 30
0.0
 10
1.783876307397524
 20
7.742885967529235
 30
0.0
 10
1.790952007188701
 20
7.72223714573212
 30
0.0
 10
1.76994301031939
 20
7.716323357312809
 30
0.0
 10
1.763680405453059
 20
7.719606224269411
 30
0.0
 11
1.777615040116548
 21
7.746169901850845
 31
0.0
 11
1.78393117242284
 21
7.725921551152044
 31
0.0
 11
1.763680405453059
 21
7.719606224269411
 31
0.0
  0
LINE
  5
AB
330
1F
100
AcDbEntity
  8
0
  6
Continuous2
 62
   132
420
    49344
370
    -3
100
AcDbLine
 10
2.406860325198324
 20
7.626712686964392
 30
0.0
 11
2.395569090972132
 21
7.59915511659209
 31
0.0
  0
SPLINE
  5
AC
330
1F
100
AcDbEntity
  8
0
  6
Continuous2
 62
   132
420
    49344
370
    -3
100
AcDbSpline
210
0.0
220
0.0
230
1.0
 70
     8
 71
     3
 72
     8
 73
     4
 74
     2
 42
0.000000001
 43
0.0000000001
 44
0.0
 12
1.0
 22
0.0
 32
0.0
 13
0.9206941935852386
 23
-0.3902847702619547
 33
0.0
 40
0.0
 40
0.0
 40
0.0
 40
0.0
 40
0.0140700283668999
 40
0.0140700283668999
 40
0.0140700283668999
 40
0.0140700283668999
 10
2.393070666792821
 20
7.629507507048924
 30
0.0
 10
2.397760676248454
 20
7.629507507048924
 30
0.0
 10
2.402542260724664
 20
7.628543126227321
 30
0.0
 10
2.406860325198326
 20
7.626712686964402
 30
0.0
 11
2.393070666792821
 21
7.629507507048924
 31
0.0
 11
2.406860325198326
 21
7.626712686964402
 31
0.0
  0
LINE
  5
AD
330
1F
100
AcDbEntity
  8
0
  6
Continuous2
 62
   132
420
    49344
370
    -3
100
AcDbLine
 10
2.395569090972132
 20
7.59915511659209
 30
0.0
 11
2.424660993408133
 21
7.609728718341241
 31
0.0
  0
SPLINE
  5
AE
330
1F
100
AcDbEntity
  8
0
  6
Continuous2
 62
   132
420
    49344
370
    -3
100
AcDbSpline
210
0.0
220
0.0
230
1.0
 70
     8
 71
     3
 72
    11
 73
     7
 74
     5
 42
0.000000001
 43
0.0000000001
 44
0.0
 12
0.4432285303395627
 22
-0.8964086511703419
 32
0.0
 13
1.0
 23
0.0
 33
0.0
 40
0.0
 40
0.0
 40
0.0
 40
0.0
 40
0.0160222324515638
 40
0.0660175920508894
 40
0.11601295165021
 40
0.1660088807797806
 40
0.1660088807797806
 40
0.1660088807797806
 40
0.1660088807797806
 10
2.424660993408133
 20
7.609728718341241
 30
0.0
 10
2.427028163588888
 20
7.604941229081026
 30
0.0
 10
2.433440620566301
 20
7.582960987963041
 30
0.0
 10
2.39344142436996
 20
7.540816433939705
 30
0.0
 10
2.339504149699343
 20
7.594242589945491
 30
0.0
 10
2.376405357082966
 20
7.629507507048924
 30
0.0
 10
2.393070666792823
 20
7.629507507048924
 30
0.0
 11
2.424660993408133
 21
7.609728718341241
 31
0.0
 11
2.428422321879236
 21
7.594154241115202
 31
0.0
 11
2.393070666792821
 21
7.558801780605119
 31
0.0
 11
2.357719011706412
 21
7.594154241115202
 31
0.0
 11
2.393070666792823
 21
7.629507507048924
 31
0.0
  0
SPLINE
  5
AF
330
1F
100
AcDbEntity
  8
0
  6
Continuous2
 62
   132
420
    49344
370
    -3
100
AcDbSpline
210
0.0
220
0.0
230
1.0
 70
    11
 71
     3
 72
   191
 73
   187
 74
     0
 42
0.000000001
 43
0.000001
 40
0.0
 40
0.0
 40
0.0
 40
0.0
 40
0.4025286672102307
 40
0.4025286672102307
 40
0.4025286672102307
 40
0.7962286096699852
 40
0.7962286096699852
 40
0.7962286096699852
 40
1.235676838219427
 40
1.235676838219427
 40
1.235676838219427
 40
1.390274719936684
 40
1.390274719936684
 40
1.390274719936684
 40
2.281529235667818
 40
2.281529235667818
 40
2.281529235667818
 40
2.78126216460308
 40
2.78126216460308
 40
2.78126216460308
 40
3.598171008272359
 40
3.598171008272359
 40
3.598171008272359
 40
4.156843498293054
 40
4.156843498293054
 40
4.156843498293054
 40
4.658543419600548
 40
4.658543419600548
 40
4.658543419600548
 40
4.949107232114564
 40
4.949107232114564
 40
4.949107232114564
 40
5.268396451737443
 40
5.268396451737443
 40
5.268396451737443
 40
5.346374485835713
 40
5.346374485835713
 40
5.346374485835713
 40
5.813758190774243
 40
5.813758190774243
 40
5.813758190774243
 40
6.383798022179097
 40
6.383798022179097
 40
6.383798022179097
 40
7.1873203465533
 40
7.1873203465533
 40
7.1873203465533
 40
7.73269895447807
 40
7.73269895447807
 40
7.73269895447807
 40
7.850688916513344
 40
7.850688916513344
 40
7.850688916513344
 40
8.112149254533545
 40
8.112149254533545
 40
8.112149254533545
 40
8.32242267593351
 40
8.32242267593351
 40
8.32242267593351
 40
8.563977332269344
 40
8.563977332269344
 40
8.563977332269344
 40
8.798885760558395
 40
8.798885760558395
 40
8.798885760558395
 40
9.03353139138019
 40
9.03353139138019
 40
9.03353139138019
 40
9.281751900674461
 40
9.281751900674461
 40
9.281751900674461
 40
9.528452121668753
 40
9.528452121668753
 40
9.528452121668753
 40
9.787041414057963
 40
9.787041414057963
 40
9.787041414057963
 40
10.08893038150466
 40
10.08893038150466
 40
10.08893038150466
 40
10.3941191035187
 40
10.3941191035187
 40
10.3941191035187
 40
10.71858972583984
 40
10.71858972583984
 40
10.71858972583984
 40
10.99290954455937
 40
10.99290954455937
 40
10.99290954455937
 40
11.29358549218764
 40
11.29358549218764
 40
11.29358549218764
 40
12.01799498071709
 40
12.01799498071709
 40
12.01799498071709
 40
12.13388215017066
 40
12.13388215017066
 40
12.13388215017066
 40
13.61221500480827
 40
13.61221500480827
 40
13.61221500480827
 40
13.71186076627238
 40
13.71186076627238
 40
13.71186076627238
 40
14.2227365119626
 40
14.2227365119626
 40
14.2227365119626
 40
14.26788576676134
 40
14.26788576676134
 40
14.26788576676134
 40
14.55317112358903
 40
14.55317112358903
 40
14.55317112358903
 40
14.86838180329031
 40
14.86838180329031
 40
14.86838180329031
 40
15.21772396201395
 40
15.21772396201395
 40
15.21772396201395
 40
15.56959862551676
 40
15.56959862551676
 40
15.56959862551676
 40
15.91096114389167
 40
15.91096114389167
 40
15.91096114389167
 40
16.23641005193985
 40
16.23641005193985
 40
16.23641005193985
 40
16.57156590121898
 40
16.57156590121898
 40
16.57156590121898
 40
16.82365004153386
 40
16.82365004153386
 40
16.82365004153386
 40
17.56156568332371
 40
17.56156568332371
 40
17.56156568332371
 40
17.8120512165454
 40
17.8120512165454
 40
17.8120512165454
 40
17.93313756740016
 40
17.93313756740016
 40
17.93313756740016
 40
18.24505039800182
 40
18.24505039800182
 40
18.24505039800182
 40
18.53150560846607
 40
18.53150560846607
 40
18.53150560846607
 40
18.67236080595304
 40
18.67236080595304
 40
18.67236080595304
 40
18.94027595427016
 40
18.94027595427016
 40
18.94027595427016
 40
18.99884292267082
 40
18.99884292267082
 40
18.99884292267082
 40
19.10124596247659
 40
19.10124596247659
 40
19.10124596247659
 40
19.38363911291306
 40
19.38363911291306
 40
19.38363911291306
 40
19.44363028846798
 40
19.44363028846798
 40
19.44363028846798
 40
19.55419078403338
 40
19.55419078403338
 40
19.55419078403338
 40
20.50533382119099
 40
20.50533382119099
 40
20.50533382119099
 40
20.65418271604912
 40
20.65418271604912
 40
20.65418271604912
 40
20.73529602345289
 40
20.73529602345289
 40
20.73529602345289
 40
21.07016073965458
 40
21.07016073965458
 40
21.07016073965458
 40
21.4496590383876
 40
21.4496590383876
 40
21.4496590383876
 40
21.82618420751407
 40
21.82618420751407
 40
21.82618420751407
 40
21.82618420751407
 10
2.678035194067903
 20
6.608028955984015
 30
0.0
 10
2.595543703273448
 20
6.431799843893611
 30
0.0
 10
2.734277927930204
 20
6.289317982967898
 30
0.0
 10
2.850512642771066
 20
6.244324601301681
 30
0.0
 10
2.753024163511538
 20
6.139336822385961
 30
0.0
 10
2.775521257056458
 20
5.955611632333987
 30
0.0
 10
2.850512642771066
 20
5.850624658841927
 30
0.0
 10
2.685535299147744
 20
5.813128965984623
 30
0.0
 10
2.648037190019473
 20
5.603152602729527
 30
0.0
 10
2.663037400179179
 20
5.453173052994931
 30
0.0
 10
2.61054149716218
 20
5.460673963498434
 30
0.0
 10
2.55805123211077
 20
5.49816724008477
 30
0.0
 10
2.543052632798383
 20
5.550662337678116
 30
0.0
 10
2.430566359650127
 20
5.273195499211916
 30
0.0
 10
2.320321580535076
 20
4.99934662380614
 30
0.0
 10
2.20559461877727
 20
4.725764343630328
 30
0.0
 10
2.181222498962388
 20
4.667647388921721
 30
0.0
 10
2.079984772586592
 20
4.446424895165132
 30
0.0
 10
2.079984772586593
 20
4.24207522156723
 30
0.0
 10
2.079984772586593
 20
3.966485020218303
 30
0.0
 10
2.158724599993813
 20
3.608404133498575
 30
0.0
 10
2.595543703273443
 20
3.608404133498577
 30
0.0
 10
2.799894182294997
 20
3.608404133498577
 30
0.0
 10
2.972374047269133
 20
3.82962582183151
 30
0.0
 10
2.972374047269143
 20
4.020852727810652
 30
0.0
 10
2.972374047269143
 20
4.262698094265855
 30
0.0
 10
2.805066613010511
 20
4.409041961619604
 30
0.0
 10
2.668660868141747
 20
4.420178554503938
 30
0.0
 10
2.576797467692105
 20
4.427676243312819
 30
0.0
 10
2.454938479465005
 20
4.36205998894802
 30
0.0
 10
2.454938479465004
 20
4.223328180562238
 30
0.0
 10
2.454938479465004
 20
4.048974094741795
 30
0.0
 10
2.531804086025918
 20
4.002103270534683
 30
0.0
 10
2.616167381395717
 20
3.947736368366005
 30
0.0
 10
2.652923695337288
 20
3.924048858658282
 30
0.0
 10
2.627415928168177
 20
3.872744177227741
 30
0.0
 10
2.580545909384719
 20
3.878370061461279
 30
0.0
 10
2.396268198705084
 20
3.900482967922534
 30
0.0
 10
2.269337457719415
 20
4.081470522969525
 30
0.0
 10
2.269337457719421
 20
4.227077427678505
 30
0.0
 10
2.269337457719421
 20
4.343310531672063
 30
0.0
 10
2.320577705257523
 20
4.63202672233438
 30
0.0
 10
2.670537505259024
 20
4.632026722334384
 30
0.0
 10
2.981745956924327
 20
4.632026722334384
 30
0.0
 10
3.202970866951883
 20
4.343310531672068
 30
0.0
 10
3.202970866951881
 20
4.030227053736798
 30
0.0
 10
3.202970866951881
 20
3.724639653763103
 30
0.0
 10
3.013149425251564
 20
3.590536615125368
 30
0.0
 10
2.977996709808058
 20
3.533412747783973
 30
0.0
 10
2.948001927454257
 20
3.48467011900152
 30
0.0
 10
2.934878354411834
 20
3.458423778340332
 30
0.0
 10
2.942376043220716
 20
3.420928085483023
 30
0.0
 10
2.859886968697227
 20
3.443423568180632
 30
0.0
 10
2.753024163511546
 20
3.419053864636716
 30
0.0
 10
2.700532287612824
 20
3.321564579953541
 30
0.0
 10
2.6405395012106
 20
3.372183040429611
 30
0.0
 10
2.53367830687223
 20
3.362808714503458
 30
0.0
 10
2.490559951476002
 20
3.310316033181077
 30
0.0
 10
2.415567760337739
 20
3.398430186514452
 30
0.0
 10
2.314330033961943
 20
3.398430186514451
 30
0.0
 10
2.2580881055233
 20
3.375932287545875
 30
0.0
 10
2.213092307586149
 20
3.450923673260483
 30
0.0
 10
2.141850168987809
 20
3.495919471197634
 30
0.0
 10
2.051863405655443
 20
3.488419366117792
 30
0.0
 10
2.051863405655443
 20
3.570908440641281
 30
0.0
 10
1.967497694014682
 20
3.653399126012081
 30
0.0
 10
1.885009424914853
 20
3.653399126012079
 30
0.0
 10
1.89771498308008
 20
3.729638112969028
 30
0.0
 10
1.85043178196136
 20
3.865247293842514
 30
0.0
 10
1.755650331607904
 20
3.865247293842511
 30
0.0
 10
1.800646129545055
 20
3.962735773102039
 30
0.0
 10
1.736904096026563
 20
4.075220435402985
 30
0.0
 10
1.654412605232104
 20
4.090218229291718
 30
0.0
 10
1.691908298089408
 20
4.172707303815207
 30
0.0
 10
1.688156634702173
 20
4.292693682043311
 30
0.0
 10
1.61129344441223
 20
4.345187168789341
 30
0.0
 10
1.708782729095414
 20
4.4782947037889
 30
0.0
 10
1.643163253035993
 20
4.617028123022
 30
0.0
 10
1.605667560178689
 20
4.647023710799456
 30
0.0
 10
1.729403990946716
 20
4.753884905137826
 30
0.0
 10
1.667535372850875
 20
4.91324119706954
 30
0.0
 10
1.635666369650765
 20
4.950734473655867
 30
0.0
 10
1.697530960628329
 20
5.005104597519172
 30
0.0
 10
1.752672680353585
 20
5.163591837326621
 30
0.0
 10
1.645038279305951
 20
5.275069720058223
 30
0.0
 10
1.748150226528054
 20
5.297567619026799
 30
0.0
 10
1.790907752126621
 20
5.477348649437878
 30
0.0
 10
1.703156844861874
 20
5.543162232598274
 30
0.0
 10
1.817518144280092
 20
5.575032041222037
 30
0.0
 10
1.898132192533619
 20
5.786881819899783
 30
0.0
 10
1.74252675856548
 20
5.841249527492121
 30
0.0
 10
1.508559240884545
 20
5.922997612252566
 30
0.0
 10
1.370839044610041
 20
5.413762868108552
 30
0.0
 10
1.307582278843978
 20
5.261946147015795
 30
0.0
 10
1.288833224279843
 20
5.216953570773266
 30
0.0
 10
1.229187575473131
 20
5.22318674444304
 30
0.0
 10
1.193221382137591
 20
5.243199911434456
 30
0.0
 10
0.9607503416085423
 20
5.372558199317747
 30
0.0
 10
0.4620630229448919
 20
6.353060016486357
 30
0.0
 10
0.8745100064096443
 20
6.686768783391241
 30
0.0
 10
0.8955295502585829
 20
6.703775303876741
 30
0.0
 10
0.9495009894124243
 20
6.703640798126275
 30
0.0
 10
0.9738731092273065
 20
6.679268678311384
 30
0.0
 10
1.101357981687947
 20
6.551787027545366
 30
0.0
 10
1.199782765946972
 20
6.445861735494665
 30
0.0
 10
1.350701439663855
 20
6.334312975481392
 30
0.0
 10
1.35922886261627
 20
6.328009729953591
 30
0.0
 10
1.393820197771906
 20
6.305254095415261
 30
0.0
 10
1.395694821330044
 20
6.330564533788763
 30
0.0
 10
1.403471186723721
 20
6.43552976084213
 30
0.0
 10
1.336641964333767
 20
6.526476589171834
 30
0.0
 10
1.231655393553525
 20
6.563971476605492
 30
0.0
 10
1.250402031846694
 20
6.674581918060131
 30
0.0
 10
1.155725689280281
 20
6.818002902968135
 30
0.0
 10
1.07698545916124
 20
6.838625775666753
 30
0.0
 10
1.087296090086892
 20
6.870495584290516
 30
0.0
 10
1.140727492679733
 20
7.072033523907127
 30
0.0
 10
0.9884017438367154
 20
7.176550129984388
 30
0.0
 10
1.061988067984335
 20
7.258572058787697
 30
0.0
 10
1.126666003790497
 20
7.376681799898528
 30
0.0
 10
1.023553653856571
 20
7.526664571327746
 30
0.0
 10
1.087378646011578
 20
7.517546370124036
 30
0.0
 10
1.235634186411613
 20
7.632019623430366
 30
0.0
 10
1.193221382137591
 20
7.822876034527976
 30
0.0
 10
1.276647969796061
 20
7.830375334184168
 30
0.0
 10
1.421941161991233
 20
7.869746053311434
 30
0.0
 10
1.423816188261196
 20
8.052534535652075
 30
0.0
 10
1.543802163777472
 20
8.000041048906043
 30
0.0
 10
1.710656949941723
 20
8.077844168601938
 30
0.0
 10
1.718155444174255
 20
8.212827535295116
 30
0.0
 10
1.767838002362655
 20
8.13408690246424
 30
0.0
 10
2.049989990232794
 20
8.1125273220543
 30
0.0
 10
1.950625679279651
 20
8.310316014554648
 30
0.0
 10
2.174349013486511
 20
8.177832682888086
 30
0.0
 10
2.328077810337373
 20
7.990354218601567
 30
0.0
 10
2.446814171052162
 20
7.764132460215411
 30
0.0
 10
2.448062577718158
 20
7.832876980058101
 30
0.0
 10
2.453063453195046
 20
7.937861537279199
 30
0.0
 10
2.514304646263267
 20
8.005354428761255
 30
0.0
 10
2.550550321607263
 20
7.992854253628176
 30
0.0
 10
2.579297502718723
 20
7.991605846962178
 30
0.0
 10
2.633039396130749
 20
7.981606512279388
 30
0.0
 10
2.546801879914647
 20
7.93036384847032
 30
0.0
 10
2.493057570231652
 20
7.79413126968749
 30
0.0
 10
2.528052422638688
 20
7.687893473258452
 30
0.0
 10
2.555495622851923
 20
7.604593337113893
 30
0.0
 10
2.641789518723908
 20
7.486668038020167
 30
0.0
 10
2.713030046474935
 20
7.469170209104828
 30
0.0
 10
2.705531552242399
 20
7.469170209104828
 30
0.0
 10
2.66803666480875
 20
7.382932692888726
 30
0.0
 10
2.775521257056465
 20
7.342936159581146
 30
0.0
 10
2.864424725572212
 20
7.30985821547416
 30
0.0
 10
2.992995309120442
 20
7.277944913973001
 30
0.0
 10
3.03799110705759
 20
7.289195071592783
 30
0.0
 10
3.052540279970215
 20
7.292830753973628
 30
0.0
 10
3.072366588673557
 20
7.31370894597103
 30
0.0
 10
3.082984488723782
 20
7.326687542755462
 30
0.0
 10
3.094233035496242
 20
7.340437735401848
 30
0.0
 10
3.179222145046347
 20
7.301691219607581
 30
0.0
 10
3.17922214504634
 20
7.291691884924777
 30
0.0
 10
3.17922214504634
 20
7.267979407083735
 30
0.0
 10
3.125478640787
 20
7.112964348655068
 30
0.0
 10
3.04548799044282
 20
7.042973032993689
 30
0.0
 10
3.032869418032385
 20
7.031933090947999
 30
0.0
 10
2.997996990020985
 20
7.032974503734538
 30
0.0
 10
2.985496814887903
 20
7.042973032993689
 30
0.0
 10
2.956216443316515
 20
7.066397974589725
 30
0.0
 10
2.934252540231523
 20
7.110466729899416
 30
0.0
 10
2.904256952454067
 20
7.117964418708301
 30
0.0
 10
2.65678811803629
 20
7.192955804422908
 30
0.0
 10
2.220592412665995
 20
7.290442672835126
 30
0.0
 10
1.95812336808853
 20
7.215454508815132
 30
0.0
 10
1.95812336808853
 20
7.267944773866541
 30
0.0
 10
1.890632087453769
 20
7.320439871459885
 30
0.0
 10
1.84563951121124
 20
7.312939766380037
 30
0.0
 10
1.815643923433783
 20
7.305440466723845
 30
0.0
 10
1.800646129545055
 20
7.269164990704596
 30
0.0
 10
1.800646129545055
 20
7.245449291168942
 30
0.0
 10
1.800646129545055
 20
7.19295580442291
 30
0.0
 10
1.894383750841004
 20
6.98673110455505
 30
0.0
 10
2.078110551740285
 20
7.057971632306067
 30
0.0
 10
2.108106139517742
 20
6.907990471724163
 30
0.0
 10
2.250588000443454
 20
6.840499996513058
 30
0.0
 10
2.408067655257896
 20
6.870495584290527
 30
0.0
 10
2.385572172560287
 20
6.769257857914731
 30
0.0
 10
2.501805276553845
 20
6.600528850904174
 30
0.0
 10
2.678035194067904
 20
6.608028955984022
 30
0.0
  0
SPLINE
  5
B0
330
1F
100
AcDbEntity
  8
0
  6
Continuous2
 62
   132
420
    49344
370
    -3
100
AcDbSpline
210
0.0
220
0.0
230
1.0
 70
    11
 71
     3
 72
    11
 73
     7
 74
     5
 42
0.000000001
 43
0.0000000001
 44
0.0
 12
1.0
 22
0.0
 32
0.0
 13
1.0
 23
1.316314099638874E-16
 33
0.0
 40
0.0
 40
0.0
 40
0.0
 40
0.0
 40
0.0899870911249108
 40
0.1799764603175111
 40
0.2699663990288411
 40
0.3599540596868972
 40
0.3599540596868972
 40
0.3599540596868972
 40
0.3599540596868972
 10
2.393070666792821
 20
7.657785126169227
 30
0.0
 10
2.423066363834458
 20
7.657785126169227
 30
0.0
 10
2.489298115073899
 20
7.594155794454373
 30
0.0
 10
2.393070665146852
 20
7.4987067053801
 30
0.0
 10
2.296841804087708
 20
7.594155909532162
 30
0.0
 10
2.3630747799068
 20
7.657785126169226
 30
0.0
 10
2.393070666792819
 20
7.657785126169226
 30
0.0
 11
2.393070666792821
 21
7.657785126169227
 31
0.0
 11
2.456702357270509
 21
7.594155851962501
 31
0.0
 11
2.393070666792821
 21
7.530523356061163
 31
0.0
 11
2.329438170891472
 21
7.594155851962501
 31
0.0
 11
2.393070666792819
 21
7.657785126169226
 31
0.0
  0
SPLINE
  5
B1
330
1F
100
AcDbEntity
  8
0
  6
Continuous2
 62
   132
420
    49344
370
    -3
100
AcDbSpline
210
0.0
220
0.0
230
1.0
 70
     8
 71
     3
 72
    11
 73
     7
 74
     5
 42
0.000000001
 43
0.0000000001
 44
0.0
 12
-0.8859356593794745
 22
0.4638081580134786
 32
0.0
 13
0.6071900880323571
 23
0.7945566040221792
 33
0.0
 40
0.0
 40
0.0
 40
0.0
 40
0.0
 40
0.3425416602586492
 40
0.5538637982023409
 40
0.8209533124594375
 40
1.069233423764686
 40
1.069233423764686
 40
1.069233423764686
 40
1.069233423764686
 10
1.763685237994989
 20
7.719604613422096
 30
0.0
 10
1.662528614112927
 20
7.772562485584577
 30
0.0
 10
1.385731804431303
 20
7.870356033631719
 30
0.0
 10
1.381210879382356
 20
7.536327451188027
 30
0.0
 10
1.513510412103045
 20
7.249747064684453
 30
0.0
 10
1.708463088979983
 20
7.394997608724029
 30
0.0
 10
1.758714163193355
 20
7.460755142752344
 30
0.0
 11
1.763685237994989
 21
7.719604613422096
 31
0.0
 11
1.424859614606867
 21
7.769923456298326
 31
0.0
 11
1.399026053569114
 21
7.560186303868907
 31
0.0
 11
1.544095337988062
 21
7.335928168354794
 31
0.0
 11
1.758714163193355
 21
7.460755142752344
 31
0.0
  0
SPLINE
  5
B2
330
1F
100
AcDbEntity
  8
0
  6
Continuous2
 62
   132
420
    49344
370
    -3
100
AcDbSpline
210
0.0
220
0.0
230
1.0
 70
     8
 71
     3
 72
     9
 73
     5
 74
     3
 42
0.000000001
 43
0.0000000001
 44
0.0
 12
0.6051991361036251
 22
0.7960741207070015
 32
0.0
 13
-0.6054481783781879
 23
-0.7958847299066201
 33
0.0
 40
0.0
 40
0.0
 40
0.0
 40
0.0
 40
0.0212114529462437
 40
0.0424209839009333
 40
0.0424209839009333
 40
0.0424209839009333
 40
0.0424209839009333
 10
1.758709330651421
 20
7.460750310210418
 30
0.0
 10
1.762988381650945
 20
7.466378939794785
 30
0.0
 10
1.784525179776259
 20
7.469923892843362
 30
0.0
 10
1.786866538878443
 20
7.448222841620967
 30
0.0
 10
1.782586114918186
 20
7.442596061015861
 30
0.0
 11
1.758709330651421
 21
7.460750310210418
 31
0.0
 11
1.779726860941225
 21
7.463611980458349
 31
0.0
 11
1.782586114918186
 21
7.442596061015861
 31
0.0
  0
SPLINE
  5
B3
330
1F
100
AcDbEntity
  8
0
  6
Continuous2
 62
   132
420
    49344
370
    -3
100
AcDbSpline
210
0.0
220
0.0
230
1.0
 70
     8
 71
     3
 72
    11
 73
     7
 74
     5
 42
0.000000001
 43
0.0000000001
 44
0.0
 12
-0.6051497944036588
 22
-0.7961116293166489
 32
0.0
 13
0.8855175739705025
 23
-0.4646058826461367
 33
0.0
 40
0.0
 40
0.0
 40
0.0
 40
0.0
 40
0.2798775181526996
 40
0.5783162183085342
 40
0.821528169627556
 40
1.195736953810042
 40
1.195736953810042
 40
1.195736953810042
 40
1.195736953810042
 10
1.782586114918186
 20
7.442596061015852
 30
0.0
 10
1.726130174062082
 20
7.368324812020637
 30
0.0
 10
1.505828559646579
 20
7.213465131676378
 30
0.0
 10
1.345087635734099
 20
7.527970817249876
 30
0.0
 10
1.364108105745369
 20
7.900988442969178
 30
0.0
 10
1.667158888540639
 20
7.804123102673866
 30
0.0
 10
1.777615040116548
 20
7.746169901850852
 30
0.0
 11
1.782586114918186
 21
7.442596061015852
 31
0.0
 11
1.537994253797788
 21
7.306558394757662
 31
0.0
 11
1.369870119952496
 21
7.553134819765152
 31
0.0
 11
1.406422258997403
 21
7.793584387025415
 31
0.0
 11
1.777615040116548
 21
7.746169901850852
 31
0.0
  0
SPLINE
  5
B4
330
1F
100
AcDbEntity
  8
0
  6
Continuous2
 62
   132
420
    49344
370
    -3
100
AcDbSpline
210
0.0
220
0.0
230
1.0
 70
     8
 71
     3
 72
     9
 73
     5
 74
     3
 42
0.000000001
 43
0.0000000001
 44
0.0
 12
0.8855859100148235
 22
-0.4644756139812046
 32
0.0
 13
-0.8856887905086892
 23
0.4642794054954998
 33
0.0
 40
0.0
 40
0.0
 40
0.0
 40
0.0
 40
0.0212105924795182
 40
0.0424232518247981
 40
0.0424232518247981
 40
0.0424232518247981
 40
0.0424232518247981
 10
1.777615040116548
 20
7.746169901850845
 30
0.0
 10
1.783876307397524
 20
7.742885967529235
 30
0.0
 10
1.790952007188701
 20
7.72223714573212
 30
0.0
 10
1.76994301031939
 20
7.716323357312809
 30
0.0
 10
1.763680405453059
 20
7.719606224269411
 30
0.0
 11
1.777615040116548
 21
7.746169901850845
 31
0.0
 11
1.78393117242284
 21
7.725921551152044
 31
0.0
 11
1.763680405453059
 21
7.719606224269411
 31
0.0
  0
LINE
  5
B5
330
1F
100
AcDbEntity
  8
0
  6
Continuous2
 62
   132
420
    49344
370
    -3
100
AcDbLine
 10
2.406860325198324
 20
7.626712686964392
 30
0.0
 11
2.395569090972132
 21
7.59915511659209
 31
0.0
  0
SPLINE
  5
B6
330
1F
100
AcDbEntity
  8
0
  6
Continuous2
 62
   132
420
    49344
370
    -3
100
AcDbSpline
210
0.0
220
0.0
230
1.0
 70
     8
 71
     3
 72
     8
 73
     4
 74
     2
 42
0.000000001
 43
0.0000000001
 44
0.0
 12
1.0
 22
0.0
 32
0.0
 13
0.9206941935852386
 23
-0.3902847702619547
 33
0.0
 40
0.0
 40
0.0
 40
0.0
 40
0.0
 40
0.0140700283668999
 40
0.0140700283668999
 40
0.0140700283668999
 40
0.0140700283668999
 10
2.393070666792821
 20
7.629507507048924
 30
0.0
 10
2.397760676248454
 20
7.629507507048924
 30
0.0
 10
2.402542260724664
 20
7.628543126227321
 30
0.0
 10
2.406860325198326
 20
7.626712686964402
 30
0.0
 11
2.393070666792821
 21
7.629507507048924
 31
0.0
 11
2.406860325198326
 21
7.626712686964402
 31
0.0
  0
LINE
  5
B7
330
1F
100
AcDbEntity
  8
0
  6
Continuous2
 62
   132
420
    49344
370
    -3
100
AcDbLine
 10
2.395569090972132
 20
7.59915511659209
 30
0.0
 11
2.424660993408133
 21
7.609728718341241
 31
0.0
  0
SPLINE
  5
B8
330
1F
100
AcDbEntity
  8
0
  6
Continuous2
 62
   132
420
    49344
370
    -3
100
AcDbSpline
210
0.0
220
0.0
230
1.0
 70
     8
 71
     3
 72
    11
 73
     7
 74
     5
 42
0.000000001
 43
0.0000000001
 44
0.0
 12
0.4432285303395627
 22
-0.8964086511703419
 32
0.0
 13
1.0
 23
0.0
 33
0.0
 40
0.0
 40
0.0
 40
0.0
 40
0.0
 40
0.0160222324515638
 40
0.0660175920508894
 40
0.11601295165021
 40
0.1660088807797806
 40
0.1660088807797806
 40
0.1660088807797806
 40
0.1660088807797806
 10
2.424660993408133
 20
7.609728718341241
 30
0.0
 10
2.427028163588888
 20
7.604941229081026
 30
0.0
 10
2.433440620566301
 20
7.582960987963041
 30
0.0
 10
2.39344142436996
 20
7.540816433939705
 30
0.0
 10
2.339504149699343
 20
7.594242589945491
 30
0.0
 10
2.376405357082966
 20
7.629507507048924
 30
0.0
 10
2.393070666792823
 20
7.629507507048924
 30
0.0
 11
2.424660993408133
 21
7.609728718341241
 31
0.0
 11
2.428422321879236
 21
7.594154241115202
 31
0.0
 11
2.393070666792821
 21
7.558801780605119
 31
0.0
 11
2.357719011706412
 21
7.594154241115202
 31
0.0
 11
2.393070666792823
 21
7.629507507048924
 31
0.0
  0
SPLINE
  5
B9
330
1F
100
AcDbEntity
  8
0
  6
Continuous2
 62
   132
420
    49344
370
    -3
100
AcDbSpline
210
0.0
220
0.0
230
1.0
 70
    11
 71
     3
 72
   191
 73
   187
 74
     0
 42
0.000000001
 43
0.000001
 40
0.0
 40
0.0
 40
0.0
 40
0.0
 40
0.4025286672102307
 40
0.4025286672102307
 40
0.4025286672102307
 40
0.7962286096699852
 40
0.7962286096699852
 40
0.7962286096699852
 40
1.235676838219427
 40
1.235676838219427
 40
1.235676838219427
 40
1.390274719936684
 40
1.390274719936684
 40
1.390274719936684
 40
2.281529235667818
 40
2.281529235667818
 40
2.281529235667818
 40
2.78126216460308
 40
2.78126216460308
 40
2.78126216460308
 40
3.598171008272359
 40
3.598171008272359
 40
3.598171008272359
 40
4.156843498293054
 40
4.156843498293054
 40
4.156843498293054
 40
4.658543419600548
 40
4.658543419600548
 40
4.658543419600548
 40
4.949107232114564
 40
4.949107232114564
 40
4.949107232114564
 40
5.268396451737443
 40
5.268396451737443
 40
5.268396451737443
 40
5.346374485835713
 40
5.346374485835713
 40
5.346374485835713
 40
5.813758190774243
 40
5.813758190774243
 40
5.813758190774243
 40
6.383798022179097
 40
6.383798022179097
 40
6.383798022179097
 40
7.1873203465533
 40
7.1873203465533
 40
7.1873203465533
 40
7.73269895447807
 40
7.73269895447807
 40
7.73269895447807
 40
7.850688916513344
 40
7.850688916513344
 40
7.850688916513344
 40
8.112149254533545
 40
8.112149254533545
 40
8.112149254533545
 40
8.32242267593351
 40
8.32242267593351
 40
8.32242267593351
 40
8.563977332269344
 40
8.563977332269344
 40
8.563977332269344
 40
8.798885760558395
 40
8.798885760558395
 40
8.798885760558395
 40
9.03353139138019
 40
9.03353139138019
 40
9.03353139138019
 40
9.281751900674461
 40
9.281751900674461
 40
9.281751900674461
 40
9.528452121668753
 40
9.528452121668753
 40
9.528452121668753
 40
9.787041414057963
 40
9.787041414057963
 40
9.787041414057963
 40
10.08893038150466
 40
10.08893038150466
 40
10.08893038150466
 40
10.3941191035187
 40
10.3941191035187
 40
10.3941191035187
 40
10.71858972583984
 40
10.71858972583984
 40
10.71858972583984
 40
10.99290954455937
 40
10.99290954455937
 40
10.99290954455937
 40
11.29358549218764
 40
11.29358549218764
 40
11.29358549218764
 40
12.01799498071709
 40
12.01799498071709
 40
12.01799498071709
 40
12.13388215017066
 40
12.13388215017066
 40
12.13388215017066
 40
13.61221500480827
 40
13.61221500480827
 40
13.61221500480827
 40
13.71186076627238
 40
13.71186076627238
 40
13.71186076627238
 40
14.2227365119626
 40
14.2227365119626
 40
14.2227365119626
 40
14.26788576676134
 40
14.26788576676134
 40
14.26788576676134
 40
14.55317112358903
 40
14.55317112358903
 40
14.55317112358903
 40
14.86838180329031
 40
14.86838180329031
 40
14.86838180329031
 40
15.21772396201395
 40
15.21772396201395
 40
15.21772396201395
 40
15.56959862551676
 40
15.56959862551676
 40
15.56959862551676
 40
15.91096114389167
 40
15.91096114389167
 40
15.91096114389167
 40
16.23641005193985
 40
16.23641005193985
 40
16.23641005193985
 40
16.57156590121898
 40
16.57156590121898
 40
16.57156590121898
 40
16.82365004153386
 40
16.82365004153386
 40
16.82365004153386
 40
17.56156568332371
 40
17.56156568332371
 40
17.56156568332371
 40
17.8120512165454
 40
17.8120512165454
 40
17.8120512165454
 40
17.93313756740016
 40
17.93313756740016
 40
17.93313756740016
 40
18.24505039800182
 40
18.24505039800182
 40
18.24505039800182
 40
18.53150560846607
 40
18.53150560846607
 40
18.53150560846607
 40
18.67236080595304
 40
18.67236080595304
 40
18.67236080595304
 40
18.94027595427016
 40
18.94027595427016
 40
18.94027595427016
 40
18.99884292267082
 40
18.99884292267082
 40
18.99884292267082
 40
19.10124596247659
 40
19.10124596247659
 40
19.10124596247659
 40
19.38363911291306
 40
19.38363911291306
 40
19.38363911291306
 40
19.44363028846798
 40
19.44363028846798
 40
19.44363028846798
 40
19.55419078403338
 40
19.55419078403338
 40
19.55419078403338
 40
20.50533382119099
 40
20.50533382119099
 40
20.50533382119099
 40
20.65418271604912
 40
20.65418271604912
 40
20.65418271604912
 40
20.73529602345289
 40
20.73529602345289
 40
20.73529602345289
 40
21.07016073965458
 40
21.07016073965458
 40
21.07016073965458
 40
21.4496590383876
 40
21.4496590383876
 40
21.4496590383876
 40
21.82618420751407
 40
21.82618420751407
 40
21.82618420751407
 40
21.82618420751407
 10
2.678035194067903
 20
6.608028955984015
 30
0.0
 10
2.595543703273448
 20
6.431799843893611
 30
0.0
 10
2.734277927930204
 20
6.289317982967898
 30
0.0
 10
2.850512642771066
 20
6.244324601301681
 30
0.0
 10
2.753024163511538
 20
6.139336822385961
 30
0.0
 10
2.775521257056458
 20
5.955611632333987
 30
0.0
 10
2.850512642771066
 20
5.850624658841927
 30
0.0
 10
2.685535299147744
 20
5.813128965984623
 30
0.0
 10
2.648037190019473
 20
5.603152602729527
 30
0.0
 10
2.663037400179179
 20
5.453173052994931
 30
0.0
 10
2.61054149716218
 20
5.460673963498434
 30
0.0
 10
2.55805123211077
 20
5.49816724008477
 30
0.0
 10
2.543052632798383
 20
5.550662337678116
 30
0.0
 10
2.430566359650127
 20
5.273195499211916
 30
0.0
 10
2.320321580535076
 20
4.99934662380614
 30
0.0
 10
2.20559461877727
 20
4.725764343630328
 30
0.0
 10
2.181222498962388
 20
4.667647388921721
 30
0.0
 10
2.079984772586592
 20
4.446424895165132
 30
0.0
 10
2.079984772586593
 20
4.24207522156723
 30
0.0
 10
2.079984772586593
 20
3.966485020218303
 30
0.0
 10
2.158724599993813
 20
3.608404133498575
 30
0.0
 10
2.595543703273443
 20
3.608404133498577
 30
0.0
 10
2.799894182294997
 20
3.608404133498577
 30
0.0
 10
2.972374047269133
 20
3.82962582183151
 30
0.0
 10
2.972374047269143
 20
4.020852727810652
 30
0.0
 10
2.972374047269143
 20
4.262698094265855
 30
0.0
 10
2.805066613010511
 20
4.409041961619604
 30
0.0
 10
2.668660868141747
 20
4.420178554503938
 30
0.0
 10
2.576797467692105
 20
4.427676243312819
 30
0.0
 10
2.454938479465005
 20
4.36205998894802
 30
0.0
 10
2.454938479465004
 20
4.223328180562238
 30
0.0
 10
2.454938479465004
 20
4.048974094741795
 30
0.0
 10
2.531804086025918
 20
4.002103270534683
 30
0.0
 10
2.616167381395717
 20
3.947736368366005
 30
0.0
 10
2.652923695337288
 20
3.924048858658282
 30
0.0
 10
2.627415928168177
 20
3.872744177227741
 30
0.0
 10
2.580545909384719
 20
3.878370061461279
 30
0.0
 10
2.396268198705084
 20
3.900482967922534
 30
0.0
 10
2.269337457719415
 20
4.081470522969525
 30
0.0
 10
2.269337457719421
 20
4.227077427678505
 30
0.0
 10
2.269337457719421
 20
4.343310531672063
 30
0.0
 10
2.320577705257523
 20
4.63202672233438
 30
0.0
 10
2.670537505259024
 20
4.632026722334384
 30
0.0
 10
2.981745956924327
 20
4.632026722334384
 30
0.0
 10
3.202970866951883
 20
4.343310531672068
 30
0.0
 10
3.202970866951881
 20
4.030227053736798
 30
0.0
 10
3.202970866951881
 20
3.724639653763103
 30
0.0
 10
3.013149425251564
 20
3.590536615125368
 30
0.0
 10
2.977996709808058
 20
3.533412747783973
 30
0.0
 10
2.948001927454257
 20
3.48467011900152
 30
0.0
 10
2.934878354411834
 20
3.458423778340332
 30
0.0
 10
2.942376043220716
 20
3.420928085483023
 30
0.0
 10
2.859886968697227
 20
3.443423568180632
 30
0.0
 10
2.753024163511546
 20
3.419053864636716
 30
0.0
 10
2.700532287612824
 20
3.321564579953541
 30
0.0
 10
2.6405395012106
 20
3.372183040429611
 30
0.0
 10
2.53367830687223
 20
3.362808714503458
 30
0.0
 10
2.490559951476002
 20
3.310316033181077
 30
0.0
 10
2.415567760337739
 20
3.398430186514452
 30
0.0
 10
2.314330033961943
 20
3.398430186514451
 30
0.0
 10
2.2580881055233
 20
3.375932287545875
 30
0.0
 10
2.213092307586149
 20
3.450923673260483
 30
0.0
 10
2.141850168987809
 20
3.495919471197634
 30
0.0
 10
2.051863405655443
 20
3.488419366117792
 30
0.0
 10
2.051863405655443
 20
3.570908440641281
 30
0.0
 10
1.967497694014682
 20
3.653399126012081
 30
0.0
 10
1.885009424914853
 20
3.653399126012079
 30
0.0
 10
1.89771498308008
 20
3.729638112969028
 30
0.0
 10
1.85043178196136
 20
3.865247293842514
 30
0.0
 10
1.755650331607904
 20
3.865247293842511
 30
0.0
 10
1.800646129545055
 20
3.962735773102039
 30
0.0
 10
1.736904096026563
 20
4.075220435402985
 30
0.0
 10
1.654412605232104
 20
4.090218229291718
 30
0.0
 10
1.691908298089408
 20
4.172707303815207
 30
0.0
 10
1.688156634702173
 20
4.292693682043311
 30
0.0
 10
1.61129344441223
 20
4.345187168789341
 30
0.0
 10
1.708782729095414
 20
4.4782947037889
 30
0.0
 10
1.643163253035993
 20
4.617028123022
 30
0.0
 10
1.605667560178689
 20
4.647023710799456
 30
0.0
 10
1.729403990946716
 20
4.753884905137826
 30
0.0
 10
1.667535372850875
 20
4.91324119706954
 30
0.0
 10
1.635666369650765
 20
4.950734473655867
 30
0.0
 10
1.697530960628329
 20
5.005104597519172
 30
0.0
 10
1.752672680353585
 20
5.163591837326621
 30
0.0
 10
1.645038279305951
 20
5.275069720058223
 30
0.0
 10
1.748150226528054
 20
5.297567619026799
 30
0.0
 10
1.790907752126621
 20
5.477348649437878
 30
0.0
 10
1.703156844861874
 20
5.543162232598274
 30
0.0
 10
1.817518144280092
 20
5.575032041222037
 30
0.0
 10
1.898132192533619
 20
5.786881819899783
 30
0.0
 10
1.74252675856548
 20
5.841249527492121
 30
0.0
 10
1.508559240884545
 20
5.922997612252566
 30
0.0
 10
1.370839044610041
 20
5.413762868108552
 30
0.0
 10
1.307582278843978
 20
5.261946147015795
 30
0.0
 10
1.288833224279843
 20
5.216953570773266
 30
0.0
 10
1.229187575473131
 20
5.22318674444304
 30
0.0
 10
1.193221382137591
 20
5.243199911434456
 30
0.0
 10
0.9607503416085423
 20
5.372558199317747
 30
0.0
 10
0.4620630229448919
 20
6.353060016486357
 30
0.0
 10
0.8745100064096443
 20
6.686768783391241
 30
0.0
 10
0.8955295502585829
 20
6.703775303876741
 30
0.0
 10
0.9495009894124243
 20
6.703640798126275
 30
0.0
 10
0.9738731092273065
 20
6.679268678311384
 30
0.0
 10
1.101357981687947
 20
6.551787027545366
 30
0.0
 10
1.199782765946972
 20
6.445861735494665
 30
0.0
 10
1.350701439663855
 20
6.334312975481392
 30
0.0
 10
1.35922886261627
 20
6.328009729953591
 30
0.0
 10
1.393820197771906
 20
6.305254095415261
 30
0.0
 10
1.395694821330044
 20
6.330564533788763
 30
0.0
 10
1.403471186723721
 20
6.43552976084213
 30
0.0
 10
1.336641964333767
 20
6.526476589171834
 30
0.0
 10
1.231655393553525
 20
6.563971476605492
 30
0.0
 10
1.250402031846694
 20
6.674581918060131
 30
0.0
 10
1.155725689280281
 20
6.818002902968135
 30
0.0
 10
1.07698545916124
 20
6.838625775666753
 30
0.0
 10
1.087296090086892
 20
6.870495584290516
 30
0.0
 10
1.140727492679733
 20
7.072033523907127
 30
0.0
 10
0.9884017438367154
 20
7.176550129984388
 30
0.0
 10
1.061988067984335
 20
7.258572058787697
 30
0.0
 10
1.126666003790497
 20
7.376681799898528
 30
0.0
 10
1.023553653856571
 20
7.526664571327746
 30
0.0
 10
1.087378646011578
 20
7.517546370124036
 30
0.0
 10
1.235634186411613
 20
7.632019623430366
 30
0.0
 10
1.193221382137591
 20
7.822876034527976
 30
0.0
 10
1.276647969796061
 20
7.830375334184168
 30
0.0
 10
1.421941161991233
 20
7.869746053311434
 30
0.0
 10
1.423816188261196
 20
8.052534535652075
 30
0.0
 10
1.543802163777472
 20
8.000041048906043
 30
0.0
 10
1.710656949941723
 20
8.077844168601938
 30
0.0
 10
1.718155444174255
 20
8.212827535295116
 30
0.0
 10
1.767838002362655
 20
8.13408690246424
 30
0.0
 10
2.049989990232794
 20
8.1125273220543
 30
0.0
 10
1.950625679279651
 20
8.310316014554648
 30
0.0
 10
2.174349013486511
 20
8.177832682888086
 30
0.0
 10
2.328077810337373
 20
7.990354218601567
 30
0.0
 10
2.446814171052162
 20
7.764132460215411
 30
0.0
 10
2.448062577718158
 20
7.832876980058101
 30
0.0
 10
2.453063453195046
 20
7.937861537279199
 30
0.0
 10
2.514304646263267
 20
8.005354428761255
 30
0.0
 10
2.550550321607263
 20
7.992854253628176
 30
0.0
 10
2.579297502718723
 20
7.991605846962178
 30
0.0
 10
2.633039396130749
 20
7.981606512279388
 30
0.0
 10
2.546801879914647
 20
7.93036384847032
 30
0.0
 10
2.493057570231652
 20
7.79413126968749
 30
0.0
 10
2.528052422638688
 20
7.687893473258452
 30
0.0
 10
2.555495622851923
 20
7.604593337113893
 30
0.0
 10
2.641789518723908
 20
7.486668038020167
 30
0.0
 10
2.713030046474935
 20
7.469170209104828
 30
0.0
 10
2.705531552242399
 20
7.469170209104828
 30
0.0
 10
2.66803666480875
 20
7.382932692888726
 30
0.0
 10
2.775521257056465
 20
7.342936159581146
 30
0.0
 10
2.864424725572212
 20
7.30985821547416
 30
0.0
 10
2.992995309120442
 20
7.277944913973001
 30
0.0
 10
3.03799110705759
 20
7.289195071592783
 30
0.0
 10
3.052540279970215
 20
7.292830753973628
 30
0.0
 10
3.072366588673557
 20
7.31370894597103
 30
0.0
 10
3.082984488723782
 20
7.326687542755462
 30
0.0
 10
3.094233035496242
 20
7.340437735401848
 30
0.0
 10
3.179222145046347
 20
7.301691219607581
 30
0.0
 10
3.17922214504634
 20
7.291691884924777
 30
0.0
 10
3.17922214504634
 20
7.267979407083735
 30
0.0
 10
3.125478640787
 20
7.112964348655068
 30
0.0
 10
3.04548799044282
 20
7.042973032993689
 30
0.0
 10
3.032869418032385
 20
7.031933090947999
 30
0.0
 10
2.997996990020985
 20
7.032974503734538
 30
0.0
 10
2.985496814887903
 20
7.042973032993689
 30
0.0
 10
2.956216443316515
 20
7.066397974589725
 30
0.0
 10
2.934252540231523
 20
7.110466729899416
 30
0.0
 10
2.904256952454067
 20
7.117964418708301
 30
0.0
 10
2.65678811803629
 20
7.192955804422908
 30
0.0
 10
2.220592412665995
 20
7.290442672835126
 30
0.0
 10
1.95812336808853
 20
7.215454508815132
 30
0.0
 10
1.95812336808853
 20
7.267944773866541
 30
0.0
 10
1.890632087453769
 20
7.320439871459885
 30
0.0
 10
1.84563951121124
 20
7.312939766380037
 30
0.0
 10
1.815643923433783
 20
7.305440466723845
 30
0.0
 10
1.800646129545055
 20
7.269164990704596
 30
0.0
 10
1.800646129545055
 20
7.245449291168942
 30
0.0
 10
1.800646129545055
 20
7.19295580442291
 30
0.0
 10
1.894383750841004
 20
6.98673110455505
 30
0.0
 10
2.078110551740285
 20
7.057971632306067
 30
0.0
 10
2.108106139517742
 20
6.907990471724163
 30
0.0
 10
2.250588000443454
 20
6.840499996513058
 30
0.0
 10
2.408067655257896
 20
6.870495584290527
 30
0.0
 10
2.385572172560287
 20
6.769257857914731
 30
0.0
 10
2.501805276553845
 20
6.600528850904174
 30
0.0
 10
2.678035194067904
 20
6.608028955984022
 30
0.0
  0
SPLINE
  5
BA
330
1F
100
AcDbEntity
  8
0
  6
Continuous2
 62
   132
420
    49344
370
    -3
100
AcDbSpline
210
0.0
220
0.0
230
1.0
 70
    11
 71
     3
 72
    11
 73
     7
 74
     5
 42
0.000000001
 43
0.0000000001
 44
0.0
 12
1.0
 22
0.0
 32
0.0
 13
1.0
 23
1.316314099638874E-16
 33
0.0
 40
0.0
 40
0.0
 40
0.0
 40
0.0
 40
0.0899870911249108
 40
0.1799764603175111
 40
0.2699663990288411
 40
0.3599540596868972
 40
0.3599540596868972
 40
0.3599540596868972
 40
0.3599540596868972
 10
2.393070666792821
 20
7.657785126169227
 30
0.0
 10
2.423066363834458
 20
7.657785126169227
 30
0.0
 10
2.489298115073899
 20
7.594155794454373
 30
0.0
 10
2.393070665146852
 20
7.4987067053801
 30
0.0
 10
2.296841804087708
 20
7.594155909532162
 30
0.0
 10
2.3630747799068
 20
7.657785126169226
 30
0.0
 10
2.393070666792819
 20
7.657785126169226
 30
0.0
 11
2.393070666792821
 21
7.657785126169227
 31
0.0
 11
2.456702357270509
 21
7.594155851962501
 31
0.0
 11
2.393070666792821
 21
7.530523356061163
 31
0.0
 11
2.329438170891472
 21
7.594155851962501
 31
0.0
 11
2.393070666792819
 21
7.657785126169226
 31
0.0
  0
SPLINE
  5
BB
330
1F
100
AcDbEntity
  8
0
  6
Continuous2
 62
   132
420
    49344
370
    -3
100
AcDbSpline
210
0.0
220
0.0
230
1.0
 70
     8
 71
     3
 72
    11
 73
     7
 74
     5
 42
0.000000001
 43
0.0000000001
 44
0.0
 12
-0.8859356593794745
 22
0.4638081580134786
 32
0.0
 13
0.6071900880323571
 23
0.7945566040221792
 33
0.0
 40
0.0
 40
0.0
 40
0.0
 40
0.0
 40
0.3425416602586492
 40
0.5538637982023409
 40
0.8209533124594375
 40
1.069233423764686
 40
1.069233423764686
 40
1.069233423764686
 40
1.069233423764686
 10
1.763685237994989
 20
7.719604613422096
 30
0.0
 10
1.662528614112927
 20
7.772562485584577
 30
0.0
 10
1.385731804431303
 20
7.870356033631719
 30
0.0
 10
1.381210879382356
 20
7.536327451188027
 30
0.0
 10
1.513510412103045
 20
7.249747064684453
 30
0.0
 10
1.708463088979983
 20
7.394997608724029
 30
0.0
 10
1.758714163193355
 20
7.460755142752344
 30
0.0
 11
1.763685237994989
 21
7.719604613422096
 31
0.0
 11
1.424859614606867
 21
7.769923456298326
 31
0.0
 11
1.399026053569114
 21
7.560186303868907
 31
0.0
 11
1.544095337988062
 21
7.335928168354794
 31
0.0
 11
1.758714163193355
 21
7.460755142752344
 31
0.0
  0
SPLINE
  5
BC
330
1F
100
AcDbEntity
  8
0
  6
Continuous2
 62
   132
420
    49344
370
    -3
100
AcDbSpline
210
0.0
220
0.0
230
1.0
 70
     8
 71
     3
 72
     9
 73
     5
 74
     3
 42
0.000000001
 43
0.0000000001
 44
0.0
 12
0.6051991361036251
 22
0.7960741207070015
 32
0.0
 13
-0.6054481783781879
 23
-0.7958847299066201
 33
0.0
 40
0.0
 40
0.0
 40
0.0
 40
0.0
 40
0.0212114529462437
 40
0.0424209839009333
 40
0.0424209839009333
 40
0.0424209839009333
 40
0.0424209839009333
 10
1.758709330651421
 20
7.460750310210418
 30
0.0
 10
1.762988381650945
 20
7.466378939794785
 30
0.0
 10
1.784525179776259
 20
7.469923892843362
 30
0.0
 10
1.786866538878443
 20
7.448222841620967
 30
0.0
 10
1.782586114918186
 20
7.442596061015861
 30
0.0
 11
1.758709330651421
 21
7.460750310210418
 31
0.0
 11
1.779726860941225
 21
7.463611980458349
 31
0.0
 11
1.782586114918186
 21
7.442596061015861
 31
0.0
  0
SPLINE
  5
BD
330
1F
100
AcDbEntity
  8
0
  6
Continuous2
 62
   132
420
    49344
370
    -3
100
AcDbSpline
210
0.0
220
0.0
230
1.0
 70
     8
 71
     3
 72
    11
 73
     7
 74
     5
 42
0.000000001
 43
0.0000000001
 44
0.0
 12
-0.6051497944036588
 22
-0.7961116293166489
 32
0.0
 13
0.8855175739705025
 23
-0.4646058826461367
 33
0.0
 40
0.0
 40
0.0
 40
0.0
 40
0.0
 40
0.2798775181526996
 40
0.5783162183085342
 40
0.821528169627556
 40
1.195736953810042
 40
1.195736953810042
 40
1.195736953810042
 40
1.195736953810042
 10
1.782586114918186
 20
7.442596061015852
 30
0.0
 10
1.726130174062082
 20
7.368324812020637
 30
0.0
 10
1.505828559646579
 20
7.213465131676378
 30
0.0
 10
1.345087635734099
 20
7.527970817249876
 30
0.0
 10
1.364108105745369
 20
7.900988442969178
 30
0.0
 10
1.667158888540639
 20
7.804123102673866
 30
0.0
 10
1.777615040116548
 20
7.746169901850852
 30
0.0
 11
1.782586114918186
 21
7.442596061015852
 31
0.0
 11
1.537994253797788
 21
7.306558394757662
 31
0.0
 11
1.369870119952496
 21
7.553134819765152
 31
0.0
 11
1.406422258997403
 21
7.793584387025415
 31
0.0
 11
1.777615040116548
 21
7.746169901850852
 31
0.0
  0
SPLINE
  5
BE
330
1F
100
AcDbEntity
  8
0
  6
Continuous2
 62
   132
420
    49344
370
    -3
100
AcDbSpline
210
0.0
220
0.0
230
1.0
 70
     8
 71
     3
 72
     9
 73
     5
 74
     3
 42
0.000000001
 43
0.0000000001
 44
0.0
 12
0.8855859100148235
 22
-0.4644756139812046
 32
0.0
 13
-0.8856887905086892
 23
0.4642794054954998
 33
0.0
 40
0.0
 40
0.0
 40
0.0
 40
0.0
 40
0.0212105924795182
 40
0.0424232518247981
 40
0.0424232518247981
 40
0.0424232518247981
 40
0.0424232518247981
 10
1.777615040116548
 20
7.746169901850845
 30
0.0
 10
1.783876307397524
 20
7.742885967529235
 30
0.0
 10
1.790952007188701
 20
7.72223714573212
 30
0.0
 10
1.76994301031939
 20
7.716323357312809
 30
0.0
 10
1.763680405453059
 20
7.719606224269411
 30
0.0
 11
1.777615040116548
 21
7.746169901850845
 31
0.0
 11
1.78393117242284
 21
7.725921551152044
 31
0.0
 11
1.763680405453059
 21
7.719606224269411
 31
0.0
  0
LINE
  5
BF
330
1F
100
AcDbEntity
  8
0
  6
Continuous2
 62
   132
420
    49344
370
    -3
100
AcDbLine
 10
2.406860325198324
 20
7.626712686964392
 30
0.0
 11
2.395569090972132
 21
7.59915511659209
 31
0.0
  0
SPLINE
  5
C0
330
1F
100
AcDbEntity
  8
0
  6
Continuous2
 62
   132
420
    49344
370
    -3
100
AcDbSpline
210
0.0
220
0.0
230
1.0
 70
     8
 71
     3
 72
     8
 73
     4
 74
     2
 42
0.000000001
 43
0.0000000001
 44
0.0
 12
1.0
 22
0.0
 32
0.0
 13
0.9206941935852386
 23
-0.3902847702619547
 33
0.0
 40
0.0
 40
0.0
 40
0.0
 40
0.0
 40
0.0140700283668999
 40
0.0140700283668999
 40
0.0140700283668999
 40
0.0140700283668999
 10
2.393070666792821
 20
7.629507507048924
 30
0.0
 10
2.397760676248454
 20
7.629507507048924
 30
0.0
 10
2.402542260724664
 20
7.628543126227321
 30
0.0
 10
2.406860325198326
 20
7.626712686964402
 30
0.0
 11
2.393070666792821
 21
7.629507507048924
 31
0.0
 11
2.406860325198326
 21
7.626712686964402
 31
0.0
  0
LINE
  5
C1
330
1F
100
AcDbEntity
  8
0
  6
Continuous2
 62
   132
420
    49344
370
    -3
100
AcDbLine
 10
2.395569090972132
 20
7.59915511659209
 30
0.0
 11
2.424660993408133
 21
7.609728718341241
 31
0.0
  0
SPLINE
  5
C2
330
1F
100
AcDbEntity
  8
0
  6
Continuous2
 62
   132
420
    49344
370
    -3
100
AcDbSpline
210
0.0
220
0.0
230
1.0
 70
     8
 71
     3
 72
    11
 73
     7
 74
     5
 42
0.000000001
 43
0.0000000001
 44
0.0
 12
0.4432285303395627
 22
-0.8964086511703419
 32
0.0
 13
1.0
 23
0.0
 33
0.0
 40
0.0
 40
0.0
 40
0.0
 40
0.0
 40
0.0160222324515638
 40
0.0660175920508894
 40
0.11601295165021
 40
0.1660088807797806
 40
0.1660088807797806
 40
0.1660088807797806
 40
0.1660088807797806
 10
2.424660993408133
 20
7.609728718341241
 30
0.0
 10
2.427028163588888
 20
7.604941229081026
 30
0.0
 10
2.433440620566301
 20
7.582960987963041
 30
0.0
 10
2.39344142436996
 20
7.540816433939705
 30
0.0
 10
2.339504149699343
 20
7.594242589945491
 30
0.0
 10
2.376405357082966
 20
7.629507507048924
 30
0.0
 10
2.393070666792823
 20
7.629507507048924
 30
0.0
 11
2.424660993408133
 21
7.609728718341241
 31
0.0
 11
2.428422321879236
 21
7.594154241115202
 31
0.0
 11
2.393070666792821
 21
7.558801780605119
 31
0.0
 11
2.357719011706412
 21
7.594154241115202
 31
0.0
 11
2.393070666792823
 21
7.629507507048924
 31
0.0
  0
SPLINE
  5
C3
330
1F
100
AcDbEntity
  8
0
  6
Continuous2
 62
   132
420
    49344
370
    -3
100
AcDbSpline
210
0.0
220
0.0
230
1.0
 70
    11
 71
     3
 72
   191
 73
   187
 74
     0
 42
0.000000001
 43
0.000001
 40
0.0
 40
0.0
 40
0.0
 40
0.0
 40
0.4025286672102307
 40
0.4025286672102307
 40
0.4025286672102307
 40
0.7962286096699852
 40
0.7962286096699852
 40
0.7962286096699852
 40
1.235676838219427
 40
1.235676838219427
 40
1.235676838219427
 40
1.390274719936684
 40
1.390274719936684
 40
1.390274719936684
 40
2.281529235667818
 40
2.281529235667818
 40
2.281529235667818
 40
2.78126216460308
 40
2.78126216460308
 40
2.78126216460308
 40
3.598171008272359
 40
3.598171008272359
 40
3.598171008272359
 40
4.156843498293054
 40
4.156843498293054
 40
4.156843498293054
 40
4.658543419600548
 40
4.658543419600548
 40
4.658543419600548
 40
4.949107232114564
 40
4.949107232114564
 40
4.949107232114564
 40
5.268396451737443
 40
5.268396451737443
 40
5.268396451737443
 40
5.346374485835713
 40
5.346374485835713
 40
5.346374485835713
 40
5.813758190774243
 40
5.813758190774243
 40
5.813758190774243
 40
6.383798022179097
 40
6.383798022179097
 40
6.383798022179097
 40
7.1873203465533
 40
7.1873203465533
 40
7.1873203465533
 40
7.73269895447807
 40
7.73269895447807
 40
7.73269895447807
 40
7.850688916513344
 40
7.850688916513344
 40
7.850688916513344
 40
8.112149254533545
 40
8.112149254533545
 40
8.112149254533545
 40
8.32242267593351
 40
8.32242267593351
 40
8.32242267593351
 40
8.563977332269344
 40
8.563977332269344
 40
8.563977332269344
 40
8.798885760558395
 40
8.798885760558395
 40
8.798885760558395
 40
9.03353139138019
 40
9.03353139138019
 40
9.03353139138019
 40
9.281751900674461
 40
9.281751900674461
 40
9.281751900674461
 40
9.528452121668753
 40
9.528452121668753
 40
9.528452121668753
 40
9.787041414057963
 40
9.787041414057963
 40
9.787041414057963
 40
10.08893038150466
 40
10.08893038150466
 40
10.08893038150466
 40
10.3941191035187
 40
10.3941191035187
 40
10.3941191035187
 40
10.71858972583984
 40
10.71858972583984
 40
10.71858972583984
 40
10.99290954455937
 40
10.99290954455937
 40
10.99290954455937
 40
11.29358549218764
 40
11.29358549218764
 40
11.29358549218764
 40
12.01799498071709
 40
12.01799498071709
 40
12.01799498071709
 40
12.13388215017066
 40
12.13388215017066
 40
12.13388215017066
 40
13.61221500480827
 40
13.61221500480827
 40
13.61221500480827
 40
13.71186076627238
 40
13.71186076627238
 40
13.71186076627238
 40
14.2227365119626
 40
14.2227365119626
 40
14.2227365119626
 40
14.26788576676134
 40
14.26788576676134
 40
14.26788576676134
 40
14.55317112358903
 40
14.55317112358903
 40
14.55317112358903
 40
14.86838180329031
 40
14.86838180329031
 40
14.86838180329031
 40
15.21772396201395
 40
15.21772396201395
 40
15.21772396201395
 40
15.56959862551676
 40
15.56959862551676
 40
15.56959862551676
 40
15.91096114389167
 40
15.91096114389167
 40
15.91096114389167
 40
16.23641005193985
 40
16.23641005193985
 40
16.23641005193985
 40
16.57156590121898
 40
16.57156590121898
 40
16.57156590121898
 40
16.82365004153386
 40
16.82365004153386
 40
16.82365004153386
 40
17.56156568332371
 40
17.56156568332371
 40
17.56156568332371
 40
17.8120512165454
 40
17.8120512165454
 40
17.8120512165454
 40
17.93313756740016
 40
17.93313756740016
 40
17.93313756740016
 40
18.24505039800182
 40
18.24505039800182
 40
18.24505039800182
 40
18.53150560846607
 40
18.53150560846607
 40
18.53150560846607
 40
18.67236080595304
 40
18.67236080595304
 40
18.67236080595304
 40
18.94027595427016
 40
18.94027595427016
 40
18.94027595427016
 40
18.99884292267082
 40
18.99884292267082
 40
18.99884292267082
 40
19.10124596247659
 40
19.10124596247659
 40
19.10124596247659
 40
19.38363911291306
 40
19.38363911291306
 40
19.38363911291306
 40
19.44363028846798
 40
19.44363028846798
 40
19.44363028846798
 40
19.55419078403338
 40
19.55419078403338
 40
19.55419078403338
 40
20.50533382119099
 40
20.50533382119099
 40
20.50533382119099
 40
20.65418271604912
 40
20.65418271604912
 40
20.65418271604912
 40
20.73529602345289
 40
20.73529602345289
 40
20.73529602345289
 40
21.07016073965458
 40
21.07016073965458
 40
21.07016073965458
 40
21.4496590383876
 40
21.4496590383876
 40
21.4496590383876
 40
21.82618420751407
 40
21.82618420751407
 40
21.82618420751407
 40
21.82618420751407
 10
2.678035194067903
 20
6.608028955984015
 30
0.0
 10
2.595543703273448
 20
6.431799843893611
 30
0.0
 10
2.734277927930204
 20
6.289317982967898
 30
0.0
 10
2.850512642771066
 20
6.244324601301681
 30
0.0
 10
2.753024163511538
 20
6.139336822385961
 30
0.0
 10
2.775521257056458
 20
5.955611632333987
 30
0.0
 10
2.850512642771066
 20
5.850624658841927
 30
0.0
 10
2.685535299147744
 20
5.813128965984623
 30
0.0
 10
2.648037190019473
 20
5.603152602729527
 30
0.0
 10
2.663037400179179
 20
5.453173052994931
 30
0.0
 10
2.61054149716218
 20
5.460673963498434
 30
0.0
 10
2.55805123211077
 20
5.49816724008477
 30
0.0
 10
2.543052632798383
 20
5.550662337678116
 30
0.0
 10
2.430566359650127
 20
5.273195499211916
 30
0.0
 10
2.320321580535076
 20
4.99934662380614
 30
0.0
 10
2.20559461877727
 20
4.725764343630328
 30
0.0
 10
2.181222498962388
 20
4.667647388921721
 30
0.0
 10
2.079984772586592
 20
4.446424895165132
 30
0.0
 10
2.079984772586593
 20
4.24207522156723
 30
0.0
 10
2.079984772586593
 20
3.966485020218303
 30
0.0
 10
2.158724599993813
 20
3.608404133498575
 30
0.0
 10
2.595543703273443
 20
3.608404133498577
 30
0.0
 10
2.799894182294997
 20
3.608404133498577
 30
0.0
 10
2.972374047269133
 20
3.82962582183151
 30
0.0
 10
2.972374047269143
 20
4.020852727810652
 30
0.0
 10
2.972374047269143
 20
4.262698094265855
 30
0.0
 10
2.805066613010511
 20
4.409041961619604
 30
0.0
 10
2.668660868141747
 20
4.420178554503938
 30
0.0
 10
2.576797467692105
 20
4.427676243312819
 30
0.0
 10
2.454938479465005
 20
4.36205998894802
 30
0.0
 10
2.454938479465004
 20
4.223328180562238
 30
0.0
 10
2.454938479465004
 20
4.048974094741795
 30
0.0
 10
2.531804086025918
 20
4.002103270534683
 30
0.0
 10
2.616167381395717
 20
3.947736368366005
 30
0.0
 10
2.652923695337288
 20
3.924048858658282
 30
0.0
 10
2.627415928168177
 20
3.872744177227741
 30
0.0
 10
2.580545909384719
 20
3.878370061461279
 30
0.0
 10
2.396268198705084
 20
3.900482967922534
 30
0.0
 10
2.269337457719415
 20
4.081470522969525
 30
0.0
 10
2.269337457719421
 20
4.227077427678505
 30
0.0
 10
2.269337457719421
 20
4.343310531672063
 30
0.0
 10
2.320577705257523
 20
4.63202672233438
 30
0.0
 10
2.670537505259024
 20
4.632026722334384
 30
0.0
 10
2.981745956924327
 20
4.632026722334384
 30
0.0
 10
3.202970866951883
 20
4.343310531672068
 30
0.0
 10
3.202970866951881
 20
4.030227053736798
 30
0.0
 10
3.202970866951881
 20
3.724639653763103
 30
0.0
 10
3.013149425251564
 20
3.590536615125368
 30
0.0
 10
2.977996709808058
 20
3.533412747783973
 30
0.0
 10
2.948001927454257
 20
3.48467011900152
 30
0.0
 10
2.934878354411834
 20
3.458423778340332
 30
0.0
 10
2.942376043220716
 20
3.420928085483023
 30
0.0
 10
2.859886968697227
 20
3.443423568180632
 30
0.0
 10
2.753024163511546
 20
3.419053864636716
 30
0.0
 10
2.700532287612824
 20
3.321564579953541
 30
0.0
 10
2.6405395012106
 20
3.372183040429611
 30
0.0
 10
2.53367830687223
 20
3.362808714503458
 30
0.0
 10
2.490559951476002
 20
3.310316033181077
 30
0.0
 10
2.415567760337739
 20
3.398430186514452
 30
0.0
 10
2.314330033961943
 20
3.398430186514451
 30
0.0
 10
2.2580881055233
 20
3.375932287545875
 30
0.0
 10
2.213092307586149
 20
3.450923673260483
 30
0.0
 10
2.141850168987809
 20
3.495919471197634
 30
0.0
 10
2.051863405655443
 20
3.488419366117792
 30
0.0
 10
2.051863405655443
 20
3.570908440641281
 30
0.0
 10
1.967497694014682
 20
3.653399126012081
 30
0.0
 10
1.885009424914853
 20
3.653399126012079
 30
0.0
 10
1.89771498308008
 20
3.729638112969028
 30
0.0
 10
1.85043178196136
 20
3.865247293842514
 30
0.0
 10
1.755650331607904
 20
3.865247293842511
 30
0.0
 10
1.800646129545055
 20
3.962735773102039
 30
0.0
 10
1.736904096026563
 20
4.075220435402985
 30
0.0
 10
1.654412605232104
 20
4.090218229291718
 30
0.0
 10
1.691908298089408
 20
4.172707303815207
 30
0.0
 10
1.688156634702173
 20
4.292693682043311
 30
0.0
 10
1.61129344441223
 20
4.345187168789341
 30
0.0
 10
1.708782729095414
 20
4.4782947037889
 30
0.0
 10
1.643163253035993
 20
4.617028123022
 30
0.0
 10
1.605667560178689
 20
4.647023710799456
 30
0.0
 10
1.729403990946716
 20
4.753884905137826
 30
0.0
 10
1.667535372850875
 20
4.91324119706954
 30
0.0
 10
1.635666369650765
 20
4.950734473655867
 30
0.0
 10
1.697530960628329
 20
5.005104597519172
 30
0.0
 10
1.752672680353585
 20
5.163591837326621
 30
0.0
 10
1.645038279305951
 20
5.275069720058223
 30
0.0
 10
1.748150226528054
 20
5.297567619026799
 30
0.0
 10
1.790907752126621
 20
5.477348649437878
 30
0.0
 10
1.703156844861874
 20
5.543162232598274
 30
0.0
 10
1.817518144280092
 20
5.575032041222037
 30
0.0
 10
1.898132192533619
 20
5.786881819899783
 30
0.0
 10
1.74252675856548
 20
5.841249527492121
 30
0.0
 10
1.508559240884545
 20
5.922997612252566
 30
0.0
 10
1.370839044610041
 20
5.413762868108552
 30
0.0
 10
1.307582278843978
 20
5.261946147015795
 30
0.0
 10
1.288833224279843
 20
5.216953570773266
 30
0.0
 10
1.229187575473131
 20
5.22318674444304
 30
0.0
 10
1.193221382137591
 20
5.243199911434456
 30
0.0
 10
0.9607503416085423
 20
5.372558199317747
 30
0.0
 10
0.4620630229448919
 20
6.353060016486357
 30
0.0
 10
0.8745100064096443
 20
6.686768783391241
 30
0.0
 10
0.8955295502585829
 20
6.703775303876741
 30
0.0
 10
0.9495009894124243
 20
6.703640798126275
 30
0.0
 10
0.9738731092273065
 20
6.679268678311384
 30
0.0
 10
1.101357981687947
 20
6.551787027545366
 30
0.0
 10
1.199782765946972
 20
6.445861735494665
 30
0.0
 10
1.350701439663855
 20
6.334312975481392
 30
0.0
 10
1.35922886261627
 20
6.328009729953591
 30
0.0
 10
1.393820197771906
 20
6.305254095415261
 30
0.0
 10
1.395694821330044
 20
6.330564533788763
 30
0.0
 10
1.403471186723721
 20
6.43552976084213
 30
0.0
 10
1.336641964333767
 20
6.526476589171834
 30
0.0
 10
1.231655393553525
 20
6.563971476605492
 30
0.0
 10
1.250402031846694
 20
6.674581918060131
 30
0.0
 10
1.155725689280281
 20
6.818002902968135
 30
0.0
 10
1.07698545916124
 20
6.838625775666753
 30
0.0
 10
1.087296090086892
 20
6.870495584290516
 30
0.0
 10
1.140727492679733
 20
7.072033523907127
 30
0.0
 10
0.9884017438367154
 20
7.176550129984388
 30
0.0
 10
1.061988067984335
 20
7.258572058787697
 30
0.0
 10
1.126666003790497
 20
7.376681799898528
 30
0.0
 10
1.023553653856571
 20
7.526664571327746
 30
0.0
 10
1.087378646011578
 20
7.517546370124036
 30
0.0
 10
1.235634186411613
 20
7.632019623430366
 30
0.0
 10
1.193221382137591
 20
7.822876034527976
 30
0.0
 10
1.276647969796061
 20
7.830375334184168
 30
0.0
 10
1.421941161991233
 20
7.869746053311434
 30
0.0
 10
1.423816188261196
 20
8.052534535652075
 30
0.0
 10
1.543802163777472
 20
8.000041048906043
 30
0.0
 10
1.710656949941723
 20
8.077844168601938
 30
0.0
 10
1.718155444174255
 20
8.212827535295116
 30
0.0
 10
1.767838002362655
 20
8.13408690246424
 30
0.0
 10
2.049989990232794
 20
8.1125273220543
 30
0.0
 10
1.950625679279651
 20
8.310316014554648
 30
0.0
 10
2.174349013486511
 20
8.177832682888086
 30
0.0
 10
2.328077810337373
 20
7.990354218601567
 30
0.0
 10
2.446814171052162
 20
7.764132460215411
 30
0.0
 10
2.448062577718158
 20
7.832876980058101
 30
0.0
 10
2.453063453195046
 20
7.937861537279199
 30
0.0
 10
2.514304646263267
 20
8.005354428761255
 30
0.0
 10
2.550550321607263
 20
7.992854253628176
 30
0.0
 10
2.579297502718723
 20
7.991605846962178
 30
0.0
 10
2.633039396130749
 20
7.981606512279388
 30
0.0
 10
2.546801879914647
 20
7.93036384847032
 30
0.0
 10
2.493057570231652
 20
7.79413126968749
 30
0.0
 10
2.528052422638688
 20
7.687893473258452
 30
0.0
 10
2.555495622851923
 20
7.604593337113893
 30
0.0
 10
2.641789518723908
 20
7.486668038020167
 30
0.0
 10
2.713030046474935
 20
7.469170209104828
 30
0.0
 10
2.705531552242399
 20
7.469170209104828
 30
0.0
 10
2.66803666480875
 20
7.382932692888726
 30
0.0
 10
2.775521257056465
 20
7.342936159581146
 30
0.0
 10
2.864424725572212
 20
7.30985821547416
 30
0.0
 10
2.992995309120442
 20
7.277944913973001
 30
0.0
 10
3.03799110705759
 20
7.289195071592783
 30
0.0
 10
3.052540279970215
 20
7.292830753973628
 30
0.0
 10
3.072366588673557
 20
7.31370894597103
 30
0.0
 10
3.082984488723782
 20
7.326687542755462
 30
0.0
 10
3.094233035496242
 20
7.340437735401848
 30
0.0
 10
3.179222145046347
 20
7.301691219607581
 30
0.0
 10
3.17922214504634
 20
7.291691884924777
 30
0.0
 10
3.17922214504634
 20
7.267979407083735
 30
0.0
 10
3.125478640787
 20
7.112964348655068
 30
0.0
 10
3.04548799044282
 20
7.042973032993689
 30
0.0
 10
3.032869418032385
 20
7.031933090947999
 30
0.0
 10
2.997996990020985
 20
7.032974503734538
 30
0.0
 10
2.985496814887903
 20
7.042973032993689
 30
0.0
 10
2.956216443316515
 20
7.066397974589725
 30
0.0
 10
2.934252540231523
 20
7.110466729899416
 30
0.0
 10
2.904256952454067
 20
7.117964418708301
 30
0.0
 10
2.65678811803629
 20
7.192955804422908
 30
0.0
 10
2.220592412665995
 20
7.290442672835126
 30
0.0
 10
1.95812336808853
 20
7.215454508815132
 30
0.0
 10
1.95812336808853
 20
7.267944773866541
 30
0.0
 10
1.890632087453769
 20
7.320439871459885
 30
0.0
 10
1.84563951121124
 20
7.312939766380037
 30
0.0
 10
1.815643923433783
 20
7.305440466723845
 30
0.0
 10
1.800646129545055
 20
7.269164990704596
 30
0.0
 10
1.800646129545055
 20
7.245449291168942
 30
0.0
 10
1.800646129545055
 20
7.19295580442291
 30
0.0
 10
1.894383750841004
 20
6.98673110455505
 30
0.0
 10
2.078110551740285
 20
7.057971632306067
 30
0.0
 10
2.108106139517742
 20
6.907990471724163
 30
0.0
 10
2.250588000443454
 20
6.840499996513058
 30
0.0
 10
2.408067655257896
 20
6.870495584290527
 30
0.0
 10
2.385572172560287
 20
6.769257857914731
 30
0.0
 10
2.501805276553845
 20
6.600528850904174
 30
0.0
 10
2.678035194067904
 20
6.608028955984022
 30
0.0
  0
SPLINE
  5
C4
330
1F
100
AcDbEntity
  8
0
  6
Continuous2
 62
   132
420
    49344
370
    -3
100
AcDbSpline
210
0.0
220
0.0
230
1.0
 70
    11
 71
     3
 72
    11
 73
     7
 74
     5
 42
0.000000001
 43
0.0000000001
 44
0.0
 12
1.0
 22
0.0
 32
0.0
 13
1.0
 23
1.316314099638874E-16
 33
0.0
 40
0.0
 40
0.0
 40
0.0
 40
0.0
 40
0.0899870911249108
 40
0.1799764603175111
 40
0.2699663990288411
 40
0.3599540596868972
 40
0.3599540596868972
 40
0.3599540596868972
 40
0.3599540596868972
 10
2.393070666792821
 20
7.657785126169227
 30
0.0
 10
2.423066363834458
 20
7.657785126169227
 30
0.0
 10
2.489298115073899
 20
7.594155794454373
 30
0.0
 10
2.393070665146852
 20
7.4987067053801
 30
0.0
 10
2.296841804087708
 20
7.594155909532162
 30
0.0
 10
2.3630747799068
 20
7.657785126169226
 30
0.0
 10
2.393070666792819
 20
7.657785126169226
 30
0.0
 11
2.393070666792821
 21
7.657785126169227
 31
0.0
 11
2.456702357270509
 21
7.594155851962501
 31
0.0
 11
2.393070666792821
 21
7.530523356061163
 31
0.0
 11
2.329438170891472
 21
7.594155851962501
 31
0.0
 11
2.393070666792819
 21
7.657785126169226
 31
0.0
  0
SPLINE
  5
C5
330
1F
100
AcDbEntity
  8
0
  6
Continuous2
 62
   132
420
    49344
370
    -3
100
AcDbSpline
210
0.0
220
0.0
230
1.0
 70
     8
 71
     3
 72
    11
 73
     7
 74
     5
 42
0.000000001
 43
0.0000000001
 44
0.0
 12
-0.8859356593794745
 22
0.4638081580134786
 32
0.0
 13
0.6071900880323571
 23
0.7945566040221792
 33
0.0
 40
0.0
 40
0.0
 40
0.0
 40
0.0
 40
0.3425416602586492
 40
0.5538637982023409
 40
0.8209533124594375
 40
1.069233423764686
 40
1.069233423764686
 40
1.069233423764686
 40
1.069233423764686
 10
1.763685237994989
 20
7.719604613422096
 30
0.0
 10
1.662528614112927
 20
7.772562485584577
 30
0.0
 10
1.385731804431303
 20
7.870356033631719
 30
0.0
 10
1.381210879382356
 20
7.536327451188027
 30
0.0
 10
1.513510412103045
 20
7.249747064684453
 30
0.0
 10
1.708463088979983
 20
7.394997608724029
 30
0.0
 10
1.758714163193355
 20
7.460755142752344
 30
0.0
 11
1.763685237994989
 21
7.719604613422096
 31
0.0
 11
1.424859614606867
 21
7.769923456298326
 31
0.0
 11
1.399026053569114
 21
7.560186303868907
 31
0.0
 11
1.544095337988062
 21
7.335928168354794
 31
0.0
 11
1.758714163193355
 21
7.460755142752344
 31
0.0
  0
SPLINE
  5
C6
330
1F
100
AcDbEntity
  8
0
  6
Continuous2
 62
   132
420
    49344
370
    -3
100
AcDbSpline
210
0.0
220
0.0
230
1.0
 70
     8
 71
     3
 72
     9
 73
     5
 74
     3
 42
0.000000001
 43
0.0000000001
 44
0.0
 12
0.6051991361036251
 22
0.7960741207070015
 32
0.0
 13
-0.6054481783781879
 23
-0.7958847299066201
 33
0.0
 40
0.0
 40
0.0
 40
0.0
 40
0.0
 40
0.0212114529462437
 40
0.0424209839009333
 40
0.0424209839009333
 40
0.0424209839009333
 40
0.0424209839009333
 10
1.758709330651421
 20
7.460750310210418
 30
0.0
 10
1.762988381650945
 20
7.466378939794785
 30
0.0
 10
1.784525179776259
 20
7.469923892843362
 30
0.0
 10
1.786866538878443
 20
7.448222841620967
 30
0.0
 10
1.782586114918186
 20
7.442596061015861
 30
0.0
 11
1.758709330651421
 21
7.460750310210418
 31
0.0
 11
1.779726860941225
 21
7.463611980458349
 31
0.0
 11
1.782586114918186
 21
7.442596061015861
 31
0.0
  0
SPLINE
  5
C7
330
1F
100
AcDbEntity
  8
0
  6
Continuous2
 62
   132
420
    49344
370
    -3
100
AcDbSpline
210
0.0
220
0.0
230
1.0
 70
     8
 71
     3
 72
    11
 73
     7
 74
     5
 42
0.000000001
 43
0.0000000001
 44
0.0
 12
-0.6051497944036588
 22
-0.7961116293166489
 32
0.0
 13
0.8855175739705025
 23
-0.4646058826461367
 33
0.0
 40
0.0
 40
0.0
 40
0.0
 40
0.0
 40
0.2798775181526996
 40
0.5783162183085342
 40
0.821528169627556
 40
1.195736953810042
 40
1.195736953810042
 40
1.195736953810042
 40
1.195736953810042
 10
1.782586114918186
 20
7.442596061015852
 30
0.0
 10
1.726130174062082
 20
7.368324812020637
 30
0.0
 10
1.505828559646579
 20
7.213465131676378
 30
0.0
 10
1.345087635734099
 20
7.527970817249876
 30
0.0
 10
1.364108105745369
 20
7.900988442969178
 30
0.0
 10
1.667158888540639
 20
7.804123102673866
 30
0.0
 10
1.777615040116548
 20
7.746169901850852
 30
0.0
 11
1.782586114918186
 21
7.442596061015852
 31
0.0
 11
1.537994253797788
 21
7.306558394757662
 31
0.0
 11
1.369870119952496
 21
7.553134819765152
 31
0.0
 11
1.406422258997403
 21
7.793584387025415
 31
0.0
 11
1.777615040116548
 21
7.746169901850852
 31
0.0
  0
SPLINE
  5
C8
330
1F
100
AcDbEntity
  8
0
  6
Continuous2
 62
   132
420
    49344
370
    -3
100
AcDbSpline
210
0.0
220
0.0
230
1.0
 70
     8
 71
     3
 72
     9
 73
     5
 74
     3
 42
0.000000001
 43
0.0000000001
 44
0.0
 12
0.8855859100148235
 22
-0.4644756139812046
 32
0.0
 13
-0.8856887905086892
 23
0.4642794054954998
 33
0.0
 40
0.0
 40
0.0
 40
0.0
 40
0.0
 40
0.0212105924795182
 40
0.0424232518247981
 40
0.0424232518247981
 40
0.0424232518247981
 40
0.0424232518247981
 10
1.777615040116548
 20
7.746169901850845
 30
0.0
 10
1.783876307397524
 20
7.742885967529235
 30
0.0
 10
1.790952007188701
 20
7.72223714573212
 30
0.0
 10
1.76994301031939
 20
7.716323357312809
 30
0.0
 10
1.763680405453059
 20
7.719606224269411
 30
0.0
 11
1.777615040116548
 21
7.746169901850845
 31
0.0
 11
1.78393117242284
 21
7.725921551152044
 31
0.0
 11
1.763680405453059
 21
7.719606224269411
 31
0.0
  0
LINE
  5
C9
330
1F
100
AcDbEntity
  8
0
  6
Continuous2
 62
   132
420
    49344
370
    -3
100
AcDbLine
 10
2.406860325198324
 20
7.626712686964392
 30
0.0
 11
2.395569090972132
 21
7.59915511659209
 31
0.0
  0
SPLINE
  5
CA
330
1F
100
AcDbEntity
  8
0
  6
Continuous2
 62
   132
420
    49344
370
    -3
100
AcDbSpline
210
0.0
220
0.0
230
1.0
 70
     8
 71
     3
 72
     8
 73
     4
 74
     2
 42
0.000000001
 43
0.0000000001
 44
0.0
 12
1.0
 22
0.0
 32
0.0
 13
0.9206941935852386
 23
-0.3902847702619547
 33
0.0
 40
0.0
 40
0.0
 40
0.0
 40
0.0
 40
0.0140700283668999
 40
0.0140700283668999
 40
0.0140700283668999
 40
0.0140700283668999
 10
2.393070666792821
 20
7.629507507048924
 30
0.0
 10
2.397760676248454
 20
7.629507507048924
 30
0.0
 10
2.402542260724664
 20
7.628543126227321
 30
0.0
 10
2.406860325198326
 20
7.626712686964402
 30
0.0
 11
2.393070666792821
 21
7.629507507048924
 31
0.0
 11
2.406860325198326
 21
7.626712686964402
 31
0.0
  0
LINE
  5
CB
330
1F
100
AcDbEntity
  8
0
  6
Continuous2
 62
   132
420
    49344
370
    -3
100
AcDbLine
 10
2.395569090972132
 20
7.59915511659209
 30
0.0
 11
2.424660993408133
 21
7.609728718341241
 31
0.0
  0
SPLINE
  5
CC
330
1F
100
AcDbEntity
  8
0
  6
Continuous2
 62
   132
420
    49344
370
    -3
100
AcDbSpline
210
0.0
220
0.0
230
1.0
 70
     8
 71
     3
 72
    11
 73
     7
 74
     5
 42
0.000000001
 43
0.0000000001
 44
0.0
 12
0.4432285303395627
 22
-0.8964086511703419
 32
0.0
 13
1.0
 23
0.0
 33
0.0
 40
0.0
 40
0.0
 40
0.0
 40
0.0
 40
0.0160222324515638
 40
0.0660175920508894
 40
0.11601295165021
 40
0.1660088807797806
 40
0.1660088807797806
 40
0.1660088807797806
 40
0.1660088807797806
 10
2.424660993408133
 20
7.609728718341241
 30
0.0
 10
2.427028163588888
 20
7.604941229081026
 30
0.0
 10
2.433440620566301
 20
7.582960987963041
 30
0.0
 10
2.39344142436996
 20
7.540816433939705
 30
0.0
 10
2.339504149699343
 20
7.594242589945491
 30
0.0
 10
2.376405357082966
 20
7.629507507048924
 30
0.0
 10
2.393070666792823
 20
7.629507507048924
 30
0.0
 11
2.424660993408133
 21
7.609728718341241
 31
0.0
 11
2.428422321879236
 21
7.594154241115202
 31
0.0
 11
2.393070666792821
 21
7.558801780605119
 31
0.0
 11
2.357719011706412
 21
7.594154241115202
 31
0.0
 11
2.393070666792823
 21
7.629507507048924
 31
0.0
  0
VIEWPORT
  5
CD
330
23
100
AcDbEntity
 67
     1
  8
0
100
AcDbViewport
 10
5.25
 20
4.0
 30
0.0
 40
11.638
 41
8.993
 68
     1
 69
     1
 12
5.25
 22
4.0
 13
0.0
 23
0.0
 14
0.5
 24
0.5
 15
0.5
 25
0.5
 16
0.0
 26
0.0
 36
1.0
 17
0.0
 27
0.0
 37
0.0
 42
50.0
 43
0.0
 44
0.0
 45
8.993
 50
0.0
 51
0.0
 72
   100
 90
   557152
  1

281
     0
 71
     1
 74
     0
110
0.0
120
0.0
130
0.0
111
1.0
121
0.0
131
0.0
112
0.0
122
1.0
132
0.0
 79
     0
146
0.0
170
     0
 61
     5
292
     1
282
     1
141
0.0
142
0.0
 63
   256
361
CE
  0
ENDSEC
  0
SECTION
  2
OBJECTS
  0
DICTIONARY
  5
C
330
0
100
AcDbDictionary
281
     1
  3
ACAD_DETAILVIEWSTYLE
350
D6
  3
ACAD_GROUP
350
D
  3
ACAD_LAYOUT
350
1A
  3
ACAD_MATERIAL
350
43
  3
ACAD_MLEADERSTYLE
350
6B
  3
ACAD_MLINESTYLE
350
17
  3
ACAD_PLOTSETTINGS
350
19
  3
ACAD_PLOTSTYLENAME
350
E
  3
ACAD_SCALELIST
350
47
  3
ACAD_SECTIONVIEWSTYLE
350
D7
  3
ACAD_TABLESTYLE
350
69
  3
ACAD_VISUALSTYLE
350
2A
  3
ACDB_RECOMPOSE_DATA
350
D3
  3
AcDbVariableDictionary
350
CF
  0
SUN
  5
6D
330
29
100
AcDbSun
 90
        1
290
     0
 63
     7
421
 16777215
 40
1.0
291
     1
 91
  2455826
 92
 54000000
292
     0
 70
     2
 71
   256
280
     1
  0
SUN
  5
CE
330
CD
100
AcDbSun
 90
        1
290
     0
 63
     7
421
 16777215
 40
1.0
291
     1
 91
  2455826
 92
 54000000
292
     0
 70
     2
 71
   256
280
     1
  0
DICTIONARY
  5
D6
102
{ACAD_REACTORS
330
C
102
}
330
C
100
AcDbDictionary
281
     1
  0
DICTIONARY
  5
D
102
{ACAD_REACTORS
330
C
102
}
330
C
100
AcDbDictionary
281
     1
  0
DICTIONARY
  5
1A
102
{ACAD_REACTORS
330
C
102
}
330
C
100
AcDbDictionary
281
     1
  3
Layout2
350
26
  3
Model
350
22
  0
DICTIONARY
  5
43
102
{ACAD_REACTORS
330
C
102
}
330
C
100
AcDbDictionary
281
     1
  3
ByBlock
350
45
  3
ByLayer
350
44
  3
Global
350
46
  0
DICTIONARY
  5
6B
102
{ACAD_REACTORS
330
C
102
}
330
C
100
AcDbDictionary
281
     1
  3
Standard
350
6C
  0
DICTIONARY
  5
17
102
{ACAD_REACTORS
330
C
102
}
330
C
100
AcDbDictionary
281
     1
  3
Standard
350
18
  0
DICTIONARY
  5
19
102
{ACAD_REACTORS
330
C
102
}
330
C
100
AcDbDictionary
281
     1
  0
ACDBDICTIONARYWDFLT
  5
E
102
{ACAD_REACTORS
330
C
102
}
330
C
100
AcDbDictionary
281
     1
  3
Normal
350
F
100
AcDbDictionaryWithDefault
340
F
  0
DICTIONARY
  5
47
102
{ACAD_REACTORS
330
C
102
}
330
C
100
AcDbDictionary
281
     1
  3
A0
350
48
  3
A1
350
49
  3
A2
350
4A
  3
A3
350
4B
  3
A4
350
4C
  3
A5
350
4D
  3
A6
350
4E
  3
A7
350
4F
  3
A8
350
50
  3
A9
350
51
  3
B0
350
52
  3
B1
350
53
  3
B2
350
54
  3
B3
350
55
  3
B4
350
56
  3
B5
350
57
  3
B6
350
58
  3
B7
350
59
  3
B8
350
5A
  3
B9
350
5B
  3
C0
350
5C
  3
C1
350
5D
  3
C2
350
5E
  3
C3
350
5F
  3
C4
350
60
  3
C5
350
61
  3
C6
350
62
  3
C7
350
63
  3
C8
350
64
  3
C9
350
65
  3
D0
350
66
  3
D1
350
67
  3
D2
350
68
  0
DICTIONARY
  5
D7
102
{ACAD_REACTORS
330
C
102
}
330
C
100
AcDbDictionary
281
     1
  0
DICTIONARY
  5
69
102
{ACAD_REACTORS
330
C
102
}
330
C
100
AcDbDictionary
281
     1
  3
Standard
350
6A
  0
DICTIONARY
  5
2A
102
{ACAD_REACTORS
330
C
102
}
330
C
100
AcDbDictionary
281
     1
  3
2dWireframe
350
2F
  3
Basic
350
32
  3
Brighten
350
36
  3
ColorChange
350
3A
  3
Conceptual
350
34
  3
Dim
350
35
  3
EdgeColorOff
350
3D
  3
Facepattern
350
39
  3
Flat
350
2B
  3
FlatWithEdges
350
2C
  3
Gouraud
350
2D
  3
GouraudWithEdges
350
2E
  3
Hidden
350
31
  3
JitterOff
350
3B
  3
Linepattern
350
38
  3
OverhangOff
350
3C
  3
Realistic
350
33
  3
Shaded
350
42
  3
Shaded with edges
350
41
  3
Shades of Gray
350
3E
  3
Sketchy
350
3F
  3
Thicken
350
37
  3
Wireframe
350
30
  3
X-Ray
350
40
  0
XRECORD
  5
D3
102
{ACAD_REACTORS
330
C
102
}
330
C
100
AcDbXrecord
280
     1
 90
        1
330
6A
  0
DICTIONARY
  5
CF
102
{ACAD_REACTORS
330
C
102
}
330
C
100
AcDbDictionary
281
     1
  3
CANNOSCALE
350
D0
  3
CMLEADERSTYLE
350
D5
  3
CTABLESTYLE
350
D4
  0
LAYOUT
  5
26
102
{ACAD_REACTORS
330
1A
102
}
330
1A
100
AcDbPlotSettings
  1

  2
none_device
  4
Letter_(8.50_x_11.00_Inches)
  6

 40
6.35
 41
6.35
 42
6.35001
 43
6.35001
 44
215.9
 45
279.4
 46
0.0
 47
0.0
 48
0.0
 49
0.0
140
0.0
141
0.0
142
1.0
143
1.0
 70
   688
 72
     0
 73
     1
 74
     5
  7

 75
    16
 76
     0
 77
     2
 78
   300
147
1.0
148
0.0
149
0.0
100
AcDbLayout
  1
Layout2
 70
     1
 71
     1
 10
-0.25
 20
-0.25
 11
10.75
 21
8.25
 12
0.0
 22
0.0
 32
0.0
 14
0.0
 24
0.0
 34
0.0
 15
0.0
 25
0.0
 35
0.0
146
0.0
 13
0.0
 23
0.0
 33
0.0
 16
1.0
 26
0.0
 36
0.0
 17
0.0
 27
1.0
 37
0.0
 76
     0
330
23
331
CD
  0
LAYOUT
  5
22
102
{ACAD_REACTORS
330
1A
102
}
330
1A
100
AcDbPlotSettings
  1

  2
none_device
  4
Letter_(8.50_x_11.00_Inches)
  6

 40
6.35
 41
6.35
 42
6.35000508
 43
6.35000508
 44
215.9
 45
279.4
 46
0.0
 47
0.0
 48
0.0
 49
0.0
140
0.0
141
0.0
142
1.0
143
1.0
 70
  1712
 72
     0
 73
     0
 74
     0
  7

 75
     0
 76
     0
 77
     2
 78
   300
147
1.0
148
0.0
149
0.0
100
AcDbLayout
  1
Model
 70
     1
 71
     0
 10
0.0
 20
0.0
 11
12.0
 21
9.0
 12
0.0
 22
0.0
 32
0.0
 14
0.7165083259620273
 24
3.310316033181077
 34
0.0
 15
3.202970866951881
 25
8.310316014554648
 35
0.0
146
0.0
 13
0.0
 23
0.0
 33
0.0
 16
1.0
 26
0.0
 36
0.0
 17
0.0
 27
1.0
 37
0.0
 76
     0
330
1F
331
29
  0
MATERIAL
  5
45
102
{ACAD_REACTORS
330
43
102
}
330
43
100
AcDbMaterial
  1
ByBlock
 72
     1
 94
      127
  0
MATERIAL
  5
44
102
{ACAD_REACTORS
330
43
102
}
330
43
100
AcDbMaterial
  1
ByLayer
 72
     1
 94
      127
  0
MATERIAL
  5
46
102
{ACAD_REACTORS
330
43
102
}
330
43
100
AcDbMaterial
  1
Global
 72
     1
 94
      127
  0
MLEADERSTYLE
  5
6C
102
{ACAD_REACTORS
330
6B
102
}
330
6B
100
AcDbMLeaderStyle
179
     2
170
     2
171
     1
172
     0
 90
        2
 40
0.0
 41
0.0
173
     1
 91
-1056964608
340
14
 92
       -2
290
     1
 42
0.09
291
     1
 43
0.36
  3
Standard
341
0
 44
0.18
300

342
11
174
     1
178
     6
175
     1
176
     0
 93
-1056964608
 45
0.18
292
     0
297
     0
 46
0.18
343
0
 94
-1056964608
 47
1.0
 49
1.0
140
1.0
293
     1
141
0.0
294
     1
177
     0
142
1.0
295
     0
296
     0
143
0.125
271
     0
272
     9
273
     9
298
     0
  0
MLINESTYLE
  5
18
102
{ACAD_REACTORS
330
17
102
}
330
17
100
AcDbMlineStyle
  2
Standard
 70
     0
  3

 62
   256
 51
90.0
 52
90.0
 71
     2
 49
0.5
 62
   256
  6
BYLAYER
 49
-0.5
 62
   256
  6
BYLAYER
  0
ACDBPLACEHOLDER
  5
F
102
{ACAD_REACTORS
330
E
102
}
330
E
  0
SCALE
  5
48
102
{ACAD_REACTORS
330
47
102
}
330
47
100
AcDbScale
 70
     0
300
1:1
140
1.0
141
1.0
290
     1
  0
SCALE
  5
49
102
{ACAD_REACTORS
330
47
102
}
330
47
100
AcDbScale
 70
     0
300
1:2
140
1.0
141
2.0
290
     0
  0
SCALE
  5
4A
102
{ACAD_REACTORS
330
47
102
}
330
47
100
AcDbScale
 70
     0
300
1:4
140
1.0
141
4.0
290
     0
  0
SCALE
  5
4B
102
{ACAD_REACTORS
330
47
102
}
330
47
100
AcDbScale
 70
     0
300
1:5
140
1.0
141
5.0
290
     0
  0
SCALE
  5
4C
102
{ACAD_REACTORS
330
47
102
}
330
47
100
AcDbScale
 70
     0
300
1:8
140
1.0
141
8.0
290
     0
  0
SCALE
  5
4D
102
{ACAD_REACTORS
330
47
102
}
330
47
100
AcDbScale
 70
     0
300
1:10
140
1.0
141
10.0
290
     0
  0
SCALE
  5
4E
102
{ACAD_REACTORS
330
47
102
}
330
47
100
AcDbScale
 70
     0
300
1:16
140
1.0
141
16.0
290
     0
  0
SCALE
  5
4F
102
{ACAD_REACTORS
330
47
102
}
330
47
100
AcDbScale
 70
     0
300
1:20
140
1.0
141
20.0
290
     0
  0
SCALE
  5
50
102
{ACAD_REACTORS
330
47
102
}
330
47
100
AcDbScale
 70
     0
300
1:30
140
1.0
141
30.0
290
     0
  0
SCALE
  5
51
102
{ACAD_REACTORS
330
47
102
}
330
47
100
AcDbScale
 70
     0
300
1:40
140
1.0
141
40.0
290
     0
  0
SCALE
  5
52
102
{ACAD_REACTORS
330
47
102
}
330
47
100
AcDbScale
 70
     0
300
1:50
140
1.0
141
50.0
290
     0
  0
SCALE
  5
53
102
{ACAD_REACTORS
330
47
102
}
330
47
100
AcDbScale
 70
     0
300
1:100
140
1.0
141
100.0
290
     0
  0
SCALE
  5
54
102
{ACAD_REACTORS
330
47
102
}
330
47
100
AcDbScale
 70
     0
300
2:1
140
2.0
141
1.0
290
     0
  0
SCALE
  5
55
102
{ACAD_REACTORS
330
47
102
}
330
47
100
AcDbScale
 70
     0
300
4:1
140
4.0
141
1.0
290
     0
  0
SCALE
  5
56
102
{ACAD_REACTORS
330
47
102
}
330
47
100
AcDbScale
 70
     0
300
8:1
140
8.0
141
1.0
290
     0
  0
SCALE
  5
57
102
{ACAD_REACTORS
330
47
102
}
330
47
100
AcDbScale
 70
     0
300
10:1
140
10.0
141
1.0
290
     0
  0
SCALE
  5
58
102
{ACAD_REACTORS
330
47
102
}
330
47
100
AcDbScale
 70
     0
300
100:1
140
100.0
141
1.0
290
     0
  0
SCALE
  5
59
102
{ACAD_REACTORS
330
47
102
}
330
47
100
AcDbScale
 70
     0
300
1/128" = 1'-0"
140
0.0078125
141
12.0
290
     0
  0
SCALE
  5
5A
102
{ACAD_REACTORS
330
47
102
}
330
47
100
AcDbScale
 70
     0
300
1/64" = 1'-0"
140
0.015625
141
12.0
290
     0
  0
SCALE
  5
5B
102
{ACAD_REACTORS
330
47
102
}
330
47
100
AcDbScale
 70
     0
300
1/32" = 1'-0"
140
0.03125
141
12.0
290
     0
  0
SCALE
  5
5C
102
{ACAD_REACTORS
330
47
102
}
330
47
100
AcDbScale
 70
     0
300
1/16" = 1'-0"
140
0.0625
141
12.0
290
     0
  0
SCALE
  5
5D
102
{ACAD_REACTORS
330
47
102
}
330
47
100
AcDbScale
 70
     0
300
3/32" = 1'-0"
140
0.09375
141
12.0
290
     0
  0
SCALE
  5
5E
102
{ACAD_REACTORS
330
47
102
}
330
47
100
AcDbScale
 70
     0
300
1/8" = 1'-0"
140
0.125
141
12.0
290
     0
  0
SCALE
  5
5F
102
{ACAD_REACTORS
330
47
102
}
330
47
100
AcDbScale
 70
     0
300
3/16" = 1'-0"
140
0.1875
141
12.0
290
     0
  0
SCALE
  5
60
102
{ACAD_REACTORS
330
47
102
}
330
47
100
AcDbScale
 70
     0
300
1/4" = 1'-0"
140
0.25
141
12.0
290
     0
  0
SCALE
  5
61
102
{ACAD_REACTORS
330
47
102
}
330
47
100
AcDbScale
 70
     0
300
3/8" = 1'-0"
140
0.375
141
12.0
290
     0
  0
SCALE
  5
62
102
{ACAD_REACTORS
330
47
102
}
330
47
100
AcDbScale
 70
     0
300
1/2" = 1'-0"
140
0.5
141
12.0
290
     0
  0
SCALE
  5
63
102
{ACAD_REACTORS
330
47
102
}
330
47
100
AcDbScale
 70
     0
300
3/4" = 1'-0"
140
0.75
141
12.0
290
     0
  0
SCALE
  5
64
102
{ACAD_REACTORS
330
47
102
}
330
47
100
AcDbScale
 70
     0
300
1" = 1'-0"
140
1.0
141
12.0
290
     0
  0
SCALE
  5
65
102
{ACAD_REACTORS
330
47
102
}
330
47
100
AcDbScale
 70
     0
300
1-1/2" = 1'-0"
140
1.5
141
12.0
290
     0
  0
SCALE
  5
66
102
{ACAD_REACTORS
330
47
102
}
330
47
100
AcDbScale
 70
     0
300
3" = 1'-0"
140
3.0
141
12.0
290
     0
  0
SCALE
  5
67
102
{ACAD_REACTORS
330
47
102
}
330
47
100
AcDbScale
 70
     0
300
6" = 1'-0"
140
6.0
141
12.0
290
     0
  0
SCALE
  5
68
102
{ACAD_REACTORS
330
47
102
}
330
47
100
AcDbScale
 70
     0
300
1'-0" = 1'-0"
140
12.0
141
12.0
290
     0
  0
TABLESTYLE
  5
6A
102
{ACAD_REACTORS
330
69
102
}
102
{ACAD_XDICTIONARY
360
D1
102
}
330
69
100
AcDbTableStyle
  3
Standard
 70
     0
 71
     0
 40
0.06
 41
0.06
280
     0
281
     0
  7
Standard
140
0.18
170
     2
 62
     0
 63
   257
283
     0
 90
        4
 91
        0
  1

274
    -2
284
     1
 64
     0
275
    -2
285
     1
 65
     0
276
    -2
286
     1
 66
     0
277
    -2
287
     1
 67
     0
278
    -2
288
     1
 68
     0
279
    -2
289
     1
 69
     0
  7
Standard
140
0.25
170
     5
 62
     0
 63
   257
283
     0
 90
        4
 91
        0
  1

274
    -2
284
     1
 64
     0
275
    -2
285
     1
 65
     0
276
    -2
286
     1
 66
     0
277
    -2
287
     1
 67
     0
278
    -2
288
     1
 68
     0
279
    -2
289
     1
 69
     0
  7
Standard
140
0.18
170
     5
 62
     0
 63
   257
283
     0
 90
        4
 91
        0
  1

274
    -2
284
     1
 64
     0
275
    -2
285
     1
 65
     0
276
    -2
286
     1
 66
     0
277
    -2
287
     1
 67
     0
278
    -2
288
     1
 68
     0
279
    -2
289
     1
 69
     0
  0
VISUALSTYLE
  5
2F
102
{ACAD_REACTORS
330
2A
102
}
330
2A
100
AcDbVisualStyle
  2
2dWireframe
 70
     4
177
     3
291
     0
 70
    58
 90
        0
176
     1
 90
        2
176
     1
 90
        0
176
     1
 90
        0
176
     1
 40
0.6
176
     1
 40
30.0
176
     1
 62
     7
420
 16777215
176
     1
 90
        1
176
     1
 90
        4
176
     1
 62
     7
176
     1
 62
   257
176
     1
 90
        1
176
     1
 90
        1
176
     1
 40
1.0
176
     1
 90
        0
176
     1
 62
   257
176
     1
 40
1.0
176
     1
 90
        1
176
     1
 90
        6
176
     1
 90
        2
176
     1
 62
     7
176
     1
 90
        5
176
     1
 90
        0
176
     1
 90
        0
176
     1
290
     0
176
     1
 90
        1
176
     1
 40
0.0
176
     1
 90
        0
176
     1
290
     1
176
     1
290
     1
176
     1
290
     0
176
     1
290
     0
176
     1
290
     0
176
     1
290
     0
176
     1
290
     0
176
     1
290
     0
176
     1
290
     0
176
     1
 90
       50
176
     1
 40
0.0
176
     1
 40
1.0
176
     1
 90
        0
176
     1
 62
    18
420
        0
176
     1
 90
       50
176
     1
 90
        3
176
     1
 62
     5
420
      255
176
     1
290
     0
176
     1
 90
       50
176
     1
 90
       50
176
     1
 90
       50
176
     1
290
     0
176
     1
 90
       50
176
     1
 62
   256
176
     0
 40
1.0
176
     0
 90
        2
176
     1
  1
strokes_ogs.tif
176
     1
290
     0
176
     1
 40
1.0
176
     1
 40
1.0
176
     1
  0
VISUALSTYLE
  5
32
102
{ACAD_REACTORS
330
2A
102
}
330
2A
100
AcDbVisualStyle
  2
Basic
 70
     7
177
     3
291
     1
 70
    58
 90
        1
176
     1
 90
        0
176
     1
 90
        1
176
     1
 90
        0
176
     1
 40
0.6
176
     1
 40
30.0
176
     1
 62
     7
420
 16777215
176
     1
 90
        0
176
     1
 90
        4
176
     1
 62
     7
176
     1
 62
   257
176
     1
 90
        1
176
     1
 90
        1
176
     1
 40
1.0
176
     1
 90
        8
176
     1
 62
     7
176
     1
 40
1.0
176
     1
 90
        1
176
     1
 90
        6
176
     1
 90
        2
176
     1
 62
     7
176
     1
 90
        5
176
     1
 90
        0
176
     1
 90
        0
176
     1
290
     0
176
     1
 90
        1
176
     1
 40
0.0
176
     1
 90
        0
176
     1
290
     0
176
     1
290
     1
176
     1
290
     1
176
     1
290
     0
176
     1
290
     0
176
     1
290
     0
176
     1
290
     0
176
     1
290
     0
176
     1
290
     0
176
     1
 90
       50
176
     1
 40
0.0
176
     1
 40
1.0
176
     1
 90
        0
176
     1
 62
    18
420
        0
176
     1
 90
       50
176
     1
 90
        3
176
     1
 62
     5
420
      255
176
     1
290
     0
176
     1
 90
       50
176
     1
 90
       50
176
     1
 90
       50
176
     1
290
     0
176
     1
 90
       50
176
     1
 62
   256
176
     0
 40
1.0
176
     0
 90
        2
176
     1
  1
strokes_ogs.tif
176
     1
290
     0
176
     1
 40
1.0
176
     1
 40
1.0
176
     1
  0
VISUALSTYLE
  5
36
102
{ACAD_REACTORS
330
2A
102
}
330
2A
100
AcDbVisualStyle
  2
Brighten
 70
    12
177
     3
291
     1
 70
    58
 90
        2
176
     1
 90
        2
176
     1
 90
        0
176
     1
 90
        0
176
     1
 40
0.6
176
     1
 40
30.0
176
     1
 62
     7
420
 16777215
176
     1
 90
        1
176
     1
 90
        4
176
     1
 62
     7
176
     1
 62
   257
176
     1
 90
        1
176
     1
 90
        1
176
     1
 40
1.0
176
     1
 90
        8
176
     1
 62
     7
176
     1
 40
1.0
176
     1
 90
        1
176
     1
 90
        6
176
     1
 90
        2
176
     1
 62
     7
176
     1
 90
        5
176
     1
 90
        0
176
     1
 90
        0
176
     1
290
     0
176
     1
 90
        1
176
     1
 40
50.0
176
     1
 90
        0
176
     1
290
     0
176
     1
290
     1
176
     1
290
     1
176
     1
290
     0
176
     1
290
     0
176
     1
290
     0
176
     1
290
     0
176
     1
290
     0
176
     1
290
     0
176
     1
 90
       50
176
     1
 40
0.0
176
     1
 40
1.0
176
     1
 90
        0
176
     1
 62
    18
420
        0
176
     1
 90
       50
176
     1
 90
        3
176
     1
 62
     5
420
      255
176
     1
290
     0
176
     1
 90
       50
176
     1
 90
       50
176
     1
 90
       50
176
     1
290
     0
176
     1
 90
       50
176
     1
 62
   256
176
     0
 40
1.0
176
     0
 90
        2
176
     1
  1
strokes_ogs.tif
176
     1
290
     0
176
     1
 40
1.0
176
     1
 40
1.0
176
     1
  0
VISUALSTYLE
  5
3A
102
{ACAD_REACTORS
330
2A
102
}
330
2A
100
AcDbVisualStyle
  2
ColorChange
 70
    16
177
     3
291
     1
 70
    58
 90
        2
176
     1
 90
        2
176
     1
 90
        3
176
     1
 90
        0
176
     1
 40
0.6
176
     1
 40
30.0
176
     1
 62
     8
420
  8421504
176
     1
 90
        1
176
     1
 90
        4
176
     1
 62
     7
176
     1
 62
   257
176
     1
 90
        1
176
     1
 90
        1
176
     1
 40
1.0
176
     1
 90
        8
176
     1
 62
     8
420
  8421504
176
     1
 40
1.0
176
     1
 90
        1
176
     1
 90
        6
176
     1
 90
        2
176
     1
 62
     7
176
     1
 90
        5
176
     1
 90
        0
176
     1
 90
        0
176
     1
290
     0
176
     1
 90
        1
176
     1
 40
0.0
176
     1
 90
        0
176
     1
290
     0
176
     1
290
     1
176
     1
290
     1
176
     1
290
     0
176
     1
290
     0
176
     1
290
     0
176
     1
290
     0
176
     1
290
     0
176
     1
290
     0
176
     1
 90
       50
176
     1
 40
0.0
176
     1
 40
1.0
176
     1
 90
        0
176
     1
 62
    18
420
        0
176
     1
 90
       50
176
     1
 90
        3
176
     1
 62
     5
420
      255
176
     1
290
     0
176
     1
 90
       50
176
     1
 90
       50
176
     1
 90
       50
176
     1
290
     0
176
     1
 90
       50
176
     1
 62
   256
176
     0
 40
1.0
176
     0
 90
        2
176
     1
  1
strokes_ogs.tif
176
     1
290
     0
176
     1
 40
1.0
176
     1
 40
1.0
176
     1
  0
VISUALSTYLE
  5
34
102
{ACAD_REACTORS
330
2A
102
}
330
2A
100
AcDbVisualStyle
  2
Conceptual
 70
     9
177
     3
291
     0
 70
    58
 90
        3
176
     1
 90
        2
176
     1
 90
        0
176
     1
 90
        0
176
     1
 40
0.6
176
     1
 40
30.0
176
     1
 62
     7
420
 16777215
176
     1
 90
        2
176
     1
 90
        2
176
     1
 62
     7
176
     1
 62
   257
176
     1
 90
        1
176
     1
 90
        1
176
     1
 40
179.0
176
     1
 90
        8
176
     1
 62
     7
176
     1
 40
1.0
176
     1
 90
        1
176
     1
 90
        6
176
     1
 90
        2
176
     1
 62
     7
176
     1
 90
        3
176
     1
 90
        0
176
     1
 90
        0
176
     1
290
     0
176
     1
 90
        1
176
     1
 40
0.0
176
     1
 90
        0
176
     1
290
     0
176
     1
290
     1
176
     1
290
     1
176
     1
290
     0
176
     1
290
     0
176
     1
290
     0
176
     1
290
     0
176
     1
290
     0
176
     1
290
     0
176
     1
 90
       50
176
     1
 40
0.0
176
     1
 40
1.0
176
     1
 90
        0
176
     1
 62
    18
420
        0
176
     1
 90
       50
176
     1
 90
        3
176
     1
 62
     5
420
      255
176
     1
290
     0
176
     1
 90
       50
176
     1
 90
       50
176
     1
 90
       50
176
     1
290
     0
176
     1
 90
       50
176
     1
 62
   256
176
     0
 40
1.0
176
     0
 90
        2
176
     1
  1
strokes_ogs.tif
176
     1
290
     0
176
     1
 40
1.0
176
     1
 40
1.0
176
     1
  0
VISUALSTYLE
  5
35
102
{ACAD_REACTORS
330
2A
102
}
330
2A
100
AcDbVisualStyle
  2
Dim
 70
    11
177
     3
291
     1
 70
    58
 90
        2
176
     1
 90
        2
176
     1
 90
        0
176
     1
 90
        0
176
     1
 40
0.6
176
     1
 40
30.0
176
     1
 62
     7
420
 16777215
176
     1
 90
        1
176
     1
 90
        4
176
     1
 62
     7
176
     1
 62
   257
176
     1
 90
        1
176
     1
 90
        1
176
     1
 40
1.0
176
     1
 90
        8
176
     1
 62
     7
176
     1
 40
1.0
176
     1
 90
        1
176
     1
 90
        6
176
     1
 90
        2
176
     1
 62
     7
176
     1
 90
        5
176
     1
 90
        0
176
     1
 90
        0
176
     1
290
     0
176
     1
 90
        1
176
     1
 40
-50.0
176
     1
 90
        0
176
     1
290
     0
176
     1
290
     1
176
     1
290
     1
176
     1
290
     0
176
     1
290
     0
176
     1
290
     0
176
     1
290
     0
176
     1
290
     0
176
     1
290
     0
176
     1
 90
       50
176
     1
 40
0.0
176
     1
 40
1.0
176
     1
 90
        0
176
     1
 62
    18
420
        0
176
     1
 90
       50
176
     1
 90
        3
176
     1
 62
     5
420
      255
176
     1
290
     0
176
     1
 90
       50
176
     1
 90
       50
176
     1
 90
       50
176
     1
290
     0
176
     1
 90
       50
176
     1
 62
   256
176
     0
 40
1.0
176
     0
 90
        2
176
     1
  1
strokes_ogs.tif
176
     1
290
     0
176
     1
 40
1.0
176
     1
 40
1.0
176
     1
  0
VISUALSTYLE
  5
3D
102
{ACAD_REACTORS
330
2A
102
}
330
2A
100
AcDbVisualStyle
  2
EdgeColorOff
 70
    22
177
     3
291
     1
 70
    58
 90
        2
176
     0
 90
        2
176
     0
 90
        0
176
     0
 90
        0
176
     0
 40
0.6
176
     0
 40
30.0
176
     0
 62
     7
420
 16777215
176
     0
 90
        1
176
     0
 90
        4
176
     0
 62
     7
176
     0
 62
   257
176
     0
 90
        1
176
     0
 90
        1
176
     0
 40
1.0
176
     0
 90
        8
176
     2
 62
     7
176
     0
 40
1.0
176
     0
 90
        1
176
     0
 90
        6
176
     0
 90
        2
176
     0
 62
     7
176
     0
 90
        5
176
     0
 90
        0
176
     0
 90
        0
176
     0
290
     0
176
     0
 90
        1
176
     0
 40
0.0
176
     0
 90
        0
176
     0
290
     0
176
     0
290
     1
176
     0
290
     1
176
     0
290
     0
176
     0
290
     0
176
     0
290
     0
176
     0
290
     0
176
     0
290
     0
176
     0
290
     0
176
     0
 90
       50
176
     0
 40
0.0
176
     0
 40
1.0
176
     0
 90
        0
176
     0
 62
    18
420
        0
176
     0
 90
       50
176
     0
 90
        3
176
     0
 62
     5
420
      255
176
     0
290
     0
176
     0
 90
       50
176
     0
 90
       50
176
     0
 90
       50
176
     0
290
     0
176
     0
 90
       50
176
     0
 62
   256
176
     0
 40
1.0
176
     0
 90
        2
176
     0
  1
strokes_ogs.tif
176
     0
290
     0
176
     0
 40
1.0
176
     0
 40
1.0
176
     0
  0
VISUALSTYLE
  5
39
102
{ACAD_REACTORS
330
2A
102
}
330
2A
100
AcDbVisualStyle
  2
Facepattern
 70
    15
177
     3
291
     1
 70
    58
 90
        2
176
     1
 90
        2
176
     1
 90
        0
176
     1
 90
        0
176
     1
 40
0.6
176
     1
 40
30.0
176
     1
 62
     7
420
 16777215
176
     1
 90
        1
176
     1
 90
        4
176
     1
 62
     7
176
     1
 62
   257
176
     1
 90
        1
176
     1
 90
        1
176
     1
 40
1.0
176
     1
 90
        8
176
     1
 62
     7
176
     1
 40
1.0
176
     1
 90
        1
176
     1
 90
        6
176
     1
 90
        2
176
     1
 62
     7
176
     1
 90
        5
176
     1
 90
        0
176
     1
 90
        0
176
     1
290
     0
176
     1
 90
        1
176
     1
 40
0.0
176
     1
 90
        0
176
     1
290
     0
176
     1
290
     1
176
     1
290
     1
176
     1
290
     0
176
     1
290
     0
176
     1
290
     0
176
     1
290
     0
176
     1
290
     0
176
     1
290
     0
176
     1
 90
       50
176
     1
 40
0.0
176
     1
 40
1.0
176
     1
 90
        0
176
     1
 62
    18
420
        0
176
     1
 90
       50
176
     1
 90
        3
176
     1
 62
     5
420
      255
176
     1
290
     0
176
     1
 90
       50
176
     1
 90
       50
176
     1
 90
       50
176
     1
290
     0
176
     1
 90
       50
176
     1
 62
   256
176
     0
 40
1.0
176
     0
 90
        2
176
     1
  1
strokes_ogs.tif
176
     1
290
     0
176
     1
 40
1.0
176
     1
 40
1.0
176
     1
  0
VISUALSTYLE
  5
2B
102
{ACAD_REACTORS
330
2A
102
}
330
2A
100
AcDbVisualStyle
  2
Flat
 70
     0
177
     3
291
     1
 70
    58
 90
        2
176
     1
 90
        1
176
     1
 90
        1
176
     1
 90
        2
176
     1
 40
0.6
176
     1
 40
30.0
176
     1
 62
     7
420
 16777215
176
     1
 90
        0
176
     1
 90
        0
176
     1
 62
     7
176
     1
 62
   257
176
     1
 90
        1
176
     1
 90
        1
176
     1
 40
1.0
176
     1
 90
        8
176
     1
 62
     7
176
     1
 40
1.0
176
     1
 90
        1
176
     1
 90
        6
176
     1
 90
        2
176
     1
 62
     7
176
     1
 90
        5
176
     1
 90
        0
176
     1
 90
        0
176
     1
290
     0
176
     1
 90
       13
176
     1
 40
0.0
176
     1
 90
        0
176
     1
290
     0
176
     1
290
     1
176
     1
290
     1
176
     1
290
     0
176
     1
290
     0
176
     1
290
     0
176
     1
290
     0
176
     1
290
     0
176
     1
290
     0
176
     1
 90
       50
176
     1
 40
0.0
176
     1
 40
1.0
176
     1
 90
        0
176
     1
 62
    18
420
        0
176
     1
 90
       50
176
     1
 90
        3
176
     1
 62
     5
420
      255
176
     1
290
     0
176
     1
 90
       50
176
     1
 90
       50
176
     1
 90
       50
176
     1
290
     0
176
     1
 90
       50
176
     1
 62
   256
176
     0
 40
1.0
176
     0
 90
        2
176
     1
  1
strokes_ogs.tif
176
     1
290
     0
176
     1
 40
1.0
176
     1
 40
1.0
176
     1
  0
VISUALSTYLE
  5
2C
102
{ACAD_REACTORS
330
2A
102
}
330
2A
100
AcDbVisualStyle
  2
FlatWithEdges
 70
     1
177
     3
291
     1
 70
    58
 90
        2
176
     1
 90
        1
176
     1
 90
        1
176
     1
 90
        2
176
     1
 40
0.6
176
     1
 40
30.0
176
     1
 62
     7
420
 16777215
176
     1
 90
        1
176
     1
 90
        0
176
     1
 62
     7
176
     1
 62
   257
176
     1
 90
        1
176
     1
 90
        1
176
     1
 40
1.0
176
     1
 90
        0
176
     1
 62
   257
176
     1
 40
1.0
176
     1
 90
        1
176
     1
 90
        6
176
     1
 90
        2
176
     1
 62
     7
176
     1
 90
        5
176
     1
 90
        0
176
     1
 90
        0
176
     1
290
     0
176
     1
 90
       13
176
     1
 40
0.0
176
     1
 90
        0
176
     1
290
     0
176
     1
290
     1
176
     1
290
     1
176
     1
290
     0
176
     1
290
     0
176
     1
290
     0
176
     1
290
     0
176
     1
290
     0
176
     1
290
     0
176
     1
 90
       50
176
     1
 40
0.0
176
     1
 40
1.0
176
     1
 90
        0
176
     1
 62
    18
420
        0
176
     1
 90
       50
176
     1
 90
        3
176
     1
 62
     5
420
      255
176
     1
290
     0
176
     1
 90
       50
176
     1
 90
       50
176
     1
 90
       50
176
     1
290
     0
176
     1
 90
       50
176
     1
 62
   256
176
     0
 40
1.0
176
     0
 90
        2
176
     1
  1
strokes_ogs.tif
176
     1
290
     0
176
     1
 40
1.0
176
     1
 40
1.0
176
     1
  0
VISUALSTYLE
  5
2D
102
{ACAD_REACTORS
330
2A
102
}
330
2A
100
AcDbVisualStyle
  2
Gouraud
 70
     2
177
     3
291
     1
 70
    58
 90
        2
176
     1
 90
        2
176
     1
 90
        1
176
     1
 90
        2
176
     1
 40
0.6
176
     1
 40
30.0
176
     1
 62
     7
420
 16777215
176
     1
 90
        0
176
     1
 90
        0
176
     1
 62
     7
176
     1
 62
   257
176
     1
 90
        1
176
     1
 90
        1
176
     1
 40
1.0
176
     1
 90
        0
176
     1
 62
     7
176
     1
 40
1.0
176
     1
 90
        1
176
     1
 90
        6
176
     1
 90
        2
176
     1
 62
     7
176
     1
 90
        5
176
     1
 90
        0
176
     1
 90
        0
176
     1
290
     0
176
     1
 90
       13
176
     1
 40
0.0
176
     1
 90
        0
176
     1
290
     0
176
     1
290
     1
176
     1
290
     1
176
     1
290
     0
176
     1
290
     0
176
     1
290
     0
176
     1
290
     0
176
     1
290
     0
176
     1
290
     0
176
     1
 90
       50
176
     1
 40
0.0
176
     1
 40
1.0
176
     1
 90
        0
176
     1
 62
    18
420
        0
176
     1
 90
       50
176
     1
 90
        3
176
     1
 62
     5
420
      255
176
     1
290
     0
176
     1
 90
       50
176
     1
 90
       50
176
     1
 90
       50
176
     1
290
     0
176
     1
 90
       50
176
     1
 62
   256
176
     0
 40
1.0
176
     0
 90
        2
176
     1
  1
strokes_ogs.tif
176
     1
290
     0
176
     1
 40
1.0
176
     1
 40
1.0
176
     1
  0
VISUALSTYLE
  5
2E
102
{ACAD_REACTORS
330
2A
102
}
330
2A
100
AcDbVisualStyle
  2
GouraudWithEdges
 70
     3
177
     3
291
     1
 70
    58
 90
        2
176
     1
 90
        2
176
     1
 90
        1
176
     1
 90
        2
176
     1
 40
0.6
176
     1
 40
30.0
176
     1
 62
     7
420
 16777215
176
     1
 90
        1
176
     1
 90
        0
176
     1
 62
     7
176
     1
 62
   257
176
     1
 90
        1
176
     1
 90
        1
176
     1
 40
1.0
176
     1
 90
        0
176
     1
 62
   257
176
     1
 40
1.0
176
     1
 90
        1
176
     1
 90
        6
176
     1
 90
        2
176
     1
 62
     7
176
     1
 90
        5
176
     1
 90
        0
176
     1
 90
        0
176
     1
290
     0
176
     1
 90
       13
176
     1
 40
0.0
176
     1
 90
        0
176
     1
290
     0
176
     1
290
     1
176
     1
290
     1
176
     1
290
     0
176
     1
290
     0
176
     1
290
     0
176
     1
290
     0
176
     1
290
     0
176
     1
290
     0
176
     1
 90
       50
176
     1
 40
0.0
176
     1
 40
1.0
176
     1
 90
        0
176
     1
 62
    18
420
        0
176
     1
 90
       50
176
     1
 90
        3
176
     1
 62
     5
420
      255
176
     1
290
     0
176
     1
 90
       50
176
     1
 90
       50
176
     1
 90
       50
176
     1
290
     0
176
     1
 90
       50
176
     1
 62
   256
176
     0
 40
1.0
176
     0
 90
        2
176
     1
  1
strokes_ogs.tif
176
     1
290
     0
176
     1
 40
1.0
176
     1
 40
1.0
176
     1
  0
VISUALSTYLE
  5
31
102
{ACAD_REACTORS
330
2A
102
}
330
2A
100
AcDbVisualStyle
  2
Hidden
 70
     6
177
     3
291
     0
 70
    58
 90
        1
176
     1
 90
        2
176
     1
 90
        2
176
     1
 90
        0
176
     1
 40
0.6
176
     1
 40
30.0
176
     1
 62
     7
420
 16777215
176
     1
 90
        2
176
     1
 90
        2
176
     1
 62
     7
176
     1
 62
   257
176
     1
 90
        2
176
     1
 90
        1
176
     1
 40
40.0
176
     1
 90
        0
176
     1
 62
   257
176
     1
 40
1.0
176
     1
 90
        1
176
     1
 90
        6
176
     1
 90
        2
176
     1
 62
     7
176
     1
 90
        3
176
     1
 90
        0
176
     1
 90
        0
176
     1
290
     0
176
     1
 90
        1
176
     1
 40
0.0
176
     1
 90
        0
176
     1
290
     0
176
     1
290
     1
176
     1
290
     1
176
     1
290
     0
176
     1
290
     0
176
     1
290
     0
176
     1
290
     0
176
     1
290
     0
176
     1
290
     0
176
     1
 90
       50
176
     1
 40
0.0
176
     1
 40
1.0
176
     1
 90
        0
176
     1
 62
    18
420
        0
176
     1
 90
       50
176
     1
 90
        3
176
     1
 62
     5
420
      255
176
     1
290
     0
176
     1
 90
       50
176
     1
 90
       50
176
     1
 90
       50
176
     1
290
     0
176
     1
 90
       50
176
     1
 62
   256
176
     0
 40
1.0
176
     0
 90
        2
176
     1
  1
strokes_ogs.tif
176
     1
290
     0
176
     1
 40
1.0
176
     1
 40
1.0
176
     1
  0
VISUALSTYLE
  5
3B
102
{ACAD_REACTORS
330
2A
102
}
330
2A
100
AcDbVisualStyle
  2
JitterOff
 70
    20
177
     3
291
     1
 70
    58
 90
        2
176
     0
 90
        2
176
     0
 90
        0
176
     0
 90
        0
176
     0
 40
0.6
176
     0
 40
30.0
176
     0
 62
     7
420
 16777215
176
     0
 90
        1
176
     0
 90
        4
176
     0
 62
     7
176
     0
 62
   257
176
     0
 90
        1
176
     0
 90
        1
176
     0
 40
1.0
176
     0
 90
       10
176
     2
 62
     7
176
     0
 40
1.0
176
     0
 90
        1
176
     0
 90
        6
176
     0
 90
        2
176
     0
 62
     7
176
     0
 90
        5
176
     0
 90
        0
176
     0
 90
        0
176
     0
290
     0
176
     0
 90
        1
176
     0
 40
0.0
176
     0
 90
        0
176
     0
290
     0
176
     0
290
     1
176
     0
290
     1
176
     0
290
     0
176
     0
290
     0
176
     0
290
     0
176
     0
290
     0
176
     0
290
     0
176
     0
290
     0
176
     0
 90
       50
176
     0
 40
0.0
176
     0
 40
1.0
176
     0
 90
        0
176
     0
 62
    18
420
        0
176
     0
 90
       50
176
     0
 90
        3
176
     0
 62
     5
420
      255
176
     0
290
     0
176
     0
 90
       50
176
     0
 90
       50
176
     0
 90
       50
176
     0
290
     0
176
     0
 90
       50
176
     0
 62
   256
176
     0
 40
1.0
176
     0
 90
        2
176
     0
  1
strokes_ogs.tif
176
     0
290
     0
176
     0
 40
1.0
176
     0
 40
1.0
176
     0
  0
VISUALSTYLE
  5
38
102
{ACAD_REACTORS
330
2A
102
}
330
2A
100
AcDbVisualStyle
  2
Linepattern
 70
    14
177
     3
291
     1
 70
    58
 90
        2
176
     1
 90
        2
176
     1
 90
        0
176
     1
 90
        0
176
     1
 40
0.6
176
     1
 40
30.0
176
     1
 62
     7
420
 16777215
176
     1
 90
        1
176
     1
 90
        4
176
     1
 62
     7
176
     1
 62
   257
176
     1
 90
        7
176
     1
 90
        7
176
     1
 40
1.0
176
     1
 90
        8
176
     1
 62
     7
176
     1
 40
1.0
176
     1
 90
        1
176
     1
 90
        6
176
     1
 90
        2
176
     1
 62
     7
176
     1
 90
        5
176
     1
 90
        0
176
     1
 90
        0
176
     1
290
     0
176
     1
 90
        1
176
     1
 40
0.0
176
     1
 90
        0
176
     1
290
     0
176
     1
290
     1
176
     1
290
     1
176
     1
290
     0
176
     1
290
     0
176
     1
290
     0
176
     1
290
     0
176
     1
290
     0
176
     1
290
     0
176
     1
 90
       50
176
     1
 40
0.0
176
     1
 40
1.0
176
     1
 90
        0
176
     1
 62
    18
420
        0
176
     1
 90
       50
176
     1
 90
        3
176
     1
 62
     5
420
      255
176
     1
290
     0
176
     1
 90
       50
176
     1
 90
       50
176
     1
 90
       50
176
     1
290
     0
176
     1
 90
       50
176
     1
 62
   256
176
     0
 40
1.0
176
     0
 90
        2
176
     1
  1
strokes_ogs.tif
176
     1
290
     0
176
     1
 40
1.0
176
     1
 40
1.0
176
     1
  0
VISUALSTYLE
  5
3C
102
{ACAD_REACTORS
330
2A
102
}
330
2A
100
AcDbVisualStyle
  2
OverhangOff
 70
    21
177
     3
291
     1
 70
    58
 90
        2
176
     0
 90
        2
176
     0
 90
        0
176
     0
 90
        0
176
     0
 40
0.6
176
     0
 40
30.0
176
     0
 62
     7
420
 16777215
176
     0
 90
        1
176
     0
 90
        4
176
     0
 62
     7
176
     0
 62
   257
176
     0
 90
        1
176
     0
 90
        1
176
     0
 40
1.0
176
     0
 90
        9
176
     2
 62
     7
176
     0
 40
1.0
176
     0
 90
        1
176
     0
 90
        6
176
     0
 90
        2
176
     0
 62
     7
176
     0
 90
        5
176
     0
 90
        0
176
     0
 90
        0
176
     0
290
     0
176
     0
 90
        1
176
     0
 40
0.0
176
     0
 90
        0
176
     0
290
     0
176
     0
290
     1
176
     0
290
     1
176
     0
290
     0
176
     0
290
     0
176
     0
290
     0
176
     0
290
     0
176
     0
290
     0
176
     0
290
     0
176
     0
 90
       50
176
     0
 40
0.0
176
     0
 40
1.0
176
     0
 90
        0
176
     0
 62
    18
420
        0
176
     0
 90
       50
176
     0
 90
        3
176
     0
 62
     5
420
      255
176
     0
290
     0
176
     0
 90
       50
176
     0
 90
       50
176
     0
 90
       50
176
     0
290
     0
176
     0
 90
       50
176
     0
 62
   256
176
     0
 40
1.0
176
     0
 90
        2
176
     0
  1
strokes_ogs.tif
176
     0
290
     0
176
     0
 40
1.0
176
     0
 40
1.0
176
     0
  0
VISUALSTYLE
  5
33
102
{ACAD_REACTORS
330
2A
102
}
330
2A
100
AcDbVisualStyle
  2
Realistic
 70
     8
177
     3
291
     0
 70
    58
 90
        2
176
     1
 90
        3
176
     1
 90
        0
176
     1
 90
        2
176
     1
 40
0.6
176
     1
 40
30.0
176
     1
 62
     7
420
 16777215
176
     1
 90
        0
176
     1
 90
        0
176
     1
 62
     7
176
     1
 62
   257
176
     1
 90
        1
176
     1
 90
        1
176
     1
 40
1.0
176
     1
 90
        8
176
     1
 62
   257
176
     1
 40
1.0
176
     1
 90
        1
176
     1
 90
        6
176
     1
 90
        2
176
     1
 62
     7
176
     1
 90
        3
176
     1
 90
        0
176
     1
 90
        0
176
     1
290
     0
176
     1
 90
       13
176
     1
 40
0.0
176
     1
 90
        0
176
     1
290
     0
176
     1
290
     1
176
     1
290
     1
176
     1
290
     0
176
     1
290
     0
176
     1
290
     0
176
     1
290
     0
176
     1
290
     0
176
     1
290
     0
176
     1
 90
       50
176
     1
 40
0.0
176
     1
 40
1.0
176
     1
 90
        0
176
     1
 62
    18
420
        0
176
     1
 90
       50
176
     1
 90
        3
176
     1
 62
     5
420
      255
176
     1
290
     0
176
     1
 90
       50
176
     1
 90
       50
176
     1
 90
       50
176
     1
290
     0
176
     1
 90
       50
176
     1
 62
   256
176
     0
 40
1.0
176
     0
 90
        2
176
     1
  1
strokes_ogs.tif
176
     1
290
     0
176
     1
 40
1.0
176
     1
 40
1.0
176
     1
  0
VISUALSTYLE
  5
42
102
{ACAD_REACTORS
330
2A
102
}
330
2A
100
AcDbVisualStyle
  2
Shaded
 70
    27
177
     3
291
     0
 70
    58
 90
        2
176
     1
 90
        2
176
     1
 90
        1
176
     1
 90
        2
176
     1
 40
0.6
176
     1
 40
30.0
176
     1
 62
     7
420
 16777215
176
     1
 90
        0
176
     1
 90
        4
176
     1
 62
     7
176
     1
 62
   257
176
     1
 90
        1
176
     1
 90
        1
176
     1
 40
1.0
176
     1
 90
        8
176
     1
 62
   257
176
     1
 40
1.0
176
     1
 90
        1
176
     1
 90
        6
176
     1
 90
        2
176
     1
 62
     8
420
  7895160
176
     1
 90
        3
176
     1
 90
        0
176
     1
 90
        0
176
     1
290
     0
176
     1
 90
        5
176
     1
 40
0.0
176
     1
 90
        0
176
     1
290
     0
176
     1
290
     1
176
     1
290
     1
176
     1
290
     0
176
     1
290
     0
176
     1
290
     0
176
     1
290
     0
176
     1
290
     0
176
     1
290
     0
176
     1
 90
       50
176
     1
 40
0.0
176
     1
 40
1.0
176
     1
 90
        0
176
     1
 62
    18
420
        0
176
     1
 90
       50
176
     1
 90
        3
176
     1
 62
     5
420
      255
176
     1
290
     0
176
     1
 90
       50
176
     1
 90
       50
176
     1
 90
       50
176
     1
290
     0
176
     1
 90
       50
176
     1
 62
   256
176
     0
 40
1.0
176
     0
 90
        2
176
     1
  1
strokes_ogs.tif
176
     1
290
     0
176
     1
 40
1.0
176
     1
 40
1.0
176
     1
  0
VISUALSTYLE
  5
41
102
{ACAD_REACTORS
330
2A
102
}
330
2A
100
AcDbVisualStyle
  2
Shaded with edges
 70
    26
177
     3
291
     0
 70
    58
 90
        2
176
     1
 90
        2
176
     1
 90
        1
176
     1
 90
        2
176
     1
 40
0.6
176
     1
 40
30.0
176
     1
 62
     7
420
 16777215
176
     1
 90
        1
176
     1
 90
       10
176
     1
 62
     7
176
     1
 62
   257
176
     1
 90
        2
176
     1
 90
        1
176
     1
 40
1.0
176
     1
 90
        8
176
     1
 62
   257
176
     1
 40
1.0
176
     1
 90
        1
176
     1
 90
        6
176
     1
 90
        2
176
     1
 62
     7
176
     1
 90
        3
176
     1
 90
        0
176
     1
 90
        0
176
     1
290
     0
176
     1
 90
        5
176
     1
 40
0.0
176
     1
 90
        0
176
     1
290
     0
176
     1
290
     1
176
     1
290
     1
176
     1
290
     0
176
     1
290
     0
176
     1
290
     0
176
     1
290
     0
176
     1
290
     0
176
     1
290
     0
176
     1
 90
       50
176
     1
 40
0.0
176
     1
 40
1.0
176
     1
 90
        0
176
     1
 62
    18
420
        0
176
     1
 90
       50
176
     1
 90
        3
176
     1
 62
     5
420
      255
176
     1
290
     0
176
     1
 90
       50
176
     1
 90
       50
176
     1
 90
       50
176
     1
290
     0
176
     1
 90
       50
176
     1
 62
   256
176
     0
 40
1.0
176
     0
 90
        2
176
     1
  1
strokes_ogs.tif
176
     1
290
     0
176
     1
 40
1.0
176
     1
 40
1.0
176
     1
  0
VISUALSTYLE
  5
3E
102
{ACAD_REACTORS
330
2A
102
}
330
2A
100
AcDbVisualStyle
  2
Shades of Gray
 70
    23
177
     3
291
     0
 70
    58
 90
        2
176
     1
 90
        2
176
     1
 90
        3
176
     1
 90
        0
176
     1
 40
0.6
176
     1
 40
30.0
176
     1
 62
     7
420
 16777215
176
     1
 90
        2
176
     1
 90
        2
176
     1
 62
     7
176
     1
 62
     7
176
     1
 90
        1
176
     1
 90
        1
176
     1
 40
40.0
176
     1
 90
        8
176
     1
 62
     7
176
     1
 40
1.0
176
     1
 90
        1
176
     1
 90
        6
176
     1
 90
        2
176
     1
 62
     7
176
     1
 90
        3
176
     1
 90
        0
176
     1
 90
        0
176
     1
290
     0
176
     1
 90
        1
176
     1
 40
0.0
176
     1
 90
        0
176
     1
290
     0
176
     1
290
     1
176
     1
290
     1
176
     1
290
     0
176
     1
290
     0
176
     1
290
     0
176
     1
290
     0
176
     1
290
     0
176
     1
290
     0
176
     1
 90
       50
176
     1
 40
0.0
176
     1
 40
1.0
176
     1
 90
        0
176
     1
 62
    18
420
        0
176
     1
 90
       50
176
     1
 90
        3
176
     1
 62
     5
420
      255
176
     1
290
     0
176
     1
 90
       50
176
     1
 90
       50
176
     1
 90
       50
176
     1
290
     0
176
     1
 90
       50
176
     1
 62
   256
176
     0
 40
1.0
176
     0
 90
        2
176
     1
  1
strokes_ogs.tif
176
     1
290
     0
176
     1
 40
1.0
176
     1
 40
1.0
176
     1
  0
VISUALSTYLE
  5
3F
102
{ACAD_REACTORS
330
2A
102
}
330
2A
100
AcDbVisualStyle
  2
Sketchy
 70
    24
177
     3
291
     0
 70
    58
 90
        1
176
     1
 90
        2
176
     1
 90
        2
176
     1
 90
        0
176
     1
 40
0.6
176
     1
 40
30.0
176
     1
 62
     7
420
 16777215
176
     1
 90
        2
176
     1
 90
        2
176
     1
 62
     7
176
     1
 62
     7
176
     1
 90
        1
176
     1
 90
        1
176
     1
 40
40.0
176
     1
 90
       11
176
     1
 62
     7
176
     1
 40
1.0
176
     1
 90
        1
176
     1
 90
        6
176
     1
 90
        2
176
     1
 62
     7
176
     1
 90
        6
176
     1
 90
        0
176
     1
 90
        0
176
     1
290
     0
176
     1
 90
        1
176
     1
 40
0.0
176
     1
 90
        0
176
     1
290
     0
176
     1
290
     1
176
     1
290
     1
176
     1
290
     0
176
     1
290
     0
176
     1
290
     0
176
     1
290
     0
176
     1
290
     0
176
     1
290
     0
176
     1
 90
       50
176
     1
 40
0.0
176
     1
 40
1.0
176
     1
 90
        0
176
     1
 62
    18
420
        0
176
     1
 90
       50
176
     1
 90
        3
176
     1
 62
     5
420
      255
176
     1
290
     0
176
     1
 90
       50
176
     1
 90
       50
176
     1
 90
       50
176
     1
290
     0
176
     1
 90
       50
176
     1
 62
   256
176
     0
 40
1.0
176
     0
 90
        2
176
     1
  1
strokes_ogs.tif
176
     1
290
     0
176
     1
 40
1.0
176
     1
 40
1.0
176
     1
  0
VISUALSTYLE
  5
37
102
{ACAD_REACTORS
330
2A
102
}
330
2A
100
AcDbVisualStyle
  2
Thicken
 70
    13
177
     3
291
     1
 70
    58
 90
        2
176
     1
 90
        2
176
     1
 90
        0
176
     1
 90
        0
176
     1
 40
0.6
176
     1
 40
30.0
176
     1
 62
     7
420
 16777215
176
     1
 90
        1
176
     1
 90
        4
176
     1
 62
     7
176
     1
 62
   257
176
     1
 90
        1
176
     1
 90
        1
176
     1
 40
1.0
176
     1
 90
       12
176
     1
 62
     7
176
     1
 40
1.0
176
     1
 90
        1
176
     1
 90
        6
176
     1
 90
        2
176
     1
 62
     7
176
     1
 90
        5
176
     1
 90
        0
176
     1
 90
        0
176
     1
290
     0
176
     1
 90
        1
176
     1
 40
0.0
176
     1
 90
        0
176
     1
290
     0
176
     1
290
     1
176
     1
290
     1
176
     1
290
     0
176
     1
290
     0
176
     1
290
     0
176
     1
290
     0
176
     1
290
     0
176
     1
290
     0
176
     1
 90
       50
176
     1
 40
0.0
176
     1
 40
1.0
176
     1
 90
        0
176
     1
 62
    18
420
        0
176
     1
 90
       50
176
     1
 90
        3
176
     1
 62
     5
420
      255
176
     1
290
     0
176
     1
 90
       50
176
     1
 90
       50
176
     1
 90
       50
176
     1
290
     0
176
     1
 90
       50
176
     1
 62
   256
176
     0
 40
1.0
176
     0
 90
        2
176
     1
  1
strokes_ogs.tif
176
     1
290
     0
176
     1
 40
1.0
176
     1
 40
1.0
176
     1
  0
VISUALSTYLE
  5
30
102
{ACAD_REACTORS
330
2A
102
}
330
2A
100
AcDbVisualStyle
  2
Wireframe
 70
     5
177
     3
291
     0
 70
    58
 90
        0
176
     1
 90
        2
176
     1
 90
        0
176
     1
 90
        0
176
     1
 40
0.6
176
     1
 40
30.0
176
     1
 62
     7
420
 16777215
176
     1
 90
        1
176
     1
 90
        4
176
     1
 62
     7
176
     1
 62
   257
176
     1
 90
        1
176
     1
 90
        1
176
     1
 40
1.0
176
     1
 90
        0
176
     1
 62
   257
176
     1
 40
1.0
176
     1
 90
        1
176
     1
 90
        6
176
     1
 90
        2
176
     1
 62
     7
176
     1
 90
        3
176
     1
 90
        0
176
     1
 90
        0
176
     1
290
     0
176
     1
 90
        1
176
     1
 40
0.0
176
     1
 90
        0
176
     1
290
     0
176
     1
290
     1
176
     1
290
     1
176
     1
290
     0
176
     1
290
     0
176
     1
290
     0
176
     1
290
     0
176
     1
290
     0
176
     1
290
     0
176
     1
 90
       50
176
     1
 40
0.0
176
     1
 40
1.0
176
     1
 90
        0
176
     1
 62
    18
420
        0
176
     1
 90
       50
176
     1
 90
        3
176
     1
 62
     5
420
      255
176
     1
290
     0
176
     1
 90
       50
176
     1
 90
       50
176
     1
 90
       50
176
     1
290
     0
176
     1
 90
       50
176
     1
 62
   256
176
     0
 40
1.0
176
     0
 90
        2
176
     1
  1
strokes_ogs.tif
176
     1
290
     0
176
     1
 40
1.0
176
     1
 40
1.0
176
     1
  0
VISUALSTYLE
  5
40
102
{ACAD_REACTORS
330
2A
102
}
330
2A
100
AcDbVisualStyle
  2
X-Ray
 70
    25
177
     3
291
     0
 70
    58
 90
        2
176
     1
 90
        2
176
     1
 90
        1
176
     1
 90
        1
176
     1
 40
0.5
176
     1
 40
30.0
176
     1
 62
     7
420
 16777215
176
     1
 90
        1
176
     1
 90
        0
176
     1
 62
     7
176
     1
 62
   257
176
     1
 90
        1
176
     1
 90
        1
176
     1
 40
1.0
176
     1
 90
        8
176
     1
 62
     7
176
     1
 40
1.0
176
     1
 90
        1
176
     1
 90
        6
176
     1
 90
        2
176
     1
 62
     7
176
     1
 90
        3
176
     1
 90
        0
176
     1
 90
        0
176
     1
290
     0
176
     1
 90
       13
176
     1
 40
0.0
176
     1
 90
        0
176
     1
290
     0
176
     1
290
     1
176
     1
290
     1
176
     1
290
     0
176
     1
290
     0
176
     1
290
     0
176
     1
290
     0
176
     1
290
     0
176
     1
290
     0
176
     1
 90
       50
176
     1
 40
0.0
176
     1
 40
1.0
176
     1
 90
        0
176
     1
 62
    18
420
        0
176
     1
 90
       50
176
     1
 90
        3
176
     1
 62
     5
420
      255
176
     1
290
     0
176
     1
 90
       50
176
     1
 90
       50
176
     1
 90
       50
176
     1
290
     0
176
     1
 90
       50
176
     1
 62
   256
176
     0
 40
1.0
176
     0
 90
        2
176
     1
  1
strokes_ogs.tif
176
     1
290
     0
176
     1
 40
1.0
176
     1
 40
1.0
176
     1
  0
DICTIONARYVAR
  5
D0
102
{ACAD_REACTORS
330
CF
102
}
330
CF
100
DictionaryVariables
280
     0
  1
1:1
  0
DICTIONARYVAR
  5
D5
102
{ACAD_REACTORS
330
CF
102
}
330
CF
100
DictionaryVariables
280
     0
  1
Standard
  0
DICTIONARYVAR
  5
D4
102
{ACAD_REACTORS
330
CF
102
}
330
CF
100
DictionaryVariables
280
     0
  1
Standard
  0
DICTIONARY
  5
D1
330
6A
100
AcDbDictionary
280
     1
281
     1
  3
ACAD_ROUNDTRIP_2008_TABLESTYLE_CELLSTYLEMAP
360
D2
  0
CELLSTYLEMAP
  5
D2
102
{ACAD_REACTORS
330
D1
102
}
330
D1
100
AcDbCellStyleMap
 90
        3
300
CELLSTYLE
  1
TABLEFORMAT_BEGIN
 90
        5
170
     1
 91
        0
 92
    32768
 62
   257
 93
        1
300
CONTENTFORMAT
  1
CONTENTFORMAT_BEGIN
 90
        0
 91
        0
 92
        4
 93
        0
300

 40
0.0
140
1.0
 94
        5
 62
     0
340
11
144
0.25
309
CONTENTFORMAT_END
171
     1
301
MARGIN
  1
CELLMARGIN_BEGIN
 40
0.06
 40
0.06
 40
0.06
 40
0.06
 40
0.06
 40
0.06
309
CELLMARGIN_END
 94
        6
 95
        1
302
GRIDFORMAT
  1
GRIDFORMAT_BEGIN
 90
        0
 91
        1
 62
     0
 92
       -2
340
14
 93
        0
 40
0.045
309
GRIDFORMAT_END
 95
        2
302
GRIDFORMAT
  1
GRIDFORMAT_BEGIN
 90
        0
 91
        1
 62
     0
 92
       -2
340
14
 93
        0
 40
0.045
309
GRIDFORMAT_END
 95
        4
302
GRIDFORMAT
  1
GRIDFORMAT_BEGIN
 90
        0
 91
        1
 62
     0
 92
       -2
340
14
 93
        0
 40
0.045
309
GRIDFORMAT_END
 95
        8
302
GRIDFORMAT
  1
GRIDFORMAT_BEGIN
 90
        0
 91
        1
 62
     0
 92
       -2
340
14
 93
        0
 40
0.045
309
GRIDFORMAT_END
 95
       16
302
GRIDFORMAT
  1
GRIDFORMAT_BEGIN
 90
        0
 91
        1
 62
     0
 92
       -2
340
14
 93
        0
 40
0.045
309
GRIDFORMAT_END
 95
       32
302
GRIDFORMAT
  1
GRIDFORMAT_BEGIN
 90
        0
 91
        1
 62
     0
 92
       -2
340
14
 93
        0
 40
0.045
309
GRIDFORMAT_END
309
TABLEFORMAT_END
  1
CELLSTYLE_BEGIN
 90
        1
 91
        1
300
_TITLE
309
CELLSTYLE_END
300
CELLSTYLE
  1
TABLEFORMAT_BEGIN
 90
        5
170
     1
 91
        0
 92
        0
 62
   257
 93
        1
300
CONTENTFORMAT
  1
CONTENTFORMAT_BEGIN
 90
        0
 91
        0
 92
        4
 93
        0
300

 40
0.0
140
1.0
 94
        5
 62
     0
340
11
144
0.18
309
CONTENTFORMAT_END
171
     1
301
MARGIN
  1
CELLMARGIN_BEGIN
 40
0.06
 40
0.06
 40
0.06
 40
0.06
 40
0.06
 40
0.06
309
CELLMARGIN_END
 94
        6
 95
        1
302
GRIDFORMAT
  1
GRIDFORMAT_BEGIN
 90
        0
 91
        1
 62
     0
 92
       -2
340
14
 93
        0
 40
0.045
309
GRIDFORMAT_END
 95
        2
302
GRIDFORMAT
  1
GRIDFORMAT_BEGIN
 90
        0
 91
        1
 62
     0
 92
       -2
340
14
 93
        0
 40
0.045
309
GRIDFORMAT_END
 95
        4
302
GRIDFORMAT
  1
GRIDFORMAT_BEGIN
 90
        0
 91
        1
 62
     0
 92
       -2
340
14
 93
        0
 40
0.045
309
GRIDFORMAT_END
 95
        8
302
GRIDFORMAT
  1
GRIDFORMAT_BEGIN
 90
        0
 91
        1
 62
     0
 92
       -2
340
14
 93
        0
 40
0.045
309
GRIDFORMAT_END
 95
       16
302
GRIDFORMAT
  1
GRIDFORMAT_BEGIN
 90
        0
 91
        1
 62
     0
 92
       -2
340
14
 93
        0
 40
0.045
309
GRIDFORMAT_END
 95
       32
302
GRIDFORMAT
  1
GRIDFORMAT_BEGIN
 90
        0
 91
        1
 62
     0
 92
       -2
340
14
 93
        0
 40
0.045
309
GRIDFORMAT_END
309
TABLEFORMAT_END
  1
CELLSTYLE_BEGIN
 90
        2
 91
        1
300
_HEADER
309
CELLSTYLE_END
300
CELLSTYLE
  1
TABLEFORMAT_BEGIN
 90
        5
170
     1
 91
        0
 92
        0
 62
   257
 93
        1
300
CONTENTFORMAT
  1
CONTENTFORMAT_BEGIN
 90
        0
 91
        0
 92
        4
 93
        0
300

 40
0.0
140
1.0
 94
        2
 62
     0
340
11
144
0.18
309
CONTENTFORMAT_END
171
     1
301
MARGIN
  1
CELLMARGIN_BEGIN
 40
0.06
 40
0.06
 40
0.06
 40
0.06
 40
0.06
 40
0.06
309
CELLMARGIN_END
 94
        6
 95
        1
302
GRIDFORMAT
  1
GRIDFORMAT_BEGIN
 90
        0
 91
        1
 62
     0
 92
       -2
340
14
 93
        0
 40
0.045
309
GRIDFORMAT_END
 95
        2
302
GRIDFORMAT
  1
GRIDFORMAT_BEGIN
 90
        0
 91
        1
 62
     0
 92
       -2
340
14
 93
        0
 40
0.045
309
GRIDFORMAT_END
 95
        4
302
GRIDFORMAT
  1
GRIDFORMAT_BEGIN
 90
        0
 91
        1
 62
     0
 92
       -2
340
14
 93
        0
 40
0.045
309
GRIDFORMAT_END
 95
        8
302
GRIDFORMAT
  1
GRIDFORMAT_BEGIN
 90
        0
 91
        1
 62
     0
 92
       -2
340
14
 93
        0
 40
0.045
309
GRIDFORMAT_END
 95
       16
302
GRIDFORMAT
  1
GRIDFORMAT_BEGIN
 90
        0
 91
        1
 62
     0
 92
       -2
340
14
 93
        0
 40
0.045
309
GRIDFORMAT_END
 95
       32
302
GRIDFORMAT
  1
GRIDFORMAT_BEGIN
 90
        0
 91
        1
 62
     0
 92
       -2
340
14
 93
        0
 40
0.045
309
GRIDFORMAT_END
309
TABLEFORMAT_END
  1
CELLSTYLE_BEGIN
 90
        3
 91
        2
300
_DATA
309
CELLSTYLE_END
  0
ENDSEC
  0
EOF
