0
SECTION
2
HEADER
9
$INSUNITS
70
1
9
$ACADVER
1
AC1014
9
$HANDSEED
5
FFFF
0
ENDSEC
0
SECTION
2
TABLES
0
TABLE
2
VPORT
5
8
100
AcDbSymbolTable
0
ENDTAB
0
TABLE
2
LTYPE
5
5
100
AcDbSymbolTable
0
LTYPE
5
14
100
AcDbSymbolTableRecord
100
AcDbLinetypeTableRecord
2
BYBLOCK
70
0
0
LTYPE
5
15
100
AcDbSymbolTableRecord
100
AcDbLinetypeTableRecord
2
BYLAYER
70
0
0
ENDTAB
0
TABLE
2
LAYER
5
2
100
AcDbSymbolTable
70
2
0
LAYER
5
50
100
AcDbSymbolTableRecord
100
AcDbLayerTableRecord
2
0
70
0
6
CONTINUOUS
0
ENDTAB
0
TABLE
2
STYLE
5
3
100
AcDbSymbolTable
70
1
0
STYLE
5
11
100
AcDbSymbolTableRecord
100
AcDbTextStyleTableRecord
2
STANDARD
70
0
0
ENDTAB
0
TABLE
2
VIEW
5
6
100
AcDbSymbolTable
70
0
0
ENDTAB
0
TABLE
2
UCS
5
7
100
AcDbSymbolTable
70
0
0
ENDTAB
0
TABLE
2
APPID
5
9
100
AcDbSymbolTable
70
2
0
APPID
5
12
100
AcDbSymbolTableRecord
100
AcDbRegAppTableRecord
2
ACAD
70
0
0
ENDTAB
0
TABLE
2
DIMSTYLE
5
A
100
AcDbSymbolTable
70
1
0
ENDTAB
0
TABLE
2
BLOCK_RECORD
5
1
100
AcDbSymbolTable
70
1
0
BLOCK_RECORD
5
1F
100
AcDbSymbolTableRecord
100
AcDbBlockTableRecord
2
*MODEL_SPACE
0
BLOCK_RECORD
5
1B
100
AcDbSymbolTableRecord
100
AcDbBlockTableRecord
2
*PAPER_SPACE
0
ENDTAB
0
ENDSEC
0
SECTION
2
BLOCKS
0
BLOCK
5
20
100
AcDbEntity
100
AcDbBlockBegin
2
*MODEL_SPACE
0
ENDBLK
5
21
100
AcDbEntity
100
AcDbBlockEnd
0
BLOCK
5
1C
100
AcDbEntity
100
AcDbBlockBegin
2
*PAPER_SPACE
0
ENDBLK
5
1D
100
AcDbEntity
100
AcDbBlockEnd
0
ENDSEC
0
SECTION
2
ENTITIES
0
SPLINE
5
100
100
AcDbEntity
8
0
100
AcDbSpline
70
1064
71
3
72
23
73
19
74
0
42
0.000000001
43
0.0000000001
44
0.0000000001
40
0
40
0
40
0
40
0
40
1
40
1
40
1
40
2
40
2
40
2
40
3
40
3
40
3
40
4
40
4
40
4
40
5
40
5
40
5
40
6
40
6
40
6
40
6
10
6.0202336399152552
20
6.4253085632291453
30
0
10
6.0380300503698976
20
6.1868374260763677
30
0
10
6.0645458068653966
20
5.9292690587974608
30
0
10
6.074540729826821
20
5.6710496656597016
30
0
10
6.0853089763554449
20
5.3928514149567572
30
0
10
6.1841801660550724
20
5.1265212168503504
30
0
10
6.1678458937401235
20
4.8436435241666462
30
0
10
6.1612443644355048
20
4.7293179306007085
30
0
10
6.2107441102560754
20
4.6121572185956303
30
0
10
6.2320218174054878
20
4.4957838236458132
30
0
10
6.2718024091948852
20
4.2782132702428086
30
0
10
6.3456513088072208
20
4.0635987002165601
30
0
10
6.2892662242115875
20
3.837173797604148
30
0
10
6.2800554423276864
20
3.8001861721354118
30
0
10
6.2832849104674482
20
3.7602828664445767
30
0
10
6.2769879852792956
20
3.7223327602777587
30
0
10
6.2564586250591834
20
3.5986070724839725
30
0
10
6.3111716994041851
20
3.515152313229148
30
0
10
6.4241763838524282
20
3.4796976691319244
30
0
0
SPLINE
5
101
100
AcDbEntity
8
0
100
AcDbSpline
70
1064
71
3
72
35
73
31
74
0
42
0.000000001
43
0.0000000001
44
0.0000000001
40
6
40
6
40
6
40
6
40
7
40
7
40
7
40
8
40
8
40
8
40
9
40
9
40
9
40
10
40
10
40
10
40
11
40
11
40
11
40
12
40
12
40
12
40
13
40
13
40
13
40
14
40
14
40
14
40
15
40
15
40
15
40
16
40
16
40
16
40
16
10
6.4241763838524282
20
3.4796976691319244
30
0
10
6.5836646379756933
20
3.4296352776388694
30
0
10
6.7448952406652021
20
3.3748874238635316
30
0
10
6.9094111742305762
20
3.3541822611458154
30
0
10
7.0526932931282902
20
3.3361494814507267
30
0
10
7.1202122654227757
20
3.2664124445053826
30
0
10
7.154721851652992
20
3.1408982984722034
30
0
10
7.1649063745789183
20
3.1038563678829623
30
0
10
7.17752070065408
20
3.0673166996890164
30
0
10
7.1852176012325266
20
3.0297464972569252
30
0
10
7.2848150059377268
20
2.543590463623957
30
0
10
7.2858342682382782
20
2.0504713236458145
30
0
10
7.2850675140878876
20
1.5575785285069268
30
0
10
7.284896700421438
20
1.4478101908333152
30
0
10
7.2426230259380677
20
1.4118989939114894
30
0
10
7.1382506246429003
20
1.3916035936110924
30
0
10
6.925067619204742
20
1.3501497765203714
30
0
10
6.7111485605572474
20
1.3109933346848608
30
0
10
6.5002081746917293
20
1.2598625996874824
30
0
10
6.253819469139831
20
1.2001393960997497
30
0
10
6.0128104675919394
20
1.1216663297658866
30
0
10
5.7993149845197456
20
0.97861259968748227
30
0
10
5.6920624680888299
20
0.90674750767263312
30
0
10
5.6026778251334335
20
0.81884976952245181
30
0
10
5.5692929779550777
20
0.68733927069442724
30
0
10
5.5563536113159033
20
0.63636816538591634
30
0
10
5.5661842933327712
20
0.60369411706017961
30
0
10
5.6171786608028427
20
0.57331203545137122
30
0
10
5.7493530466111595
20
0.4945634760427402
30
0
10
5.8789546312618253
20
0.41078219604164989
30
0
10
6.004415573848088
20
0.3217522481249846
30
0
0
SPLINE
5
102
100
AcDbEntity
8
0
100
AcDbSpline
70
1064
71
3
72
17
73
13
74
0
42
0.000000001
43
0.0000000001
44
0.0000000001
40
16
40
16
40
16
40
16
40
17
40
17
40
17
40
18
40
18
40
18
40
19
40
19
40
19
40
20
40
20
40
20
40
20
10
6.004415573848088
20
0.3217522481249846
30
0
10
6.0987657528845451
20
0.25477633666664945
30
0
10
6.1690666494465569
20
0.25432437915788908
30
0
10
6.2620971025753027
20
0.3186598002083173
30
0
10
6.5106153177316033
20
0.49052313606302611
30
0
10
6.756954451587343
20
0.66681262889842774
30
0
10
7.0156394728416869
20
0.8222269660069268
30
0
10
7.1650877880085879
20
0.91201342028643284
30
0
10
7.3180014940392661
20
0.96001819843326386
30
0
10
7.5153902459536646
20
0.87371351114581575
30
0
10
7.8772769471151713
20
0.71548504942083024
30
0
10
8.2617446669334811
20
0.60918714395831552
30
0
10
8.607398200869028
20
0.41018540784720525
30
0
0
SPLINE
5
103
100
AcDbEntity
8
0
100
AcDbSpline
70
1064
71
3
72
8
73
4
74
0
42
0.000000001
43
0.0000000001
44
0.0000000001
40
20
40
20
40
20
40
20
40
21
40
21
40
21
40
21
10
8.607398200869028
20
0.41018540784720525
30
0
10
8.6275309014712427
20
0.39860229152776039
30
0
10
8.6560856059254512
20
0.38979966565970486
30
0
10
8.6775593845441588
20
0.39441121079859237
30
0
0
SPLINE
5
104
100
AcDbEntity
8
0
100
AcDbSpline
70
1064
71
3
72
11
73
7
74
0
42
0.000000001
43
0.0000000001
44
0.0000000001
40
21
40
21
40
21
40
21
40
22
40
22
40
22
40
23
40
23
40
23
40
23
10
8.6775593845441588
20
0.39441121079859237
30
0
10
8.7709970032236289
20
0.41451212225692752
30
0
10
8.8740874160360281
20
0.42160229546343253
30
0
10
8.9533323269812239
20
0.46807386270831752
30
0
10
9.0629542811719688
20
0.53235942950280757
30
0
10
9.1677310289668998
20
0.58469170124998249
30
0
10
9.2971806613996275
20
0.57069430541664945
30
0
0
SPLINE
5
105
100
AcDbEntity
8
0
100
AcDbSpline
70
1064
71
3
72
8
73
4
74
0
42
0.000000001
43
0.0000000001
44
0.0000000001
40
23
40
23
40
23
40
23
40
24
40
24
40
24
40
24
10
9.2971806613996275
20
0.57069430541664945
30
0
10
9.3007579997242793
20
0.57031453111109232
30
0
10
9.3051419345929851
20
0.57736748249998415
30
0
10
9.3114234694237155
20
0.58299628024303785
30
0
0
SPLINE
5
106
100
AcDbEntity
8
0
100
AcDbSpline
70
1064
71
3
72
14
73
10
74
0
42
0.000000001
43
0.0000000001
44
0.0000000001
40
24
40
24
40
24
40
24
40
25
40
25
40
25
40
26
40
26
40
26
40
27
40
27
40
27
40
27
10
9.3114234694237155
20
0.58299628024303785
30
0
10
9.3190727851517963
20
0.70578545124998282
30
0
10
9.26417129366944
20
0.80586507094480353
30
0
10
9.1661212267208079
20
0.86968519083331541
30
0
10
9.0518740089076406
20
0.94404792575714713
30
0
10
8.929733897530447
20
1.0116702597153135
30
0
10
8.8025034356509302
20
1.059640160451371
30
0
10
8.4869861087489387
20
1.1786001534310946
30
0
10
8.1554693203894271
20
1.2355841708680375
30
0
10
7.8221732863182476
20
1.277711992048592
30
0
0
SPLINE
5
107
100
AcDbEntity
8
0
100
AcDbSpline
70
1064
71
3
72
11
73
7
74
0
42
0.000000001
43
0.0000000001
44
0.0000000001
40
27
40
27
40
27
40
27
40
28
40
28
40
28
40
29
40
29
40
29
40
29
10
7.8221732863182476
20
1.277711992048592
30
0
10
7.7112122199662512
20
1.2917636413541496
30
0
10
7.6420026601505491
20
1.344091272529454
30
0
10
7.6184332723479784
20
1.4497226257291493
30
0
10
7.5885992049894053
20
1.5834305070256334
30
0
10
7.5523131246429003
20
1.7184943271180371
30
0
10
7.6164025818369101
20
1.8539245571527589
30
0
0
SPLINE
5
108
100
AcDbEntity
8
0
100
AcDbSpline
70
1064
71
3
72
26
73
22
74
0
42
0.000000001
43
0.0000000001
44
0.0000000001
40
29
40
29
40
29
40
29
40
30
40
30
40
30
40
31
40
31
40
31
40
32
40
32
40
32
40
33
40
33
40
33
40
34
40
34
40
34
40
35
40
35
40
35
40
36
40
36
40
36
40
36
10
7.6164025818369101
20
1.8539245571527589
30
0
10
7.6238139028411425
20
1.8695766838888701
30
0
10
7.6226653980203007
20
1.8916850789579351
30
0
10
7.6193290904225224
20
1.9096699998610918
30
0
10
7.5722302426769845
20
2.1635641707394608
30
0
10
7.5614023279735454
20
2.4203034192786763
30
0
10
7.5993676273420112
20
2.6742506205208145
30
0
10
7.6259146912260638
20
2.8518220525046023
30
0
10
7.6768263395200638
20
3.0273713812945062
30
0
10
7.7350532301659047
20
3.1976067403124797
30
0
10
7.7537814384225907
20
3.2523615661494363
30
0
10
7.8238262786316719
20
3.3101285884164908
30
0
10
7.8819546787336119
20
3.3272318488194248
30
0
10
8.132081649555392
20
3.4008273152052131
30
0
10
8.3551214048282585
20
3.5195692959481799
30
0
10
8.5536228373707637
20
3.686511905243036
30
0
10
8.6499568460063863
20
3.7675302160908446
30
0
10
8.6583507484446223
20
3.8131253999738117
30
0
10
8.6064106181324842
20
3.9283603210416471
30
0
10
8.5652244903587587
20
4.0197362986253165
30
0
10
8.4874636949825266
20
4.0618645528124802
30
0
10
8.3966777147579172
20
4.0863871222569248
30
0
0
SPLINE
5
109
100
AcDbEntity
8
0
100
AcDbSpline
70
1064
71
3
72
8
73
4
74
0
42
0.000000001
43
0.0000000001
44
0.0000000001
40
36
40
36
40
36
40
36
40
37
40
37
40
37
40
37
10
8.3966777147579172
20
4.0863871222569248
30
0
10
8.3678534383636034
20
4.0941860588888694
30
0
10
8.337993683589298
20
4.0981465623610918
30
0
10
8.3104490261999739
20
4.1035040927430364
30
0
0
SPLINE
5
110
100
AcDbEntity
8
0
100
AcDbSpline
70
1064
71
3
72
14
73
10
74
0
42
0.000000001
43
0.0000000001
44
0.0000000001
40
37
40
37
40
37
40
37
40
38
40
38
40
38
40
39
40
39
40
39
40
40
40
40
40
40
40
40
10
8.3104490261999739
20
4.1035040927430364
30
0
10
8.2778049662770137
20
4.2871249694791471
30
0
10
8.2844899247842321
20
4.3764589274092076
30
0
10
8.4058181532616061
20
4.4973707377083132
30
0
10
8.5746590384538877
20
4.6656321335706075
30
0
10
8.7582216761241671
20
4.820508077955985
30
0
10
8.9459042636945494
20
4.9678432854513686
30
0
10
9.0255217108608026
20
5.030344837941386
30
0
10
9.0501078057681159
20
5.0934265102777569
30
0
10
8.9423265015146445
20
5.1593444790277578
30
0
0
SPLINE
5
111
100
AcDbEntity
8
0
100
AcDbSpline
70
1064
71
3
72
8
73
4
74
0
42
0.000000001
43
0.0000000001
44
0.0000000001
40
40
40
40
40
40
40
40
40
41
40
41
40
41
40
41
10
8.9423265015146445
20
5.1593444790277578
30
0
10
8.9873530687618235
20
5.2218037889235909
30
0
10
9.0424029650020579
20
5.2796379903124793
30
0
10
9.0736173611609114
20
5.3482821960416462
30
0
0
SPLINE
5
112
100
AcDbEntity
8
0
100
AcDbSpline
70
1064
71
3
72
8
73
4
74
0
42
0.000000001
43
0.0000000001
44
0.0000000001
40
41
40
41
40
41
40
41
40
42
40
42
40
42
40
42
10
9.0736173611609114
20
5.3482821960416462
30
0
10
9.0929714396656856
20
5.39087117173609
30
0
10
9.0961495063432025
20
5.4797247958680346
30
0
10
9.0718681105369967
20
5.4960008375347007
30
0
0
SPLINE
5
113
100
AcDbEntity
8
0
100
AcDbSpline
70
1064
71
3
72
20
73
16
74
0
42
0.000000001
43
0.0000000001
44
0.0000000001
40
42
40
42
40
42
40
42
40
43
40
43
40
43
40
44
40
44
40
44
40
45
40
45
40
45
40
46
40
46
40
46
40
47
40
47
40
47
40
47
10
9.0718681105369967
20
5.4960008375347007
30
0
10
8.9948332662444628
20
5.5476230163541453
30
0
10
9.0174981933964098
20
5.6071521771244548
30
0
10
9.0330277106889074
20
5.6680657246874793
30
0
10
9.058788821863331
20
5.7691120509347158
30
0
10
9.0928854225696032
20
5.8680434893226634
30
0
10
9.1180696045419865
20
5.969199622256923
30
0
10
9.1310228764824437
20
6.0212284274720123
30
0
10
9.140319745973132
20
6.0766214888983967
30
0
10
9.1371536872514056
20
6.1296542663541453
30
0
10
9.1312669251922163
20
6.2282599365767366
30
0
10
9.1003023471588804
20
6.3272725158161007
30
0
10
9.10707140846994
20
6.4242099304166445
30
0
10
9.1145659595568205
20
6.5315368362561728
30
0
10
9.1630949002234114
20
6.6365851474305328
30
0
10
9.1074058302635592
20
6.7235263366666453
30
0
0
SPLINE
5
114
100
AcDbEntity
8
0
100
AcDbSpline
70
1064
71
3
72
8
73
4
74
0
42
0.000000001
43
0.0000000001
44
0.0000000001
40
47
40
47
40
47
40
47
40
48
40
48
40
48
40
48
10
9.1074058302635592
20
6.7235263366666453
30
0
10
9.2174585748110847
20
6.8056254035069221
30
0
10
9.3248376404306601
20
6.8729539625346998
30
0
10
9.4162581319671173
20
6.9575351257291445
30
0
0
SPLINE
5
115
100
AcDbEntity
8
0
100
AcDbSpline
70
1064
71
3
72
8
73
4
74
0
42
0.000000001
43
0.0000000001
44
0.0000000001
40
48
40
48
40
48
40
48
40
49
40
49
40
49
40
49
10
9.4162581319671173
20
6.9575351257291445
30
0
10
9.5081033264658164
20
7.0424824998610882
30
0
10
9.5008498915428561
20
7.0946200866666445
30
0
10
9.4146351902082195
20
7.1849792446527561
30
0
0
SPLINE
5
116
100
AcDbEntity
8
0
100
AcDbSpline
70
1064
71
3
72
8
73
4
74
0
42
0.000000001
43
0.0000000001
44
0.0000000001
40
49
40
49
40
49
40
49
40
50
40
50
40
50
40
50
10
9.4146351902082195
20
7.1849792446527561
30
0
10
9.441388085987299
20
7.2044969312846989
30
0
10
9.4681282661088293
20
7.2233771396180328
30
0
10
9.4942305440764923
20
7.243125403506923
30
0
0
SPLINE
5
117
100
AcDbEntity
8
0
100
AcDbSpline
70
1064
71
3
72
17
73
13
74
0
42
0.000000001
43
0.0000000001
44
0.0000000001
40
50
40
50
40
50
40
50
40
51
40
51
40
51
40
52
40
52
40
52
40
53
40
53
40
53
40
54
40
54
40
54
40
54
10
9.4942305440764923
20
7.243125403506923
30
0
10
9.6412803419823092
20
7.3543450215624766
30
0
10
9.7910691501452511
20
7.4622076337310288
30
0
10
9.9340850599998856
20
7.5783847351041453
30
0
10
10.025410772510504
20
7.6525719816217004
30
0
10
10.003595443840751
20
7.7619259932640263
30
0
10
9.8933720676496257
20
7.803577334930532
30
0
10
9.8172752507562198
20
7.8323328914167076
30
0
10
9.7389588941780936
20
7.8681275597962825
30
0
10
9.6568277764712409
20
7.8135192837152543
30
0
10
9.6446294332446456
20
7.8054087098761569
30
0
10
9.622400981359478
20
7.8124070875346998
30
0
10
9.5785798584482365
20
7.8124070875346998
30
0
0
SPLINE
5
118
100
AcDbEntity
8
0
100
AcDbSpline
70
1064
71
3
72
8
73
4
74
0
42
0.000000001
43
0.0000000001
44
0.0000000001
40
54
40
54
40
54
40
54
40
55
40
55
40
55
40
55
10
9.5785798584482365
20
7.8124070875346998
30
0
10
9.6197620585621699
20
7.8467224087152543
30
0
10
9.6412574537987155
20
7.868884952118032
30
0
10
9.6665760234059199
20
7.8850931769444221
30
0
0
SPLINE
5
119
100
AcDbEntity
8
0
100
AcDbSpline
70
1064
71
3
72
14
73
10
74
0
42
0.000000001
43
0.0000000001
44
0.0000000001
40
55
40
55
40
55
40
55
40
56
40
56
40
56
40
57
40
57
40
57
40
58
40
58
40
58
40
58
10
9.6665760234059199
20
7.8850931769444221
30
0
10
9.9920871080684623
20
8.0933315667013659
30
0
10
10.302223943566208
20
8.3210610985900857
30
0
10
10.573361352588863
20
8.5982957594096998
30
0
10
10.615212728253352
20
8.6410882754959211
30
0
10
10.635815247233412
20
8.7943941928576823
30
0
10
10.603207543995113
20
8.8461120571527552
30
0
10
10.556713183612183
20
8.9198550314186118
30
0
10
10.483392141434347
20
8.9021694573263659
30
0
10
10.416968089513775
20
8.8867479078471998
30
0
0
SPLINE
5
120
100
AcDbEntity
8
0
100
AcDbSpline
70
1064
71
3
72
8
73
4
74
0
42
0.000000001
43
0.0000000001
44
0.0000000001
40
58
40
58
40
58
40
58
40
59
40
59
40
59
40
59
10
10.416968089513775
20
8.8867479078471998
30
0
10
10.358440037077795
20
8.8731709764235873
30
0
10
10.302419512311085
20
8.8487704772916462
30
0
10
10.224349613493811
20
8.8219692620138659
30
0
0
SPLINE
5
121
100
AcDbEntity
8
0
100
AcDbSpline
70
1064
71
3
72
17
73
13
74
0
42
0.000000001
43
0.0000000001
44
0.0000000001
40
59
40
59
40
59
40
59
40
60
40
60
40
60
40
61
40
61
40
61
40
62
40
62
40
62
40
63
40
63
40
63
40
63
10
10.224349613493811
20
8.8219692620138659
30
0
10
10.24956942482736
20
8.8634867316319212
30
0
10
10.266638548706847
20
8.8848491896169683
30
0
10
10.276568156652447
20
8.9091274651388659
30
0
10
10.31683627638629
20
9.0075845755306485
30
0
10
10.366269541593626
20
9.1041959152671943
30
0
10
10.391154880827795
20
9.2066263800694212
30
0
10
10.429115635061521
20
9.3628765185069476
30
0
10
10.383281425195802
20
9.4324622104663725
30
0
10
10.20642943730566
20
9.3826788974305302
30
0
10
9.9863432148971203
20
9.3207252748800933
30
0
10
9.8030586860307043
20
9.1963996005555302
30
0
10
9.6286782776376914
20
9.0559237976041445
30
0
0
SPLINE
5
122
100
AcDbEntity
8
0
100
AcDbSpline
70
1064
71
3
72
8
73
4
74
0
42
0.000000001
43
0.0000000001
44
0.0000000001
40
63
40
63
40
63
40
63
40
64
40
64
40
64
40
64
10
9.6286782776376914
20
9.0559237976041445
30
0
10
9.5370026252396869
20
8.9820983852777534
30
0
10
9.4494926222557449
20
8.9030917663541462
30
0
10
9.3622640591589583
20
8.828276228159698
30
0
0
SPLINE
5
123
100
AcDbEntity
8
0
100
AcDbSpline
70
1064
71
3
72
8
73
4
74
0
42
0.000000001
43
0.0000000001
44
0.0000000001
40
64
40
64
40
64
40
64
40
65
40
65
40
65
40
65
10
9.3622640591589583
20
8.828276228159698
30
0
10
9.3381047336652525
20
8.8706617533333088
30
0
10
9.3191897692012766
20
8.9138068271180337
30
0
10
9.2907723938486271
20
8.9493699781596998
30
0
0
SPLINE
5
124
100
AcDbEntity
8
0
100
AcDbSpline
70
1064
71
3
72
8
73
4
74
0
42
0.000000001
43
0.0000000001
44
0.0000000001
40
65
40
65
40
65
40
65
40
66
40
66
40
66
40
66
10
9.2907723938486271
20
8.9493699781596998
30
0
10
9.2770882270463275
20
8.9664869486458105
30
0
10
9.2418527161142521
20
8.9820712585416445
30
0
10
9.2225749315547905
20
8.9765780944791445
30
0
0
SPLINE
5
125
100
AcDbEntity
8
0
100
AcDbSpline
70
1064
71
3
72
17
73
13
74
0
42
0.000000001
43
0.0000000001
44
0.0000000001
40
66
40
66
40
66
40
66
40
67
40
67
40
67
40
68
40
68
40
68
40
69
40
69
40
69
40
70
40
70
40
70
40
70
10
9.2225749315547905
20
8.9765780944791445
30
0
10
9.0608737291622141
20
8.930530459930532
30
0
10
8.9116094367842447
20
8.8553356434562271
30
0
10
8.8129306986988887
20
8.7163784417013659
30
0
10
8.5942016147647387
20
8.4083690160072138
30
0
10
8.4078362842908234
20
8.0808240123049409
30
0
10
8.2549294983408164
20
7.7347568054166445
30
0
10
8.0924022375550884
20
7.3669160007468468
30
0
10
7.9800149745615716
20
6.9862892874666196
30
0
10
7.9634145718542717
20
6.5818027038541453
30
0
10
7.9618971438571835
20
6.5448289462144897
30
0
10
7.9750184570810516
20
6.5072448696527552
30
0
10
7.981341953581703
20
6.4699456074999775
30
0
0
SPLINE
5
126
100
AcDbEntity
8
0
100
AcDbSpline
70
1064
71
3
72
11
73
7
74
0
42
0.000000001
43
0.0000000001
44
0.0000000001
40
70
40
70
40
70
40
70
40
71
40
71
40
71
40
72
40
72
40
72
40
72
10
7.981341953581703
20
6.4699456074999775
30
0
10
7.97816515846994
20
6.4365254686110882
30
0
10
7.9790925226443505
20
6.4044210090723332
30
0
10
7.9817501261891239
20
6.3724521179166445
30
0
10
7.9828438343660624
20
6.3592956643389966
30
0
10
7.9938944268618668
20
6.3439012281596998
30
0
10
7.9897910841698101
20
6.3338778991666453
30
0
0
SPLINE
5
127
100
AcDbEntity
8
0
100
AcDbSpline
70
1064
71
3
72
20
73
16
74
0
42
0.000000001
43
0.0000000001
44
0.0000000001
40
72
40
72
40
72
40
72
40
73
40
73
40
73
40
74
40
74
40
74
40
75
40
75
40
75
40
76
40
76
40
76
40
77
40
77
40
77
40
77
10
7.9897910841698101
20
6.3338778991666453
30
0
10
7.9599720194996717
20
6.2609883592360891
30
0
10
7.9700605836884231
20
6.1866614285578914
30
0
10
7.984309364199107
20
6.1143005337152569
30
0
10
8.0028793506077864
20
6.0199948608374898
30
0
10
8.0326432562094094
20
5.927966800871336
30
0
10
8.0524830905988463
20
5.8338778991666453
30
0
10
8.0880959745787067
20
5.6649865125537868
30
0
10
8.1434945352963375
20
5.4992152560027359
30
0
10
8.1219093092674672
20
5.32153523423609
30
0
10
8.0927148463482954
20
5.0812193440987699
30
0
10
8.0723488298954944
20
4.8398051366116759
30
0
10
8.0416217997731092
20
4.5997063496874793
30
0
10
8.022550635401462
20
4.4506856531663237
30
0
10
7.9913042474185074
20
4.3032246873610918
30
0
10
7.9664031752342641
20
4.1601040276388686
30
0
0
SPLINE
5
128
100
AcDbEntity
8
0
100
AcDbSpline
70
1064
71
3
72
8
73
4
74
0
42
0.000000001
43
0.0000000001
44
0.0000000001
40
77
40
77
40
77
40
77
40
78
40
78
40
78
40
78
10
7.9664031752342641
20
4.1601040276388686
30
0
10
7.948900496469073
20
4.1556959330208132
30
0
10
7.943320018224715
20
4.1524135979513694
30
0
10
7.9387021152570494
20
4.1534444139235918
30
0
0
SPLINE
5
129
100
AcDbEntity
8
0
100
AcDbSpline
70
1064
71
3
72
8
73
4
74
0
42
0.000000001
43
0.0000000001
44
0.0000000001
40
78
40
78
40
78
40
78
40
79
40
79
40
79
40
79
10
7.9387021152570494
20
4.1534444139235918
30
0
10
7.9012061842674663
20
4.1617858852777578
30
0
10
7.8639853353362597
20
4.1713751864930355
30
0
10
7.8265046631357391
20
4.1797844746874802
30
0
0
SPLINE
5
130
100
AcDbEntity
8
0
100
AcDbSpline
70
1064
71
3
72
11
73
7
74
0
42
0.000000001
43
0.0000000001
44
0.0000000001
40
79
40
79
40
79
40
79
40
80
40
80
40
80
40
81
40
81
40
81
40
81
10
7.8265046631357391
20
4.1797844746874802
30
0
10
7.5062288266150148
20
4.2517381422222025
30
0
10
7.1978458927803306
20
4.3787400645789658
30
0
10
6.8577794586679675
20
4.3555521613194248
30
0
10
6.6295690471838808
20
4.339991316691739
30
0
10
6.6185288517072456
20
4.3600009460416471
30
0
10
6.5450028931162079
20
4.5805684373610909
30
0
0
SPLINE
5
131
100
AcDbEntity
8
0
100
AcDbSpline
70
1064
71
3
72
14
73
10
74
0
42
0.000000001
43
0.0000000001
44
0.0000000001
40
81
40
81
40
81
40
81
40
82
40
82
40
82
40
83
40
83
40
83
40
84
40
84
40
84
40
84
10
6.5450028931162079
20
4.5805684373610909
30
0
10
6.5423946998246505
20
4.5883809373610909
30
0
10
6.5398042455109291
20
4.5962341116616408
30
0
10
6.5377984134748228
20
4.6042229512499793
30
0
10
6.4261499531606425
20
5.0488970932917434
30
0
10
6.3508161526648212
20
5.4984286804166462
30
0
10
6.3699235474130838
20
5.9589050259027569
30
0
10
6.3767274838415791
20
6.1228725823263677
30
0
10
6.3959126560285355
20
6.2863247307638668
30
0
10
6.4095099325042293
20
6.4507805684374775
30
0
0
SPLINE
5
132
100
AcDbEntity
8
0
100
AcDbSpline
70
1064
71
3
72
8
73
4
74
0
42
0.000000001
43
0.0000000001
44
0.0000000001
40
84
40
84
40
84
40
84
40
85
40
85
40
85
40
85
10
6.4095099325042293
20
6.4507805684374775
30
0
10
6.4426149350134541
20
6.4529100172221998
30
0
10
6.4672271498436391
20
6.4539679599305328
30
0
10
6.491737639413409
20
6.4561652255555328
30
0
0
SPLINE
5
133
100
AcDbEntity
8
0
100
AcDbSpline
70
1064
71
3
72
14
73
10
74
0
42
0.000000001
43
0.0000000001
44
0.0000000001
40
85
40
85
40
85
40
85
40
86
40
86
40
86
40
87
40
87
40
87
40
88
40
88
40
88
40
88
10
6.491737639413409
20
6.4561652255555328
30
0
10
6.7640086897606322
20
6.4805114712152569
30
0
10
6.9661869438002144
20
6.6011168849553199
30
0
10
7.0661973511240213
20
6.8677727559374766
30
0
10
7.0884478771234196
20
6.9270989155737501
30
0
10
7.0783235531022468
20
6.9713141128624496
30
0
10
7.0406827484628884
20
7.0193569573263668
30
0
10
6.9541628059066962
20
7.1297866939666914
30
0
10
6.8474452318477628
20
7.2041307203471998
30
0
10
6.6969020189571387
20
7.2159308505555328
30
0
0
SPLINE
5
134
100
AcDbEntity
8
0
100
AcDbSpline
70
1064
71
3
72
8
73
4
74
0
42
0.000000001
43
0.0000000001
44
0.0000000001
40
88
40
88
40
88
40
88
40
89
40
89
40
89
40
89
10
6.6969020189571387
20
7.2159308505555328
30
0
10
6.7412898363399494
20
7.4578199564583096
30
0
10
6.5952591983869331
20
7.6093092142708088
30
0
10
6.4747090427472838
20
7.7562818705208105
30
0
0
SPLINE
5
135
100
AcDbEntity
8
0
100
AcDbSpline
70
1064
71
3
72
11
73
7
74
0
42
0.000000001
43
0.0000000001
44
0.0000000001
40
89
40
89
40
89
40
89
40
90
40
90
40
90
40
91
40
91
40
91
40
91
10
6.4747090427472838
20
7.7562818705208105
30
0
10
6.5954219588035992
20
7.925647647430532
30
0
10
6.7227722529285279
20
8.0909085875473004
30
0
10
6.8346774400997159
20
8.2660610588888659
30
0
10
6.909620122962405
20
8.3833603230622664
30
0
10
6.8760927606021029
20
8.4669209764235873
30
0
10
6.7512366594600675
20
8.5342495354513659
30
0
0
SPLINE
5
136
100
AcDbEntity
8
0
100
AcDbSpline
70
1064
71
3
72
14
73
10
74
0
42
0.000000001
43
0.0000000001
44
0.0000000001
40
91
40
91
40
91
40
91
40
92
40
92
40
92
40
93
40
93
40
93
40
94
40
94
40
94
40
94
10
6.7512366594600675
20
8.5342495354513659
30
0
10
6.8051898302364346
20
8.646350772430532
30
0
10
6.8602745822193159
20
8.7626690449159454
30
0
10
6.8123129296694866
20
8.8886874694791445
30
0
10
6.7938895140892654
20
8.937094679887096
30
0
10
6.7497882195826939
20
8.9846194062083793
30
0
10
6.7046791270436179
20
9.0095099521180302
30
0
10
6.6870067364458556
20
9.0192613220691307
30
0
10
6.6344829753102195
20
8.9658494703471998
30
0
10
6.5940562971825072
20
8.9386684807638677
30
0
0
SPLINE
5
137
100
AcDbEntity
8
0
100
AcDbSpline
70
1064
71
3
72
14
73
10
74
0
42
0.000000001
43
0.0000000001
44
0.0000000001
40
94
40
94
40
94
40
94
40
95
40
95
40
95
40
96
40
96
40
96
40
97
40
97
40
97
40
97
10
6.5940562971825072
20
8.9386684807638677
30
0
10
6.5851680525536
20
8.9528964538541462
30
0
10
6.5713737151904201
20
8.9801178266528066
30
0
10
6.5529209330738905
20
9.0036912672221998
30
0
10
6.4277574207624051
20
9.1635877316305798
30
0
10
6.3031835549489985
20
9.3240375037514927
30
0
10
6.174034604270723
20
9.4806742316319195
30
0
10
6.1553483610500477
20
9.5033376135571501
30
0
10
6.1028159017425105
20
9.524931501597198
30
0
10
6.0842162855858275
20
9.5144877081944195
30
0
0
SPLINE
5
138
100
AcDbEntity
8
0
100
AcDbSpline
70
1064
71
3
72
8
73
4
74
0
42
0.000000001
43
0.0000000001
44
0.0000000001
40
97
40
97
40
97
40
97
40
98
40
98
40
98
40
98
10
6.0842162855858275
20
9.5144877081944195
30
0
10
6.0568966953351762
20
9.499133975555532
30
0
10
6.0413602810827882
20
9.456083845347198
30
0
10
6.0296120731427933
20
9.4218092142708088
30
0
0
SPLINE
5
139
100
AcDbEntity
8
0
100
AcDbSpline
70
1064
71
3
72
8
73
4
74
0
42
0.000000001
43
0.0000000001
44
0.0000000001
40
98
40
98
40
98
40
98
40
99
40
99
40
99
40
99
10
6.0296120731427933
20
9.4218092142708088
30
0
10
6.0197911350324427
20
9.3931769443055302
30
0
10
6.0226082889631058
20
9.3602043965624748
30
0
10
6.0192305864620197
20
9.3224575432638659
30
0
0
SPLINE
5
140
100
AcDbEntity
8
0
100
AcDbSpline
70
1064
71
3
72
11
73
7
74
0
42
0.000000001
43
0.0000000001
44
0.0000000001
40
99
40
99
40
99
40
99
40
100
40
100
40
100
40
101
40
101
40
101
40
101
10
6.0192305864620197
20
9.3224575432638659
30
0
10
5.9748332323360431
20
9.342029483368032
30
0
10
5.9410290592594395
20
9.3607190717768791
30
0
10
5.9049369581932494
20
9.3722079772916427
30
0
10
5.7429053730867903
20
9.4237861763075816
30
0
10
5.5811314670636936
20
9.4766594746874748
30
0
10
5.4171995144812266
20
9.5215406595833088
30
0
0
SPLINE
5
141
100
AcDbEntity
8
0
100
AcDbSpline
70
1064
71
3
72
14
73
10
74
0
42
0.000000001
43
0.0000000001
44
0.0000000001
40
101
40
101
40
101
40
101
40
102
40
102
40
102
40
103
40
103
40
103
40
104
40
104
40
104
40
104
10
5.4171995144812266
20
9.5215406595833088
30
0
10
5.3709126136430108
20
9.5341952819791445
30
0
10
5.3065532652691543
20
9.5454787906789154
30
0
10
5.2819011034297958
20
9.4787753601041427
30
0
10
5.2581353140929803
20
9.4144702622627019
30
0
10
5.2527279849047757
20
9.3496949687362907
30
0
10
5.3173515089745003
20
9.2997660285069195
30
0
10
5.4262241142276944
20
9.2156496965898054
30
0
10
5.5341543179480244
20
9.1303324347569212
30
0
10
5.6424073730966784
20
9.0454257507291427
30
0
0
SPLINE
5
142
100
AcDbEntity
8
0
100
AcDbSpline
70
1064
71
3
72
8
73
4
74
0
42
0.000000001
43
0.0000000001
44
0.0000000001
40
104
40
104
40
104
40
104
40
105
40
105
40
105
40
105
10
5.6424073730966784
20
9.0454257507291427
30
0
10
5.6638090963225896
20
9.0286343010763659
30
0
10
5.6848751261891248
20
9.0114088236458088
30
0
10
5.7060962870777976
20
8.9944003601041427
30
0
0
SPLINE
5
143
100
AcDbEntity
8
0
100
AcDbSpline
70
1064
71
3
72
14
73
10
74
0
42
0.000000001
43
0.0000000001
44
0.0000000001
40
105
40
105
40
105
40
105
40
106
40
106
40
106
40
107
40
107
40
107
40
108
40
108
40
108
40
108
10
5.7060962870777976
20
8.9944003601041427
30
0
10
5.3899117133744552
20
9.0793612976041445
30
0
10
5.1604427243031017
20
8.9456723915621268
30
0
10
4.9775406077565085
20
8.7160664842360873
30
0
10
4.8878170768321629
20
8.603432179530639
30
0
10
4.8241868621970356
20
8.4692390122307888
30
0
10
4.7545526910220266
20
8.3416225823263677
30
0
10
4.7133589728701777
20
8.2661281066067414
30
0
10
4.7310613614050565
20
8.203357608368032
30
0
10
4.7955144864050565
20
8.1564961717360891
30
0
0
SPLINE
5
144
100
AcDbEntity
8
0
100
AcDbSpline
70
1064
71
3
72
14
73
10
74
0
42
0.000000001
43
0.0000000001
44
0.0000000001
40
108
40
108
40
108
40
108
40
109
40
109
40
109
40
110
40
110
40
110
40
111
40
111
40
111
40
111
10
4.7955144864050565
20
8.1564961717360891
30
0
10
4.8586812107160364
20
8.110584170868032
30
0
10
4.9058070338691175
20
8.1455777814168595
30
0
10
4.9559598056867387
20
8.1866882290277552
30
0
10
5.1267549086853146
20
8.3266897260447923
30
0
10
5.3034861371622801
20
8.4583234053575147
30
0
10
5.5190553223154284
20
8.5231411370138659
30
0
10
5.572273780032158
20
8.539142958930098
30
0
10
5.628242130583657
20
8.546008975555532
30
0
10
5.6829461609384753
20
8.5570631205208105
30
0
0
SPLINE
5
145
100
AcDbEntity
8
0
100
AcDbSpline
70
1064
71
3
72
8
73
4
74
0
42
0.000000001
43
0.0000000001
44
0.0000000001
40
111
40
111
40
111
40
111
40
112
40
112
40
112
40
112
10
5.6829461609384753
20
8.5570631205208105
30
0
10
5.6886245497459837
20
8.5481926778124766
30
0
10
5.6943025146982409
20
8.5393493618402552
30
0
10
5.6999809035057494
20
8.5304924824999784
30
0
0
SPLINE
5
146
100
AcDbEntity
8
0
100
AcDbSpline
70
1064
71
3
72
8
73
4
74
0
42
0.000000001
43
0.0000000001
44
0.0000000001
40
112
40
112
40
112
40
112
40
113
40
113
40
113
40
113
10
5.6999809035057494
20
8.5304924824999784
30
0
10
5.6849740963904063
20
8.5110426127083105
30
0
10
5.6740104445213744
20
8.4816101040277552
30
0
10
5.6543454681894527
20
8.4736348436110873
30
0
0
SPLINE
5
147
100
AcDbEntity
8
0
100
AcDbSpline
70
1064
71
3
72
17
73
13
74
0
42
0.000000001
43
0.0000000001
44
0.0000000001
40
113
40
113
40
113
40
113
40
114
40
114
40
114
40
115
40
115
40
115
40
116
40
116
40
116
40
117
40
117
40
117
40
117
10
5.6543454681894527
20
8.4736348436110873
30
0
10
5.4151984938377806
20
8.3765618184374766
30
0
10
5.2925033827527725
20
8.1877596828463233
30
0
10
5.3072662971146913
20
7.9381259460416453
30
0
10
5.3110506741383761
20
7.8741339621595818
30
0
10
5.3382681169600597
20
7.8363909521699471
30
0
10
5.4034115031422507
20
7.8438198479513668
30
0
10
5.447321553184902
20
7.8488273123255938
30
0
10
5.4947322840810031
20
7.8590659418307336
30
0
10
5.5316972290537096
20
7.8815667012499766
30
0
10
5.608685620170891
20
7.928429946085898
30
0
10
5.6797829291947686
20
7.9849738193055328
30
0
10
5.7709766581715476
20
8.0501729295485873
30
0
0
SPLINE
5
148
100
AcDbEntity
8
0
100
AcDbSpline
70
1064
71
3
72
8
73
4
74
0
42
0.000000001
43
0.0000000001
44
0.0000000001
40
117
40
117
40
117
40
117
40
118
40
118
40
118
40
118
10
5.7709766581715476
20
8.0501729295485873
30
0
10
5.7589065321678587
20
8.0052781812846998
30
0
10
5.7529547567229793
20
7.9798875562846998
30
0
10
5.7452427104176422
20
7.9550665927430328
30
0
0
SPLINE
5
149
100
AcDbEntity
8
0
100
AcDbSpline
70
1064
71
3
72
8
73
4
74
0
42
0.000000001
43
0.0000000001
44
0.0000000001
40
118
40
118
40
118
40
118
40
119
40
119
40
119
40
119
10
5.7452427104176422
20
7.9550665927430328
30
0
10
5.7223926737965485
20
7.8814853210416453
30
0
10
5.7471254754458547
20
7.8449727342360873
30
0
10
5.8248887149884956
20
7.8429924824999775
30
0
0
SPLINE
5
150
100
AcDbEntity
8
0
100
AcDbSpline
70
1064
71
3
72
8
73
4
74
0
42
0.000000001
43
0.0000000001
44
0.0000000001
40
119
40
119
40
119
40
119
40
120
40
120
40
120
40
120
10
5.8248887149884956
20
7.8429924824999775
30
0
10
5.8548987264495427
20
7.8422193705208105
30
0
10
5.8851242683060958
20
7.8474005771180328
30
0
10
5.9151620422861297
20
7.8506964755555328
30
0
0
SPLINE
5
151
100
AcDbEntity
8
0
100
AcDbSpline
70
1064
71
3
72
8
73
4
74
0
42
0.000000001
43
0.0000000001
44
0.0000000001
40
120
40
120
40
120
40
120
40
121
40
121
40
121
40
121
10
5.9151620422861297
20
7.8506964755555328
30
0
10
5.9932404182084404
20
7.8592278340624784
30
0
10
6.0712692030662971
20
7.8682339104513668
30
0
10
6.1493179091209837
20
7.8770500996874775
30
0
0
LINE
5
152
100
AcDbEntity
8
0
100
AcDbLine
10
6.1493179091209837
20
7.8770500996874775
30
0
11
6.1646366737016036
21
7.8560540059374775
31
0
0
SPLINE
5
153
100
AcDbEntity
8
0
100
AcDbSpline
70
1064
71
3
72
11
73
7
74
0
42
0.000000001
43
0.0000000001
44
0.0000000001
40
122
40
122
40
122
40
122
40
123
40
123
40
123
40
124
40
124
40
124
40
124
10
6.1646366737016036
20
7.8560540059374775
30
0
10
6.1458721778519951
20
7.8266350606249766
30
0
10
6.1325894831824339
20
7.7910056841356337
30
0
10
6.1074363478416851
20
7.7688415493402552
30
0
10
5.9646196835742185
20
7.6429960929003791
30
0
10
5.8484313310909268
20
7.5003682420485873
30
0
10
5.786015042503144
20
7.3166795484721998
30
0
0
SPLINE
5
154
100
AcDbEntity
8
0
100
AcDbSpline
70
1064
71
3
72
8
73
4
74
0
42
0.000000001
43
0.0000000001
44
0.0000000001
40
124
40
124
40
124
40
124
40
125
40
125
40
125
40
125
10
5.786015042503144
20
7.3166795484721998
30
0
10
5.7736164286793601
20
7.2802076517708105
30
0
10
5.7400727359845902
20
7.2448615146180328
30
0
10
5.7071186259449842
20
7.2224955206944221
30
0
0
SPLINE
5
155
100
AcDbEntity
8
0
100
AcDbSpline
70
1064
71
3
72
14
73
10
74
0
42
0.000000001
43
0.0000000001
44
0.0000000001
40
125
40
125
40
125
40
125
40
126
40
126
40
126
40
127
40
127
40
127
40
128
40
128
40
128
40
128
10
5.7071186259449842
20
7.2224955206944221
30
0
10
5.5957426053015391
20
7.1468661804166453
30
0
10
5.4766851032478918
20
7.082290624364088
30
0
10
5.3675024862151686
20
7.0038269009027552
30
0
10
5.2865726043201526
20
6.9456669112876916
30
0
10
5.3054979129922062
20
6.7273903185083963
30
0
10
5.3930416724809023
20
6.6887905510763668
30
0
10
5.5961991781390346
20
6.5992144063428562
30
0
10
5.8023057071759965
20
6.5163323262499766
30
0
10
6.0202336399152552
20
6.4253085632291453
30
0
0
LWPOLYLINE
5
156
100
AcDbEntity
8
0
100
AcDbPolyline
90
8
70
1
43
0.0
10
12.550945769192857
20
10.125282010252525
10
2.4530108993224782
20
10.125282010252525
42
0.4142135623730957
10
-0.046989100677520115
20
7.6252820102525245
10
-0.046989100677520462
20
2.5332227089384594
42
0.41421356237309581
10
2.4530108993224782
20
0.033222708938459584
10
12.550945769192857
20
0.033222708938459931
42
0.4142135623730957
10
15.050945769192857
20
2.533222708938458
10
15.050945769192857
20
7.6252820102525245
42
0.4142135623730957
0
LWPOLYLINE
5
157
100
AcDbEntity
8
0
100
AcDbPolyline
90
4
70
1
43
0.0
10
5.541786206222608
20
2.4424676349816044
10
1.0237864220083179
20
2.4424676349816044
10
1.0237864220083179
20
3.9424676349816044
10
5.541786206222608
20
3.9424676349816044
0
LWPOLYLINE
5
158
100
AcDbEntity
8
0
100
AcDbPolyline
90
4
70
1
43
0.0
10
13.974143447373613
20
2.473456989589327
10
9.4561436631593239
20
2.473456989589327
10
9.4561436631593239
20
3.973456989589327
10
13.974143447373613
20
3.973456989589327
0
LWPOLYLINE
5
159
100
AcDbEntity
8
0
100
AcDbPolyline
90
4
70
1
43
0.0
10
4.6255417547834377
20
6.3247796943807373
10
0.57404189992215571
20
6.3247796943807373
10
0.57404189992215571
20
7.8247796943807364
10
4.6255417547834377
20
7.8247796943807364
0
ARC
5
160
100
AcDbEntity
8
0
100
AcDbCircle
10
14.400361895902384
20
6.1596990723514278
30
0
40
0.3276078096032502
100
AcDbArc
50
68.99623999999946
51
68.99635880961722
0
ARC
5
161
100
AcDbEntity
8
0
100
AcDbCircle
10
11.704426697622823
20
6.1758852718324544
30
0
40
0.27850677820169079
100
AcDbArc
50
107.38801999999934
51
107.38836400490962
0
ARC
5
162
100
AcDbEntity
8
0
100
AcDbCircle
10
14.406024895988905
20
6.2058492684588593
30
0
40
0.28137082422246251
100
AcDbArc
50
114.84254669926311
51
114.84338999999919
0
ARC
5
163
100
AcDbEntity
8
0
100
AcDbCircle
10
13.529142638056101
20
7.0209199146769512
30
0
40
1.5548380722032666
100
AcDbArc
50
207.28429036449441
51
207.74796453115795
0
ARC
5
164
100
AcDbEntity
8
0
100
AcDbCircle
10
13.128139635084676
20
6.1953477663826995
30
0
40
0.28961580519134378
100
AcDbArc
50
0.22535482297651133
51
0.22556999999965452
0
LINE
5
165
100
AcDbEntity
8
0
100
AcDbLine
10
14.51778547153611
20
6.4655398492246734
30
0
11
14.517787782754013
21
6.4655444716604791
31
0
0
ARC
5
166
100
AcDbEntity
8
0
100
AcDbCircle
10
11.702734306792376
20
6.1747787085971595
30
0
40
0.46740363166257315
100
AcDbArc
50
320.16491999999931
51
320.1658001377013
0
ARC
5
167
100
AcDbEntity
8
0
100
AcDbCircle
10
11.70314655584081
20
6.171545808164618
30
0
40
0.28258587404945545
100
AcDbArc
50
72.930288928698715
51
72.931189999999987
0
ARC
5
168
100
AcDbEntity
8
0
100
AcDbCircle
10
11.710436854802779
20
6.1737155399985388
30
0
40
0.27527387776915058
100
AcDbArc
50
321.1961000000004
51
321.19766359129324
0
LINE
5
169
100
AcDbEntity
8
0
100
AcDbLine
10
11.92495824122223
20
6.0012218592020705
30
0
11
11.924961204617736
21
6.0012191309966845
31
0
0
LINE
5
170
100
AcDbEntity
8
0
100
AcDbLine
10
11.621195784473739
20
6.4416774214873893
30
0
11
11.621195784473738
21
6.4416645799071333
31
0
0
ARC
5
171
100
AcDbEntity
8
0
100
AcDbCircle
10
13.12803114849298
20
6.1954345556560533
30
0
40
0.13339511314925859
100
AcDbArc
50
179.54800355759514
51
179.55064000000056
0
ARC
5
172
100
AcDbEntity
8
0
100
AcDbCircle
10
11.698047686031101
20
6.1729995284933459
30
0
40
0.45655497249297944
100
AcDbArc
50
220.32573133293175
51
220.32605000000024
0
ARC
5
173
100
AcDbEntity
8
0
100
AcDbCircle
10
11.704296513712787
20
6.1742145783203419
30
0
40
0.2783765942916534
100
AcDbArc
50
217.85435000293305
51
217.85619000000003
0
ARC
5
174
100
AcDbEntity
8
0
100
AcDbCircle
10
13.128139635084676
20
6.1976259848083153
30
0
40
0.28961580519135205
100
AcDbArc
50
359.77442999999874
51
359.77464517657063
0
ARC
5
175
100
AcDbEntity
8
0
100
AcDbCircle
10
13.12803114849298
20
6.1975391955349561
30
0
40
0.1333951131492668
100
AcDbArc
50
180.44936000000024
51
180.4519964429266
0
ARC
5
176
100
AcDbEntity
8
0
100
AcDbCircle
10
10.812536729972575
20
6.3273325538399181
30
0
40
0.0052073564014007154
100
AcDbArc
50
-73.072490000024999
51
45.000000000013813
0
ARC
5
177
100
AcDbEntity
8
0
100
AcDbCircle
10
10.72943600073352
20
6.0253926718319164
30
0
40
0.0049903832180121614
100
AcDbArc
50
209.66802999992609
51
330.33197000004361
0
ARC
5
178
100
AcDbEntity
8
0
100
AcDbCircle
10
10.398551896061052
20
6.0261737752921274
30
0
40
0.0045998314879057258
100
AcDbArc
50
225.00000000001563
51
315.00000000003126
0
ARC
5
179
100
AcDbEntity
8
0
100
AcDbCircle
10
10.535245001597877
20
6.2746080702757165
30
0
40
0.0054243295847941917
100
AcDbArc
50
-126.86990000003949
51
0
0
ARC
5
180
100
AcDbEntity
8
0
100
AcDbCircle
10
10.575884078847157
20
6.5003686675948655
30
0
40
0.0026687701557183132
100
AcDbArc
50
50.844540000013694
51
182.28556000001723
0
ARC
5
181
100
AcDbEntity
8
0
100
AcDbCircle
10
10.512831671753505
20
6.2163724678533629
30
0
40
0.0087006246540087401
100
AcDbArc
50
-16.927510000006606
51
44.999999999995879
0
ARC
5
182
100
AcDbEntity
8
0
100
AcDbCircle
10
10.564536381355767
20
6.1831755707944156
30
0
40
0.0049903832180100693
100
AcDbArc
50
29.668030000018394
51
150.33196999999171
0
ARC
5
183
100
AcDbEntity
8
0
100
AcDbCircle
10
10.308876879365229
20
6.302814584116649
30
0
40
0.0047083180796036253
100
AcDbArc
50
67.380139999980528
51
180
0
LINE
5
184
100
AcDbEntity
8
0
100
AcDbLine
10
10.978956333945691
20
5.6171769799753761
30
0
11
10.978955161634071
21
5.6171793245986175
31
0
0
ARC
5
185
100
AcDbEntity
8
0
100
AcDbCircle
10
10.963398184384875
20
5.662005984287358
30
0
40
0.047452035207780338
100
AcDbArc
50
289.12549000000371
51
289.13960894554924
0
ARC
5
186
100
AcDbEntity
8
0
100
AcDbCircle
10
10.707196249435862
20
6.0142402502055807
30
0
40
0.0070516284602315559
100
AcDbArc
50
-67.380139999996572
51
0
0
ARC
5
187
100
AcDbEntity
8
0
100
AcDbCircle
10
10.315017220455221
20
6.3272240672482223
30
0
40
0.0027121647924015714
100
AcDbArc
50
143.13010000002808
51
270
0
ARC
5
188
100
AcDbEntity
8
0
100
AcDbCircle
10
10.416994616649351
20
6.0123308861917364
30
0
40
0.0046215288062457643
100
AcDbArc
50
118.07249000002486
51
270
0
ARC
5
189
100
AcDbEntity
8
0
100
AcDbCircle
10
10.820564737758064
20
6.302814584116649
30
0
40
0.0043394636678418391
100
AcDbArc
50
0
51
90
0
ARC
5
190
100
AcDbEntity
8
0
100
AcDbCircle
10
10.592091975646522
20
6.2730892579919759
30
0
40
0.003992306574412915
100
AcDbArc
50
157.6198600000304
51
314.99999999995492
0
LINE
5
191
100
AcDbEntity
8
0
100
AcDbLine
10
11.349979305234013
20
5.8775471446687533
30
0
11
11.349980318840633
21
5.8775480928813977
31
0
0
LINE
5
192
100
AcDbEntity
8
0
100
AcDbLine
10
11.4844977982023
20
6.0033870251874824
30
0
11
11.484502678936915
21
6.0033915910359932
31
0
0
LWPOLYLINE
5
193
100
AcDbEntity
8
0
100
AcDbPolyline
90
8
70
1
43
0.0
10
11.14129266428454
20
6.153543312686959
42
-2.4671245294065489
10
13.741717530739592
20
6.0299352115953502
10
13.297024200891054
20
6.6636497673030659
42
0.54003765468286469
10
12.894533356531522
20
8.4645700370911641
10
12.894533356531522
20
6.3061507739143625
10
12.069964712900482
20
6.2970136156758851
10
12.069964712900482
20
8.4460592221568778
42
0.50712827348575074
10
11.669892941650621
20
6.7111944127881911
0
LINE
5
194
100
AcDbEntity
8
0
100
AcDbLine
10
12.06165416557428
20
5.8753748177351
30
0
11
12.069964712900482
21
5.8753748177351
31
0
0
ARC
5
195
100
AcDbEntity
8
0
100
AcDbCircle
10
12.505218718975543
20
7.4321245938658231
30
0
40
1.8695091268153661
100
AcDbArc
50
-48.593043925964629
51
223.15016740970148
0
ENDSEC
0
SECTION
2
OBJECTS
0
DICTIONARY
5
C
100
AcDbDictionary
3
ACAD_GROUP
350
D
3
ACAD_MLINESTYLE
350
17
0
DICTIONARY
5
D
100
AcDbDictionary
0
DICTIONARY
5
1A
330
C
100
AcDbDictionary
0
DICTIONARY
5
17
100
AcDbDictionary
0
ENDSEC
0
EOF
