0
SECTION
2
HEADER
9
$INSUNITS
70
1
9
$ACADVER
1
AC1014
9
$HANDSEED
5
FFFF
0
ENDSEC
0
SECTION
2
TABLES
0
TABLE
2
VPORT
5
8
100
AcDbSymbolTable
0
ENDTAB
0
TABLE
2
LTYPE
5
5
100
AcDbSymbolTable
0
LTYPE
5
14
100
AcDbSymbolTableRecord
100
AcDbLinetypeTableRecord
2
BYBLOCK
70
0
0
LTYPE
5
15
100
AcDbSymbolTableRecord
100
AcDbLinetypeTableRecord
2
BYLAYER
70
0
0
ENDTAB
0
TABLE
2
LAYER
5
2
100
AcDbSymbolTable
70
2
0
LAYER
5
50
100
AcDbSymbolTableRecord
100
AcDbLayerTableRecord
2
0
70
0
6
CONTINUOUS
0
ENDTAB
0
TABLE
2
STYLE
5
3
100
AcDbSymbolTable
70
1
0
STYLE
5
11
100
AcDbSymbolTableRecord
100
AcDbTextStyleTableRecord
2
STANDARD
70
0
0
ENDTAB
0
TABLE
2
VIEW
5
6
100
AcDbSymbolTable
70
0
0
ENDTAB
0
TABLE
2
UCS
5
7
100
AcDbSymbolTable
70
0
0
ENDTAB
0
TABLE
2
APPID
5
9
100
AcDbSymbolTable
70
2
0
APPID
5
12
100
AcDbSymbolTableRecord
100
AcDbRegAppTableRecord
2
ACAD
70
0
0
ENDTAB
0
TABLE
2
DIMSTYLE
5
A
100
AcDbSymbolTable
70
1
0
ENDTAB
0
TABLE
2
BLOCK_RECORD
5
1
100
AcDbSymbolTable
70
1
0
BLOCK_RECORD
5
1F
100
AcDbSymbolTableRecord
100
AcDbBlockTableRecord
2
*MODEL_SPACE
0
BLOCK_RECORD
5
1B
100
AcDbSymbolTableRecord
100
AcDbBlockTableRecord
2
*PAPER_SPACE
0
ENDTAB
0
ENDSEC
0
SECTION
2
BLOCKS
0
BLOCK
5
20
100
AcDbEntity
100
AcDbBlockBegin
2
*MODEL_SPACE
0
ENDBLK
5
21
100
AcDbEntity
100
AcDbBlockEnd
0
BLOCK
5
1C
100
AcDbEntity
100
AcDbBlockBegin
2
*PAPER_SPACE
0
ENDBLK
5
1D
100
AcDbEntity
100
AcDbBlockEnd
0
ENDSEC
0
SECTION
2
ENTITIES
0
LWPOLYLINE
5
100
100
AcDbEntity
8
0
100
AcDbPolyline
90
8
70
1
43
0.0
10
11.635505686864844
20
0
10
0.49999999999999994
20
8.7419135797256413e-17
42
-0.41421356237309614
10
8.7419135797256413e-17
20
0.50000000000000044
10
3.4967654318902565e-16
20
5.5
42
-0.41421356237309503
10
0.49999999999999978
20
6
10
11.635505686864848
20
6
42
-0.41421356237309342
10
12.135505686864844
20
5.5
10
12.135505686864844
20
0.49999999999999972
42
-0.41421356237309498
0
LINE
5
101
100
AcDbEntity
8
0
100
AcDbLine
10
5.2745858634926188
20
3.650721732853869
30
0
11
4.8766854830051019
21
3.650721732853869
31
0
0
LINE
5
102
100
AcDbEntity
8
0
100
AcDbLine
10
4.8766854830051019
20
3.650721732853869
30
0
11
4.8766854830051019
21
5.1502823255352732
31
0
0
SPLINE
5
103
100
AcDbEntity
8
0
100
AcDbSpline
70
1064
71
3
72
9
73
5
74
0
42
0.000000001
43
0.0000000001
44
0.0000000001
40
0
40
0
40
0
40
0
40
0.75296657004515188
40
1.5228798482617312
40
1.5228798482617312
40
1.5228798482617312
40
1.5228798482617312
10
4.8766854830051019
20
5.1502823255352732
30
0
10
4.8002140489954996
20
5.0865625038729583
30
0
10
4.6455500699374168
20
4.9576887447915263
30
0
10
4.4576614898274229
20
4.8852788396153279
30
0
10
4.3626717814685776
20
4.8486709959084235
30
0
0
LINE
5
104
100
AcDbEntity
8
0
100
AcDbLine
10
4.3626717814685776
20
4.8486709959084235
30
0
11
4.3626717814685776
21
5.2097549953019167
31
0
0
SPLINE
5
105
100
AcDbEntity
8
0
100
AcDbSpline
70
1064
71
3
72
9
73
5
74
0
42
0.000000001
43
0.0000000001
44
0.0000000001
40
0
40
0
40
0
40
0
40
0.45330404846312217
40
0.99349129820517468
40
0.99349129820517468
40
0.99349129820517468
40
0.99349129820517468
10
4.3626717814685776
20
5.2097549953019167
30
0
10
4.4179633439401167
20
5.2323468520952945
30
0
10
4.5391440092482727
20
5.2818606678457067
30
0
10
4.6440560912757336
20
5.3603592793779686
30
0
10
4.7010995391222421
20
5.4030410312451362
30
0
0
SPLINE
5
106
100
AcDbEntity
8
0
100
AcDbSpline
70
1064
71
3
72
9
73
5
74
0
42
0.000000001
43
0.0000000001
44
0.0000000001
40
0
40
0
40
0
40
0
40
0.55347200021172149
40
1.0676802120237903
40
1.0676802120237903
40
1.0676802120237903
40
1.0676802120237903
10
4.7010995391222421
20
5.4030410312451362
30
0
10
4.756747342094461
20
5.4512078540995939
30
0
10
4.8640952441623337
20
5.5441245032129869
30
0
10
4.9232463420905237
20
5.6730193468317553
30
0
10
4.9517342544352898
20
5.7350967238427728
30
0
0
LINE
5
107
100
AcDbEntity
8
0
100
AcDbLine
10
4.9517342544352898
20
5.7350967238427728
30
0
11
5.2745858634926188
21
5.7350967238427728
31
0
0
LINE
5
108
100
AcDbEntity
8
0
100
AcDbLine
10
5.2745858634926188
20
5.7350967238427728
30
0
11
5.2745858634926188
21
3.650721732853869
31
0
0
LINE
5
109
100
AcDbEntity
8
0
100
AcDbLine
10
7.2145272547241248
20
4.0203018815657865
30
0
11
7.2145272547241248
21
3.650721732853869
31
0
0
LINE
5
110
100
AcDbEntity
8
0
100
AcDbLine
10
7.2145272547241248
20
3.650721732853869
30
0
11
5.8197519091546042
21
3.650721732853869
31
0
0
SPLINE
5
111
100
AcDbEntity
8
0
100
AcDbSpline
70
1064
71
3
72
9
73
5
74
0
42
0.000000001
43
0.0000000001
44
0.0000000001
40
0
40
0
40
0
40
0
40
0.53099450499054746
40
1.0728193211849284
40
1.0728193211849284
40
1.0728193211849284
40
1.0728193211849284
10
5.8197519091546051
20
3.650721732853869
30
0
10
5.8312675813347514
20
3.719973108323877
30
0
10
5.8545338025388931
20
3.8598883295259858
30
0
10
5.9217446718203606
20
3.984818466951273
30
0
10
5.9556893595935776
20
4.0479141321867109
30
0
0
SPLINE
5
112
100
AcDbEntity
8
0
100
AcDbSpline
70
1064
71
3
72
9
73
5
74
0
42
0.000000001
43
0.0000000001
44
0.0000000001
40
0
40
0
40
0
40
0
40
0.70034210306382938
40
1.7033316786360508
40
1.7033316786360508
40
1.7033316786360508
40
1.7033316786360508
10
5.9556893595935776
20
4.0479141321867109
30
0
10
6.0100574420553716
20
4.1222442288487935
30
0
10
6.142288357144924
20
4.3030256037892993
30
0
10
6.3064722977006822
20
4.4557270228131731
30
0
10
6.4031503451527554
20
4.5456437039722255
30
0
0
SPLINE
5
113
100
AcDbEntity
8
0
100
AcDbSpline
70
1064
71
3
72
9
73
5
74
0
42
0.000000001
43
0.0000000001
44
0.0000000001
40
0
40
0
40
0
40
0
40
0.76751686459863089
40
1.2040700199376422
40
1.2040700199376422
40
1.2040700199376422
40
1.2040700199376422
10
6.4031503451527554
20
4.5456437039722255
30
0
10
6.4774467427739344
20
4.6138757702630047
30
0
10
6.594001921026349
20
4.7209173079914137
30
0
10
6.6960742390353385
20
4.8416969884029184
30
0
10
6.7330820473535766
20
4.8854874239352384
30
0
0
SPLINE
5
114
100
AcDbEntity
8
0
100
AcDbSpline
70
1064
71
3
72
9
73
5
74
0
42
0.000000001
43
0.0000000001
44
0.0000000001
40
0
40
0
40
0
40
0
40
0.34823778390819787
40
0.66014473841389387
40
0.66014473841389387
40
0.66014473841389387
40
0.66014473841389387
10
6.7330820473535766
20
4.8854874239352384
30
0
10
6.7570144526205889
20
4.9252004933984024
30
0
10
6.8023824515703275
20
5.0004834611400204
30
0
10
6.8110946770780556
20
5.0877908276726878
30
0
10
6.8152110527256315
20
5.129042046104793
30
0
0
SPLINE
5
115
100
AcDbEntity
8
0
100
AcDbSpline
70
1064
71
3
72
9
73
5
74
0
42
0.000000001
43
0.0000000001
44
0.0000000001
40
0
40
0
40
0
40
0
40
0.30240244940871247
40
0.56179829837764483
40
0.56179829837764483
40
0.56179829837764483
40
0.56179829837764483
10
6.8152110527256315
20
5.129042046104793
30
0
10
6.8132573133874921
20
5.1697477707641921
30
0
10
6.8096276885686864
20
5.2453701967484845
30
0
10
6.7645263685592329
20
5.3057688336568223
30
0
10
6.7437019993376524
20
5.3336563437163003
30
0
0
SPLINE
5
116
100
AcDbEntity
8
0
100
AcDbSpline
70
1064
71
3
72
9
73
5
74
0
42
0.000000001
43
0.0000000001
44
0.0000000001
40
0
40
0
40
0
40
0
40
0.25558031161492134
40
0.54465520092240827
40
0.54465520092240827
40
0.54465520092240827
40
0.54465520092240827
10
6.7437019993376524
20
5.3336563437163003
30
0
10
6.7164359827424418
20
5.3544918428747801
30
0
10
6.6583306550934465
20
5.3988933967690347
30
0
10
6.5850575001926712
20
5.4029906164736534
30
0
10
6.546167888735221
20
5.4051652093731155
30
0
0
SPLINE
5
117
100
AcDbEntity
8
0
100
AcDbSpline
70
1064
71
3
72
9
73
5
74
0
42
0.000000001
43
0.0000000001
44
0.0000000001
40
0
40
0
40
0
40
0
40
0.28810648591201632
40
0.54997512197426834
40
0.54997512197426834
40
0.54997512197426834
40
0.54997512197426834
10
6.546167888735221
20
5.4051652093731155
30
0
10
6.5074097368550161
20
5.4026797439566234
30
0
10
6.4334231369340324
20
5.3979351643916376
30
0
10
6.3755037565842256
20
5.3519919771500675
30
0
10
6.3479256561797408
20
5.3301162971445537
30
0
0
SPLINE
5
118
100
AcDbEntity
8
0
100
AcDbSpline
70
1064
71
3
72
9
73
5
74
0
42
0.000000001
43
0.0000000001
44
0.0000000001
40
0
40
0
40
0
40
0
40
0.29332773672592738
40
0.67888181082028187
40
0.67888181082028187
40
0.67888181082028187
40
0.67888181082028187
10
6.3479256561797408
20
5.3301162971445537
30
0
10
6.3258667276643843
20
5.2978355436353244
30
0
10
6.2748132354088799
20
5.2231245168446163
30
0
10
6.2672565473439219
20
5.1324142109022723
30
0
10
6.2629649139201531
20
5.0808975441408553
30
0
0
LINE
5
119
100
AcDbEntity
8
0
100
AcDbLine
10
6.2629649139201531
20
5.0808975441408553
30
0
11
5.8664804488091944
21
5.1205459906519506
31
0
0
SPLINE
5
120
100
AcDbEntity
8
0
100
AcDbSpline
70
1064
71
3
72
9
73
5
74
0
42
0.000000001
43
0.0000000001
44
0.0000000001
40
0
40
0
40
0
40
0
40
0.74041509793387195
40
1.3525548899988031
40
1.3525548899988031
40
1.3525548899988031
40
1.3525548899988031
10
5.8664804488091944
20
5.1205459906519506
30
0
10
5.8811455276047564
20
5.219434207573836
30
0
10
5.9079349921801114
20
5.4000784728436706
30
0
10
6.0324443804485224
20
5.5322575325573249
30
0
10
6.0887948854138516
20
5.5920791802603071
30
0
0
SPLINE
5
121
100
AcDbEntity
8
0
100
AcDbSpline
70
1064
71
3
72
9
73
5
74
0
42
0.000000001
43
0.0000000001
44
0.0000000001
40
0
40
0
40
0
40
0
40
0.59958163946950849
40
1.2586661614413157
40
1.2586661614413157
40
1.2586661614413157
40
1.2586661614413157
10
6.0887948854138516
20
5.5920791802603071
30
0
10
6.157019825760667
20
5.6337671971894858
30
0
10
6.3002403951177701
20
5.7212803777011096
30
0
10
6.4681541780767686
20
5.7303483798734893
30
0
10
6.5560800942285766
20
5.7350967238427728
30
0
0
SPLINE
5
122
100
AcDbEntity
8
0
100
AcDbSpline
70
1064
71
3
72
9
73
5
74
0
42
0.000000001
43
0.0000000001
44
0.0000000001
40
0
40
0
40
0
40
0
40
0.7047528699388631
40
1.3212726015728908
40
1.3212726015728908
40
1.3212726015728908
40
1.3212726015728908
10
6.5560800942285766
20
5.7350967238427728
30
0
10
6.6507317708075542
20
5.7302354903853168
30
0
10
6.8281849920588389
20
5.7211216366485553
30
0
10
6.9718880126842482
20
5.6176868123517867
30
0
10
7.0389413577740561
20
5.5694230323860605
30
0
0
SPLINE
5
123
100
AcDbEntity
8
0
100
AcDbSpline
70
1064
71
3
72
9
73
5
74
0
42
0.000000001
43
0.0000000001
44
0.0000000001
40
0
40
0
40
0
40
0
40
0.57855774188031883
40
1.1638456257377761
40
1.1638456257377761
40
1.1638456257377761
40
1.1638456257377761
10
7.0389413577740561
20
5.5694230323860605
30
0
10
7.0901534479510397
20
5.5106004265279642
30
0
10
7.1931733590556091
20
5.392270953829275
30
0
10
7.2073819017025418
20
5.2359665496293601
30
0
10
7.2145272547241248
20
5.1573624186787663
30
0
0
SPLINE
5
124
100
AcDbEntity
8
0
100
AcDbSpline
70
1064
71
3
72
9
73
5
74
0
42
0.000000001
43
0.0000000001
44
0.0000000001
40
0
40
0
40
0
40
0
40
0.34899203437965831
40
0.69303295966297207
40
0.69303295966297207
40
0.69303295966297207
40
0.69303295966297207
10
7.2145272547241248
20
5.1573624186787663
30
0
10
7.2124932380336295
20
5.1113475420206242
30
0
10
7.2084540610090766
20
5.0199705963673988
30
0
10
7.1789202601716706
20
4.933413028179098
30
0
10
7.1642588562289538
20
4.8904434328163342
30
0
0
SPLINE
5
125
100
AcDbEntity
8
0
100
AcDbSpline
70
1064
71
3
72
9
73
5
74
0
42
0.000000001
43
0.0000000001
44
0.0000000001
40
0
40
0
40
0
40
0
40
0.36854409547871514
40
0.78846158531806121
40
0.78846158531806121
40
0.78846158531806121
40
0.78846158531806121
10
7.1642588562289538
20
4.8904434328163342
30
0
10
7.1439953860238719
20
4.8463708720073324
30
0
10
7.1006438087283756
20
4.7520822330336028
30
0
10
7.0382085884630552
20
4.6691229216947088
30
0
10
7.0049569482315217
20
4.6249405969944171
30
0
0
SPLINE
5
126
100
AcDbEntity
8
0
100
AcDbSpline
70
1064
71
3
72
9
73
5
74
0
42
0.000000001
43
0.0000000001
44
0.0000000001
40
0
40
0
40
0
40
0
40
0.38389901957051831
40
0.94417741337660832
40
0.94417741337660832
40
0.94417741337660832
40
0.94417741337660832
10
7.0049569482315217
20
4.6249405969944171
30
0
10
6.9717445145437953
20
4.5870140254117198
30
0
10
6.8900604566727885
20
4.4937358183059679
30
0
10
6.7986521505850073
20
4.4098962899350509
30
0
10
6.7444101212907004
20
4.3601456015288003
30
0
0
SPLINE
5
127
100
AcDbEntity
8
0
100
AcDbSpline
70
1064
71
3
72
9
73
5
74
0
42
0.000000001
43
0.0000000001
44
0.0000000001
40
0
40
0
40
0
40
0
40
0.53470454143078405
40
0.84085089783396172
40
0.84085089783396172
40
0.84085089783396172
40
0.84085089783396172
10
6.7444101212907004
20
4.3601456015288003
30
0
10
6.6925309382729949
20
4.312862418504964
30
0
10
6.6109482056808906
20
4.2385071366297531
30
0
10
6.5338736649077429
20
4.159512366990409
30
0
10
6.5058115080022416
20
4.1307510717806499
30
0
0
SPLINE
5
128
100
AcDbEntity
8
0
100
AcDbSpline
70
1064
71
3
72
9
73
5
74
0
42
0.000000001
43
0.0000000001
44
0.0000000001
40
0
40
0
40
0
40
0
40
0.18312244842201625
40
0.34896557025190977
40
0.34896557025190977
40
0.34896557025190977
40
0.34896557025190977
10
6.5058115080022416
20
4.1307510717806499
30
0
10
6.4901398089408842
20
4.1124797979828429
30
0
10
6.4602751831296397
20
4.077661317042776
30
0
10
6.4359506609741466
20
4.038779945344074
30
0
10
6.4243906245832347
20
4.0203018815657865
30
0
0
LINE
5
129
100
AcDbEntity
8
0
100
AcDbLine
10
6.4243906245832347
20
4.0203018815657865
30
0
11
7.2145272547241248
21
4.0203018815657865
31
0
0
LWPOLYLINE
5
130
100
AcDbEntity
8
0
100
AcDbPolyline
90
4
70
1
43
0.0
10
2.6893052578660006
20
2.8258237058511009
10
2.3293051243515963
20
1.7968237614795994
10
2.6413052150332574
20
0.91782383362844078
10
3.3433052548022273
20
2.8258237058511009
0
LWPOLYLINE
5
131
100
AcDbEntity
8
0
100
AcDbPolyline
90
5
70
1
43
0.0
10
1.6933052138768341
20
2.8258237058511009
10
1.039305207957377
20
2.8258237058511009
10
1.8913051324315455
20
0.49782378737148181
10
2.4853051227596357
20
0.49782378737148181
10
2.5003051244116703
20
0.5398239421821095
0
LWPOLYLINE
5
132
100
AcDbEntity
8
0
100
AcDbPolyline
90
8
70
1
43
0.0
10
4.5373049357493587
20
2.8258238935822653
10
3.9553050969278272
20
2.8258238935822653
10
4.4113050345109697
20
1.2958239128059368
10
4.1983048796402676
20
1.2958239128059368
10
4.0543051266043699
20
0.80682384017650377
10
4.5433051992338029
20
0.80682384017650377
10
4.6303050774037864
20
0.50382386312476135
10
5.3143050776440814
20
0.50382386312476135
0
LWPOLYLINE
5
133
100
AcDbEntity
8
0
100
AcDbPolyline
90
4
70
1
43
0.0
10
3.0493051097836572
20
0.50382386312476135
10
3.6973050309666053
20
0.50382386312476135
10
4.0363050870756956
20
1.6618240282080383
10
3.7513051495526271
20
2.6098239824316711
0
LWPOLYLINE
5
134
100
AcDbEntity
8
0
100
AcDbPolyline
90
4
70
1
43
0.0
10
7.0813051408419012
20
1.0168238633049833
10
6.3463053414889696
20
1.0168238633049833
10
6.3463053414889696
20
0.50382386312476135
10
7.0813051408419012
20
0.50382386312476135
0
LWPOLYLINE
5
135
100
AcDbEntity
8
0
100
AcDbPolyline
90
4
70
1
43
0.0
10
5.4283052028382413
20
2.8258238935822653
10
5.4283052028382413
20
0.50382386312476135
10
6.082305012043304
20
0.50382386312476135
10
6.082305012043304
20
2.8258238935822653
0
LWPOLYLINE
5
136
100
AcDbEntity
8
0
100
AcDbPolyline
90
4
70
1
43
0.0
10
8.4733054443356099
20
2.8258237058511009
10
8.1133046537621301
20
1.7968237614795994
10
8.4253048383093745
20
0.91782383362844078
10
9.1273052535406727
20
2.8258237058511009
0
LWPOLYLINE
5
137
100
AcDbEntity
8
0
100
AcDbPolyline
90
5
70
1
43
0.0
10
7.4773052595480713
20
2.8258237058511009
10
6.8233050748806789
20
2.8258237058511009
10
7.675305318901156
20
0.49782378737148181
10
8.2693047460357523
20
0.49782378737148181
10
8.2843052170156977
20
0.5398239421821095
0
LWPOLYLINE
5
138
100
AcDbEntity
8
0
100
AcDbPolyline
90
4
70
1
43
0.0
10
11.128305455148926
20
1.0018239555185313
10
10.162305461396619
20
1.0018239555185313
10
10.162305461396619
20
0.50382386312476135
10
11.128305455148926
20
0.50382386312476135
0
LWPOLYLINE
5
139
100
AcDbEntity
8
0
100
AcDbPolyline
90
4
70
1
43
0.0
10
10.822305158623797
20
1.9348238142245475
10
10.162305461396619
20
1.9348238142245475
10
10.162305461396619
20
1.4368239095619422
10
10.822305158623797
20
1.4368239095619422
0
LWPOLYLINE
5
140
100
AcDbEntity
8
0
100
AcDbPolyline
90
4
70
1
43
0.0
10
11.110305040157922
20
2.8258238935822653
10
10.162305461396619
20
2.8258238935822653
10
10.162305461396619
20
2.3278239889196599
10
11.110305040157922
20
2.3278239889196599
0
LWPOLYLINE
5
141
100
AcDbEntity
8
0
100
AcDbPolyline
90
4
70
1
43
0.0
10
9.2443053227458893
20
2.8258238935822653
10
9.2443053227458893
20
0.50382386312476135
10
9.8983051319509521
20
0.50382386312476135
10
9.8983051319509521
20
2.8258238935822653
0
CIRCLE
5
142
100
AcDbEntity
8
0
100
AcDbCircle
10
0.50000000000000011
20
5.5
30
0
40
0.12499999999999997
0
CIRCLE
5
143
100
AcDbEntity
8
0
100
AcDbCircle
10
11.635505686864844
20
5.5
30
0
40
0.12500000000000056
0
CIRCLE
5
144
100
AcDbEntity
8
0
100
AcDbCircle
10
0.49999999999999928
20
0.49999999999999928
30
0
40
0.12500000000000003
0
CIRCLE
5
145
100
AcDbEntity
8
0
100
AcDbCircle
10
11.635505686864844
20
0.49999999999999978
30
0
40
0.12499999999999999
0
ENDSEC
0
SECTION
2
OBJECTS
0
DICTIONARY
5
C
100
AcDbDictionary
3
ACAD_GROUP
350
D
3
ACAD_MLINESTYLE
350
17
0
DICTIONARY
5
D
100
AcDbDictionary
0
DICTIONARY
5
1A
330
C
100
AcDbDictionary
0
DICTIONARY
5
17
100
AcDbDictionary
0
ENDSEC
0
EOF
